999
  
  0
SECTION
  2
HEADER
  9
$EXTMIN
 10
0
 20
0
  9
$EXTMAX
 10
1260
 20
888
  9
$LTSCALE
 40
3.00
  9
$PDMODE
 70
33
  9
$PDSIZE
 40
1.80
  0
ENDSEC
  0
SECTION
  2
TABLES
  0
TABLE
  2
LTYPE
 70
9
  0
LTYPE
  2
CONTINUOUS
 70
64
  3
実線
 72
65
 73
0
 40
0.00
  0
LTYPE
  2
DASHED
 70
64
  3
__  __  __  __  __  __  __ 
 72
65
 73
2
 40
1.00
 49
0.50
 49
-0.50
  0
LTYPE
  2
HIDDEN1
 70
64
  3
____    ____    ____    ___
 72
65
 73
2
 40
2.20
 49
1.20
 49
-1.00
  0
LTYPE
  2
HIDDEN2
 70
64
  3
______  ______  ______  ___
 72
65
 73
2
 40
4.50
 49
3.50
 49
-1.00
  0
LTYPE
  2
CENTER1
 70
64
  3
_______ _ _______ _ _______
 72
65
 73
4
 40
20.00
 49
17.00
 49
-1.00
 49
1.00
 49
-1.00
  0
LTYPE
  2
CENTER2
 70
64
  3
___________  __  __________
 72
65
 73
4
 40
40.00
 49
34.00
 49
-2.00
 49
2.00
 49
-2.00
  0
LTYPE
  2
PHANTOM1
 70
64
  3
______ _ _ ______ _ _ _____
 72
65
 73
6
 40
20.00
 49
15.00
 49
-1.00
 49
1.00
 49
-1.00
 49
1.00
 49
-1.00
  0
LTYPE
  2
PHANTOM2
 70
64
  3
__________  _  _  _________
 72
65
 73
6
 40
40.00
 49
30.00
 49
-2.00
 49
2.00
 49
-2.00
 49
2.00
 49
-2.00
  0
LTYPE
  2
DOT
 70
64
  3
 .  .  .  .  .  .  .  .  . 
 72
65
 73
2
 40
1.00
 49
0.00
 49
-1.00
  0
ENDTAB
  0
TABLE
  2
STYLE
 70
1
  0
STYLE
  2
STANDARD
 70
64
 40
0.0
 41
1.0
 42
0.0
 50
0.0
 71
0
  3
ROMANS
  4
BIGFONT
  0
ENDTAB
  0
TABLE
  2
LAYER
 70
8
  0
LAYER
  2
0_00
 70
64
 62
7
  6
CONTINUOUS
  0
LAYER
  2
2_02
 70
64
 62
7
  6
CONTINUOUS
  0
LAYER
  2
3_03
 70
64
 62
7
  6
CONTINUOUS
  0
LAYER
  2
12_0C
 70
64
 62
7
  6
CONTINUOUS
  0
LAYER
  2
13_0D
 70
64
 62
7
  6
CONTINUOUS
  0
LAYER
  2
14_0E
 70
64
 62
7
  6
CONTINUOUS
  0
LAYER
  2
15_0F
 70
64
 62
7
  6
CONTINUOUS
  0
LAYER
  2
16_10
 70
64
 62
7
  6
CONTINUOUS
  0
ENDTAB
  0
ENDSEC
  0
SECTION
  2
ENTITIES
  0
LINE
  8
0_00
  6
CENTER1
 62
6
 10
225.2000
 20
673.4566
 11
225.2000
 21
359.6791
  0
LINE
  8
0_00
  6
CONTINUOUS
 62
4
 10
203.7000
 20
466.8066
 11
203.7000
 21
620.3066
  0
LINE
  8
0_00
  6
CONTINUOUS
 62
4
 10
246.7000
 20
466.8066
 11
246.7000
 21
620.3066
  0
LINE
  8
0_00
  6
CENTER1
 62
6
 10
616.5419
 20
729.9201
 11
616.5419
 21
689.0071
  0
LINE
  8
0_00
  6
CONTINUOUS
 62
2
 10
826.1018
 20
740.9033
 11
826.1018
 21
676.4073
  0
LINE
  8
0_00
  6
CONTINUOUS
 62
2
 10
826.1018
 20
740.9033
 11
810.3123
 21
740.9033
  0
LINE
  8
0_00
  6
CONTINUOUS
 62
2
 10
810.3123
 20
740.9033
 11
817.6484
 21
739.3439
  0
LINE
  8
0_00
  6
CONTINUOUS
 62
2
 10
810.3123
 20
740.9033
 11
817.6484
 21
742.4626
  0
LINE
  8
0_00
  6
CONTINUOUS
 62
2
 10
826.1018
 20
676.4073
 11
810.3123
 21
676.4073
  0
LINE
  8
0_00
  6
CONTINUOUS
 62
2
 10
810.3123
 20
676.4073
 11
817.6484
 21
674.8479
  0
LINE
  8
0_00
  6
CONTINUOUS
 62
2
 10
810.3123
 20
676.4073
 11
817.6484
 21
677.9666
  0
LINE
  8
0_00
  6
CONTINUOUS
 62
2
 10
773.5125
 20
693.6364
 11
886.4156
 21
693.6364
  0
LINE
  8
0_00
  6
CONTINUOUS
 62
2
 10
886.4156
 20
693.6364
 11
886.4156
 21
705.2478
  0
LINE
  8
0_00
  6
CONTINUOUS
 62
2
 10
886.4156
 20
705.2478
 11
1002.8443
 21
705.2478
  0
LINE
  8
0_00
  6
CONTINUOUS
 62
2
 10
1002.8443
 20
705.2478
 11
1002.8443
 21
669.8553
  0
LINE
  8
0_00
  6
CONTINUOUS
 62
2
 10
1002.8443
 20
669.8553
 11
1004.4036
 21
677.1914
  0
LINE
  8
0_00
  6
CONTINUOUS
 62
2
 10
1002.8443
 20
669.8553
 11
1001.2849
 21
677.1914
  0
LINE
  8
0_00
  6
CONTINUOUS
 62
2
 10
773.5125
 20
693.6364
 11
773.5125
 21
669.8553
  0
LINE
  8
0_00
  6
CONTINUOUS
 62
2
 10
773.5125
 20
669.8553
 11
775.0718
 21
677.1914
  0
LINE
  8
0_00
  6
CONTINUOUS
 62
2
 10
773.5125
 20
669.8553
 11
771.9532
 21
677.1914
  0
LINE
  8
0_00
  6
CENTER1
 62
6
 10
654.0419
 20
729.9201
 11
654.0419
 21
689.0071
  0
LINE
  8
0_00
  6
CENTER1
 62
6
 10
1119.0420
 20
729.9201
 11
1119.0420
 21
689.0071
  0
LINE
  8
0_00
  6
CENTER1
 62
6
 10
964.0420
 20
729.9201
 11
964.0420
 21
689.0071
  0
LINE
  8
0_00
  6
CENTER1
 62
6
 10
809.0420
 20
729.9201
 11
809.0420
 21
689.0071
  0
LINE
  8
0_00
  6
CENTER1
 62
6
 10
554.2717
 20
296.0623
 11
1141.3225
 21
296.0623
  0
LINE
  8
0_00
  6
CENTER1
 62
6
 10
668.5040
 20
393.4236
 11
668.5040
 21
196.5612
  0
LINE
  8
0_00
  6
CONTINUOUS
 62
2
 10
873.1285
 20
396.5777
 11
847.3913
 21
300.5252
  0
LINE
  8
0_00
  6
CONTINUOUS
 62
2
 10
868.4698
 20
396.5777
 11
841.8800
 21
297.3432
  0
LINE
  8
0_00
  6
CONTINUOUS
 62
2
 10
865.7682
 20
290.9424
 11
837.7908
 21
186.5296
  0
LINE
  8
0_00
  6
CONTINUOUS
 62
2
 10
842.4496
 20
186.5296
 11
871.2795
 21
294.1244
  0
LINE
  8
0_00
  6
CONTINUOUS
 62
2
 10
847.3913
 20
300.5252
 11
871.2795
 21
294.1244
  0
LINE
  8
0_00
  6
CONTINUOUS
 62
2
 10
865.7682
 20
290.9424
 11
841.8800
 21
297.3432
  0
LINE
  8
0_00
  6
CENTER1
 62
6
 10
1053.9841
 20
331.7816
 11
1053.9841
 21
259.7602
  0
LINE
  8
0_00
  6
CONTINUOUS
 62
4
 10
225.2000
 20
622.6066
 11
224.9000
 21
622.3066
  0
LINE
  8
0_00
  6
CONTINUOUS
 62
4
 10
237.5000
 20
622.3066
 11
225.5000
 21
622.3066
  0
LINE
  8
0_00
  6
CONTINUOUS
 62
4
 10
225.2000
 20
622.6066
 11
225.5000
 21
622.3066
  0
LINE
  8
14_0E
  6
CONTINUOUS
 62
4
 10
238.2762
 20
623.9162
 11
229.2000
 21
624.3066
  0
LINE
  8
0_00
  6
CONTINUOUS
 62
4
 10
225.2000
 20
622.6066
 11
225.5000
 21
622.3066
  0
LINE
  8
0_00
  6
CONTINUOUS
 62
4
 10
212.9000
 20
622.3066
 11
224.9000
 21
622.3066
  0
LINE
  8
0_00
  6
CONTINUOUS
 62
4
 10
225.2000
 20
622.6066
 11
224.9000
 21
622.3066
  0
LINE
  8
14_0E
  6
CONTINUOUS
 62
4
 10
212.1238
 20
623.9162
 11
221.2000
 21
624.3066
  0
LINE
  8
0_00
  6
CONTINUOUS
 62
4
 10
229.2000
 20
624.3066
 11
221.2000
 21
624.3066
  0
LINE
  8
0_00
  6
CONTINUOUS
 62
4
 10
237.5000
 20
622.3066
 11
237.9000
 21
620.8066
  0
LINE
  8
0_00
  6
CONTINUOUS
 62
4
 10
240.7000
 20
622.5066
 11
245.7000
 21
622.5066
  0
LINE
  8
0_00
  6
CONTINUOUS
 62
4
 10
237.9000
 20
620.8066
 11
252.6000
 21
620.8066
  0
LINE
  8
0_00
  6
CONTINUOUS
 62
4
 10
243.2000
 20
621.1066
 11
242.9000
 21
620.8066
  0
LINE
  8
0_00
  6
CONTINUOUS
 62
4
 10
243.2000
 20
621.1066
 11
243.5000
 21
620.8066
  0
LINE
  8
0_00
  6
CONTINUOUS
 62
4
 10
250.5278
 20
622.3066
 11
246.0000
 21
622.3066
  0
LINE
  8
0_00
  6
CONTINUOUS
 62
4
 10
245.7000
 20
622.5066
 11
246.0000
 21
622.3066
  0
LINE
  8
0_00
  6
CONTINUOUS
 62
4
 10
240.4000
 20
622.3066
 11
239.2123
 21
622.3066
  0
LINE
  8
0_00
  6
CONTINUOUS
 62
4
 10
240.7000
 20
622.5066
 11
240.4000
 21
622.3066
  0
LINE
  8
0_00
  6
CONTINUOUS
 62
4
 10
238.5543
 20
623.6892
 11
238.8243
 21
622.6096
  0
LINE
  8
0_00
  6
CONTINUOUS
 62
4
 10
252.6000
 20
620.8066
 11
253.6000
 21
621.8066
  0
LINE
  8
0_00
  6
CONTINUOUS
 62
4
 10
253.6000
 20
621.8066
 11
253.6000
 21
623.1066
  0
LINE
  8
0_00
  6
CONTINUOUS
 62
4
 10
253.6000
 20
622.3066
 11
253.6000
 21
621.8066
  0
LINE
  8
0_00
  6
CONTINUOUS
 62
4
 10
252.6195
 20
625.1845
 11
253.4761
 21
625.2595
  0
LINE
  8
0_00
  6
CONTINUOUS
 62
4
 10
251.5128
 20
626.1919
 11
252.3509
 21
626.2652
  0
LINE
  8
0_00
  6
CONTINUOUS
 62
4
 10
250.6000
 20
625.1957
 11
250.6000
 21
624.7628
  0
LINE
  8
0_00
  6
CONTINUOUS
 62
4
 10
253.7439
 20
625.6187
 11
252.6584
 21
630.9066
  0
LINE
  8
0_00
  6
CONTINUOUS
 62
4
 10
251.9122
 20
630.0658
 11
252.6186
 21
626.6244
  0
LINE
  8
0_00
  6
CONTINUOUS
 62
4
 10
252.5979
 20
630.9066
 11
252.6584
 21
630.9066
  0
LINE
  8
0_00
  6
CONTINUOUS
 62
4
 10
212.9000
 20
622.3066
 11
212.5000
 21
620.8066
  0
LINE
  8
0_00
  6
CONTINUOUS
 62
4
 10
209.7000
 20
622.5066
 11
204.7000
 21
622.5066
  0
LINE
  8
0_00
  6
CONTINUOUS
 62
4
 10
212.5000
 20
620.8066
 11
197.8000
 21
620.8066
  0
LINE
  8
0_00
  6
CONTINUOUS
 62
4
 10
207.2000
 20
621.1066
 11
207.5000
 21
620.8066
  0
LINE
  8
0_00
  6
CONTINUOUS
 62
4
 10
207.2000
 20
621.1066
 11
206.9000
 21
620.8066
  0
LINE
  8
0_00
  6
CONTINUOUS
 62
4
 10
199.8722
 20
622.3066
 11
204.4000
 21
622.3066
  0
LINE
  8
0_00
  6
CONTINUOUS
 62
4
 10
204.7000
 20
622.5066
 11
204.4000
 21
622.3066
  0
LINE
  8
0_00
  6
CONTINUOUS
 62
4
 10
210.0000
 20
622.3066
 11
211.1877
 21
622.3066
  0
LINE
  8
0_00
  6
CONTINUOUS
 62
4
 10
209.7000
 20
622.5066
 11
210.0000
 21
622.3066
  0
LINE
  8
0_00
  6
CONTINUOUS
 62
4
 10
211.8457
 20
623.6892
 11
211.5757
 21
622.6096
  0
LINE
  8
0_00
  6
CONTINUOUS
 62
4
 10
197.8000
 20
620.8066
 11
196.8000
 21
621.8066
  0
LINE
  8
0_00
  6
CONTINUOUS
 62
4
 10
196.8000
 20
621.8066
 11
196.8000
 21
623.1066
  0
LINE
  8
0_00
  6
CONTINUOUS
 62
4
 10
196.8000
 20
622.3066
 11
196.8000
 21
621.8066
  0
LINE
  8
0_00
  6
CONTINUOUS
 62
4
 10
197.7805
 20
625.1845
 11
196.9239
 21
625.2595
  0
LINE
  8
0_00
  6
CONTINUOUS
 62
4
 10
198.8871
 20
626.1919
 11
198.0491
 21
626.2652
  0
LINE
  8
0_00
  6
CONTINUOUS
 62
4
 10
199.8000
 20
625.1957
 11
199.8000
 21
624.7628
  0
LINE
  8
0_00
  6
CONTINUOUS
 62
4
 10
196.6561
 20
625.6187
 11
197.7416
 21
630.9066
  0
LINE
  8
0_00
  6
CONTINUOUS
 62
4
 10
198.4878
 20
630.0658
 11
197.7813
 21
626.6244
  0
LINE
  8
0_00
  6
CONTINUOUS
 62
4
 10
197.8021
 20
630.9066
 11
197.7416
 21
630.9066
  0
LINE
  8
0_00
  6
CONTINUOUS
 62
4
 10
201.7000
 20
622.3066
 11
203.2000
 21
622.3066
  0
LINE
  8
0_00
  6
CONTINUOUS
 62
4
 10
216.7000
 20
631.6066
 11
233.7000
 21
631.6066
  0
LINE
  8
0_00
  6
CONTINUOUS
 62
4
 10
221.0000
 20
634.1066
 11
229.4000
 21
634.1066
  0
LINE
  8
0_00
  6
CONTINUOUS
 62
4
 10
230.0000
 20
634.1066
 11
233.7000
 21
634.1066
  0
LINE
  8
0_00
  6
CONTINUOUS
 62
4
 10
249.7000
 20
625.7066
 11
249.7000
 21
622.8066
  0
LINE
  8
14_0E
  6
CONTINUOUS
 62
4
 10
235.7000
 20
629.6066
 11
235.7000
 21
625.0066
  0
LINE
  8
0_00
  6
CONTINUOUS
 62
4
 10
238.2000
 20
629.6066
 11
238.2000
 21
628.2066
  0
LINE
  8
0_00
  6
CONTINUOUS
 62
4
 10
247.7000
 20
625.7066
 11
247.7000
 21
622.3066
  0
LINE
  8
0_00
  6
CONTINUOUS
 62
4
 10
247.7000
 20
622.3066
 11
249.2000
 21
622.3066
  0
LINE
  8
0_00
  6
CONTINUOUS
 62
4
 10
229.4000
 20
634.1066
 11
229.7000
 21
633.8066
  0
LINE
  8
0_00
  6
CONTINUOUS
 62
4
 10
229.7000
 20
633.8066
 11
230.0000
 21
634.1066
  0
LINE
  8
0_00
  6
CONTINUOUS
 62
4
 10
238.2000
 20
628.2066
 11
242.9000
 21
628.2066
  0
LINE
  8
0_00
  6
CONTINUOUS
 62
4
 10
243.5000
 20
628.2066
 11
247.2000
 21
628.2066
  0
LINE
  8
0_00
  6
CONTINUOUS
 62
4
 10
237.7000
 20
625.7066
 11
247.7000
 21
625.7066
  0
LINE
  8
0_00
  6
CONTINUOUS
 62
4
 10
237.7000
 20
625.7066
 11
237.7000
 21
625.0066
  0
LINE
  8
0_00
  6
CONTINUOUS
 62
4
 10
242.9000
 20
628.2066
 11
243.2000
 21
627.9066
  0
LINE
  8
0_00
  6
CONTINUOUS
 62
4
 10
243.2000
 20
627.9066
 11
243.5000
 21
628.2066
  0
LINE
  8
0_00
  6
CONTINUOUS
 62
4
 10
220.4000
 20
634.1066
 11
216.7000
 21
634.1066
  0
LINE
  8
0_00
  6
CONTINUOUS
 62
4
 10
221.0000
 20
634.1066
 11
220.7000
 21
633.8066
  0
LINE
  8
0_00
  6
CONTINUOUS
 62
4
 10
220.7000
 20
633.8066
 11
220.4000
 21
634.1066
  0
LINE
  8
0_00
  6
CONTINUOUS
 62
4
 10
200.7000
 20
625.7066
 11
200.7000
 21
622.8066
  0
LINE
  8
14_0E
  6
CONTINUOUS
 62
4
 10
214.7000
 20
629.6066
 11
214.7000
 21
625.0066
  0
LINE
  8
0_00
  6
CONTINUOUS
 62
4
 10
212.2000
 20
629.6066
 11
212.2000
 21
628.2066
  0
LINE
  8
0_00
  6
CONTINUOUS
 62
4
 10
202.7000
 20
625.7066
 11
202.7000
 21
622.3066
  0
LINE
  8
0_00
  6
CONTINUOUS
 62
4
 10
202.7000
 20
622.3066
 11
201.2000
 21
622.3066
  0
LINE
  8
0_00
  6
CONTINUOUS
 62
4
 10
212.2000
 20
628.2066
 11
207.5000
 21
628.2066
  0
LINE
  8
0_00
  6
CONTINUOUS
 62
4
 10
206.9000
 20
628.2066
 11
203.2000
 21
628.2066
  0
LINE
  8
0_00
  6
CONTINUOUS
 62
4
 10
212.7000
 20
625.7066
 11
202.7000
 21
625.7066
  0
LINE
  8
0_00
  6
CONTINUOUS
 62
4
 10
212.7000
 20
625.7066
 11
212.7000
 21
625.0066
  0
LINE
  8
0_00
  6
CONTINUOUS
 62
4
 10
207.5000
 20
628.2066
 11
207.2000
 21
627.9066
  0
LINE
  8
0_00
  6
CONTINUOUS
 62
4
 10
207.2000
 20
627.9066
 11
206.9000
 21
628.2066
  0
LINE
  8
0_00
  6
CONTINUOUS
 62
4
 10
255.2000
 20
658.8286
 11
255.1999
 21
620.0066
  0
LINE
  8
0_00
  6
CONTINUOUS
 62
4
 10
253.8000
 20
658.8038
 11
253.7999
 21
632.4304
  0
LINE
  8
0_00
  6
CONTINUOUS
 62
4
 10
196.6000
 20
658.8038
 11
196.6001
 21
632.4090
  0
LINE
  8
0_00
  6
CONTINUOUS
 62
4
 10
195.2000
 20
658.8286
 11
195.2001
 21
620.0014
  0
LINE
  8
0_00
  6
CONTINUOUS
 62
4
 10
196.5995
 20
623.1805
 11
196.5995
 21
620.0066
  0
LINE
  8
0_00
  6
CONTINUOUS
 62
4
 10
197.6800
 20
625.1359
 11
196.9646
 21
625.1985
  0
LINE
  8
0_00
  6
CONTINUOUS
 62
4
 10
196.6074
 20
625.6761
 11
197.0741
 21
627.9908
  0
LINE
  8
0_00
  6
CONTINUOUS
 62
4
 10
196.8781
 20
628.2304
 11
196.5995
 21
628.2304
  0
LINE
  8
0_00
  6
CONTINUOUS
 62
4
 10
196.5995
 20
628.2304
 11
196.5995
 21
630.6304
  0
LINE
  8
0_00
  6
CONTINUOUS
 62
4
 10
199.2995
 20
631.0304
 11
196.9995
 21
631.0304
  0
LINE
  8
0_00
  6
CONTINUOUS
 62
4
 10
199.5995
 20
632.0304
 11
196.9995
 21
632.0304
  0
LINE
  8
0_00
  6
CONTINUOUS
 62
4
 10
199.2995
 20
631.0304
 11
199.2995
 21
630.8303
  0
LINE
  8
0_00
  6
CONTINUOUS
 62
4
 10
200.0995
 20
631.5303
 11
200.0995
 21
630.4304
  0
LINE
  8
0_00
  6
CONTINUOUS
 62
4
 10
253.7999
 20
620.0066
 11
253.7999
 21
623.1805
  0
LINE
  8
0_00
  6
CONTINUOUS
 62
4
 10
252.7194
 20
625.1359
 11
253.4348
 21
625.1985
  0
LINE
  8
0_00
  6
CONTINUOUS
 62
4
 10
253.7921
 20
625.6761
 11
253.3253
 21
627.9908
  0
LINE
  8
0_00
  6
CONTINUOUS
 62
4
 10
250.2999
 20
631.5303
 11
250.2999
 21
630.4304
  0
LINE
  8
0_00
  6
CONTINUOUS
 62
4
 10
251.0999
 20
631.0304
 11
251.0999
 21
630.8303
  0
LINE
  8
0_00
  6
CONTINUOUS
 62
4
 10
251.0999
 20
631.0304
 11
253.3999
 21
631.0304
  0
LINE
  8
0_00
  6
CONTINUOUS
 62
4
 10
250.7999
 20
632.0304
 11
253.3999
 21
632.0304
  0
LINE
  8
0_00
  6
CONTINUOUS
 62
4
 10
253.7999
 20
628.2304
 11
253.7999
 21
630.6304
  0
LINE
  8
0_00
  6
CONTINUOUS
 62
4
 10
253.5213
 20
628.2304
 11
253.7999
 21
628.2304
  0
LINE
  8
0_00
  6
CONTINUOUS
 62
4
 10
621.1920
 20
718.0692
 11
1151.8920
 21
718.0692
  0
LINE
  8
0_00
  6
CONTINUOUS
 62
4
 10
621.1920
 20
725.1192
 11
1151.8920
 21
725.1192
  0
LINE
  8
0_00
  6
CONTINUOUS
 62
4
 10
1121.1420
 20
718.0692
 11
1121.1420
 21
695.1192
  0
LINE
  8
0_00
  6
CONTINUOUS
 62
4
 10
1116.9419
 20
718.0692
 11
1116.9419
 21
695.1192
  0
LINE
  8
0_00
  6
CONTINUOUS
 62
4
 10
966.1420
 20
718.0692
 11
966.1420
 21
695.1192
  0
LINE
  8
0_00
  6
CONTINUOUS
 62
4
 10
961.9419
 20
718.0692
 11
961.9419
 21
695.1192
  0
LINE
  8
0_00
  6
CONTINUOUS
 62
4
 10
613.3169
 20
718.0242
 11
613.3169
 21
695.8242
  0
LINE
  8
0_00
  6
CONTINUOUS
 62
4
 10
619.7670
 20
718.0242
 11
619.7670
 21
695.8242
  0
LINE
  8
3_03
  6
CONTINUOUS
 62
4
 10
621.1170
 20
725.2240
 11
616.6374
 21
725.2240
  0
LINE
  8
3_03
  6
CONTINUOUS
 62
4
 10
612.0419
 20
718.0242
 11
621.1170
 21
718.0242
  0
LINE
  8
3_03
  6
CONTINUOUS
 62
4
 10
621.1920
 20
718.0692
 11
621.1920
 21
725.1490
  0
LINE
  8
3_03
  6
CONTINUOUS
 62
4
 10
611.9669
 20
724.0277
 11
611.9669
 21
718.0992
  0
LINE
  8
0_00
  6
CONTINUOUS
 62
4
 10
651.9419
 20
718.0692
 11
651.9419
 21
695.1192
  0
LINE
  8
0_00
  6
CONTINUOUS
 62
4
 10
656.1420
 20
718.0692
 11
656.1420
 21
695.1192
  0
LINE
  8
0_00
  6
CONTINUOUS
 62
4
 10
806.9420
 20
718.0692
 11
806.9420
 21
695.1192
  0
LINE
  8
0_00
  6
CONTINUOUS
 62
4
 10
811.1419
 20
718.0692
 11
811.1419
 21
695.1192
  0
LINE
  8
15_0F
  6
DASHED
 62
2
 10
237.2000
 20
623.9625
 11
237.2000
 21
622.3066
  0
LINE
  8
15_0F
  6
DASHED
 62
2
 10
213.2000
 20
623.9625
 11
213.2000
 21
622.3066
  0
LINE
  8
15_0F
  6
CONTINUOUS
 62
4
 10
232.9500
 20
629.3066
 11
232.9500
 21
624.1452
  0
LINE
  8
15_0F
  6
CONTINUOUS
 62
4
 10
217.4500
 20
629.3066
 11
217.4500
 21
624.1452
  0
LINE
  8
15_0F
  6
DASHED
 62
2
 10
217.4500
 20
622.3066
 11
217.4500
 21
624.1452
  0
LINE
  8
15_0F
  6
CONTINUOUS
 62
4
 10
217.4500
 20
622.3066
 11
217.4500
 21
620.8066
  0
LINE
  8
15_0F
  6
DASHED
 62
2
 10
217.4500
 20
461.0614
 11
217.4500
 21
620.8066
  0
LINE
  8
15_0F
  6
DASHED
 62
2
 10
232.9500
 20
622.3066
 11
232.9500
 21
624.1452
  0
LINE
  8
15_0F
  6
CONTINUOUS
 62
4
 10
232.9500
 20
622.3066
 11
232.9500
 21
620.8066
  0
LINE
  8
15_0F
  6
DASHED
 62
2
 10
232.9500
 20
460.5201
 11
232.9500
 21
620.8066
  0
LINE
  8
15_0F
  6
CONTINUOUS
 62
4
 10
217.4500
 20
629.3066
 11
232.9500
 21
629.3066
  0
LINE
  8
15_0F
  6
CONTINUOUS
 62
4
 10
202.7000
 20
620.3066
 11
247.7000
 21
620.3066
  0
LINE
  8
15_0F
  6
CONTINUOUS
 62
4
 10
247.7000
 20
620.8066
 11
247.7000
 21
620.3066
  0
LINE
  8
15_0F
  6
CONTINUOUS
 62
4
 10
202.7000
 20
620.8066
 11
202.7000
 21
620.3066
  0
LINE
  8
0_00
  6
CONTINUOUS
 62
4
 10
129.0000
 20
741.4345
 11
160.2000
 21
741.4345
  0
LINE
  8
0_00
  6
CONTINUOUS
 62
4
 10
160.2000
 20
741.4345
 11
160.2000
 21
755.8345
  0
LINE
  8
0_00
  6
CONTINUOUS
 62
4
 10
129.0000
 20
755.8345
 11
160.2000
 21
755.8345
  0
LINE
  8
0_00
  6
CONTINUOUS
 62
4
 10
129.0000
 20
741.4345
 11
129.0000
 21
755.8345
  0
LINE
  8
0_00
  6
CONTINUOUS
 62
4
 10
290.2000
 20
741.4345
 11
321.4000
 21
741.4345
  0
LINE
  8
0_00
  6
CONTINUOUS
 62
4
 10
321.4000
 20
741.4345
 11
321.4000
 21
755.8345
  0
LINE
  8
0_00
  6
CONTINUOUS
 62
4
 10
290.2000
 20
755.8345
 11
321.4000
 21
755.8345
  0
LINE
  8
0_00
  6
CONTINUOUS
 62
4
 10
290.2000
 20
741.4345
 11
290.2000
 21
755.8345
  0
LINE
  8
15_0F
  6
CONTINUOUS
 62
6
 10
151.2594
 20
451.3066
 11
75.3665
 21
451.3066
  0
LINE
  8
15_0F
  6
CONTINUOUS
 62
6
 10
81.3665
 20
451.3066
 11
81.3665
 21
466.3065
  0
LINE
  8
15_0F
  6
CONTINUOUS
 62
6
 10
187.7000
 20
666.3066
 11
75.3665
 21
666.3066
  0
LINE
  8
15_0F
  6
CONTINUOUS
 62
6
 10
81.3665
 20
466.3065
 11
81.3665
 21
666.3066
  0
LINE
  8
15_0F
  6
CONTINUOUS
 62
6
 10
81.3665
 20
466.3065
 11
82.9258
 21
473.6427
  0
LINE
  8
15_0F
  6
CONTINUOUS
 62
6
 10
81.3665
 20
466.3065
 11
79.8071
 21
473.6427
  0
LINE
  8
15_0F
  6
CONTINUOUS
 62
6
 10
81.3665
 20
666.3066
 11
79.8071
 21
658.9704
  0
LINE
  8
15_0F
  6
CONTINUOUS
 62
6
 10
81.3665
 20
666.3066
 11
82.9258
 21
658.9704
  0
LINE
  8
15_0F
  6
CONTINUOUS
 62
6
 10
81.3665
 20
413.9066
 11
81.3665
 21
451.3066
  0
LINE
  8
15_0F
  6
CONTINUOUS
 62
6
 10
81.3665
 20
451.3066
 11
79.8071
 21
443.9705
  0
LINE
  8
15_0F
  6
CONTINUOUS
 62
6
 10
81.3665
 20
451.3066
 11
82.9258
 21
443.9705
  0
LINE
  8
15_0F
  6
CONTINUOUS
 62
6
 10
310.0000
 20
620.3066
 11
310.0000
 21
620.8066
  0
LINE
  8
15_0F
  6
CONTINUOUS
 62
6
 10
150.1170
 20
466.3065
 11
75.3665
 21
466.3065
  0
LINE
  8
15_0F
  6
CONTINUOUS
 62
6
 10
177.7000
 20
666.3066
 11
99.0000
 21
666.3066
  0
LINE
  8
15_0F
  6
CONTINUOUS
 62
6
 10
236.7612
 20
665.9748
 11
249.7983
 21
680.1026
  0
LINE
  8
15_0F
  6
CONTINUOUS
 62
6
 10
236.7612
 20
665.9748
 11
242.8823
 21
670.3087
  0
LINE
  8
15_0F
  6
CONTINUOUS
 62
6
 10
236.7612
 20
665.9748
 11
240.5904
 21
672.4236
  0
LINE
  8
15_0F
  6
CONTINUOUS
 62
6
 10
249.7983
 20
680.1026
 11
309.1983
 21
680.1026
  0
LINE
  8
15_0F
  6
CONTINUOUS
 62
6
 10
213.0075
 20
457.3066
 11
188.6511
 21
481.6630
  0
LINE
  8
15_0F
  6
CONTINUOUS
 62
6
 10
213.0075
 20
457.3066
 11
208.9227
 21
463.5966
  0
LINE
  8
15_0F
  6
CONTINUOUS
 62
6
 10
213.0075
 20
457.3066
 11
206.7175
 21
461.3914
  0
LINE
  8
15_0F
  6
CONTINUOUS
 62
6
 10
188.6511
 20
481.6630
 11
114.8511
 21
481.6630
  0
LINE
  8
15_0F
  6
CONTINUOUS
 62
6
 10
1053.9841
 20
346.7816
 11
1053.9841
 21
466.0000
  0
LINE
  8
15_0F
  6
CONTINUOUS
 62
6
 10
668.5040
 20
460.0000
 11
1053.9841
 21
460.0000
  0
LINE
  8
15_0F
  6
CONTINUOUS
 62
6
 10
668.5040
 20
460.0000
 11
675.8401
 21
458.4407
  0
LINE
  8
15_0F
  6
CONTINUOUS
 62
6
 10
668.5040
 20
460.0000
 11
675.8401
 21
461.5593
  0
LINE
  8
15_0F
  6
CONTINUOUS
 62
6
 10
1053.9841
 20
460.0000
 11
1046.6480
 21
461.5593
  0
LINE
  8
15_0F
  6
CONTINUOUS
 62
6
 10
1053.9841
 20
460.0000
 11
1046.6480
 21
458.4407
  0
LINE
  8
15_0F
  6
CONTINUOUS
 62
6
 10
668.5040
 20
397.4276
 11
668.5040
 21
414.8467
  0
LINE
  8
15_0F
  6
CONTINUOUS
 62
6
 10
668.5040
 20
454.2884
 11
668.5040
 21
466.0000
  0
LINE
  8
0_00
  6
CENTER1
 62
6
 10
229.7000
 20
638.7289
 11
229.7000
 21
600.7784
  0
LINE
  8
0_00
  6
CENTER1
 62
6
 10
220.7000
 20
638.7289
 11
220.7000
 21
600.7784
  0
LINE
  8
0_00
  6
CENTER1
 62
6
 10
371.6492
 20
674.4418
 11
371.6492
 21
546.7853
  0
LINE
  8
0_00
  6
CONTINUOUS
 62
4
 10
350.1492
 20
551.8147
 11
350.1492
 21
630.0505
  0
LINE
  8
0_00
  6
CONTINUOUS
 62
4
 10
393.1492
 20
551.8147
 11
393.1492
 21
630.0505
  0
LINE
  8
15_0F
  6
DASHED
 62
2
 10
363.8992
 20
551.8147
 11
363.8992
 21
630.5506
  0
LINE
  8
15_0F
  6
DASHED
 62
2
 10
379.3992
 20
551.8147
 11
379.3992
 21
630.5506
  0
LINE
  8
0_00
  6
CONTINUOUS
 62
4
 10
371.6492
 20
632.3506
 11
371.3492
 21
632.0505
  0
LINE
  8
0_00
  6
CONTINUOUS
 62
4
 10
371.6492
 20
632.3506
 11
371.9493
 21
632.0505
  0
LINE
  8
14_0E
  6
CONTINUOUS
 62
4
 10
384.7254
 20
633.6601
 11
375.6492
 21
634.0505
  0
LINE
  8
0_00
  6
CONTINUOUS
 62
4
 10
371.6492
 20
632.3506
 11
371.9493
 21
632.0505
  0
LINE
  8
0_00
  6
CONTINUOUS
 62
4
 10
371.6492
 20
632.3506
 11
371.3492
 21
632.0505
  0
LINE
  8
14_0E
  6
CONTINUOUS
 62
4
 10
358.5731
 20
633.6601
 11
367.6492
 21
634.0505
  0
LINE
  8
0_00
  6
CONTINUOUS
 62
4
 10
375.6492
 20
634.0505
 11
367.6492
 21
634.0505
  0
LINE
  8
0_00
  6
CONTINUOUS
 62
4
 10
387.1492
 20
632.2505
 11
392.1492
 21
632.2505
  0
LINE
  8
0_00
  6
CONTINUOUS
 62
4
 10
386.8493
 20
632.0505
 11
385.6616
 21
632.0505
  0
LINE
  8
0_00
  6
CONTINUOUS
 62
4
 10
387.1492
 20
632.2505
 11
386.8493
 21
632.0505
  0
LINE
  8
0_00
  6
CONTINUOUS
 62
4
 10
385.0036
 20
633.4332
 11
385.2735
 21
632.3535
  0
LINE
  8
0_00
  6
CONTINUOUS
 62
4
 10
356.1492
 20
632.2505
 11
351.1493
 21
632.2505
  0
LINE
  8
0_00
  6
CONTINUOUS
 62
4
 10
351.1493
 20
632.2505
 11
350.8492
 21
632.0505
  0
LINE
  8
0_00
  6
CONTINUOUS
 62
4
 10
356.4493
 20
632.0505
 11
357.6369
 21
632.0505
  0
LINE
  8
0_00
  6
CONTINUOUS
 62
4
 10
356.1492
 20
632.2505
 11
356.4493
 21
632.0505
  0
LINE
  8
0_00
  6
CONTINUOUS
 62
4
 10
358.2949
 20
633.4332
 11
358.0250
 21
632.3535
  0
LINE
  8
0_00
  6
CONTINUOUS
 62
4
 10
348.1492
 20
632.0505
 11
349.6493
 21
632.0505
  0
LINE
  8
0_00
  6
CONTINUOUS
 62
4
 10
363.1492
 20
641.3505
 11
380.1492
 21
641.3505
  0
LINE
  8
0_00
  6
CONTINUOUS
 62
4
 10
367.4493
 20
643.8505
 11
375.8493
 21
643.8505
  0
LINE
  8
0_00
  6
CONTINUOUS
 62
4
 10
376.4492
 20
643.8505
 11
380.1492
 21
643.8505
  0
LINE
  8
0_00
  6
CONTINUOUS
 62
4
 10
396.1492
 20
635.4505
 11
396.1492
 21
632.5505
  0
LINE
  8
14_0E
  6
CONTINUOUS
 62
4
 10
382.1492
 20
639.3506
 11
382.1492
 21
634.7505
  0
LINE
  8
0_00
  6
CONTINUOUS
 62
4
 10
384.6492
 20
639.3506
 11
384.6492
 21
637.9505
  0
LINE
  8
0_00
  6
CONTINUOUS
 62
4
 10
394.1492
 20
635.4505
 11
394.1492
 21
632.0505
  0
LINE
  8
0_00
  6
CONTINUOUS
 62
4
 10
394.1492
 20
632.0505
 11
395.6492
 21
632.0505
  0
LINE
  8
0_00
  6
CONTINUOUS
 62
4
 10
375.8493
 20
643.8505
 11
376.1492
 21
643.5505
  0
LINE
  8
0_00
  6
CONTINUOUS
 62
4
 10
376.1492
 20
643.5505
 11
376.4492
 21
643.8505
  0
LINE
  8
0_00
  6
CONTINUOUS
 62
4
 10
384.6492
 20
637.9505
 11
389.3492
 21
637.9505
  0
LINE
  8
0_00
  6
CONTINUOUS
 62
4
 10
389.9492
 20
637.9505
 11
393.6492
 21
637.9505
  0
LINE
  8
0_00
  6
CONTINUOUS
 62
4
 10
384.1492
 20
635.4505
 11
394.1492
 21
635.4505
  0
LINE
  8
0_00
  6
CONTINUOUS
 62
4
 10
384.1492
 20
635.4505
 11
384.1492
 21
634.7505
  0
LINE
  8
0_00
  6
CONTINUOUS
 62
4
 10
389.3492
 20
637.9505
 11
389.6492
 21
637.6505
  0
LINE
  8
0_00
  6
CONTINUOUS
 62
4
 10
389.6492
 20
637.6505
 11
389.9492
 21
637.9505
  0
LINE
  8
0_00
  6
CONTINUOUS
 62
4
 10
366.8492
 20
643.8505
 11
363.1492
 21
643.8505
  0
LINE
  8
0_00
  6
CONTINUOUS
 62
4
 10
367.4493
 20
643.8505
 11
367.1492
 21
643.5505
  0
LINE
  8
0_00
  6
CONTINUOUS
 62
4
 10
367.1492
 20
643.5505
 11
366.8492
 21
643.8505
  0
LINE
  8
0_00
  6
CONTINUOUS
 62
4
 10
347.1492
 20
635.4505
 11
347.1492
 21
632.5505
  0
LINE
  8
14_0E
  6
CONTINUOUS
 62
4
 10
361.1492
 20
639.3506
 11
361.1492
 21
634.7505
  0
LINE
  8
0_00
  6
CONTINUOUS
 62
4
 10
358.6492
 20
639.3506
 11
358.6492
 21
637.9505
  0
LINE
  8
0_00
  6
CONTINUOUS
 62
4
 10
349.1492
 20
635.4505
 11
349.1492
 21
632.0505
  0
LINE
  8
0_00
  6
CONTINUOUS
 62
4
 10
349.1492
 20
632.0505
 11
347.6492
 21
632.0505
  0
LINE
  8
0_00
  6
CONTINUOUS
 62
4
 10
358.6492
 20
637.9505
 11
353.9492
 21
637.9505
  0
LINE
  8
0_00
  6
CONTINUOUS
 62
4
 10
353.3493
 20
637.9505
 11
349.6493
 21
637.9505
  0
LINE
  8
0_00
  6
CONTINUOUS
 62
4
 10
359.1492
 20
635.4505
 11
349.1492
 21
635.4505
  0
LINE
  8
0_00
  6
CONTINUOUS
 62
4
 10
359.1492
 20
635.4505
 11
359.1492
 21
634.7505
  0
LINE
  8
0_00
  6
CONTINUOUS
 62
4
 10
353.9492
 20
637.9505
 11
353.6492
 21
637.6505
  0
LINE
  8
0_00
  6
CONTINUOUS
 62
4
 10
353.6492
 20
637.6505
 11
353.3493
 21
637.9505
  0
LINE
  8
15_0F
  6
DASHED
 62
2
 10
359.6492
 20
633.7064
 11
359.6492
 21
632.0505
  0
LINE
  8
15_0F
  6
CONTINUOUS
 62
4
 10
379.3992
 20
639.3066
 11
379.3992
 21
633.8893
  0
LINE
  8
15_0F
  6
CONTINUOUS
 62
4
 10
363.8992
 20
639.3066
 11
363.8992
 21
633.8893
  0
LINE
  8
15_0F
  6
DASHED
 62
2
 10
363.8992
 20
632.0505
 11
363.8992
 21
633.8893
  0
LINE
  8
15_0F
  6
CONTINUOUS
 62
4
 10
363.8992
 20
632.0505
 11
363.8992
 21
630.5506
  0
LINE
  8
15_0F
  6
DASHED
 62
2
 10
379.3992
 20
632.0505
 11
379.3992
 21
633.8893
  0
LINE
  8
15_0F
  6
CONTINUOUS
 62
4
 10
379.3992
 20
632.0505
 11
379.3992
 21
630.5506
  0
LINE
  8
15_0F
  6
CONTINUOUS
 62
4
 10
363.8992
 20
639.3066
 11
379.3992
 21
639.3066
  0
LINE
  8
15_0F
  6
CONTINUOUS
 62
4
 10
349.1492
 20
630.0505
 11
394.1492
 21
630.0505
  0
LINE
  8
15_0F
  6
CONTINUOUS
 62
4
 10
394.1492
 20
630.5506
 11
394.1492
 21
630.0505
  0
LINE
  8
15_0F
  6
CONTINUOUS
 62
4
 10
349.1492
 20
630.5506
 11
349.1492
 21
630.0505
  0
LINE
  8
15_0F
  6
DASHED
 62
2
 10
383.6492
 20
633.7064
 11
383.6492
 21
632.0505
  0
LINE
  8
0_00
  6
CENTER1
 62
6
 10
376.1492
 20
651.4506
 11
376.1492
 21
608.8505
  0
LINE
  8
0_00
  6
CENTER1
 62
6
 10
367.1492
 20
651.4506
 11
367.1492
 21
608.8505
  0
LINE
  8
15_0F
  6
CONTINUOUS
 62
6
 10
203.2000
 20
628.2066
 11
193.0969
 21
645.7058
  0
LINE
  8
15_0F
  6
CONTINUOUS
 62
6
 10
203.2000
 20
628.2066
 11
200.8824
 21
635.3395
  0
LINE
  8
15_0F
  6
CONTINUOUS
 62
6
 10
203.2000
 20
628.2066
 11
198.1815
 21
633.7802
  0
LINE
  8
15_0F
  6
CONTINUOUS
 62
6
 10
109.5153
 20
645.7058
 11
193.0969
 21
645.7058
  0
LINE
  8
15_0F
  6
CONTINUOUS
 62
6
 10
380.1721
 20
665.6982
 11
391.2946
 21
677.7513
  0
LINE
  8
15_0F
  6
CONTINUOUS
 62
6
 10
380.1721
 20
665.6982
 11
386.2932
 21
670.0319
  0
LINE
  8
15_0F
  6
CONTINUOUS
 62
6
 10
380.1721
 20
665.6982
 11
384.0012
 21
672.1469
  0
LINE
  8
15_0F
  6
CONTINUOUS
 62
6
 10
391.2946
 20
677.7513
 11
455.6947
 21
677.7513
  0
LINE
  8
0_00
  6
CONTINUOUS
 62
6
 10
302.0004
 20
449.6417
 11
316.7380
 21
464.3793
  0
LINE
  8
0_00
  6
CONTINUOUS
 62
6
 10
302.0004
 20
449.6417
 11
308.2905
 21
453.7265
  0
LINE
  8
0_00
  6
CONTINUOUS
 62
6
 10
302.0004
 20
449.6417
 11
306.0852
 21
455.9317
  0
LINE
  8
0_00
  6
CONTINUOUS
 62
6
 10
316.7380
 20
464.3793
 11
361.7380
 21
464.3793
  0
LINE
  8
0_00
  6
CONTINUOUS
 62
4
 10
371.6492
 20
632.3506
 11
371.3492
 21
632.0505
  0
LINE
  8
0_00
  6
CONTINUOUS
 62
4
 10
383.9493
 20
632.0505
 11
371.9493
 21
632.0505
  0
LINE
  8
0_00
  6
CONTINUOUS
 62
4
 10
371.6492
 20
632.3506
 11
371.9493
 21
632.0505
  0
LINE
  8
14_0E
  6
CONTINUOUS
 62
4
 10
384.7254
 20
633.6601
 11
375.6492
 21
634.0505
  0
LINE
  8
0_00
  6
CONTINUOUS
 62
4
 10
371.6492
 20
632.3506
 11
371.9493
 21
632.0505
  0
LINE
  8
0_00
  6
CONTINUOUS
 62
4
 10
359.3492
 20
632.0505
 11
371.3492
 21
632.0505
  0
LINE
  8
0_00
  6
CONTINUOUS
 62
4
 10
371.6492
 20
632.3506
 11
371.3492
 21
632.0505
  0
LINE
  8
14_0E
  6
CONTINUOUS
 62
4
 10
358.5731
 20
633.6601
 11
367.6492
 21
634.0505
  0
LINE
  8
0_00
  6
CONTINUOUS
 62
4
 10
375.6492
 20
634.0505
 11
367.6492
 21
634.0505
  0
LINE
  8
0_00
  6
CONTINUOUS
 62
4
 10
384.3492
 20
630.5506
 11
389.3492
 21
630.5506
  0
LINE
  8
0_00
  6
CONTINUOUS
 62
4
 10
383.9493
 20
632.0505
 11
384.3492
 21
630.5506
  0
LINE
  8
0_00
  6
CONTINUOUS
 62
4
 10
387.1492
 20
632.2505
 11
392.1492
 21
632.2505
  0
LINE
  8
0_00
  6
CONTINUOUS
 62
4
 10
389.9492
 20
630.5506
 11
399.0493
 21
630.5506
  0
LINE
  8
0_00
  6
CONTINUOUS
 62
4
 10
389.6492
 20
630.8505
 11
389.3492
 21
630.5506
  0
LINE
  8
0_00
  6
CONTINUOUS
 62
4
 10
389.6492
 20
630.8505
 11
389.9492
 21
630.5506
  0
LINE
  8
0_00
  6
CONTINUOUS
 62
4
 10
396.9770
 20
632.0505
 11
392.4493
 21
632.0505
  0
LINE
  8
0_00
  6
CONTINUOUS
 62
4
 10
392.1492
 20
632.2505
 11
392.4493
 21
632.0505
  0
LINE
  8
0_00
  6
CONTINUOUS
 62
4
 10
386.8493
 20
632.0505
 11
385.6616
 21
632.0505
  0
LINE
  8
0_00
  6
CONTINUOUS
 62
4
 10
387.1492
 20
632.2505
 11
386.8493
 21
632.0505
  0
LINE
  8
0_00
  6
CONTINUOUS
 62
4
 10
385.0036
 20
633.4332
 11
385.2735
 21
632.3535
  0
LINE
  8
0_00
  6
CONTINUOUS
 62
4
 10
399.0493
 20
630.5506
 11
400.0492
 21
631.5505
  0
LINE
  8
0_00
  6
CONTINUOUS
 62
4
 10
400.0492
 20
631.5505
 11
400.0492
 21
632.8505
  0
LINE
  8
0_00
  6
CONTINUOUS
 62
4
 10
400.0492
 20
632.0505
 11
400.0492
 21
631.5505
  0
LINE
  8
0_00
  6
CONTINUOUS
 62
4
 10
399.0687
 20
634.9285
 11
399.9254
 21
635.0034
  0
LINE
  8
0_00
  6
CONTINUOUS
 62
4
 10
397.9621
 20
635.9359
 11
398.8002
 21
636.0092
  0
LINE
  8
0_00
  6
CONTINUOUS
 62
4
 10
397.0493
 20
634.9397
 11
397.0493
 21
634.5067
  0
LINE
  8
0_00
  6
CONTINUOUS
 62
4
 10
400.1931
 20
635.3626
 11
399.1077
 21
640.6505
  0
LINE
  8
0_00
  6
CONTINUOUS
 62
4
 10
398.3615
 20
639.8097
 11
399.0679
 21
636.3684
  0
LINE
  8
0_00
  6
CONTINUOUS
 62
4
 10
399.0472
 20
640.6505
 11
399.1077
 21
640.6505
  0
LINE
  8
0_00
  6
CONTINUOUS
 62
4
 10
401.6499
 20
640.7970
 11
401.6498
 21
631.5892
  0
LINE
  8
0_00
  6
CONTINUOUS
 62
4
 10
400.2497
 20
632.9471
 11
400.2497
 21
630.6065
  0
LINE
  8
0_00
  6
CONTINUOUS
 62
4
 10
400.2498
 20
637.9971
 11
400.2498
 21
640.3932
  0
LINE
  8
0_00
  6
CONTINUOUS
 62
4
 10
397.5499
 20
640.7971
 11
399.8498
 21
640.7970
  0
LINE
  8
0_00
  6
CONTINUOUS
 62
4
 10
396.7499
 20
641.0971
 11
396.7499
 21
640.1971
  0
LINE
  8
0_00
  6
CONTINUOUS
 62
4
 10
397.5499
 20
640.7971
 11
397.5499
 21
640.5971
  0
LINE
  8
0_00
  6
CONTINUOUS
 62
4
 10
399.1693
 20
634.9025
 11
399.8846
 21
634.9651
  0
LINE
  8
0_00
  6
CONTINUOUS
 62
4
 10
400.2419
 20
635.4426
 11
399.7751
 21
637.7576
  0
LINE
  8
0_00
  6
CONTINUOUS
 62
4
 10
399.9712
 20
637.9971
 11
400.2498
 21
637.9971
  0
LINE
  8
0_00
  6
CONTINUOUS
 62
4
 10
397.7499
 20
642.0971
 11
400.3498
 21
642.0970
  0
LINE
  8
0_00
  6
CONTINUOUS
 62
4
 10
358.9492
 20
630.5506
 11
353.9492
 21
630.5506
  0
LINE
  8
0_00
  6
CONTINUOUS
 62
4
 10
359.3492
 20
632.0505
 11
358.9492
 21
630.5506
  0
LINE
  8
0_00
  6
CONTINUOUS
 62
4
 10
356.1492
 20
632.2505
 11
351.1493
 21
632.2505
  0
LINE
  8
0_00
  6
CONTINUOUS
 62
4
 10
353.3493
 20
630.5506
 11
344.2492
 21
630.5506
  0
LINE
  8
0_00
  6
CONTINUOUS
 62
4
 10
353.6492
 20
630.8505
 11
353.9492
 21
630.5506
  0
LINE
  8
0_00
  6
CONTINUOUS
 62
4
 10
353.6492
 20
630.8505
 11
353.3493
 21
630.5506
  0
LINE
  8
0_00
  6
CONTINUOUS
 62
4
 10
346.3215
 20
632.0505
 11
350.8492
 21
632.0505
  0
LINE
  8
0_00
  6
CONTINUOUS
 62
4
 10
351.1493
 20
632.2505
 11
350.8492
 21
632.0505
  0
LINE
  8
0_00
  6
CONTINUOUS
 62
4
 10
356.4493
 20
632.0505
 11
357.6369
 21
632.0505
  0
LINE
  8
0_00
  6
CONTINUOUS
 62
4
 10
356.1492
 20
632.2505
 11
356.4493
 21
632.0505
  0
LINE
  8
0_00
  6
CONTINUOUS
 62
4
 10
358.2949
 20
633.4332
 11
358.0250
 21
632.3535
  0
LINE
  8
0_00
  6
CONTINUOUS
 62
4
 10
344.2492
 20
630.5506
 11
343.2492
 21
631.5505
  0
LINE
  8
0_00
  6
CONTINUOUS
 62
4
 10
343.2492
 20
631.5505
 11
343.2492
 21
632.8505
  0
LINE
  8
0_00
  6
CONTINUOUS
 62
4
 10
343.2492
 20
632.0505
 11
343.2492
 21
631.5505
  0
LINE
  8
0_00
  6
CONTINUOUS
 62
4
 10
344.2297
 20
634.9285
 11
343.3731
 21
635.0034
  0
LINE
  8
0_00
  6
CONTINUOUS
 62
4
 10
345.3364
 20
635.9359
 11
344.4983
 21
636.0092
  0
LINE
  8
0_00
  6
CONTINUOUS
 62
4
 10
346.2492
 20
634.9397
 11
346.2492
 21
634.5067
  0
LINE
  8
0_00
  6
CONTINUOUS
 62
4
 10
343.1054
 20
635.3626
 11
344.1908
 21
640.6505
  0
LINE
  8
0_00
  6
CONTINUOUS
 62
4
 10
344.9370
 20
639.8097
 11
344.2306
 21
636.3684
  0
LINE
  8
0_00
  6
CONTINUOUS
 62
4
 10
344.2513
 20
640.6505
 11
344.1908
 21
640.6505
  0
LINE
  8
0_00
  6
CONTINUOUS
 62
4
 10
341.6486
 20
640.7970
 11
341.6488
 21
631.5892
  0
LINE
  8
0_00
  6
CONTINUOUS
 62
4
 10
343.0487
 20
632.9471
 11
343.0487
 21
630.6065
  0
LINE
  8
0_00
  6
CONTINUOUS
 62
4
 10
343.0487
 20
637.9971
 11
343.0487
 21
640.3932
  0
LINE
  8
0_00
  6
CONTINUOUS
 62
4
 10
345.7486
 20
640.7971
 11
343.4486
 21
640.7970
  0
LINE
  8
0_00
  6
CONTINUOUS
 62
4
 10
346.5487
 20
641.0971
 11
346.5487
 21
640.1971
  0
LINE
  8
0_00
  6
CONTINUOUS
 62
4
 10
345.7486
 20
640.7971
 11
345.7486
 21
640.5971
  0
LINE
  8
0_00
  6
CONTINUOUS
 62
4
 10
344.1292
 20
634.9025
 11
343.4138
 21
634.9651
  0
LINE
  8
0_00
  6
CONTINUOUS
 62
4
 10
343.0566
 20
635.4426
 11
343.5233
 21
637.7576
  0
LINE
  8
0_00
  6
CONTINUOUS
 62
4
 10
343.3273
 20
637.9971
 11
343.0487
 21
637.9971
  0
LINE
  8
0_00
  6
CONTINUOUS
 62
4
 10
345.5486
 20
642.0971
 11
342.9487
 21
642.0970
  0
LINE
  8
0_00
  6
CONTINUOUS
 62
4
 10
348.1492
 20
632.0505
 11
349.6493
 21
632.0505
  0
LINE
  8
0_00
  6
CONTINUOUS
 62
4
 10
155.2000
 20
436.3066
 11
295.2000
 21
436.3066
  0
LINE
  8
0_00
  6
CONTINUOUS
 62
4
 10
277.7000
 20
436.3066
 11
277.7000
 21
339.0274
  0
LINE
  8
0_00
  6
CONTINUOUS
 62
4
 10
172.7000
 20
436.3066
 11
172.7000
 21
339.0274
  0
LINE
  8
0_00
  6
CONTINUOUS
 62
4
 10
277.7000
 20
386.3066
 11
172.7000
 21
386.3066
  0
LINE
  8
0_00
  6
CONTINUOUS
 62
4
 10
172.7000
 20
386.3066
 11
277.7000
 21
436.3066
  0
LINE
  8
0_00
  6
CONTINUOUS
 62
4
 10
283.2000
 20
436.3066
 11
283.2000
 21
339.0274
  0
LINE
  8
0_00
  6
CONTINUOUS
 62
2
 10
279.5333
 20
436.3066
 11
279.5333
 21
339.0274
  0
LINE
  8
0_00
  6
CONTINUOUS
 62
2
 10
281.3667
 20
436.3066
 11
281.3667
 21
339.0274
  0
LINE
  8
0_00
  6
CONTINUOUS
 62
4
 10
167.2000
 20
436.3066
 11
167.2000
 21
339.0274
  0
LINE
  8
0_00
  6
CONTINUOUS
 62
2
 10
170.8667
 20
436.3066
 11
170.8667
 21
339.0274
  0
LINE
  8
0_00
  6
CONTINUOUS
 62
2
 10
169.0333
 20
436.3066
 11
169.0333
 21
339.0274
  0
LINE
  8
0_00
  6
CONTINUOUS
 62
4
 10
295.2000
 20
451.3066
 11
295.2000
 21
436.3066
  0
LINE
  8
0_00
  6
CONTINUOUS
 62
4
 10
295.2000
 20
424.3066
 11
295.2000
 21
339.0274
  0
LINE
  8
0_00
  6
CONTINUOUS
 62
4
 10
155.2000
 20
424.3066
 11
167.2000
 21
424.3066
  0
LINE
  8
0_00
  6
CONTINUOUS
 62
4
 10
283.2000
 20
424.3066
 11
295.2000
 21
424.3066
  0
LINE
  8
0_00
  6
CONTINUOUS
 62
4
 10
155.2000
 20
451.3066
 11
155.2000
 21
436.3066
  0
LINE
  8
0_00
  6
CONTINUOUS
 62
4
 10
155.2000
 20
424.3066
 11
155.2000
 21
339.0274
  0
LINE
  8
0_00
  6
CONTINUOUS
 62
6
 10
156.3654
 20
436.3066
 11
155.7567
 21
435.6979
  0
LINE
  8
0_00
  6
CONTINUOUS
 62
6
 10
159.1938
 20
436.3066
 11
156.8622
 21
433.9749
  0
LINE
  8
0_00
  6
CONTINUOUS
 62
6
 10
162.0222
 20
436.3066
 11
157.5591
 21
431.8434
  0
LINE
  8
0_00
  6
CONTINUOUS
 62
6
 10
164.8507
 20
436.3066
 11
157.6082
 21
429.0640
  0
LINE
  8
0_00
  6
CONTINUOUS
 62
6
 10
167.2000
 20
435.8275
 11
155.6791
 21
424.3066
  0
LINE
  8
0_00
  6
CONTINUOUS
 62
6
 10
167.2000
 20
432.9991
 11
158.5075
 21
424.3066
  0
LINE
  8
0_00
  6
CONTINUOUS
 62
6
 10
167.2000
 20
430.1706
 11
161.3359
 21
424.3066
  0
LINE
  8
0_00
  6
CONTINUOUS
 62
6
 10
167.2000
 20
427.3422
 11
164.1644
 21
424.3066
  0
LINE
  8
0_00
  6
CONTINUOUS
 62
6
 10
167.2000
 20
424.5138
 11
166.9928
 21
424.3066
  0
LINE
  8
0_00
  6
CONTINUOUS
 62
6
 10
284.1330
 20
436.3066
 11
283.2000
 21
435.3735
  0
LINE
  8
0_00
  6
CONTINUOUS
 62
6
 10
286.9614
 20
436.3066
 11
283.2000
 21
432.5451
  0
LINE
  8
0_00
  6
CONTINUOUS
 62
6
 10
289.7899
 20
436.3066
 11
283.2000
 21
429.7167
  0
LINE
  8
0_00
  6
CONTINUOUS
 62
6
 10
292.6183
 20
436.3066
 11
283.2000
 21
426.8882
  0
LINE
  8
0_00
  6
CONTINUOUS
 62
6
 10
294.0902
 20
434.9500
 11
283.4467
 21
424.3066
  0
LINE
  8
0_00
  6
CONTINUOUS
 62
6
 10
292.7113
 20
430.7427
 11
286.2752
 21
424.3066
  0
LINE
  8
0_00
  6
CONTINUOUS
 62
6
 10
292.9730
 20
428.1760
 11
289.1036
 21
424.3066
  0
LINE
  8
0_00
  6
CONTINUOUS
 62
6
 10
293.7867
 20
426.1612
 11
291.9320
 21
424.3066
  0
LINE
  8
0_00
  6
CONTINUOUS
 62
6
 10
294.9833
 20
424.5295
 11
294.7604
 21
424.3066
  0
LINE
  8
0_00
  6
CONTINUOUS
 62
4
 10
155.2000
 20
451.3066
 11
295.2000
 21
451.3066
  0
LINE
  8
0_00
  6
CONTINUOUS
 62
2
 10
161.3359
 20
424.3066
 11
155.2000
 21
418.1706
  0
LINE
  8
0_00
  6
CONTINUOUS
 62
2
 10
164.1644
 20
424.3066
 11
155.2000
 21
415.3422
  0
LINE
  8
0_00
  6
CONTINUOUS
 62
2
 10
167.2000
 20
394.8153
 11
155.2000
 21
382.8153
  0
LINE
  8
0_00
  6
CONTINUOUS
 62
2
 10
167.2000
 20
391.9869
 11
155.2000
 21
379.9869
  0
LINE
  8
0_00
  6
CONTINUOUS
 62
2
 10
167.2000
 20
359.4600
 11
155.2000
 21
347.4600
  0
LINE
  8
0_00
  6
CONTINUOUS
 62
2
 10
167.2000
 20
356.6315
 11
155.2000
 21
344.6315
  0
LINE
  8
0_00
  6
CONTINUOUS
 62
2
 10
289.3359
 20
424.3066
 11
283.2000
 21
418.1706
  0
LINE
  8
0_00
  6
CONTINUOUS
 62
2
 10
292.1644
 20
424.3066
 11
283.2000
 21
415.3422
  0
LINE
  8
0_00
  6
CONTINUOUS
 62
2
 10
295.2000
 20
394.8153
 11
283.2000
 21
382.8153
  0
LINE
  8
0_00
  6
CONTINUOUS
 62
2
 10
295.2000
 20
391.9869
 11
283.2000
 21
379.9869
  0
LINE
  8
0_00
  6
CONTINUOUS
 62
2
 10
295.2000
 20
359.4600
 11
283.2000
 21
347.4600
  0
LINE
  8
0_00
  6
CONTINUOUS
 62
2
 10
295.2000
 20
356.6315
 11
283.2000
 21
344.6315
  0
LINE
  8
0_00
  6
PHANTOM1
 62
2
 10
297.7000
 20
451.3066
 11
297.7000
 21
339.0274
  0
LINE
  8
0_00
  6
PHANTOM1
 62
2
 10
152.7000
 20
451.3066
 11
152.7000
 21
339.0274
  0
LINE
  8
0_00
  6
CONTINUOUS
 62
4
 10
295.2000
 20
451.3066
 11
155.2000
 21
436.3066
  0
LINE
  8
0_00
  6
CONTINUOUS
 62
4
 10
269.5000
 20
462.2066
 11
269.5000
 21
461.1066
  0
LINE
  8
0_00
  6
CONTINUOUS
 62
4
 10
271.0000
 20
462.7066
 11
270.0000
 21
462.7066
  0
LINE
  8
0_00
  6
CONTINUOUS
 62
4
 10
271.0000
 20
462.7066
 11
271.0000
 21
462.5066
  0
LINE
  8
0_00
  6
CONTINUOUS
 62
4
 10
269.5000
 20
461.1066
 11
266.5000
 21
461.1066
  0
LINE
  8
0_00
  6
CONTINUOUS
 62
4
 10
266.2000
 20
460.8066
 11
266.2000
 21
458.9066
  0
LINE
  8
0_00
  6
CONTINUOUS
 62
4
 10
266.5000
 20
458.6066
 11
269.0000
 21
458.6066
  0
LINE
  8
0_00
  6
CONTINUOUS
 62
4
 10
163.4000
 20
462.5066
 11
179.4000
 21
462.5066
  0
LINE
  8
0_00
  6
CONTINUOUS
 62
4
 10
180.9000
 20
462.2066
 11
180.9000
 21
461.1066
  0
LINE
  8
0_00
  6
CONTINUOUS
 62
4
 10
179.4000
 20
462.7066
 11
180.4000
 21
462.7066
  0
LINE
  8
0_00
  6
CONTINUOUS
 62
4
 10
179.4000
 20
462.7066
 11
179.4000
 21
462.5066
  0
LINE
  8
0_00
  6
CONTINUOUS
 62
4
 10
163.4000
 20
462.7066
 11
163.4000
 21
462.5066
  0
LINE
  8
0_00
  6
CONTINUOUS
 62
4
 10
161.9000
 20
462.2066
 11
161.9000
 21
460.2066
  0
LINE
  8
0_00
  6
CONTINUOUS
 62
4
 10
162.4000
 20
462.7066
 11
163.4000
 21
462.7066
  0
LINE
  8
0_00
  6
CONTINUOUS
 62
4
 10
165.9000
 20
459.5066
 11
176.9000
 21
459.5066
  0
LINE
  8
0_00
  6
CONTINUOUS
 62
4
 10
180.9000
 20
461.1066
 11
183.9000
 21
461.1066
  0
LINE
  8
0_00
  6
CONTINUOUS
 62
4
 10
184.2000
 20
460.8066
 11
184.2000
 21
458.9066
  0
LINE
  8
0_00
  6
CONTINUOUS
 62
4
 10
183.9000
 20
458.6066
 11
181.4000
 21
458.6066
  0
LINE
  8
0_00
  6
CONTINUOUS
 62
4
 10
247.7000
 20
466.8066
 11
247.7000
 21
466.3065
  0
LINE
  8
0_00
  6
CONTINUOUS
 62
4
 10
202.7000
 20
466.8066
 11
202.7000
 21
466.3065
  0
LINE
  8
0_00
  6
CONTINUOUS
 62
4
 10
246.7000
 20
466.3065
 11
247.2000
 21
466.8066
  0
LINE
  8
0_00
  6
CONTINUOUS
 62
4
 10
243.8716
 20
466.3065
 11
244.3716
 21
466.8066
  0
LINE
  8
0_00
  6
CONTINUOUS
 62
4
 10
241.0432
 20
466.3065
 11
241.5431
 21
466.8066
  0
LINE
  8
0_00
  6
CONTINUOUS
 62
4
 10
238.2147
 20
466.3065
 11
238.7147
 21
466.8066
  0
LINE
  8
0_00
  6
CONTINUOUS
 62
4
 10
235.3863
 20
466.3065
 11
235.8863
 21
466.8066
  0
LINE
  8
0_00
  6
CONTINUOUS
 62
4
 10
232.5579
 20
466.3065
 11
233.0579
 21
466.8066
  0
LINE
  8
0_00
  6
CONTINUOUS
 62
4
 10
229.7294
 20
466.3065
 11
230.2294
 21
466.8066
  0
LINE
  8
0_00
  6
CONTINUOUS
 62
4
 10
226.9010
 20
466.3065
 11
227.4010
 21
466.8066
  0
LINE
  8
0_00
  6
CONTINUOUS
 62
4
 10
224.0726
 20
466.3065
 11
224.5726
 21
466.8066
  0
LINE
  8
0_00
  6
CONTINUOUS
 62
4
 10
221.2441
 20
466.3065
 11
221.7442
 21
466.8066
  0
LINE
  8
0_00
  6
CONTINUOUS
 62
4
 10
218.4157
 20
466.3065
 11
218.9157
 21
466.8066
  0
LINE
  8
0_00
  6
CONTINUOUS
 62
4
 10
215.5873
 20
466.3065
 11
216.0873
 21
466.8066
  0
LINE
  8
0_00
  6
CONTINUOUS
 62
4
 10
212.7589
 20
466.3065
 11
213.2589
 21
466.8066
  0
LINE
  8
0_00
  6
CONTINUOUS
 62
4
 10
209.9304
 20
466.3065
 11
210.4305
 21
466.8066
  0
LINE
  8
0_00
  6
CONTINUOUS
 62
4
 10
207.1020
 20
466.3065
 11
207.6020
 21
466.8066
  0
LINE
  8
0_00
  6
CONTINUOUS
 62
4
 10
204.2736
 20
466.3065
 11
204.7736
 21
466.8066
  0
LINE
  8
0_00
  6
CONTINUOUS
 62
4
 10
202.7000
 20
466.8066
 11
247.7000
 21
466.8066
  0
LINE
  8
0_00
  6
CONTINUOUS
 62
4
 10
236.4252
 20
461.1066
 11
213.9748
 21
461.1066
  0
LINE
  8
0_00
  6
CONTINUOUS
 62
4
 10
236.4252
 20
458.8066
 11
213.9748
 21
458.8066
  0
LINE
  8
0_00
  6
CONTINUOUS
 62
4
 10
227.2000
 20
458.8066
 11
227.2000
 21
461.1066
  0
LINE
  8
0_00
  6
CONTINUOUS
 62
4
 10
223.2000
 20
461.1066
 11
223.2000
 21
458.8066
  0
LINE
  8
0_00
  6
CONTINUOUS
 62
4
 10
225.2000
 20
458.8066
 11
225.2000
 21
461.1066
  0
LINE
  8
0_00
  6
CONTINUOUS
 62
2
 10
163.4000
 20
462.5066
 11
163.4000
 21
464.8066
  0
LINE
  8
0_00
  6
CONTINUOUS
 62
2
 10
165.7000
 20
462.5066
 11
163.4000
 21
464.8066
  0
LINE
  8
0_00
  6
CONTINUOUS
 62
2
 10
167.9627
 20
462.5066
 11
165.6628
 21
464.8066
  0
LINE
  8
0_00
  6
CONTINUOUS
 62
2
 10
170.2255
 20
462.5066
 11
167.9255
 21
464.8066
  0
LINE
  8
0_00
  6
CONTINUOUS
 62
2
 10
172.4882
 20
462.5066
 11
170.1882
 21
464.8066
  0
LINE
  8
0_00
  6
CONTINUOUS
 62
2
 10
173.4000
 20
463.8576
 11
172.4510
 21
464.8066
  0
LINE
  8
0_00
  6
CONTINUOUS
 62
2
 10
163.4372
 20
462.5066
 11
163.4000
 21
462.5438
  0
LINE
  8
0_00
  6
CONTINUOUS
 62
2
 10
165.7372
 20
464.8066
 11
163.4372
 21
462.5066
  0
LINE
  8
0_00
  6
CONTINUOUS
 62
2
 10
167.9999
 20
464.8066
 11
165.7000
 21
462.5066
  0
LINE
  8
0_00
  6
CONTINUOUS
 62
2
 10
170.2627
 20
464.8066
 11
167.9627
 21
462.5066
  0
LINE
  8
0_00
  6
CONTINUOUS
 62
2
 10
172.5254
 20
464.8066
 11
170.2255
 21
462.5066
  0
LINE
  8
0_00
  6
CONTINUOUS
 62
2
 10
173.4000
 20
463.4184
 11
172.4882
 21
462.5066
  0
LINE
  8
0_00
  6
CONTINUOUS
 62
2
 10
163.4745
 20
464.8066
 11
163.4000
 21
464.7321
  0
LINE
  8
0_00
  6
CONTINUOUS
 62
2
 10
173.4000
 20
462.5066
 11
173.4000
 21
464.8066
  0
LINE
  8
0_00
  6
CONTINUOUS
 62
4
 10
236.4252
 20
461.1066
 11
213.9748
 21
461.1066
  0
LINE
  8
0_00
  6
CONTINUOUS
 62
4
 10
181.9500
 20
464.3066
 11
181.9500
 21
461.1066
  0
LINE
  8
0_00
  6
CONTINUOUS
 62
4
 10
268.4500
 20
464.3066
 11
268.4500
 21
461.1066
  0
LINE
  8
0_00
  6
CONTINUOUS
 62
4
 10
268.4500
 20
461.1066
 11
181.9500
 21
461.1066
  0
LINE
  8
0_00
  6
CONTINUOUS
 62
4
 10
227.2000
 20
461.1066
 11
227.2000
 21
464.3066
  0
LINE
  8
0_00
  6
CONTINUOUS
 62
4
 10
223.2000
 20
461.1066
 11
223.2000
 21
464.3066
  0
LINE
  8
0_00
  6
CONTINUOUS
 62
4
 10
268.4500
 20
464.3066
 11
181.9500
 21
464.3066
  0
LINE
  8
0_00
  6
CONTINUOUS
 62
2
 10
181.9500
 20
464.3066
 11
181.9500
 21
464.6066
  0
LINE
  8
0_00
  6
CONTINUOUS
 62
2
 10
268.4500
 20
464.3066
 11
268.4500
 21
464.6066
  0
LINE
  8
0_00
  6
CONTINUOUS
 62
2
 10
268.4500
 20
464.6066
 11
181.9500
 21
464.6066
  0
LINE
  8
0_00
  6
CONTINUOUS
 62
4
 10
179.9000
 20
451.3066
 11
270.5000
 21
451.3066
  0
LINE
  8
0_00
  6
CONTINUOUS
 62
4
 10
269.0000
 20
454.8066
 11
225.5000
 21
454.8066
  0
LINE
  8
0_00
  6
CONTINUOUS
 62
4
 10
224.9000
 20
454.8066
 11
209.9000
 21
454.8066
  0
LINE
  8
0_00
  6
CONTINUOUS
 62
4
 10
209.9000
 20
454.8066
 11
181.4000
 21
454.8066
  0
LINE
  8
0_00
  6
CONTINUOUS
 62
4
 10
225.2000
 20
454.5065
 11
224.9000
 21
454.8066
  0
LINE
  8
0_00
  6
CONTINUOUS
 62
4
 10
225.2000
 20
454.5065
 11
225.5000
 21
454.8066
  0
LINE
  8
0_00
  6
CONTINUOUS
 62
4
 10
287.0000
 20
462.5066
 11
271.0000
 21
462.5066
  0
LINE
  8
0_00
  6
CONTINUOUS
 62
4
 10
269.0000
 20
458.6066
 11
269.0000
 21
454.8066
  0
LINE
  8
0_00
  6
CONTINUOUS
 62
4
 10
287.0000
 20
462.7066
 11
287.0000
 21
462.5066
  0
LINE
  8
0_00
  6
CONTINUOUS
 62
4
 10
288.5000
 20
462.2066
 11
288.5000
 21
460.2066
  0
LINE
  8
0_00
  6
CONTINUOUS
 62
4
 10
288.0000
 20
462.7066
 11
287.0000
 21
462.7066
  0
LINE
  8
0_00
  6
CONTINUOUS
 62
4
 10
272.5000
 20
458.5066
 11
272.5000
 21
453.3066
  0
LINE
  8
0_00
  6
CONTINUOUS
 62
4
 10
284.5000
 20
459.5066
 11
273.5000
 21
459.5066
  0
LINE
  8
0_00
  6
CONTINUOUS
 62
4
 10
285.5000
 20
458.5066
 11
285.5000
 21
457.7066
  0
LINE
  8
0_00
  6
CONTINUOUS
 62
4
 10
305.0000
 20
438.4065
 11
304.4000
 21
438.4065
  0
LINE
  8
0_00
  6
CONTINUOUS
 62
4
 10
297.9841
 20
460.2066
 11
288.5000
 21
460.2066
  0
LINE
  8
0_00
  6
CONTINUOUS
 62
4
 10
297.6695
 20
457.2066
 11
286.0000
 21
457.2066
  0
LINE
  8
0_00
  6
CONTINUOUS
 62
4
 10
301.3744
 20
457.5758
 11
305.9687
 21
439.6549
  0
LINE
  8
0_00
  6
CONTINUOUS
 62
4
 10
298.6221
 20
456.5106
 11
302.7886
 21
443.4557
  0
LINE
  8
0_00
  6
CONTINUOUS
 62
4
 10
302.9710
 20
442.8841
 11
304.4000
 21
438.4065
  0
LINE
  8
0_00
  6
CONTINUOUS
 62
4
 10
181.4000
 20
458.6066
 11
181.4000
 21
454.8066
  0
LINE
  8
0_00
  6
CONTINUOUS
 62
4
 10
177.9000
 20
458.5066
 11
177.9000
 21
453.3066
  0
LINE
  8
0_00
  6
CONTINUOUS
 62
4
 10
164.9000
 20
458.5066
 11
164.9000
 21
457.7066
  0
LINE
  8
0_00
  6
CONTINUOUS
 62
4
 10
145.4000
 20
438.4065
 11
146.0000
 21
438.4065
  0
LINE
  8
0_00
  6
CONTINUOUS
 62
4
 10
152.4159
 20
460.2066
 11
161.9000
 21
460.2066
  0
LINE
  8
0_00
  6
CONTINUOUS
 62
4
 10
152.7305
 20
457.2066
 11
164.4000
 21
457.2066
  0
LINE
  8
0_00
  6
CONTINUOUS
 62
4
 10
149.0255
 20
457.5758
 11
144.4313
 21
439.6549
  0
LINE
  8
0_00
  6
CONTINUOUS
 62
4
 10
151.7779
 20
456.5106
 11
146.0000
 21
438.4065
  0
LINE
  8
0_00
  6
CONTINUOUS
 62
4
 10
302.7886
 20
443.4557
 11
302.5940
 21
443.0787
  0
LINE
  8
0_00
  6
CONTINUOUS
 62
4
 10
302.5940
 20
443.0787
 11
302.9710
 21
442.8841
  0
LINE
  8
0_00
  6
CENTER1
 62
3
 10
253.2000
 20
464.9115
 11
253.2000
 21
402.7020
  0
LINE
  8
0_00
  6
CENTER1
 62
3
 10
197.2000
 20
463.2906
 11
197.2000
 21
402.7020
  0
LINE
  8
0_00
  6
DASHED
 62
2
 10
255.7000
 20
457.1066
 11
255.7000
 21
411.4367
  0
LINE
  8
0_00
  6
CONTINUOUS
 62
2
 10
247.3000
 20
457.1066
 11
259.1000
 21
457.1066
  0
LINE
  8
0_00
  6
CONTINUOUS
 62
2
 10
259.1000
 20
457.4543
 11
259.1000
 21
457.1066
  0
LINE
  8
0_00
  6
DASHED
 62
2
 10
254.9500
 20
457.1066
 11
254.9500
 21
410.1377
  0
LINE
  8
0_00
  6
DASHED
 62
2
 10
253.2000
 20
407.1065
 11
255.7000
 21
411.4367
  0
LINE
  8
0_00
  6
DASHED
 62
2
 10
250.7000
 20
457.1066
 11
250.7000
 21
411.4367
  0
LINE
  8
0_00
  6
CONTINUOUS
 62
2
 10
247.3000
 20
457.4543
 11
247.3000
 21
457.1066
  0
LINE
  8
0_00
  6
DASHED
 62
2
 10
251.4500
 20
457.1066
 11
251.4500
 21
410.1377
  0
LINE
  8
0_00
  6
DASHED
 62
2
 10
253.2000
 20
407.1065
 11
250.7000
 21
411.4367
  0
LINE
  8
0_00
  6
CONTINUOUS
 62
2
 10
247.3000
 20
457.4543
 11
259.1000
 21
457.4543
  0
LINE
  8
0_00
  6
DASHED
 62
2
 10
194.7000
 20
457.1066
 11
194.7000
 21
411.4367
  0
LINE
  8
0_00
  6
CONTINUOUS
 62
2
 10
203.1000
 20
457.1066
 11
191.3000
 21
457.1066
  0
LINE
  8
0_00
  6
CONTINUOUS
 62
2
 10
191.3000
 20
457.4543
 11
191.3000
 21
457.1066
  0
LINE
  8
0_00
  6
DASHED
 62
2
 10
195.4500
 20
457.1066
 11
195.4500
 21
410.1377
  0
LINE
  8
0_00
  6
DASHED
 62
2
 10
197.2000
 20
407.1065
 11
194.7000
 21
411.4367
  0
LINE
  8
0_00
  6
DASHED
 62
2
 10
199.7000
 20
457.1066
 11
199.7000
 21
411.4367
  0
LINE
  8
0_00
  6
CONTINUOUS
 62
2
 10
203.1000
 20
457.4543
 11
203.1000
 21
457.1066
  0
LINE
  8
0_00
  6
DASHED
 62
2
 10
198.9500
 20
457.1066
 11
198.9500
 21
410.1377
  0
LINE
  8
0_00
  6
DASHED
 62
2
 10
197.2000
 20
407.1065
 11
199.7000
 21
411.4367
  0
LINE
  8
0_00
  6
CONTINUOUS
 62
2
 10
203.1000
 20
457.4543
 11
191.3000
 21
457.4543
  0
LINE
  8
0_00
  6
CONTINUOUS
 62
4
 10
267.2000
 20
454.8066
 11
240.2000
 21
454.8066
  0
LINE
  8
0_00
  6
CONTINUOUS
 62
4
 10
210.2000
 20
454.8066
 11
183.2000
 21
454.8066
  0
LINE
  8
0_00
  6
CONTINUOUS
 62
4
 10
267.2000
 20
457.1066
 11
240.2000
 21
457.1066
  0
LINE
  8
0_00
  6
CONTINUOUS
 62
4
 10
210.2000
 20
457.1066
 11
183.2000
 21
457.1066
  0
LINE
  8
0_00
  6
CONTINUOUS
 62
4
 10
267.2000
 20
457.1066
 11
267.2000
 21
454.8066
  0
LINE
  8
0_00
  6
CONTINUOUS
 62
4
 10
183.2000
 20
457.1066
 11
183.2000
 21
454.8066
  0
LINE
  8
0_00
  6
CONTINUOUS
 62
4
 10
240.2000
 20
457.1066
 11
238.3756
 21
460.0256
  0
LINE
  8
0_00
  6
CONTINUOUS
 62
4
 10
212.0244
 20
460.0256
 11
210.2000
 21
457.1066
  0
LINE
  8
0_00
  6
CONTINUOUS
 62
4
 10
238.2496
 20
455.8876
 11
236.4252
 21
458.8066
  0
LINE
  8
0_00
  6
CONTINUOUS
 62
4
 10
213.9748
 20
458.8066
 11
212.1504
 21
455.8876
  0
LINE
  8
0_00
  6
CONTINUOUS
 62
2
 10
287.0000
 20
462.5066
 11
287.0000
 21
464.8066
  0
LINE
  8
0_00
  6
CONTINUOUS
 62
2
 10
283.5687
 20
462.5066
 11
285.8686
 21
464.8066
  0
LINE
  8
0_00
  6
CONTINUOUS
 62
2
 10
281.3059
 20
462.5066
 11
283.6059
 21
464.8066
  0
LINE
  8
0_00
  6
CONTINUOUS
 62
2
 10
279.0432
 20
462.5066
 11
281.3431
 21
464.8066
  0
LINE
  8
0_00
  6
CONTINUOUS
 62
2
 10
277.0000
 20
462.7262
 11
279.0804
 21
464.8066
  0
LINE
  8
0_00
  6
CONTINUOUS
 62
2
 10
285.8314
 20
462.5066
 11
287.0000
 21
463.6752
  0
LINE
  8
0_00
  6
CONTINUOUS
 62
2
 10
286.9628
 20
462.5066
 11
287.0000
 21
462.5438
  0
LINE
  8
0_00
  6
CONTINUOUS
 62
2
 10
284.6628
 20
464.8066
 11
286.9628
 21
462.5066
  0
LINE
  8
0_00
  6
CONTINUOUS
 62
2
 10
282.4001
 20
464.8066
 11
284.7000
 21
462.5066
  0
LINE
  8
0_00
  6
CONTINUOUS
 62
2
 10
280.1373
 20
464.8066
 11
282.4373
 21
462.5066
  0
LINE
  8
0_00
  6
CONTINUOUS
 62
2
 10
277.8746
 20
464.8066
 11
280.1745
 21
462.5066
  0
LINE
  8
0_00
  6
CONTINUOUS
 62
2
 10
277.0000
 20
463.4184
 11
277.9118
 21
462.5066
  0
LINE
  8
0_00
  6
CONTINUOUS
 62
2
 10
286.9255
 20
464.8066
 11
287.0000
 21
464.7321
  0
LINE
  8
0_00
  6
CONTINUOUS
 62
2
 10
277.0000
 20
462.5066
 11
277.0000
 21
464.8066
  0
LINE
  8
15_0F
  6
CONTINUOUS
 62
6
 10
304.9864
 20
379.6882
 11
396.6273
 21
379.6882
  0
LINE
  8
13_0D
  6
CONTINUOUS
 62
6
 10
152.7000
 20
332.4031
 11
152.7000
 21
313.9193
  0
LINE
  8
13_0D
  6
CONTINUOUS
 62
6
 10
142.7000
 20
318.4192
 11
152.7000
 21
318.4192
  0
LINE
  8
13_0D
  6
CONTINUOUS
 62
6
 10
110.3000
 20
318.4192
 11
142.7000
 21
318.4192
  0
LINE
  8
13_0D
  6
CONTINUOUS
 62
6
 10
142.7000
 20
318.4192
 11
135.3639
 21
319.9786
  0
LINE
  8
13_0D
  6
CONTINUOUS
 62
6
 10
142.7000
 20
318.4192
 11
135.3639
 21
316.8599
  0
LINE
  8
13_0D
  6
CONTINUOUS
 62
6
 10
155.2000
 20
332.4031
 11
155.2000
 21
313.9193
  0
LINE
  8
13_0D
  6
CONTINUOUS
 62
6
 10
152.7000
 20
318.4192
 11
155.2000
 21
318.4192
  0
LINE
  8
13_0D
  6
CONTINUOUS
 62
6
 10
295.2000
 20
332.4031
 11
295.2000
 21
313.9193
  0
LINE
  8
13_0D
  6
CONTINUOUS
 62
6
 10
155.2000
 20
318.4192
 11
295.2000
 21
318.4192
  0
LINE
  8
13_0D
  6
CONTINUOUS
 62
6
 10
155.2000
 20
318.4192
 11
162.5361
 21
316.8599
  0
LINE
  8
13_0D
  6
CONTINUOUS
 62
6
 10
155.2000
 20
318.4192
 11
162.5361
 21
319.9786
  0
LINE
  8
13_0D
  6
CONTINUOUS
 62
6
 10
295.2000
 20
318.4192
 11
287.8639
 21
319.9786
  0
LINE
  8
13_0D
  6
CONTINUOUS
 62
6
 10
295.2000
 20
318.4192
 11
287.8639
 21
316.8599
  0
LINE
  8
13_0D
  6
CONTINUOUS
 62
6
 10
297.7000
 20
332.4031
 11
297.7000
 21
313.9193
  0
LINE
  8
13_0D
  6
CONTINUOUS
 62
6
 10
295.2000
 20
318.4192
 11
297.7000
 21
318.4192
  0
LINE
  8
13_0D
  6
CONTINUOUS
 62
6
 10
297.7000
 20
318.4192
 11
307.7000
 21
318.4192
  0
LINE
  8
13_0D
  6
CONTINUOUS
 62
6
 10
340.1000
 20
318.4192
 11
307.7000
 21
318.4192
  0
LINE
  8
13_0D
  6
CONTINUOUS
 62
6
 10
307.7000
 20
318.4192
 11
315.0361
 21
316.8599
  0
LINE
  8
13_0D
  6
CONTINUOUS
 62
6
 10
307.7000
 20
318.4192
 11
315.0361
 21
319.9786
  0
LINE
  8
13_0D
  6
CONTINUOUS
 62
6
 10
142.7000
 20
411.8801
 11
142.7000
 21
273.9193
  0
LINE
  8
13_0D
  6
CONTINUOUS
 62
6
 10
307.7000
 20
411.8801
 11
307.7000
 21
273.9193
  0
LINE
  8
13_0D
  6
CONTINUOUS
 62
6
 10
142.7000
 20
278.4193
 11
307.7000
 21
278.4193
  0
LINE
  8
13_0D
  6
CONTINUOUS
 62
6
 10
142.7000
 20
278.4193
 11
150.0361
 21
276.8599
  0
LINE
  8
13_0D
  6
CONTINUOUS
 62
6
 10
142.7000
 20
278.4193
 11
150.0361
 21
279.9786
  0
LINE
  8
13_0D
  6
CONTINUOUS
 62
6
 10
307.7000
 20
278.4193
 11
300.3639
 21
279.9786
  0
LINE
  8
13_0D
  6
CONTINUOUS
 62
6
 10
307.7000
 20
278.4193
 11
300.3639
 21
276.8599
  0
LINE
  8
0_00
  6
CONTINUOUS
 62
4
 10
606.0419
 20
560.1194
 11
1167.0420
 21
560.1194
  0
LINE
  8
0_00
  6
CONTINUOUS
 62
4
 10
608.2559
 20
686.8692
 11
1164.8281
 21
686.8692
  0
LINE
  8
0_00
  6
CONTINUOUS
 62
4
 10
608.8039
 20
695.1192
 11
1164.2801
 21
695.1192
  0
LINE
  8
15_0F
  6
CONTINUOUS
 62
4
 10
1128.3645
 20
213.5623
 11
849.6930
 21
213.5623
  0
LINE
  8
15_0F
  6
CONTINUOUS
 62
4
 10
868.3013
 20
378.5623
 11
1128.3645
 21
378.5623
  0
LINE
  8
0_00
  6
CONTINUOUS
 62
4
 10
1042.4842
 20
317.5623
 11
1053.6841
 21
317.5623
  0
LINE
  8
0_00
  6
CONTINUOUS
 62
4
 10
1039.9841
 20
315.0623
 11
1039.9841
 21
296.3623
  0
LINE
  8
0_00
  6
CONTINUOUS
 62
4
 10
1053.9841
 20
317.2623
 11
1053.6841
 21
317.5623
  0
LINE
  8
0_00
  6
CONTINUOUS
 62
4
 10
1050.6841
 20
316.3624
 11
1046.7738
 21
316.3624
  0
LINE
  8
0_00
  6
CONTINUOUS
 62
4
 10
1040.2841
 20
296.0623
 11
1039.9841
 21
296.3623
  0
LINE
  8
0_00
  6
CONTINUOUS
 62
4
 10
1041.1841
 20
299.3623
 11
1041.1841
 21
310.7726
  0
LINE
  8
0_00
  6
CONTINUOUS
 62
4
 10
1053.9841
 20
315.5623
 11
1051.4842
 21
315.5623
  0
LINE
  8
0_00
  6
CONTINUOUS
 62
4
 10
1050.6841
 20
316.3624
 11
1051.4842
 21
315.5623
  0
LINE
  8
0_00
  6
CONTINUOUS
 62
4
 10
1040.2841
 20
296.0623
 11
1039.9841
 21
295.7623
  0
LINE
  8
0_00
  6
CONTINUOUS
 62
4
 10
1040.2841
 20
296.0623
 11
1039.9841
 21
296.3623
  0
LINE
  8
0_00
  6
CONTINUOUS
 62
4
 10
1041.9841
 20
296.0623
 11
1041.9841
 21
298.5623
  0
LINE
  8
0_00
  6
CONTINUOUS
 62
4
 10
1041.1841
 20
299.3623
 11
1041.9841
 21
298.5623
  0
LINE
  8
0_00
  6
CONTINUOUS
 62
4
 10
1065.4841
 20
317.5623
 11
1054.2840
 21
317.5623
  0
LINE
  8
0_00
  6
CONTINUOUS
 62
4
 10
1067.9842
 20
315.0623
 11
1067.9842
 21
296.3623
  0
LINE
  8
0_00
  6
CONTINUOUS
 62
4
 10
1053.9841
 20
317.2623
 11
1054.2840
 21
317.5623
  0
LINE
  8
0_00
  6
CONTINUOUS
 62
4
 10
1057.2840
 20
316.3624
 11
1061.1943
 21
316.3624
  0
LINE
  8
0_00
  6
CONTINUOUS
 62
4
 10
1067.6841
 20
296.0623
 11
1067.9842
 21
296.3623
  0
LINE
  8
0_00
  6
CONTINUOUS
 62
4
 10
1066.7840
 20
299.3623
 11
1066.7840
 21
310.7726
  0
LINE
  8
0_00
  6
CONTINUOUS
 62
4
 10
1053.9841
 20
315.5623
 11
1056.4841
 21
315.5623
  0
LINE
  8
0_00
  6
CONTINUOUS
 62
4
 10
1057.2840
 20
316.3624
 11
1056.4841
 21
315.5623
  0
LINE
  8
0_00
  6
CONTINUOUS
 62
4
 10
1067.6841
 20
296.0623
 11
1067.9842
 21
295.7623
  0
LINE
  8
0_00
  6
CONTINUOUS
 62
4
 10
1067.6841
 20
296.0623
 11
1067.9842
 21
296.3623
  0
LINE
  8
0_00
  6
CONTINUOUS
 62
4
 10
1065.9841
 20
296.0623
 11
1065.9841
 21
298.5623
  0
LINE
  8
0_00
  6
CONTINUOUS
 62
4
 10
1066.7840
 20
299.3623
 11
1065.9841
 21
298.5623
  0
LINE
  8
0_00
  6
CONTINUOUS
 62
4
 10
1042.4842
 20
274.5623
 11
1053.6841
 21
274.5623
  0
LINE
  8
0_00
  6
CONTINUOUS
 62
4
 10
1039.9841
 20
277.0623
 11
1039.9841
 21
295.7623
  0
LINE
  8
0_00
  6
CONTINUOUS
 62
4
 10
1053.9841
 20
274.8623
 11
1053.6841
 21
274.5623
  0
LINE
  8
0_00
  6
CONTINUOUS
 62
4
 10
1050.6841
 20
275.7623
 11
1046.7738
 21
275.7623
  0
LINE
  8
0_00
  6
CONTINUOUS
 62
4
 10
1040.2841
 20
296.0623
 11
1039.9841
 21
295.7623
  0
LINE
  8
0_00
  6
CONTINUOUS
 62
4
 10
1041.1841
 20
292.7623
 11
1041.1841
 21
281.3521
  0
LINE
  8
0_00
  6
CONTINUOUS
 62
4
 10
1053.9841
 20
276.5623
 11
1051.4842
 21
276.5623
  0
LINE
  8
0_00
  6
CONTINUOUS
 62
4
 10
1050.6841
 20
275.7623
 11
1051.4842
 21
276.5623
  0
LINE
  8
0_00
  6
CONTINUOUS
 62
4
 10
1040.2841
 20
296.0623
 11
1039.9841
 21
296.3623
  0
LINE
  8
0_00
  6
CONTINUOUS
 62
4
 10
1040.2841
 20
296.0623
 11
1039.9841
 21
295.7623
  0
LINE
  8
0_00
  6
CONTINUOUS
 62
4
 10
1041.9841
 20
296.0623
 11
1041.9841
 21
293.5623
  0
LINE
  8
0_00
  6
CONTINUOUS
 62
4
 10
1041.1841
 20
292.7623
 11
1041.9841
 21
293.5623
  0
LINE
  8
0_00
  6
CONTINUOUS
 62
4
 10
1065.4841
 20
274.5623
 11
1054.2840
 21
274.5623
  0
LINE
  8
0_00
  6
CONTINUOUS
 62
4
 10
1067.9842
 20
277.0623
 11
1067.9842
 21
295.7623
  0
LINE
  8
0_00
  6
CONTINUOUS
 62
4
 10
1053.9841
 20
274.8623
 11
1054.2840
 21
274.5623
  0
LINE
  8
0_00
  6
CONTINUOUS
 62
4
 10
1057.2840
 20
275.7623
 11
1061.1943
 21
275.7623
  0
LINE
  8
0_00
  6
CONTINUOUS
 62
4
 10
1067.6841
 20
296.0623
 11
1067.9842
 21
295.7623
  0
LINE
  8
0_00
  6
CONTINUOUS
 62
4
 10
1066.7840
 20
292.7623
 11
1066.7840
 21
281.3521
  0
LINE
  8
0_00
  6
CONTINUOUS
 62
4
 10
1053.9841
 20
276.5623
 11
1056.4841
 21
276.5623
  0
LINE
  8
0_00
  6
CONTINUOUS
 62
4
 10
1057.2840
 20
275.7623
 11
1056.4841
 21
276.5623
  0
LINE
  8
0_00
  6
CONTINUOUS
 62
4
 10
1067.6841
 20
296.0623
 11
1067.9842
 21
296.3623
  0
LINE
  8
0_00
  6
CONTINUOUS
 62
4
 10
1067.6841
 20
296.0623
 11
1067.9842
 21
295.7623
  0
LINE
  8
0_00
  6
CONTINUOUS
 62
4
 10
1065.9841
 20
296.0623
 11
1065.9841
 21
293.5623
  0
LINE
  8
0_00
  6
CONTINUOUS
 62
4
 10
1066.7840
 20
292.7623
 11
1065.9841
 21
293.5623
  0
LINE
  8
0_00
  6
CONTINUOUS
 62
4
 10
1066.0931
 20
314.6108
 11
1066.4286
 21
314.9462
  0
LINE
  8
0_00
  6
CONTINUOUS
 62
4
 10
1066.4286
 20
314.9462
 11
1065.3680
 21
316.0069
  0
LINE
  8
0_00
  6
CONTINUOUS
 62
4
 10
1065.3680
 20
316.0069
 11
1065.0325
 21
315.6715
  0
LINE
  8
0_00
  6
CONTINUOUS
 62
4
 10
1063.9357
 20
315.6715
 11
1063.6003
 21
316.0069
  0
LINE
  8
0_00
  6
CONTINUOUS
 62
4
 10
1063.6003
 20
316.0069
 11
1062.5395
 21
314.9462
  0
LINE
  8
0_00
  6
CONTINUOUS
 62
4
 10
1062.5395
 20
314.9462
 11
1062.8750
 21
314.6108
  0
LINE
  8
0_00
  6
CONTINUOUS
 62
4
 10
1065.0325
 20
312.4533
 11
1065.3680
 21
312.1178
  0
LINE
  8
0_00
  6
CONTINUOUS
 62
4
 10
1065.3680
 20
312.1178
 11
1066.4286
 21
313.1785
  0
LINE
  8
0_00
  6
CONTINUOUS
 62
4
 10
1066.4286
 20
313.1785
 11
1066.0931
 21
313.5139
  0
LINE
  8
0_00
  6
CONTINUOUS
 62
4
 10
1041.8750
 20
314.6108
 11
1041.5395
 21
314.9462
  0
LINE
  8
0_00
  6
CONTINUOUS
 62
4
 10
1041.5395
 20
314.9462
 11
1042.6003
 21
316.0069
  0
LINE
  8
0_00
  6
CONTINUOUS
 62
4
 10
1042.6003
 20
316.0069
 11
1042.9357
 21
315.6715
  0
LINE
  8
0_00
  6
CONTINUOUS
 62
4
 10
1044.0325
 20
315.6715
 11
1044.3680
 21
316.0069
  0
LINE
  8
0_00
  6
CONTINUOUS
 62
4
 10
1044.3680
 20
316.0069
 11
1045.4286
 21
314.9462
  0
LINE
  8
0_00
  6
CONTINUOUS
 62
4
 10
1045.4286
 20
314.9462
 11
1045.0931
 21
314.6108
  0
LINE
  8
0_00
  6
CONTINUOUS
 62
4
 10
1042.9357
 20
312.4533
 11
1042.6003
 21
312.1178
  0
LINE
  8
0_00
  6
CONTINUOUS
 62
4
 10
1042.6003
 20
312.1178
 11
1041.5395
 21
313.1785
  0
LINE
  8
0_00
  6
CONTINUOUS
 62
4
 10
1041.5395
 20
313.1785
 11
1041.8750
 21
313.5139
  0
LINE
  8
0_00
  6
CONTINUOUS
 62
4
 10
1066.0931
 20
277.5139
 11
1066.4286
 21
277.1785
  0
LINE
  8
0_00
  6
CONTINUOUS
 62
4
 10
1066.4286
 20
277.1785
 11
1065.3680
 21
276.1178
  0
LINE
  8
0_00
  6
CONTINUOUS
 62
4
 10
1065.3680
 20
276.1178
 11
1065.0325
 21
276.4532
  0
LINE
  8
0_00
  6
CONTINUOUS
 62
4
 10
1063.9357
 20
276.4532
 11
1063.6003
 21
276.1178
  0
LINE
  8
0_00
  6
CONTINUOUS
 62
4
 10
1063.6003
 20
276.1178
 11
1062.5395
 21
277.1785
  0
LINE
  8
0_00
  6
CONTINUOUS
 62
4
 10
1062.5395
 20
277.1785
 11
1062.8750
 21
277.5139
  0
LINE
  8
0_00
  6
CONTINUOUS
 62
4
 10
1065.0325
 20
279.6714
 11
1065.3680
 21
280.0069
  0
LINE
  8
0_00
  6
CONTINUOUS
 62
4
 10
1065.3680
 20
280.0069
 11
1066.4286
 21
278.9462
  0
LINE
  8
0_00
  6
CONTINUOUS
 62
4
 10
1066.4286
 20
278.9462
 11
1066.0931
 21
278.6108
  0
LINE
  8
0_00
  6
CONTINUOUS
 62
4
 10
1041.8750
 20
277.5139
 11
1041.5395
 21
277.1785
  0
LINE
  8
0_00
  6
CONTINUOUS
 62
4
 10
1041.5395
 20
277.1785
 11
1042.6003
 21
276.1178
  0
LINE
  8
0_00
  6
CONTINUOUS
 62
4
 10
1042.6003
 20
276.1178
 11
1042.9357
 21
276.4532
  0
LINE
  8
0_00
  6
CONTINUOUS
 62
4
 10
1044.0325
 20
276.4532
 11
1044.3680
 21
276.1178
  0
LINE
  8
0_00
  6
CONTINUOUS
 62
4
 10
1044.3680
 20
276.1178
 11
1045.4286
 21
277.1785
  0
LINE
  8
0_00
  6
CONTINUOUS
 62
4
 10
1045.4286
 20
277.1785
 11
1045.0931
 21
277.5139
  0
LINE
  8
0_00
  6
CONTINUOUS
 62
4
 10
1042.9357
 20
279.6714
 11
1042.6003
 21
280.0069
  0
LINE
  8
0_00
  6
CONTINUOUS
 62
4
 10
1042.6003
 20
280.0069
 11
1041.5395
 21
278.9462
  0
LINE
  8
0_00
  6
CONTINUOUS
 62
4
 10
1041.5395
 20
278.9462
 11
1041.8750
 21
278.6108
  0
LINE
  8
0_00
  6
CONTINUOUS
 62
4
 10
1066.6915
 20
311.0623
 11
1065.7341
 21
311.0623
  0
LINE
  8
0_00
  6
CONTINUOUS
 62
4
 10
1042.2341
 20
311.0623
 11
1041.2766
 21
311.0623
  0
LINE
  8
0_00
  6
CONTINUOUS
 62
4
 10
1053.6841
 20
284.0623
 11
1054.2840
 21
284.0623
  0
LINE
  8
0_00
  6
CONTINUOUS
 62
4
 10
1053.6841
 20
287.0623
 11
1054.2840
 21
287.0623
  0
LINE
  8
0_00
  6
CONTINUOUS
 62
4
 10
1054.2840
 20
287.0623
 11
1054.2840
 21
284.0623
  0
LINE
  8
0_00
  6
CONTINUOUS
 62
4
 10
1053.6841
 20
287.0623
 11
1053.6841
 21
284.0623
  0
LINE
  8
0_00
  6
CONTINUOUS
 62
4
 10
1053.9841
 20
284.0623
 11
1053.9841
 21
287.0623
  0
LINE
  8
0_00
  6
CONTINUOUS
 62
4
 10
1053.6841
 20
308.0623
 11
1054.2840
 21
308.0623
  0
LINE
  8
0_00
  6
CONTINUOUS
 62
4
 10
1053.6841
 20
305.0623
 11
1054.2840
 21
305.0623
  0
LINE
  8
0_00
  6
CONTINUOUS
 62
4
 10
1054.2840
 20
305.0623
 11
1054.2840
 21
308.0623
  0
LINE
  8
0_00
  6
CONTINUOUS
 62
4
 10
1053.6841
 20
305.0623
 11
1053.6841
 21
308.0623
  0
LINE
  8
0_00
  6
CONTINUOUS
 62
4
 10
1053.9841
 20
308.0623
 11
1053.9841
 21
305.0623
  0
LINE
  8
0_00
  6
CONTINUOUS
 62
4
 10
1065.4841
 20
318.5623
 11
1042.4842
 21
318.5623
  0
LINE
  8
0_00
  6
CONTINUOUS
 62
4
 10
1038.9841
 20
315.0623
 11
1038.9841
 21
277.0623
  0
LINE
  8
0_00
  6
CONTINUOUS
 62
4
 10
1042.4842
 20
273.5623
 11
1065.4841
 21
273.5623
  0
LINE
  8
0_00
  6
CONTINUOUS
 62
4
 10
1068.9841
 20
277.0623
 11
1068.9841
 21
315.0623
  0
LINE
  8
15_0F
  6
CONTINUOUS
 62
4
 10
863.6426
 20
378.5623
 11
564.6749
 21
378.5623
  0
LINE
  8
0_00
  6
CONTINUOUS
 62
4
 10
698.5040
 20
376.8623
 11
638.5039
 21
376.8623
  0
LINE
  8
0_00
  6
CONTINUOUS
 62
4
 10
638.5039
 20
371.5623
 11
698.5040
 21
371.5623
  0
LINE
  8
0_00
  6
CONTINUOUS
 62
4
 10
638.5039
 20
359.3623
 11
698.5040
 21
359.3623
  0
LINE
  8
0_00
  6
CONTINUOUS
 62
4
 10
638.5039
 20
357.8623
 11
698.5040
 21
357.8623
  0
LINE
  8
0_00
  6
CONTINUOUS
 62
2
 10
638.5039
 20
347.8623
 11
698.5040
 21
347.8623
  0
LINE
  8
0_00
  6
CONTINUOUS
 62
2
 10
688.5040
 20
357.8623
 11
698.5040
 21
347.8623
  0
LINE
  8
0_00
  6
CONTINUOUS
 62
2
 10
691.3324
 20
357.8623
 11
698.5040
 21
350.6908
  0
LINE
  8
0_00
  6
CONTINUOUS
 62
2
 10
694.1608
 20
357.8623
 11
698.5040
 21
353.5192
  0
LINE
  8
0_00
  6
CONTINUOUS
 62
2
 10
696.9893
 20
357.8623
 11
698.5040
 21
356.3476
  0
LINE
  8
0_00
  6
CONTINUOUS
 62
2
 10
685.6755
 20
357.8623
 11
695.6755
 21
347.8623
  0
LINE
  8
0_00
  6
CONTINUOUS
 62
2
 10
682.8471
 20
357.8623
 11
692.8472
 21
347.8623
  0
LINE
  8
0_00
  6
CONTINUOUS
 62
2
 10
680.0186
 20
357.8623
 11
690.0187
 21
347.8623
  0
LINE
  8
0_00
  6
CONTINUOUS
 62
2
 10
677.1903
 20
357.8623
 11
687.1902
 21
347.8623
  0
LINE
  8
0_00
  6
CONTINUOUS
 62
2
 10
674.3618
 20
357.8623
 11
684.3618
 21
347.8623
  0
LINE
  8
0_00
  6
CONTINUOUS
 62
2
 10
671.5334
 20
357.8623
 11
681.5334
 21
347.8623
  0
LINE
  8
0_00
  6
CONTINUOUS
 62
2
 10
668.7051
 20
357.8623
 11
678.7050
 21
347.8623
  0
LINE
  8
0_00
  6
CONTINUOUS
 62
2
 10
665.8766
 20
357.8623
 11
675.8766
 21
347.8623
  0
LINE
  8
0_00
  6
CONTINUOUS
 62
2
 10
663.0481
 20
357.8623
 11
673.0481
 21
347.8623
  0
LINE
  8
0_00
  6
CONTINUOUS
 62
2
 10
660.2197
 20
357.8623
 11
670.2198
 21
347.8623
  0
LINE
  8
0_00
  6
CONTINUOUS
 62
2
 10
657.3913
 20
357.8623
 11
667.3913
 21
347.8623
  0
LINE
  8
0_00
  6
CONTINUOUS
 62
2
 10
654.5629
 20
357.8623
 11
664.5629
 21
347.8623
  0
LINE
  8
0_00
  6
CONTINUOUS
 62
2
 10
651.7344
 20
357.8623
 11
661.7345
 21
347.8623
  0
LINE
  8
0_00
  6
CONTINUOUS
 62
2
 10
648.9060
 20
357.8623
 11
658.9060
 21
347.8623
  0
LINE
  8
0_00
  6
CONTINUOUS
 62
2
 10
646.0776
 20
357.8623
 11
656.0776
 21
347.8623
  0
LINE
  8
0_00
  6
CONTINUOUS
 62
2
 10
643.2491
 20
357.8623
 11
653.2491
 21
347.8623
  0
LINE
  8
0_00
  6
CONTINUOUS
 62
2
 10
640.4208
 20
357.8623
 11
650.4207
 21
347.8623
  0
LINE
  8
0_00
  6
CONTINUOUS
 62
2
 10
638.5039
 20
356.9507
 11
647.5923
 21
347.8623
  0
LINE
  8
0_00
  6
CONTINUOUS
 62
2
 10
638.5039
 20
354.1222
 11
644.7638
 21
347.8623
  0
LINE
  8
0_00
  6
CONTINUOUS
 62
2
 10
638.5039
 20
351.2938
 11
641.9355
 21
347.8623
  0
LINE
  8
0_00
  6
CONTINUOUS
 62
2
 10
638.5039
 20
348.4654
 11
639.1070
 21
347.8623
  0
LINE
  8
0_00
  6
CONTINUOUS
 62
4
 10
564.6749
 20
377.1623
 11
863.2674
 21
377.1623
  0
LINE
  8
15_0F
  6
CONTINUOUS
 62
4
 10
860.2932
 20
366.0623
 11
698.5040
 21
366.0623
  0
LINE
  8
15_0F
  6
CONTINUOUS
 62
4
 10
638.5039
 20
366.0623
 11
564.6749
 21
366.0623
  0
LINE
  8
0_00
  6
CONTINUOUS
 62
2
 10
649.7280
 20
326.1522
 11
650.5970
 21
325.3135
  0
LINE
  8
0_00
  6
CONTINUOUS
 62
2
 10
650.5970
 20
325.3135
 11
651.0040
 21
325.1650
  0
LINE
  8
0_00
  6
CONTINUOUS
 62
2
 10
651.0040
 20
325.1650
 11
651.3890
 21
325.3053
  0
LINE
  8
0_00
  6
CONTINUOUS
 62
2
 10
651.3890
 20
325.3053
 11
652.2854
 21
326.1495
  0
LINE
  8
0_00
  6
CONTINUOUS
 62
2
 10
648.9141
 20
325.3382
 11
649.7528
 21
324.4693
  0
LINE
  8
0_00
  6
CONTINUOUS
 62
2
 10
649.7528
 20
324.4693
 11
649.9013
 21
324.0623
  0
LINE
  8
0_00
  6
CONTINUOUS
 62
2
 10
649.9013
 20
324.0623
 11
649.7611
 21
323.6774
  0
LINE
  8
0_00
  6
CONTINUOUS
 62
2
 10
649.7611
 20
323.6774
 11
648.9169
 21
322.7809
  0
LINE
  8
0_00
  6
CONTINUOUS
 62
2
 10
653.0939
 20
322.7864
 11
652.2552
 21
323.6554
  0
LINE
  8
0_00
  6
CONTINUOUS
 62
2
 10
652.2552
 20
323.6554
 11
652.1067
 21
324.0623
  0
LINE
  8
0_00
  6
CONTINUOUS
 62
2
 10
652.1067
 20
324.0623
 11
652.2469
 21
324.4473
  0
LINE
  8
0_00
  6
CONTINUOUS
 62
2
 10
652.2469
 20
324.4473
 11
653.0911
 21
325.3437
  0
LINE
  8
0_00
  6
CONTINUOUS
 62
2
 10
652.2799
 20
321.9725
 11
651.4109
 21
322.8112
  0
LINE
  8
0_00
  6
CONTINUOUS
 62
2
 10
651.4109
 20
322.8112
 11
651.0040
 21
322.9597
  0
LINE
  8
0_00
  6
CONTINUOUS
 62
2
 10
651.0040
 20
322.9597
 11
650.6190
 21
322.8194
  0
LINE
  8
0_00
  6
CONTINUOUS
 62
2
 10
650.6190
 20
322.8194
 11
649.7225
 21
321.9752
  0
LINE
  8
0_00
  6
CONTINUOUS
 62
4
 10
698.5040
 20
376.8623
 11
698.5040
 21
215.2623
  0
LINE
  8
0_00
  6
CONTINUOUS
 62
4
 10
638.5039
 20
376.8623
 11
638.5039
 21
215.2623
  0
LINE
  8
0_00
  6
CONTINUOUS
 62
4
 10
698.5040
 20
215.2623
 11
638.5039
 21
215.2623
  0
LINE
  8
0_00
  6
CONTINUOUS
 62
4
 10
638.5039
 20
220.5623
 11
698.5040
 21
220.5623
  0
LINE
  8
0_00
  6
CONTINUOUS
 62
4
 10
638.5039
 20
232.7623
 11
698.5040
 21
232.7623
  0
LINE
  8
0_00
  6
CONTINUOUS
 62
4
 10
638.5039
 20
234.2623
 11
698.5040
 21
234.2623
  0
LINE
  8
0_00
  6
CONTINUOUS
 62
4
 10
638.5039
 20
250.2623
 11
698.5040
 21
250.2623
  0
LINE
  8
0_00
  6
CONTINUOUS
 62
4
 10
638.5039
 20
251.7623
 11
698.5040
 21
251.7623
  0
LINE
  8
0_00
  6
CONTINUOUS
 62
4
 10
638.5039
 20
255.0623
 11
698.5040
 21
255.0623
  0
LINE
  8
0_00
  6
CONTINUOUS
 62
4
 10
638.5039
 20
341.8624
 11
698.5040
 21
341.8624
  0
LINE
  8
0_00
  6
CONTINUOUS
 62
4
 10
638.5039
 20
340.3624
 11
698.5040
 21
340.3624
  0
LINE
  8
0_00
  6
CONTINUOUS
 62
4
 10
638.5039
 20
337.0623
 11
698.5040
 21
337.0623
  0
LINE
  8
0_00
  6
CONTINUOUS
 62
4
 10
669.0040
 20
336.5623
 11
668.0040
 21
336.5623
  0
LINE
  8
0_00
  6
CONTINUOUS
 62
4
 10
669.0040
 20
336.5623
 11
669.0040
 21
335.3662
  0
LINE
  8
0_00
  6
CONTINUOUS
 62
4
 10
668.0040
 20
336.5623
 11
668.0040
 21
335.3662
  0
LINE
  8
0_00
  6
CONTINUOUS
 62
4
 10
668.5040
 20
336.5623
 11
668.5040
 21
335.0623
  0
LINE
  8
0_00
  6
CONTINUOUS
 62
4
 10
669.0040
 20
255.5623
 11
668.0040
 21
255.5623
  0
LINE
  8
0_00
  6
CONTINUOUS
 62
4
 10
669.0040
 20
255.5623
 11
669.0040
 21
256.7585
  0
LINE
  8
0_00
  6
CONTINUOUS
 62
4
 10
668.0040
 20
255.5623
 11
668.0040
 21
256.7585
  0
LINE
  8
0_00
  6
CONTINUOUS
 62
4
 10
668.5040
 20
255.5623
 11
668.5040
 21
257.0623
  0
LINE
  8
0_00
  6
CONTINUOUS
 62
4
 10
638.5039
 20
335.0623
 11
638.5039
 21
298.0623
  0
LINE
  8
0_00
  6
CONTINUOUS
 62
4
 10
638.5039
 20
294.0623
 11
638.5039
 21
257.0623
  0
LINE
  8
0_00
  6
CONTINUOUS
 62
4
 10
698.5040
 20
335.0623
 11
698.5040
 21
298.0623
  0
LINE
  8
0_00
  6
CONTINUOUS
 62
4
 10
698.5040
 20
294.0623
 11
698.5040
 21
257.0623
  0
LINE
  8
0_00
  6
CONTINUOUS
 62
4
 10
698.5040
 20
298.0623
 11
696.6721
 21
296.4363
  0
LINE
  8
0_00
  6
CONTINUOUS
 62
4
 10
698.5040
 20
294.0623
 11
696.6721
 21
295.6884
  0
LINE
  8
0_00
  6
CONTINUOUS
 62
4
 10
638.5039
 20
298.0623
 11
640.3359
 21
296.4363
  0
LINE
  8
0_00
  6
CONTINUOUS
 62
4
 10
638.5039
 20
294.0623
 11
640.3359
 21
295.6884
  0
LINE
  8
0_00
  6
CONTINUOUS
 62
4
 10
670.5767
 20
337.0623
 11
668.8706
 21
335.2223
  0
LINE
  8
0_00
  6
CONTINUOUS
 62
4
 10
666.4312
 20
337.0623
 11
668.1373
 21
335.2223
  0
LINE
  8
0_00
  6
CONTINUOUS
 62
4
 10
670.5767
 20
255.0623
 11
668.8706
 21
256.9023
  0
LINE
  8
0_00
  6
CONTINUOUS
 62
4
 10
666.4312
 20
255.0623
 11
668.1373
 21
256.9023
  0
LINE
  8
0_00
  6
CONTINUOUS
 62
2
 10
687.2799
 20
265.9725
 11
686.4109
 21
266.8111
  0
LINE
  8
0_00
  6
CONTINUOUS
 62
2
 10
686.4109
 20
266.8111
 11
686.0040
 21
266.9597
  0
LINE
  8
0_00
  6
CONTINUOUS
 62
2
 10
686.0040
 20
266.9597
 11
685.6190
 21
266.8194
  0
LINE
  8
0_00
  6
CONTINUOUS
 62
2
 10
685.6190
 20
266.8194
 11
684.7225
 21
265.9752
  0
LINE
  8
0_00
  6
CONTINUOUS
 62
2
 10
688.0938
 20
266.7864
 11
687.2552
 21
267.6553
  0
LINE
  8
0_00
  6
CONTINUOUS
 62
2
 10
687.2552
 20
267.6553
 11
687.1067
 21
268.0623
  0
LINE
  8
0_00
  6
CONTINUOUS
 62
2
 10
687.1067
 20
268.0623
 11
687.2469
 21
268.4473
  0
LINE
  8
0_00
  6
CONTINUOUS
 62
2
 10
687.2469
 20
268.4473
 11
688.0911
 21
269.3438
  0
LINE
  8
0_00
  6
CONTINUOUS
 62
2
 10
683.9141
 20
269.3383
 11
684.7528
 21
268.4693
  0
LINE
  8
0_00
  6
CONTINUOUS
 62
2
 10
684.7528
 20
268.4693
 11
684.9013
 21
268.0623
  0
LINE
  8
0_00
  6
CONTINUOUS
 62
2
 10
684.9013
 20
268.0623
 11
684.7610
 21
267.6774
  0
LINE
  8
0_00
  6
CONTINUOUS
 62
2
 10
684.7610
 20
267.6774
 11
683.9169
 21
266.7809
  0
LINE
  8
0_00
  6
CONTINUOUS
 62
2
 10
684.7280
 20
270.1522
 11
685.5970
 21
269.3135
  0
LINE
  8
0_00
  6
CONTINUOUS
 62
2
 10
685.5970
 20
269.3135
 11
686.0040
 21
269.1650
  0
LINE
  8
0_00
  6
CONTINUOUS
 62
2
 10
686.0040
 20
269.1650
 11
686.3890
 21
269.3053
  0
LINE
  8
0_00
  6
CONTINUOUS
 62
2
 10
686.3890
 20
269.3053
 11
687.2854
 21
270.1495
  0
LINE
  8
0_00
  6
CONTINUOUS
 62
4
 10
638.5039
 20
308.5623
 11
698.5040
 21
308.5623
  0
LINE
  8
0_00
  6
CONTINUOUS
 62
4
 10
698.5040
 20
311.0623
 11
638.5039
 21
311.0623
  0
LINE
  8
0_00
  6
CONTINUOUS
 62
4
 10
638.5039
 20
283.5623
 11
698.5040
 21
283.5623
  0
LINE
  8
0_00
  6
CONTINUOUS
 62
4
 10
698.5040
 20
281.0623
 11
638.5039
 21
281.0623
  0
LINE
  8
0_00
  6
CONTINUOUS
 62
4
 10
668.2040
 20
284.0623
 11
668.8039
 21
284.0623
  0
LINE
  8
0_00
  6
CONTINUOUS
 62
4
 10
668.2040
 20
287.0623
 11
668.8039
 21
287.0623
  0
LINE
  8
0_00
  6
CONTINUOUS
 62
4
 10
668.8039
 20
287.0623
 11
668.8039
 21
284.0623
  0
LINE
  8
0_00
  6
CONTINUOUS
 62
4
 10
668.2040
 20
287.0623
 11
668.2040
 21
284.0623
  0
LINE
  8
0_00
  6
CONTINUOUS
 62
4
 10
668.5040
 20
284.0623
 11
668.5040
 21
287.0623
  0
LINE
  8
0_00
  6
CONTINUOUS
 62
4
 10
668.2040
 20
308.0623
 11
668.8039
 21
308.0623
  0
LINE
  8
0_00
  6
CONTINUOUS
 62
4
 10
668.2040
 20
305.0623
 11
668.8039
 21
305.0623
  0
LINE
  8
0_00
  6
CONTINUOUS
 62
4
 10
668.8039
 20
305.0623
 11
668.8039
 21
308.0623
  0
LINE
  8
0_00
  6
CONTINUOUS
 62
4
 10
668.2040
 20
305.0623
 11
668.2040
 21
308.0623
  0
LINE
  8
0_00
  6
CONTINUOUS
 62
4
 10
668.5040
 20
308.0623
 11
668.5040
 21
305.0623
  0
LINE
  8
0_00
  6
CONTINUOUS
 62
4
 10
690.2540
 20
327.3123
 11
681.7540
 21
327.3123
  0
LINE
  8
0_00
  6
CONTINUOUS
 62
4
 10
690.2540
 20
320.8123
 11
681.7540
 21
320.8123
  0
LINE
  8
0_00
  6
CONTINUOUS
 62
4
 10
646.7540
 20
264.8123
 11
655.2540
 21
264.8123
  0
LINE
  8
0_00
  6
CONTINUOUS
 62
4
 10
646.7540
 20
271.3123
 11
655.2540
 21
271.3123
  0
LINE
  8
0_00
  6
CONTINUOUS
 62
2
 10
638.5039
 20
244.2623
 11
698.5040
 21
244.2623
  0
LINE
  8
0_00
  6
CONTINUOUS
 62
2
 10
683.5039
 20
244.2623
 11
693.5040
 21
234.2623
  0
LINE
  8
0_00
  6
CONTINUOUS
 62
2
 10
686.3324
 20
244.2623
 11
696.3324
 21
234.2623
  0
LINE
  8
0_00
  6
CONTINUOUS
 62
2
 10
689.1609
 20
244.2623
 11
698.5040
 21
234.9192
  0
LINE
  8
0_00
  6
CONTINUOUS
 62
2
 10
691.9893
 20
244.2623
 11
698.5040
 21
237.7476
  0
LINE
  8
0_00
  6
CONTINUOUS
 62
2
 10
694.8177
 20
244.2623
 11
698.5040
 21
240.5760
  0
LINE
  8
0_00
  6
CONTINUOUS
 62
2
 10
697.6461
 20
244.2623
 11
698.5040
 21
243.4045
  0
LINE
  8
0_00
  6
CONTINUOUS
 62
2
 10
680.6755
 20
244.2623
 11
690.6756
 21
234.2623
  0
LINE
  8
0_00
  6
CONTINUOUS
 62
2
 10
677.8471
 20
244.2623
 11
687.8471
 21
234.2623
  0
LINE
  8
0_00
  6
CONTINUOUS
 62
2
 10
675.0187
 20
244.2623
 11
685.0187
 21
234.2623
  0
LINE
  8
0_00
  6
CONTINUOUS
 62
2
 10
672.1902
 20
244.2623
 11
682.1902
 21
234.2623
  0
LINE
  8
0_00
  6
CONTINUOUS
 62
2
 10
669.3618
 20
244.2623
 11
679.3618
 21
234.2623
  0
LINE
  8
0_00
  6
CONTINUOUS
 62
2
 10
666.5335
 20
244.2623
 11
676.5335
 21
234.2623
  0
LINE
  8
0_00
  6
CONTINUOUS
 62
2
 10
663.7050
 20
244.2623
 11
673.7050
 21
234.2623
  0
LINE
  8
0_00
  6
CONTINUOUS
 62
2
 10
660.8766
 20
244.2623
 11
670.8766
 21
234.2623
  0
LINE
  8
0_00
  6
CONTINUOUS
 62
2
 10
658.0482
 20
244.2623
 11
668.0482
 21
234.2623
  0
LINE
  8
0_00
  6
CONTINUOUS
 62
2
 10
655.2197
 20
244.2623
 11
665.2197
 21
234.2623
  0
LINE
  8
0_00
  6
CONTINUOUS
 62
2
 10
652.3913
 20
244.2623
 11
662.3913
 21
234.2623
  0
LINE
  8
0_00
  6
CONTINUOUS
 62
2
 10
649.5629
 20
244.2623
 11
659.5629
 21
234.2623
  0
LINE
  8
0_00
  6
CONTINUOUS
 62
2
 10
646.7344
 20
244.2623
 11
656.7344
 21
234.2623
  0
LINE
  8
0_00
  6
CONTINUOUS
 62
2
 10
643.9060
 20
244.2623
 11
653.9060
 21
234.2623
  0
LINE
  8
0_00
  6
CONTINUOUS
 62
2
 10
641.0776
 20
244.2623
 11
651.0775
 21
234.2623
  0
LINE
  8
0_00
  6
CONTINUOUS
 62
2
 10
638.5039
 20
244.0075
 11
648.2492
 21
234.2623
  0
LINE
  8
0_00
  6
CONTINUOUS
 62
2
 10
638.5039
 20
241.1791
 11
645.4207
 21
234.2623
  0
LINE
  8
0_00
  6
CONTINUOUS
 62
2
 10
638.5039
 20
238.3507
 11
642.5923
 21
234.2623
  0
LINE
  8
0_00
  6
CONTINUOUS
 62
2
 10
638.5039
 20
235.5222
 11
639.7639
 21
234.2623
  0
LINE
  8
15_0F
  6
CENTER1
 62
6
 10
670.9599
 20
268.0623
 11
702.6391
 21
268.0623
  0
LINE
  8
15_0F
  6
CENTER1
 62
6
 10
686.0040
 20
280.2748
 11
686.0040
 21
254.9918
  0
LINE
  8
15_0F
  6
CENTER1
 62
6
 10
651.0040
 20
336.2748
 11
651.0040
 21
310.9918
  0
LINE
  8
15_0F
  6
CENTER1
 62
6
 10
635.9599
 20
324.0623
 11
667.6390
 21
324.0623
  0
LINE
  8
0_00
  6
CONTINUOUS
 62
4
 10
666.8269
 20
293.5623
 11
667.1114
 21
293.5623
  0
LINE
  8
0_00
  6
CONTINUOUS
 62
4
 10
666.9784
 20
292.3123
 11
666.5040
 21
292.3123
  0
LINE
  8
0_00
  6
CONTINUOUS
 62
4
 10
666.5040
 20
290.8123
 11
666.9784
 21
290.8123
  0
LINE
  8
0_00
  6
CONTINUOUS
 62
4
 10
667.7540
 20
290.0367
 11
667.7540
 21
289.5623
  0
LINE
  8
0_00
  6
CONTINUOUS
 62
4
 10
670.1810
 20
293.5623
 11
669.8966
 21
293.5623
  0
LINE
  8
0_00
  6
CONTINUOUS
 62
4
 10
670.0296
 20
292.3123
 11
670.5040
 21
292.3123
  0
LINE
  8
0_00
  6
CONTINUOUS
 62
4
 10
670.5040
 20
290.8123
 11
670.0296
 21
290.8123
  0
LINE
  8
0_00
  6
CONTINUOUS
 62
4
 10
669.2540
 20
290.0367
 11
669.2540
 21
289.5623
  0
LINE
  8
0_00
  6
CONTINUOUS
 62
4
 10
666.5040
 20
292.3123
 11
666.5040
 21
290.8123
  0
LINE
  8
0_00
  6
CONTINUOUS
 62
4
 10
670.5040
 20
290.8123
 11
670.5040
 21
292.3123
  0
LINE
  8
0_00
  6
CONTINUOUS
 62
4
 10
668.3040
 20
288.3123
 11
668.5040
 21
288.5123
  0
LINE
  8
0_00
  6
CONTINUOUS
 62
4
 10
668.7040
 20
288.3123
 11
668.5040
 21
288.5123
  0
LINE
  8
0_00
  6
CONTINUOUS
 62
4
 10
667.7540
 20
289.5623
 11
669.2540
 21
289.5623
  0
LINE
  8
0_00
  6
CONTINUOUS
 62
4
 10
661.7040
 20
296.0623
 11
661.5039
 21
295.8623
  0
LINE
  8
0_00
  6
CONTINUOUS
 62
4
 10
661.7040
 20
296.0623
 11
661.5039
 21
296.2623
  0
LINE
  8
0_00
  6
CONTINUOUS
 62
4
 10
661.5039
 20
294.5623
 11
661.5039
 21
295.8623
  0
LINE
  8
0_00
  6
CONTINUOUS
 62
4
 10
661.5039
 20
296.2623
 11
661.5039
 21
297.5623
  0
LINE
  8
0_00
  6
CONTINUOUS
 62
4
 10
662.6040
 20
294.5623
 11
662.6040
 21
297.5623
  0
LINE
  8
0_00
  6
CONTINUOUS
 62
4
 10
675.3040
 20
296.0623
 11
675.5040
 21
295.8623
  0
LINE
  8
0_00
  6
CONTINUOUS
 62
4
 10
675.3040
 20
296.0623
 11
675.5040
 21
296.2623
  0
LINE
  8
0_00
  6
CONTINUOUS
 62
4
 10
675.5040
 20
294.5623
 11
675.5040
 21
295.8623
  0
LINE
  8
0_00
  6
CONTINUOUS
 62
4
 10
675.5040
 20
296.2623
 11
675.5040
 21
297.5623
  0
LINE
  8
0_00
  6
CONTINUOUS
 62
4
 10
674.4040
 20
294.5623
 11
674.4040
 21
297.5623
  0
LINE
  8
0_00
  6
CONTINUOUS
 62
4
 10
664.2041
 20
288.3123
 11
668.3040
 21
288.3123
  0
LINE
  8
0_00
  6
CONTINUOUS
 62
4
 10
665.5053
 20
289.3624
 11
664.1722
 21
289.3624
  0
LINE
  8
0_00
  6
CONTINUOUS
 62
4
 10
672.8038
 20
288.3123
 11
668.7040
 21
288.3123
  0
LINE
  8
0_00
  6
CONTINUOUS
 62
4
 10
671.5028
 20
289.3624
 11
672.8358
 21
289.3624
  0
LINE
  8
0_00
  6
CONTINUOUS
 62
4
 10
666.8269
 20
298.5623
 11
667.1114
 21
298.5623
  0
LINE
  8
0_00
  6
CONTINUOUS
 62
4
 10
666.9784
 20
299.8123
 11
666.5040
 21
299.8123
  0
LINE
  8
0_00
  6
CONTINUOUS
 62
4
 10
666.5040
 20
301.3123
 11
666.9784
 21
301.3123
  0
LINE
  8
0_00
  6
CONTINUOUS
 62
4
 10
667.7540
 20
302.0880
 11
667.7540
 21
302.5623
  0
LINE
  8
0_00
  6
CONTINUOUS
 62
4
 10
670.1810
 20
298.5623
 11
669.8966
 21
298.5623
  0
LINE
  8
0_00
  6
CONTINUOUS
 62
4
 10
670.0296
 20
299.8123
 11
670.5040
 21
299.8123
  0
LINE
  8
0_00
  6
CONTINUOUS
 62
4
 10
670.5040
 20
301.3123
 11
670.0296
 21
301.3123
  0
LINE
  8
0_00
  6
CONTINUOUS
 62
4
 10
669.2540
 20
302.0880
 11
669.2540
 21
302.5623
  0
LINE
  8
0_00
  6
CONTINUOUS
 62
4
 10
666.5040
 20
299.8123
 11
666.5040
 21
301.3123
  0
LINE
  8
0_00
  6
CONTINUOUS
 62
4
 10
670.5040
 20
301.3123
 11
670.5040
 21
299.8123
  0
LINE
  8
0_00
  6
CONTINUOUS
 62
4
 10
668.3040
 20
303.8123
 11
668.5040
 21
303.6123
  0
LINE
  8
0_00
  6
CONTINUOUS
 62
4
 10
668.7040
 20
303.8123
 11
668.5040
 21
303.6123
  0
LINE
  8
0_00
  6
CONTINUOUS
 62
4
 10
667.7540
 20
302.5623
 11
669.2540
 21
302.5623
  0
LINE
  8
0_00
  6
CONTINUOUS
 62
4
 10
664.2041
 20
303.8123
 11
668.3040
 21
303.8123
  0
LINE
  8
0_00
  6
CONTINUOUS
 62
4
 10
665.5053
 20
302.7623
 11
664.1722
 21
302.7623
  0
LINE
  8
0_00
  6
CONTINUOUS
 62
4
 10
672.8038
 20
303.8123
 11
668.7040
 21
303.8123
  0
LINE
  8
0_00
  6
CONTINUOUS
 62
4
 10
671.5028
 20
302.7623
 11
672.8358
 21
302.7623
  0
LINE
  8
15_0F
  6
CONTINUOUS
 62
4
 10
845.0342
 20
213.5623
 11
564.6749
 21
213.5623
  0
LINE
  8
0_00
  6
CONTINUOUS
 62
4
 10
564.6749
 20
214.9623
 11
845.4094
 21
214.9623
  0
LINE
  8
15_0F
  6
CONTINUOUS
 62
4
 10
564.6749
 20
226.0623
 11
638.5039
 21
226.0623
  0
LINE
  8
15_0F
  6
CONTINUOUS
 62
4
 10
698.5040
 20
226.0623
 11
848.3837
 21
226.0623
  0
LINE
  8
15_0F
  6
CONTINUOUS
 62
4
 10
606.0419
 20
686.6181
 11
606.0419
 21
560.1194
  0
LINE
  8
16_10
  6
CONTINUOUS
 62
4
 10
631.4040
 20
695.4192
 11
610.8268
 21
695.4192
  0
LINE
  8
16_10
  6
CONTINUOUS
 62
4
 10
626.0369
 20
695.8242
 11
607.0469
 21
695.8242
  0
LINE
  8
16_10
  6
CONTINUOUS
 62
4
 10
607.0469
 20
695.8242
 11
604.5821
 21
695.4586
  0
LINE
  8
16_10
  6
CONTINUOUS
 62
4
 10
603.6275
 20
689.3267
 11
603.5076
 21
694.1708
  0
LINE
  8
16_10
  6
CONTINUOUS
 62
4
 10
603.9042
 20
688.6721
 11
603.9202
 21
687.1349
  0
LINE
  8
16_10
  6
CONTINUOUS
 62
4
 10
631.8954
 20
695.3821
 11
626.0369
 21
695.8242
  0
LINE
  8
16_10
  6
CONTINUOUS
 62
4
 10
608.2514
 20
686.6891
 11
608.7912
 21
686.7069
  0
LINE
  8
16_10
  6
CONTINUOUS
 62
4
 10
608.4227
 20
695.0626
 11
610.8268
 21
695.4192
  0
LINE
  8
16_10
  6
CONTINUOUS
 62
4
 10
607.5913
 20
694.0662
 11
607.7073
 21
689.3375
  0
LINE
  8
16_10
  6
CONTINUOUS
 62
4
 10
608.0010
 20
687.1158
 11
607.9832
 21
688.7065
  0
LINE
  8
16_10
  6
CONTINUOUS
 62
4
 10
608.2511
 20
686.6891
 11
604.5049
 21
686.5692
  0
LINE
  8
0_00
  6
CONTINUOUS
 62
6
 10
604.2022
 20
688.6721
 11
607.8040
 21
688.6721
  0
LINE
  8
16_10
  6
CONTINUOUS
 62
2
 10
607.9577
 20
688.8124
 11
1165.1262
 21
688.8124
  0
LINE
  8
0_00
  6
CENTER1
 62
6
 10
1156.5419
 20
729.9201
 11
1156.5419
 21
689.0071
  0
LINE
  8
0_00
  6
CONTINUOUS
 62
4
 10
1159.7670
 20
718.0242
 11
1159.7670
 21
695.8242
  0
LINE
  8
0_00
  6
CONTINUOUS
 62
4
 10
1153.3169
 20
718.0242
 11
1153.3169
 21
695.8242
  0
LINE
  8
3_03
  6
CONTINUOUS
 62
4
 10
1151.9670
 20
725.2240
 11
1156.4465
 21
725.2240
  0
LINE
  8
3_03
  6
CONTINUOUS
 62
4
 10
1161.0419
 20
718.0242
 11
1151.9670
 21
718.0242
  0
LINE
  8
3_03
  6
CONTINUOUS
 62
4
 10
1151.8920
 20
718.0692
 11
1151.8920
 21
725.1490
  0
LINE
  8
3_03
  6
CONTINUOUS
 62
4
 10
1161.1169
 20
724.0277
 11
1161.1169
 21
718.0992
  0
LINE
  8
16_10
  6
CONTINUOUS
 62
4
 10
1141.6799
 20
695.4192
 11
1162.2571
 21
695.4192
  0
LINE
  8
16_10
  6
CONTINUOUS
 62
4
 10
1147.0469
 20
695.8242
 11
1166.0369
 21
695.8242
  0
LINE
  8
16_10
  6
CONTINUOUS
 62
4
 10
1166.0369
 20
695.8242
 11
1168.5016
 21
695.4586
  0
LINE
  8
16_10
  6
CONTINUOUS
 62
4
 10
1169.4564
 20
689.3267
 11
1169.5763
 21
694.1708
  0
LINE
  8
16_10
  6
CONTINUOUS
 62
4
 10
1169.1797
 20
688.6721
 11
1169.1638
 21
687.1349
  0
LINE
  8
16_10
  6
CONTINUOUS
 62
4
 10
1141.1885
 20
695.3821
 11
1147.0469
 21
695.8242
  0
LINE
  8
16_10
  6
CONTINUOUS
 62
4
 10
1164.8137
 20
686.6895
 11
1164.2740
 21
686.7072
  0
LINE
  8
16_10
  6
CONTINUOUS
 62
4
 10
1164.6612
 20
695.0626
 11
1162.2571
 21
695.4192
  0
LINE
  8
16_10
  6
CONTINUOUS
 62
4
 10
1165.4927
 20
694.0662
 11
1165.3766
 21
689.3375
  0
LINE
  8
16_10
  6
CONTINUOUS
 62
4
 10
1165.0830
 20
687.1158
 11
1165.1006
 21
688.7065
  0
LINE
  8
16_10
  6
CONTINUOUS
 62
4
 10
1164.8142
 20
686.6895
 11
1168.5603
 21
686.5695
  0
LINE
  8
0_00
  6
CONTINUOUS
 62
6
 10
1168.8819
 20
688.6721
 11
1165.2799
 21
688.6721
  0
LINE
  8
15_0F
  6
CONTINUOUS
 62
4
 10
1167.0420
 20
686.6181
 11
1167.0420
 21
560.1194
  0
LINE
  8
0_00
  6
CONTINUOUS
 62
2
 10
854.9180
 20
233.0623
 11
1128.3645
 21
233.0623
  0
LINE
  8
0_00
  6
CONTINUOUS
 62
2
 10
1128.3645
 20
359.0623
 11
863.0763
 21
359.0623
  0
LINE
  8
15_0F
  6
CONTINUOUS
 62
6
 10
254.9998
 20
429.6748
 11
332.3979
 21
352.2767
  0
LINE
  8
15_0F
  6
CONTINUOUS
 62
6
 10
254.9998
 20
429.6748
 11
259.0846
 21
423.3847
  0
LINE
  8
15_0F
  6
CONTINUOUS
 62
6
 10
254.9998
 20
429.6748
 11
261.2899
 21
425.5900
  0
LINE
  8
15_0F
  6
CONTINUOUS
 62
6
 10
332.3979
 20
352.2767
 11
410.3978
 21
352.2767
  0
LINE
  8
15_0F
  6
CONTINUOUS
 62
2
 10
1165.3090
 20
694.6684
 11
607.7748
 21
694.6684
  0
LINE
  8
15_0F
  6
CONTINUOUS
 62
6
 10
203.7000
 20
535.1467
 11
184.5166
 21
554.3301
  0
LINE
  8
15_0F
  6
CONTINUOUS
 62
6
 10
203.7000
 20
535.1467
 11
199.6152
 21
541.4367
  0
LINE
  8
15_0F
  6
CONTINUOUS
 62
6
 10
203.7000
 20
535.1467
 11
197.4100
 21
539.2316
  0
LINE
  8
15_0F
  6
CONTINUOUS
 62
6
 10
184.5166
 20
554.3301
 11
111.0418
 21
554.3301
  0
LINE
  8
0_00
  6
CONTINUOUS
 62
6
 10
514.1494
 20
665.1141
 11
527.3081
 21
678.2728
  0
LINE
  8
0_00
  6
CONTINUOUS
 62
6
 10
514.1494
 20
665.1141
 11
520.4395
 21
669.1990
  0
LINE
  8
0_00
  6
CONTINUOUS
 62
6
 10
514.1494
 20
665.1141
 11
518.2343
 21
671.4042
  0
LINE
  8
0_00
  6
CONTINUOUS
 62
6
 10
527.3081
 20
678.2728
 11
586.7081
 21
678.2728
  0
LINE
  8
2_02
  6
CENTER1
 62
6
 10
505.9209
 20
546.7853
 11
505.9209
 21
674.4418
  0
LINE
  8
0_00
  6
DASHED
 62
2
 10
498.1708
 20
551.8147
 11
498.1709
 21
631.9066
  0
LINE
  8
0_00
  6
DASHED
 62
2
 10
513.6708
 20
551.8146
 11
513.6709
 21
631.9066
  0
LINE
  8
0_00
  6
CONTINUOUS
 62
4
 10
527.4208
 20
551.8146
 11
527.4209
 21
617.8469
  0
LINE
  8
0_00
  6
CONTINUOUS
 62
4
 10
484.4209
 20
551.8147
 11
484.4209
 21
617.8432
  0
LINE
  8
0_00
  6
CONTINUOUS
 62
4
 10
513.6692
 20
639.3066
 11
513.6692
 21
631.9066
  0
LINE
  8
0_00
  6
CONTINUOUS
 62
4
 10
498.1692
 20
639.3066
 11
498.1692
 21
631.9066
  0
LINE
  8
0_00
  6
CENTER1
 62
6
 10
501.4192
 20
650.7186
 11
501.4192
 21
611.1916
  0
LINE
  8
0_00
  6
CENTER1
 62
6
 10
510.4192
 20
650.7186
 11
510.4192
 21
611.1916
  0
LINE
  8
0_00
  6
CONTINUOUS
 62
4
 10
481.4192
 20
635.7916
 11
481.4192
 21
632.8916
  0
LINE
  8
0_00
  6
CONTINUOUS
 62
4
 10
481.9192
 20
632.3916
 11
483.4192
 21
632.3916
  0
LINE
  8
0_00
  6
CONTINUOUS
 62
4
 10
483.4192
 20
635.7916
 11
483.4192
 21
632.3916
  0
LINE
  8
0_00
  6
CONTINUOUS
 62
4
 10
492.9192
 20
639.6916
 11
492.9192
 21
638.2916
  0
LINE
  8
0_00
  6
CONTINUOUS
 62
4
 10
495.4192
 20
639.6916
 11
495.4192
 21
635.0916
  0
LINE
  8
0_00
  6
CONTINUOUS
 62
4
 10
493.4192
 20
635.7916
 11
493.4192
 21
635.0916
  0
LINE
  8
0_00
  6
CONTINUOUS
 62
4
 10
483.4192
 20
635.7916
 11
493.4192
 21
635.7916
  0
LINE
  8
0_00
  6
CONTINUOUS
 62
4
 10
483.9192
 20
638.2916
 11
487.6192
 21
638.2916
  0
LINE
  8
0_00
  6
CONTINUOUS
 62
4
 10
488.2192
 20
638.2916
 11
492.9192
 21
638.2916
  0
LINE
  8
0_00
  6
CONTINUOUS
 62
4
 10
497.4192
 20
644.1916
 11
501.1192
 21
644.1916
  0
LINE
  8
0_00
  6
CONTINUOUS
 62
4
 10
501.7192
 20
644.1916
 11
510.1192
 21
644.1916
  0
LINE
  8
0_00
  6
CONTINUOUS
 62
4
 10
497.4192
 20
641.6916
 11
505.9192
 21
641.6916
  0
LINE
  8
0_00
  6
CONTINUOUS
 62
4
 10
501.1192
 20
644.1916
 11
501.4192
 21
643.8916
  0
LINE
  8
0_00
  6
CONTINUOUS
 62
4
 10
501.4192
 20
643.8916
 11
501.7192
 21
644.1916
  0
LINE
  8
0_00
  6
CONTINUOUS
 62
4
 10
487.6192
 20
638.2916
 11
487.9192
 21
637.9916
  0
LINE
  8
0_00
  6
CONTINUOUS
 62
4
 10
487.9192
 20
637.9916
 11
488.2192
 21
638.2916
  0
LINE
  8
0_00
  6
CONTINUOUS
 62
4
 10
530.4192
 20
635.7916
 11
530.4192
 21
632.8916
  0
LINE
  8
0_00
  6
CONTINUOUS
 62
4
 10
529.9192
 20
632.3916
 11
528.4192
 21
632.3916
  0
LINE
  8
0_00
  6
CONTINUOUS
 62
4
 10
528.4192
 20
635.7916
 11
528.4192
 21
632.3916
  0
LINE
  8
0_00
  6
CONTINUOUS
 62
4
 10
518.9192
 20
639.6916
 11
518.9192
 21
638.2916
  0
LINE
  8
0_00
  6
CONTINUOUS
 62
4
 10
516.4192
 20
639.6916
 11
516.4192
 21
635.0916
  0
LINE
  8
0_00
  6
CONTINUOUS
 62
4
 10
518.4192
 20
635.7916
 11
518.4192
 21
635.0916
  0
LINE
  8
0_00
  6
CONTINUOUS
 62
4
 10
528.4192
 20
635.7916
 11
518.4192
 21
635.7916
  0
LINE
  8
0_00
  6
CONTINUOUS
 62
4
 10
527.9192
 20
638.2916
 11
524.2192
 21
638.2916
  0
LINE
  8
0_00
  6
CONTINUOUS
 62
4
 10
523.6192
 20
638.2916
 11
518.9192
 21
638.2916
  0
LINE
  8
0_00
  6
CONTINUOUS
 62
4
 10
514.4192
 20
644.1916
 11
510.7192
 21
644.1916
  0
LINE
  8
0_00
  6
CONTINUOUS
 62
4
 10
514.4192
 20
641.6916
 11
505.9192
 21
641.6916
  0
LINE
  8
0_00
  6
CONTINUOUS
 62
4
 10
510.7192
 20
644.1916
 11
510.4192
 21
643.8916
  0
LINE
  8
0_00
  6
CONTINUOUS
 62
4
 10
510.4192
 20
643.8916
 11
510.1192
 21
644.1916
  0
LINE
  8
0_00
  6
CONTINUOUS
 62
4
 10
524.2192
 20
638.2916
 11
523.9192
 21
637.9916
  0
LINE
  8
0_00
  6
CONTINUOUS
 62
4
 10
523.9192
 20
637.9916
 11
523.6192
 21
638.2916
  0
LINE
  8
0_00
  6
CONTINUOUS
 62
4
 10
527.5192
 20
644.5328
 11
532.0790
 21
644.5328
  0
LINE
  8
0_00
  6
CONTINUOUS
 62
4
 10
527.8192
 20
643.5249
 11
527.8192
 21
642.7328
  0
LINE
  8
0_00
  6
CONTINUOUS
 62
4
 10
527.0192
 20
644.0328
 11
527.0192
 21
642.7328
  0
LINE
  8
0_00
  6
CONTINUOUS
 62
4
 10
532.9832
 20
628.5724
 11
532.8536
 21
629.2041
  0
LINE
  8
0_00
  6
CONTINUOUS
 62
4
 10
525.0077
 20
655.6880
 11
525.5704
 21
656.2506
  0
LINE
  8
0_00
  6
CONTINUOUS
 62
4
 10
524.3006
 20
656.3952
 11
524.8633
 21
656.9578
  0
LINE
  8
0_00
  6
CONTINUOUS
 62
4
 10
533.0129
 20
643.5335
 11
528.0269
 21
643.7248
  0
LINE
  8
0_00
  6
CONTINUOUS
 62
4
 10
533.6964
 20
638.4335
 11
533.5906
 21
638.4335
  0
LINE
  8
0_00
  6
CONTINUOUS
 62
4
 10
533.5948
 20
639.9335
 11
533.3628
 21
639.9335
  0
LINE
  8
0_00
  6
CONTINUOUS
 62
4
 10
533.1670
 20
639.6929
 11
533.3947
 21
638.5930
  0
LINE
  8
0_00
  6
CONTINUOUS
 62
4
 10
533.7022
 20
636.3328
 11
532.5919
 21
636.2356
  0
LINE
  8
0_00
  6
CONTINUOUS
 62
4
 10
484.3205
 20
644.5315
 11
479.7607
 21
644.5312
  0
LINE
  8
0_00
  6
CONTINUOUS
 62
4
 10
484.0206
 20
643.5237
 11
484.0206
 21
642.7315
  0
LINE
  8
0_00
  6
CONTINUOUS
 62
4
 10
484.8205
 20
644.0315
 11
484.8206
 21
642.7315
  0
LINE
  8
0_00
  6
CONTINUOUS
 62
4
 10
478.8574
 20
628.5708
 11
478.9871
 21
629.2025
  0
LINE
  8
0_00
  6
CONTINUOUS
 62
4
 10
486.8313
 20
655.6869
 11
486.2686
 21
656.2495
  0
LINE
  8
0_00
  6
CONTINUOUS
 62
4
 10
487.5383
 20
656.3941
 11
486.9756
 21
656.9566
  0
LINE
  8
0_00
  6
CONTINUOUS
 62
4
 10
478.8269
 20
643.5318
 11
483.8129
 21
643.7235
  0
LINE
  8
0_00
  6
CONTINUOUS
 62
4
 10
478.1437
 20
638.4319
 11
478.2495
 21
638.4319
  0
LINE
  8
0_00
  6
CONTINUOUS
 62
4
 10
478.2452
 20
639.9318
 11
478.4772
 21
639.9318
  0
LINE
  8
0_00
  6
CONTINUOUS
 62
4
 10
478.6730
 20
639.6913
 11
478.4453
 21
638.5913
  0
LINE
  8
0_00
  6
CONTINUOUS
 62
4
 10
478.1380
 20
636.3311
 11
479.2482
 21
636.2340
  0
LINE
  8
0_00
  6
CONTINUOUS
 62
4
 10
495.4192
 20
633.5066
 11
493.4192
 21
633.5066
  0
LINE
  8
0_00
  6
CONTINUOUS
 62
4
 10
495.4192
 20
633.5066
 11
495.4192
 21
632.7066
  0
LINE
  8
0_00
  6
CONTINUOUS
 62
4
 10
493.4192
 20
633.5066
 11
493.4192
 21
631.9066
  0
LINE
  8
0_00
  6
CONTINUOUS
 62
4
 10
516.4192
 20
633.5066
 11
518.4192
 21
633.5066
  0
LINE
  8
0_00
  6
CONTINUOUS
 62
4
 10
516.4192
 20
633.5066
 11
516.4192
 21
632.7066
  0
LINE
  8
0_00
  6
CONTINUOUS
 62
4
 10
518.4192
 20
633.5066
 11
518.4192
 21
631.9066
  0
LINE
  8
0_00
  6
CONTINUOUS
 62
4
 10
479.5192
 20
633.4066
 11
479.5192
 21
627.9019
  0
LINE
  8
0_00
  6
CONTINUOUS
 62
4
 10
532.3192
 20
633.4066
 11
532.3192
 21
627.9019
  0
LINE
  8
0_00
  6
CONTINUOUS
 62
4
 10
480.6192
 20
632.8065
 11
480.6192
 21
636.2982
  0
LINE
  8
0_00
  6
CONTINUOUS
 62
4
 10
531.2192
 20
632.8065
 11
531.2192
 21
636.2982
  0
LINE
  8
0_00
  6
CONTINUOUS
 62
4
 10
532.3192
 20
634.6065
 11
532.3192
 21
636.2065
  0
LINE
  8
0_00
  6
CONTINUOUS
 62
4
 10
532.9192
 20
634.6065
 11
532.3192
 21
634.6065
  0
LINE
  8
0_00
  6
CONTINUOUS
 62
4
 10
532.9192
 20
633.4066
 11
532.3192
 21
633.4066
  0
LINE
  8
0_00
  6
CONTINUOUS
 62
4
 10
505.9192
 20
608.6066
 11
505.6207
 21
608.3081
  0
LINE
  8
0_00
  6
CONTINUOUS
 62
4
 10
505.9192
 20
608.6066
 11
506.2177
 21
608.3081
  0
LINE
  8
0_00
  6
CONTINUOUS
 62
4
 10
481.1192
 20
632.3066
 11
485.1192
 21
632.3066
  0
LINE
  8
0_00
  6
CONTINUOUS
 62
4
 10
480.6192
 20
631.2066
 11
485.1192
 21
631.2066
  0
LINE
  8
0_00
  6
CONTINUOUS
 62
4
 10
527.4209
 20
630.8066
 11
484.4209
 21
630.8066
  0
LINE
  8
0_00
  6
CONTINUOUS
 62
4
 10
524.2192
 20
632.8065
 11
523.9192
 21
632.5066
  0
LINE
  8
0_00
  6
CONTINUOUS
 62
4
 10
526.4192
 20
632.8065
 11
524.2192
 21
632.8065
  0
LINE
  8
0_00
  6
CONTINUOUS
 62
4
 10
526.7192
 20
632.3066
 11
526.4192
 21
632.8065
  0
LINE
  8
0_00
  6
CONTINUOUS
 62
4
 10
523.6192
 20
632.8065
 11
523.9192
 21
632.5066
  0
LINE
  8
0_00
  6
CONTINUOUS
 62
4
 10
521.4192
 20
632.8065
 11
523.6192
 21
632.8065
  0
LINE
  8
0_00
  6
CONTINUOUS
 62
4
 10
530.7192
 20
632.3066
 11
526.7192
 21
632.3066
  0
LINE
  8
0_00
  6
CONTINUOUS
 62
4
 10
505.6192
 20
631.9066
 11
505.9192
 21
631.6066
  0
LINE
  8
0_00
  6
CONTINUOUS
 62
4
 10
506.2192
 20
631.9066
 11
505.9192
 21
631.6066
  0
LINE
  8
0_00
  6
CONTINUOUS
 62
4
 10
533.2627
 20
636.2892
 11
532.3192
 21
636.2065
  0
LINE
  8
0_00
  6
CONTINUOUS
 62
4
 10
532.1320
 20
637.2944
 11
532.6966
 21
637.3439
  0
LINE
  8
0_00
  6
CONTINUOUS
 62
4
 10
533.7090
 20
636.8877
 11
533.3499
 21
638.6372
  0
LINE
  8
0_00
  6
CONTINUOUS
 62
4
 10
532.4683
 20
638.4562
 11
532.6966
 21
637.3439
  0
LINE
  8
0_00
  6
CONTINUOUS
 62
4
 10
530.8192
 20
642.3356
 11
531.9875
 21
641.1673
  0
LINE
  8
0_00
  6
CONTINUOUS
 62
4
 10
530.2121
 20
641.6699
 11
531.3511
 21
640.5309
  0
LINE
  8
0_00
  6
CONTINUOUS
 62
4
 10
479.5192
 20
634.6065
 11
479.5192
 21
636.2065
  0
LINE
  8
0_00
  6
CONTINUOUS
 62
4
 10
478.9192
 20
634.6065
 11
479.5192
 21
634.6065
  0
LINE
  8
0_00
  6
CONTINUOUS
 62
4
 10
478.9192
 20
633.4066
 11
479.5192
 21
633.4066
  0
LINE
  8
0_00
  6
CONTINUOUS
 62
4
 10
478.5756
 20
636.2892
 11
479.5192
 21
636.2065
  0
LINE
  8
0_00
  6
CONTINUOUS
 62
4
 10
479.7063
 20
637.2944
 11
479.1418
 21
637.3439
  0
LINE
  8
0_00
  6
CONTINUOUS
 62
4
 10
478.1294
 20
636.8877
 11
478.4885
 21
638.6372
  0
LINE
  8
0_00
  6
CONTINUOUS
 62
4
 10
479.3701
 20
638.4562
 11
479.1418
 21
637.3439
  0
LINE
  8
0_00
  6
CONTINUOUS
 62
4
 10
481.0192
 20
642.3356
 11
479.8508
 21
641.1673
  0
LINE
  8
0_00
  6
CONTINUOUS
 62
4
 10
481.9192
 20
642.8566
 11
481.9192
 21
642.3771
  0
LINE
  8
0_00
  6
CONTINUOUS
 62
4
 10
481.0192
 20
642.8566
 11
481.0192
 21
642.3356
  0
LINE
  8
0_00
  6
CONTINUOUS
 62
4
 10
481.6263
 20
641.6699
 11
480.4872
 21
640.5309
  0
LINE
  8
0_00
  6
CONTINUOUS
 62
4
 10
506.2192
 20
631.9066
 11
517.4192
 21
631.9066
  0
LINE
  8
0_00
  6
CONTINUOUS
 62
4
 10
518.4192
 20
631.9066
 11
521.1192
 21
631.9066
  0
LINE
  8
0_00
  6
CONTINUOUS
 62
4
 10
490.7192
 20
631.9066
 11
493.4192
 21
631.9066
  0
LINE
  8
0_00
  6
CONTINUOUS
 62
4
 10
494.4192
 20
631.9066
 11
505.6192
 21
631.9066
  0
LINE
  8
0_00
  6
CONTINUOUS
 62
4
 10
529.9192
 20
642.8566
 11
529.9192
 21
642.3771
  0
LINE
  8
0_00
  6
CONTINUOUS
 62
4
 10
530.8192
 20
642.8566
 11
530.8192
 21
642.3356
  0
LINE
  8
15_0F
  6
CONTINUOUS
 62
4
 10
480.6192
 20
631.2066
 11
480.6192
 21
627.6072
  0
LINE
  8
0_00
  6
CONTINUOUS
 62
4
 10
531.2192
 20
631.2066
 11
526.7192
 21
631.2066
  0
LINE
  8
0_00
  6
CONTINUOUS
 62
4
 10
526.7192
 20
631.2066
 11
526.4192
 21
630.8066
  0
LINE
  8
15_0F
  6
CONTINUOUS
 62
4
 10
531.2192
 20
631.2066
 11
531.2192
 21
627.6072
  0
LINE
  8
0_00
  6
CONTINUOUS
 62
4
 10
521.1192
 20
631.9066
 11
521.4192
 21
632.8065
  0
LINE
  8
15_0F
  6
CONTINUOUS
 62
4
 10
494.4192
 20
632.7066
 11
495.4192
 21
632.7066
  0
LINE
  8
15_0F
  6
CONTINUOUS
 62
4
 10
494.4192
 20
632.7066
 11
494.4192
 21
631.9066
  0
LINE
  8
15_0F
  6
CONTINUOUS
 62
4
 10
517.4192
 20
632.7066
 11
516.4192
 21
632.7066
  0
LINE
  8
15_0F
  6
CONTINUOUS
 62
4
 10
517.4192
 20
632.7066
 11
517.4192
 21
631.9066
  0
LINE
  8
15_0F
  6
CONTINUOUS
 62
4
 10
479.5192
 20
627.9019
 11
479.0073
 21
627.0153
  0
LINE
  8
15_0F
  6
CONTINUOUS
 62
4
 10
480.6192
 20
627.6072
 11
480.1062
 21
626.7187
  0
LINE
  8
15_0F
  6
CONTINUOUS
 62
4
 10
532.3192
 20
627.9019
 11
532.8311
 21
627.0153
  0
LINE
  8
15_0F
  6
CONTINUOUS
 62
4
 10
531.2192
 20
627.6072
 11
531.7321
 21
626.7187
  0
LINE
  8
15_0F
  6
CONTINUOUS
 62
4
 10
498.8899
 20
610.3066
 11
512.9484
 21
610.3066
  0
LINE
  8
0_00
  6
CONTINUOUS
 62
4
 10
487.6192
 20
632.8065
 11
487.9192
 21
632.5066
  0
LINE
  8
0_00
  6
CONTINUOUS
 62
4
 10
485.4192
 20
632.8065
 11
487.6192
 21
632.8065
  0
LINE
  8
0_00
  6
CONTINUOUS
 62
4
 10
485.1192
 20
632.3066
 11
485.4192
 21
632.8065
  0
LINE
  8
0_00
  6
CONTINUOUS
 62
4
 10
488.2192
 20
632.8065
 11
487.9192
 21
632.5066
  0
LINE
  8
0_00
  6
CONTINUOUS
 62
4
 10
490.4192
 20
632.8065
 11
488.2192
 21
632.8065
  0
LINE
  8
0_00
  6
CONTINUOUS
 62
4
 10
485.1192
 20
631.2066
 11
485.4192
 21
630.8066
  0
LINE
  8
0_00
  6
CONTINUOUS
 62
4
 10
490.7192
 20
631.9066
 11
490.4192
 21
632.8065
  0
LINE
  8
12_0C
  6
CONTINUOUS
 62
2
 10
491.4192
 20
633.7766
 11
491.4192
 21
632.8065
  0
LINE
  8
12_0C
  6
CONTINUOUS
 62
2
 10
484.4192
 20
633.7766
 11
484.4192
 21
632.8065
  0
LINE
  8
12_0C
  6
DASHED
 62
2
 10
485.9192
 20
632.8065
 11
485.9192
 21
612.6266
  0
LINE
  8
12_0C
  6
DASHED
 62
2
 10
486.4192
 20
632.8065
 11
486.4192
 21
602.8065
  0
LINE
  8
12_0C
  6
DASHED
 62
2
 10
489.9192
 20
632.8065
 11
489.9192
 21
612.6266
  0
LINE
  8
12_0C
  6
DASHED
 62
2
 10
489.4192
 20
632.8065
 11
489.4192
 21
602.8065
  0
LINE
  8
12_0C
  6
DASHED
 62
2
 10
485.9192
 20
612.6266
 11
486.4192
 21
608.2448
  0
LINE
  8
12_0C
  6
DASHED
 62
2
 10
489.9192
 20
612.6266
 11
489.4192
 21
608.2448
  0
LINE
  8
12_0C
  6
DASHED
 62
2
 10
486.4192
 20
602.8065
 11
489.4192
 21
602.8065
  0
LINE
  8
12_0C
  6
CONTINUOUS
 62
2
 10
484.4192
 20
632.8065
 11
491.4192
 21
632.8065
  0
LINE
  8
12_0C
  6
DASHED
 62
2
 10
489.9192
 20
612.6266
 11
486.4192
 21
608.2448
  0
LINE
  8
12_0C
  6
CONTINUOUS
 62
2
 10
504.9192
 20
645.1616
 11
504.9192
 21
644.1916
  0
LINE
  8
12_0C
  6
CONTINUOUS
 62
2
 10
497.9192
 20
645.1616
 11
497.9192
 21
644.1916
  0
LINE
  8
12_0C
  6
DASHED
 62
2
 10
499.4192
 20
624.0116
 11
499.9192
 21
619.6298
  0
LINE
  8
12_0C
  6
DASHED
 62
2
 10
503.4192
 20
624.0116
 11
502.9192
 21
619.6298
  0
LINE
  8
12_0C
  6
DASHED
 62
2
 10
499.9192
 20
614.1916
 11
502.9192
 21
614.1916
  0
LINE
  8
12_0C
  6
CONTINUOUS
 62
2
 10
497.9192
 20
644.1916
 11
504.9192
 21
644.1916
  0
LINE
  8
12_0C
  6
DASHED
 62
2
 10
503.4192
 20
624.0116
 11
499.9192
 21
619.6298
  0
LINE
  8
12_0C
  6
CONTINUOUS
 62
2
 10
513.9192
 20
645.1616
 11
513.9192
 21
644.1916
  0
LINE
  8
12_0C
  6
CONTINUOUS
 62
2
 10
506.9192
 20
645.1616
 11
506.9192
 21
644.1916
  0
LINE
  8
12_0C
  6
DASHED
 62
2
 10
508.4192
 20
624.0116
 11
508.9192
 21
619.6298
  0
LINE
  8
12_0C
  6
DASHED
 62
2
 10
512.4192
 20
624.0116
 11
511.9192
 21
619.6298
  0
LINE
  8
12_0C
  6
DASHED
 62
2
 10
508.9192
 20
614.1916
 11
511.9192
 21
614.1916
  0
LINE
  8
12_0C
  6
CONTINUOUS
 62
2
 10
506.9192
 20
644.1916
 11
513.9192
 21
644.1916
  0
LINE
  8
12_0C
  6
DASHED
 62
2
 10
512.4192
 20
624.0116
 11
508.9192
 21
619.6298
  0
LINE
  8
12_0C
  6
CONTINUOUS
 62
2
 10
527.4192
 20
633.7766
 11
527.4192
 21
632.8065
  0
LINE
  8
12_0C
  6
CONTINUOUS
 62
2
 10
520.4192
 20
633.7766
 11
520.4192
 21
632.8065
  0
LINE
  8
12_0C
  6
DASHED
 62
2
 10
521.9192
 20
632.8065
 11
521.9192
 21
612.6266
  0
LINE
  8
12_0C
  6
DASHED
 62
2
 10
522.4192
 20
632.8065
 11
522.4192
 21
602.8065
  0
LINE
  8
12_0C
  6
DASHED
 62
2
 10
525.9192
 20
632.8065
 11
525.9192
 21
612.6266
  0
LINE
  8
12_0C
  6
DASHED
 62
2
 10
525.4192
 20
632.8065
 11
525.4192
 21
602.8065
  0
LINE
  8
12_0C
  6
DASHED
 62
2
 10
521.9192
 20
612.6266
 11
522.4192
 21
608.2448
  0
LINE
  8
12_0C
  6
DASHED
 62
2
 10
525.9192
 20
612.6266
 11
525.4192
 21
608.2448
  0
LINE
  8
12_0C
  6
DASHED
 62
2
 10
522.4192
 20
602.8065
 11
525.4192
 21
602.8065
  0
LINE
  8
12_0C
  6
CONTINUOUS
 62
2
 10
520.4192
 20
632.8065
 11
527.4192
 21
632.8065
  0
LINE
  8
12_0C
  6
DASHED
 62
2
 10
525.9192
 20
612.6266
 11
522.4192
 21
608.2448
  0
LINE
  8
0_00
  6
CONTINUOUS
 62
4
 10
527.4209
 20
630.8066
 11
527.4209
 21
619.5277
  0
LINE
  8
0_00
  6
CONTINUOUS
 62
4
 10
484.4209
 20
630.8066
 11
484.4209
 21
619.5237
  0
LINE
  8
15_0F
  6
CONTINUOUS
 62
4
 10
498.1692
 20
639.3066
 11
513.6692
 21
639.3066
  0
LINE
  8
12_0C
  6
DASHED
 62
2
 10
499.9192
 20
639.3066
 11
499.9192
 21
614.1916
  0
LINE
  8
12_0C
  6
CONTINUOUS
 62
2
 10
499.9192
 20
641.6916
 11
499.9192
 21
639.3066
  0
LINE
  8
12_0C
  6
DASHED
 62
2
 10
499.9192
 20
644.1916
 11
499.9192
 21
641.6916
  0
LINE
  8
12_0C
  6
DASHED
 62
2
 10
499.4192
 20
639.3066
 11
499.4192
 21
624.0116
  0
LINE
  8
12_0C
  6
CONTINUOUS
 62
2
 10
499.4192
 20
641.6916
 11
499.4192
 21
639.3066
  0
LINE
  8
12_0C
  6
DASHED
 62
2
 10
499.4192
 20
644.1916
 11
499.4192
 21
641.6916
  0
LINE
  8
12_0C
  6
DASHED
 62
2
 10
502.9192
 20
639.3066
 11
502.9192
 21
614.1916
  0
LINE
  8
12_0C
  6
CONTINUOUS
 62
2
 10
502.9192
 20
641.6916
 11
502.9192
 21
639.3066
  0
LINE
  8
12_0C
  6
DASHED
 62
2
 10
502.9192
 20
644.1916
 11
502.9192
 21
641.6916
  0
LINE
  8
12_0C
  6
DASHED
 62
2
 10
503.4192
 20
639.3066
 11
503.4192
 21
624.0116
  0
LINE
  8
12_0C
  6
CONTINUOUS
 62
2
 10
503.4192
 20
641.6916
 11
503.4192
 21
639.3066
  0
LINE
  8
12_0C
  6
DASHED
 62
2
 10
503.4192
 20
644.1916
 11
503.4192
 21
641.6916
  0
LINE
  8
12_0C
  6
DASHED
 62
2
 10
508.9192
 20
639.3066
 11
508.9192
 21
614.1916
  0
LINE
  8
12_0C
  6
CONTINUOUS
 62
2
 10
508.9192
 20
641.6916
 11
508.9192
 21
639.3066
  0
LINE
  8
12_0C
  6
DASHED
 62
2
 10
508.9192
 20
644.1916
 11
508.9192
 21
641.6916
  0
LINE
  8
12_0C
  6
DASHED
 62
2
 10
508.4192
 20
639.3066
 11
508.4192
 21
624.0116
  0
LINE
  8
12_0C
  6
CONTINUOUS
 62
2
 10
508.4192
 20
641.6916
 11
508.4192
 21
639.3066
  0
LINE
  8
12_0C
  6
DASHED
 62
2
 10
508.4192
 20
644.1916
 11
508.4192
 21
641.6916
  0
LINE
  8
12_0C
  6
DASHED
 62
2
 10
511.9192
 20
639.3066
 11
511.9192
 21
614.1916
  0
LINE
  8
12_0C
  6
CONTINUOUS
 62
2
 10
511.9192
 20
641.6916
 11
511.9192
 21
639.3066
  0
LINE
  8
12_0C
  6
DASHED
 62
2
 10
511.9192
 20
644.1916
 11
511.9192
 21
641.6916
  0
LINE
  8
12_0C
  6
DASHED
 62
2
 10
512.4192
 20
639.3066
 11
512.4192
 21
624.0116
  0
LINE
  8
12_0C
  6
CONTINUOUS
 62
2
 10
512.4192
 20
641.6916
 11
512.4192
 21
639.3066
  0
LINE
  8
12_0C
  6
DASHED
 62
2
 10
512.4192
 20
644.1916
 11
512.4192
 21
641.6916
  0
LINE
  8
0_00
  6
CONTINUOUS
 62
3
 10
547.4110
 20
97.2001
 11
547.4110
 21
37.2000
  0
LINE
  8
0_00
  6
CONTINUOUS
 62
7
 10
54.6905
 20
112.2001
 11
1218.5110
 21
112.2001
  0
LINE
  8
0_00
  6
CONTINUOUS
 62
3
 10
1218.5110
 20
851.7001
 11
1218.5110
 21
865.2001
  0
LINE
  8
0_00
  6
CONTINUOUS
 62
7
 10
1218.5110
 20
37.2000
 11
1218.5110
 21
851.7001
  0
LINE
  8
0_00
  6
CONTINUOUS
 62
3
 10
54.6905
 20
851.7001
 11
54.6905
 21
865.2001
  0
LINE
  8
0_00
  6
CONTINUOUS
 62
7
 10
54.6905
 20
37.2000
 11
54.6905
 21
851.7001
  0
LINE
  8
0_00
  6
CONTINUOUS
 62
7
 10
54.6905
 20
851.7001
 11
1218.5110
 21
851.7001
  0
LINE
  8
0_00
  6
CONTINUOUS
 62
7
 10
54.6905
 20
37.2000
 11
1218.5110
 21
37.2000
  0
LINE
  8
0_00
  6
CONTINUOUS
 62
3
 10
39.6905
 20
22.2000
 11
39.6905
 21
865.2001
  0
LINE
  8
0_00
  6
CONTINUOUS
 62
3
 10
1233.5110
 20
22.2000
 11
1233.5110
 21
865.2001
  0
LINE
  8
0_00
  6
CONTINUOUS
 62
3
 10
39.6905
 20
865.2001
 11
1233.5110
 21
865.2001
  0
LINE
  8
0_00
  6
CONTINUOUS
 62
3
 10
1070.6111
 20
37.2000
 11
1070.6111
 21
112.2001
  0
LINE
  8
0_00
  6
CONTINUOUS
 62
3
 10
54.6905
 20
97.2001
 11
812.7610
 21
97.2001
  0
LINE
  8
0_00
  6
CONTINUOUS
 62
7
 10
812.7610
 20
97.2001
 11
1218.5110
 21
97.2001
  0
LINE
  8
0_00
  6
CONTINUOUS
 62
3
 10
1070.6111
 20
67.2000
 11
1218.5110
 21
67.2000
  0
LINE
  8
0_00
  6
CONTINUOUS
 62
3
 10
1100.6111
 20
112.2001
 11
1100.6111
 21
97.2001
  0
LINE
  8
0_00
  6
CONTINUOUS
 62
3
 10
812.7610
 20
37.2000
 11
812.7610
 21
97.2001
  0
LINE
  8
0_00
  6
CONTINUOUS
 62
7
 10
812.7610
 20
97.2001
 11
812.7610
 21
112.2001
  0
LINE
  8
0_00
  6
CONTINUOUS
 62
3
 10
836.7610
 20
97.2001
 11
836.7610
 21
112.2001
  0
LINE
  8
0_00
  6
CONTINUOUS
 62
3
 10
912.5110
 20
37.2000
 11
912.5110
 21
112.2001
  0
LINE
  8
0_00
  6
CONTINUOUS
 62
3
 10
1004.6111
 20
97.2001
 11
1004.6111
 21
112.2001
  0
LINE
  8
0_00
  6
CONTINUOUS
 62
3
 10
1032.2110
 20
37.2000
 11
1032.2110
 21
97.2001
  0
LINE
  8
0_00
  6
CONTINUOUS
 62
3
 10
995.9110
 20
37.2000
 11
995.9110
 21
97.2001
  0
LINE
  8
0_00
  6
CONTINUOUS
 62
3
 10
959.6110
 20
37.2000
 11
959.6110
 21
97.2001
  0
LINE
  8
0_00
  6
CONTINUOUS
 62
3
 10
468.6610
 20
37.2000
 11
468.6610
 21
112.2001
  0
LINE
  8
0_00
  6
CONTINUOUS
 62
3
 10
626.1610
 20
37.2000
 11
626.1610
 21
97.2001
  0
LINE
  8
0_00
  6
CONTINUOUS
 62
3
 10
54.6905
 20
82.2001
 11
468.6610
 21
82.2001
  0
LINE
  8
0_00
  6
CONTINUOUS
 62
3
 10
54.6905
 20
67.2000
 11
912.5110
 21
67.2000
  0
LINE
  8
0_00
  6
CONTINUOUS
 62
3
 10
174.6905
 20
52.2000
 11
468.6610
 21
52.2000
  0
LINE
  8
0_00
  6
CONTINUOUS
 62
7
 10
54.6905
 20
52.2000
 11
174.6905
 21
52.2000
  0
LINE
  8
0_00
  6
CONTINUOUS
 62
3
 10
818.0110
 20
851.7001
 11
818.0110
 21
865.2001
  0
LINE
  8
0_00
  6
CONTINUOUS
 62
3
 10
788.0110
 20
851.7001
 11
788.0110
 21
865.2001
  0
LINE
  8
0_00
  6
CONTINUOUS
 62
3
 10
204.6905
 20
851.7001
 11
204.6905
 21
865.2001
  0
LINE
  8
0_00
  6
CONTINUOUS
 62
3
 10
854.0110
 20
851.7001
 11
854.0110
 21
865.2001
  0
LINE
  8
0_00
  6
CONTINUOUS
 62
3
 10
915.5110
 20
851.7001
 11
915.5110
 21
865.2001
  0
LINE
  8
0_00
  6
CONTINUOUS
 62
3
 10
1146.5110
 20
851.7001
 11
1146.5110
 21
865.2001
  0
LINE
  8
0_00
  6
CONTINUOUS
 62
3
 10
114.6905
 20
112.2001
 11
114.6905
 21
37.2000
  0
LINE
  8
0_00
  6
CONTINUOUS
 62
7
 10
174.6905
 20
112.2001
 11
174.6905
 21
37.2000
  0
LINE
  8
0_00
  6
CONTINUOUS
 62
3
 10
869.7610
 20
67.2000
 11
869.7610
 21
97.2001
  0
LINE
  8
0_00
  6
CONTINUOUS
 62
3
 10
893.7610
 20
112.2001
 11
893.7610
 21
97.2001
  0
LINE
  8
0_00
  6
CONTINUOUS
 62
3
 10
912.5110
 20
82.2001
 11
1070.6111
 21
82.2001
  0
LINE
  8
0_00
  6
CONTINUOUS
 62
3
 10
1076.6111
 20
71.7000
 11
1078.5610
 21
71.7000
  0
LINE
  8
0_00
  6
CONTINUOUS
 62
3
 10
1078.5610
 20
71.7000
 11
1078.5610
 21
91.2000
  0
LINE
  8
0_00
  6
CONTINUOUS
 62
3
 10
1078.5610
 20
91.2000
 11
1076.6111
 21
91.2000
  0
LINE
  8
0_00
  6
CONTINUOUS
 62
3
 10
1076.6111
 20
71.7000
 11
1076.6111
 21
91.2000
  0
LINE
  8
0_00
  6
CONTINUOUS
 62
3
 10
1079.3410
 20
71.7000
 11
1081.2911
 21
71.7000
  0
LINE
  8
0_00
  6
CONTINUOUS
 62
3
 10
1081.2911
 20
71.7000
 11
1081.2911
 21
91.2000
  0
LINE
  8
0_00
  6
CONTINUOUS
 62
3
 10
1081.2911
 20
91.2000
 11
1079.3410
 21
91.2000
  0
LINE
  8
0_00
  6
CONTINUOUS
 62
3
 10
1079.3410
 20
71.7000
 11
1079.3410
 21
91.2000
  0
LINE
  8
0_00
  6
CONTINUOUS
 62
3
 10
1082.0711
 20
71.7000
 11
1084.0210
 21
71.7000
  0
LINE
  8
0_00
  6
CONTINUOUS
 62
3
 10
1084.0210
 20
71.7000
 11
1084.0210
 21
91.2000
  0
LINE
  8
0_00
  6
CONTINUOUS
 62
3
 10
1084.0210
 20
91.2000
 11
1082.0711
 21
91.2000
  0
LINE
  8
0_00
  6
CONTINUOUS
 62
3
 10
1082.0711
 20
71.7000
 11
1082.0711
 21
91.2000
  0
LINE
  8
0_00
  6
CONTINUOUS
 62
3
 10
1084.8010
 20
71.7000
 11
1086.7511
 21
71.7000
  0
LINE
  8
0_00
  6
CONTINUOUS
 62
3
 10
1086.7511
 20
91.2000
 11
1084.8010
 21
91.2000
  0
LINE
  8
0_00
  6
CONTINUOUS
 62
3
 10
1084.8010
 20
71.7000
 11
1084.8010
 21
91.2000
  0
LINE
  8
0_00
  6
CONTINUOUS
 62
3
 10
1092.4061
 20
71.7000
 11
1100.0110
 21
71.7000
  0
LINE
  8
0_00
  6
CONTINUOUS
 62
3
 10
1100.0110
 20
71.7000
 11
1100.0110
 21
73.4550
  0
LINE
  8
0_00
  6
CONTINUOUS
 62
3
 10
1100.0110
 20
73.4550
 11
1092.4061
 21
73.4550
  0
LINE
  8
0_00
  6
CONTINUOUS
 62
3
 10
1092.4061
 20
73.4550
 11
1092.4061
 21
71.7000
  0
LINE
  8
0_00
  6
CONTINUOUS
 62
3
 10
1092.4061
 20
74.2350
 11
1100.0110
 21
74.2350
  0
LINE
  8
0_00
  6
CONTINUOUS
 62
3
 10
1100.0110
 20
74.2350
 11
1100.0110
 21
75.9900
  0
LINE
  8
0_00
  6
CONTINUOUS
 62
3
 10
1100.0110
 20
75.9900
 11
1092.4061
 21
75.9900
  0
LINE
  8
0_00
  6
CONTINUOUS
 62
3
 10
1092.4061
 20
75.9900
 11
1092.4061
 21
74.2350
  0
LINE
  8
0_00
  6
CONTINUOUS
 62
3
 10
1092.4061
 20
76.7700
 11
1100.0110
 21
76.7700
  0
LINE
  8
0_00
  6
CONTINUOUS
 62
3
 10
1100.0110
 20
76.7700
 11
1100.0110
 21
78.5250
  0
LINE
  8
0_00
  6
CONTINUOUS
 62
3
 10
1100.0110
 20
78.5250
 11
1092.4061
 21
78.5250
  0
LINE
  8
0_00
  6
CONTINUOUS
 62
3
 10
1092.4061
 20
78.5250
 11
1092.4061
 21
76.7700
  0
LINE
  8
0_00
  6
CONTINUOUS
 62
3
 10
1092.4061
 20
79.3050
 11
1100.0110
 21
79.3050
  0
LINE
  8
0_00
  6
CONTINUOUS
 62
3
 10
1100.0110
 20
79.3050
 11
1100.0110
 21
81.0600
  0
LINE
  8
0_00
  6
CONTINUOUS
 62
3
 10
1100.0110
 20
81.0600
 11
1092.4061
 21
81.0600
  0
LINE
  8
0_00
  6
CONTINUOUS
 62
3
 10
1092.4061
 20
81.0600
 11
1092.4061
 21
79.3050
  0
LINE
  8
0_00
  6
CONTINUOUS
 62
3
 10
1092.4061
 20
81.8401
 11
1100.0110
 21
81.8401
  0
LINE
  8
0_00
  6
CONTINUOUS
 62
3
 10
1100.0110
 20
81.8401
 11
1100.0110
 21
83.5950
  0
LINE
  8
0_00
  6
CONTINUOUS
 62
3
 10
1100.0110
 20
83.5950
 11
1092.4061
 21
83.5950
  0
LINE
  8
0_00
  6
CONTINUOUS
 62
3
 10
1092.4061
 20
83.5950
 11
1092.4061
 21
81.8401
  0
LINE
  8
0_00
  6
CONTINUOUS
 62
3
 10
1092.4061
 20
84.3751
 11
1100.0110
 21
84.3751
  0
LINE
  8
0_00
  6
CONTINUOUS
 62
3
 10
1100.0110
 20
84.3751
 11
1100.0110
 21
86.1300
  0
LINE
  8
0_00
  6
CONTINUOUS
 62
3
 10
1100.0110
 20
86.1300
 11
1092.4061
 21
86.1300
  0
LINE
  8
0_00
  6
CONTINUOUS
 62
3
 10
1092.4061
 20
86.1300
 11
1092.4061
 21
84.3751
  0
LINE
  8
0_00
  6
CONTINUOUS
 62
3
 10
1092.4061
 20
86.9101
 11
1100.0110
 21
86.9101
  0
LINE
  8
0_00
  6
CONTINUOUS
 62
3
 10
1100.0110
 20
86.9101
 11
1100.0110
 21
88.6650
  0
LINE
  8
0_00
  6
CONTINUOUS
 62
3
 10
1100.0110
 20
88.6650
 11
1092.4061
 21
88.6650
  0
LINE
  8
0_00
  6
CONTINUOUS
 62
3
 10
1092.4061
 20
88.6650
 11
1092.4061
 21
86.9101
  0
LINE
  8
0_00
  6
CONTINUOUS
 62
3
 10
1092.4061
 20
89.4451
 11
1100.0110
 21
89.4451
  0
LINE
  8
0_00
  6
CONTINUOUS
 62
3
 10
1100.0110
 20
89.4451
 11
1100.0110
 21
91.2000
  0
LINE
  8
0_00
  6
CONTINUOUS
 62
3
 10
1100.0110
 20
91.2000
 11
1092.4061
 21
91.2000
  0
LINE
  8
0_00
  6
CONTINUOUS
 62
3
 10
1092.4061
 20
91.2000
 11
1092.4061
 21
89.4451
  0
LINE
  8
0_00
  6
CONTINUOUS
 62
3
 10
1087.5311
 20
71.7000
 11
1087.5311
 21
77.0626
  0
LINE
  8
0_00
  6
CONTINUOUS
 62
3
 10
1088.8375
 20
72.7725
 11
1088.8375
 21
77.0626
  0
LINE
  8
0_00
  6
CONTINUOUS
 62
3
 10
1087.5311
 20
71.7000
 11
1089.6760
 21
71.7000
  0
LINE
  8
0_00
  6
CONTINUOUS
 62
3
 10
1088.8375
 20
72.7725
 11
1089.6760
 21
72.7725
  0
LINE
  8
0_00
  6
CONTINUOUS
 62
3
 10
1089.6050
 20
79.8056
 11
1090.4561
 21
78.1351
  0
LINE
  8
0_00
  6
CONTINUOUS
 62
3
 10
1090.9410
 20
82.5453
 11
1089.6047
 21
79.8055
  0
LINE
  8
0_00
  6
CONTINUOUS
 62
3
 10
1086.7511
 20
85.3501
 11
1086.7511
 21
91.2000
  0
LINE
  8
0_00
  6
CONTINUOUS
 62
3
 10
1086.7511
 20
85.3501
 11
1089.1886
 21
85.3501
  0
LINE
  8
0_00
  6
CONTINUOUS
 62
3
 10
1086.7511
 20
84.1801
 11
1087.8333
 21
84.1801
  0
LINE
  8
0_00
  6
CONTINUOUS
 62
3
 10
1086.7511
 20
78.1351
 11
1090.4561
 21
78.1351
  0
LINE
  8
0_00
  6
CONTINUOUS
 62
3
 10
1086.7511
 20
81.9611
 11
1087.8334
 21
84.1801
  0
LINE
  8
0_00
  6
CONTINUOUS
 62
3
 10
1086.7511
 20
81.9613
 11
1086.7511
 21
84.1801
  0
LINE
  8
0_00
  6
CONTINUOUS
 62
3
 10
1086.7511
 20
78.1351
 11
1086.7511
 21
71.7000
  0
LINE
  8
0_00
  6
CONTINUOUS
 62
3
 10
1076.9110
 20
91.2000
 11
1076.9110
 21
71.7000
  0
LINE
  8
0_00
  6
CONTINUOUS
 62
3
 10
1077.2110
 20
91.2000
 11
1077.2110
 21
71.7000
  0
LINE
  8
0_00
  6
CONTINUOUS
 62
3
 10
1077.5110
 20
91.2000
 11
1077.5110
 21
71.7000
  0
LINE
  8
0_00
  6
CONTINUOUS
 62
3
 10
1077.8109
 20
91.2000
 11
1077.8109
 21
71.7000
  0
LINE
  8
0_00
  6
CONTINUOUS
 62
3
 10
1078.1111
 20
91.2000
 11
1078.1111
 21
71.7000
  0
LINE
  8
0_00
  6
CONTINUOUS
 62
3
 10
1079.6411
 20
91.2000
 11
1079.6411
 21
71.7000
  0
LINE
  8
0_00
  6
CONTINUOUS
 62
3
 10
1079.9410
 20
91.2000
 11
1079.9410
 21
71.7000
  0
LINE
  8
0_00
  6
CONTINUOUS
 62
3
 10
1080.2410
 20
91.2000
 11
1080.2410
 21
71.7000
  0
LINE
  8
0_00
  6
CONTINUOUS
 62
3
 10
1080.5410
 20
91.2000
 11
1080.5410
 21
71.7000
  0
LINE
  8
0_00
  6
CONTINUOUS
 62
3
 10
1080.8410
 20
91.2000
 11
1080.8410
 21
71.7000
  0
LINE
  8
0_00
  6
CONTINUOUS
 62
3
 10
1081.1411
 20
91.2000
 11
1081.1411
 21
71.7000
  0
LINE
  8
0_00
  6
CONTINUOUS
 62
3
 10
1082.3709
 20
91.2000
 11
1082.3709
 21
71.7000
  0
LINE
  8
0_00
  6
CONTINUOUS
 62
3
 10
1082.6711
 20
91.2000
 11
1082.6711
 21
71.7000
  0
LINE
  8
0_00
  6
CONTINUOUS
 62
3
 10
1082.9711
 20
91.2000
 11
1082.9711
 21
71.7000
  0
LINE
  8
0_00
  6
CONTINUOUS
 62
3
 10
1083.2710
 20
91.2000
 11
1083.2710
 21
71.7000
  0
LINE
  8
0_00
  6
CONTINUOUS
 62
3
 10
1083.5711
 20
91.2000
 11
1083.5711
 21
71.7000
  0
LINE
  8
0_00
  6
CONTINUOUS
 62
3
 10
1083.8709
 20
91.2000
 11
1083.8709
 21
71.7000
  0
LINE
  8
0_00
  6
CONTINUOUS
 62
3
 10
1092.4061
 20
72.0001
 11
1100.0110
 21
72.0001
  0
LINE
  8
0_00
  6
CONTINUOUS
 62
3
 10
1092.4061
 20
72.3001
 11
1100.0110
 21
72.3001
  0
LINE
  8
0_00
  6
CONTINUOUS
 62
3
 10
1092.4061
 20
72.6000
 11
1100.0110
 21
72.6000
  0
LINE
  8
0_00
  6
CONTINUOUS
 62
3
 10
1092.4061
 20
72.9000
 11
1100.0110
 21
72.9000
  0
LINE
  8
0_00
  6
CONTINUOUS
 62
3
 10
1092.4061
 20
73.2000
 11
1100.0110
 21
73.2000
  0
LINE
  8
0_00
  6
CONTINUOUS
 62
3
 10
1092.4061
 20
74.5351
 11
1100.0110
 21
74.5351
  0
LINE
  8
0_00
  6
CONTINUOUS
 62
3
 10
1092.4061
 20
74.8351
 11
1100.0110
 21
74.8351
  0
LINE
  8
0_00
  6
CONTINUOUS
 62
3
 10
1092.4061
 20
75.1350
 11
1100.0110
 21
75.1350
  0
LINE
  8
0_00
  6
CONTINUOUS
 62
3
 10
1092.4061
 20
75.4350
 11
1100.0110
 21
75.4350
  0
LINE
  8
0_00
  6
CONTINUOUS
 62
3
 10
1092.4061
 20
75.7350
 11
1100.0110
 21
75.7350
  0
LINE
  8
0_00
  6
CONTINUOUS
 62
3
 10
1092.4061
 20
77.0701
 11
1100.0110
 21
77.0701
  0
LINE
  8
0_00
  6
CONTINUOUS
 62
3
 10
1092.4061
 20
77.3701
 11
1100.0110
 21
77.3701
  0
LINE
  8
0_00
  6
CONTINUOUS
 62
3
 10
1092.4061
 20
77.6700
 11
1100.0110
 21
77.6700
  0
LINE
  8
0_00
  6
CONTINUOUS
 62
3
 10
1092.4061
 20
77.9700
 11
1100.0110
 21
77.9700
  0
LINE
  8
0_00
  6
CONTINUOUS
 62
3
 10
1092.4061
 20
78.2701
 11
1100.0110
 21
78.2701
  0
LINE
  8
0_00
  6
CONTINUOUS
 62
3
 10
1092.4061
 20
79.6051
 11
1100.0110
 21
79.6051
  0
LINE
  8
0_00
  6
CONTINUOUS
 62
3
 10
1092.4061
 20
79.9051
 11
1100.0110
 21
79.9051
  0
LINE
  8
0_00
  6
CONTINUOUS
 62
3
 10
1092.4061
 20
80.2050
 11
1100.0110
 21
80.2050
  0
LINE
  8
0_00
  6
CONTINUOUS
 62
3
 10
1092.4061
 20
80.5050
 11
1100.0110
 21
80.5050
  0
LINE
  8
0_00
  6
CONTINUOUS
 62
3
 10
1092.4061
 20
80.8051
 11
1100.0110
 21
80.8051
  0
LINE
  8
0_00
  6
CONTINUOUS
 62
3
 10
1092.4061
 20
82.1401
 11
1100.0110
 21
82.1401
  0
LINE
  8
0_00
  6
CONTINUOUS
 62
3
 10
1092.4061
 20
82.4401
 11
1100.0110
 21
82.4401
  0
LINE
  8
0_00
  6
CONTINUOUS
 62
3
 10
1092.4061
 20
82.7400
 11
1100.0110
 21
82.7400
  0
LINE
  8
0_00
  6
CONTINUOUS
 62
3
 10
1092.4061
 20
83.0400
 11
1100.0110
 21
83.0400
  0
LINE
  8
0_00
  6
CONTINUOUS
 62
3
 10
1092.4061
 20
83.3401
 11
1100.0110
 21
83.3401
  0
LINE
  8
0_00
  6
CONTINUOUS
 62
3
 10
1100.0110
 20
84.6751
 11
1092.4061
 21
84.6751
  0
LINE
  8
0_00
  6
CONTINUOUS
 62
3
 10
1100.0110
 20
84.9751
 11
1092.4061
 21
84.9751
  0
LINE
  8
0_00
  6
CONTINUOUS
 62
3
 10
1100.0110
 20
85.2750
 11
1092.4061
 21
85.2750
  0
LINE
  8
0_00
  6
CONTINUOUS
 62
3
 10
1100.0110
 20
85.5750
 11
1092.4061
 21
85.5750
  0
LINE
  8
0_00
  6
CONTINUOUS
 62
3
 10
1100.0110
 20
85.8751
 11
1092.4061
 21
85.8751
  0
LINE
  8
0_00
  6
CONTINUOUS
 62
3
 10
1092.4061
 20
87.2101
 11
1100.0110
 21
87.2101
  0
LINE
  8
0_00
  6
CONTINUOUS
 62
3
 10
1092.4061
 20
87.5101
 11
1100.0110
 21
87.5101
  0
LINE
  8
0_00
  6
CONTINUOUS
 62
3
 10
1092.4061
 20
87.8100
 11
1100.0110
 21
87.8100
  0
LINE
  8
0_00
  6
CONTINUOUS
 62
3
 10
1092.4061
 20
88.1100
 11
1100.0110
 21
88.1100
  0
LINE
  8
0_00
  6
CONTINUOUS
 62
3
 10
1092.4061
 20
88.4101
 11
1100.0110
 21
88.4101
  0
LINE
  8
0_00
  6
CONTINUOUS
 62
3
 10
1092.4061
 20
89.7451
 11
1100.0110
 21
89.7451
  0
LINE
  8
0_00
  6
CONTINUOUS
 62
3
 10
1092.4061
 20
90.0451
 11
1100.0110
 21
90.0451
  0
LINE
  8
0_00
  6
CONTINUOUS
 62
3
 10
1092.4061
 20
90.3450
 11
1100.0110
 21
90.3450
  0
LINE
  8
0_00
  6
CONTINUOUS
 62
3
 10
1092.4061
 20
90.6450
 11
1100.0110
 21
90.6450
  0
LINE
  8
0_00
  6
CONTINUOUS
 62
3
 10
1092.4061
 20
90.9451
 11
1100.0110
 21
90.9451
  0
LINE
  8
0_00
  6
CONTINUOUS
 62
3
 10
1085.1010
 20
91.2000
 11
1085.1010
 21
71.7000
  0
LINE
  8
0_00
  6
CONTINUOUS
 62
3
 10
1085.4011
 20
91.2000
 11
1085.4011
 21
71.7000
  0
LINE
  8
0_00
  6
CONTINUOUS
 62
3
 10
1085.7009
 20
91.2000
 11
1085.7009
 21
71.7000
  0
LINE
  8
0_00
  6
CONTINUOUS
 62
3
 10
1086.0008
 20
91.2000
 11
1086.0008
 21
71.7000
  0
LINE
  8
0_00
  6
CONTINUOUS
 62
3
 10
1086.3010
 20
91.2000
 11
1086.3010
 21
71.7000
  0
LINE
  8
0_00
  6
CONTINUOUS
 62
3
 10
1086.6010
 20
91.2000
 11
1086.6010
 21
71.7000
  0
LINE
  8
0_00
  6
CONTINUOUS
 62
3
 10
1087.8311
 20
71.7000
 11
1087.8311
 21
77.0626
  0
LINE
  8
0_00
  6
CONTINUOUS
 62
3
 10
1088.1312
 20
71.7000
 11
1088.1312
 21
77.0626
  0
LINE
  8
0_00
  6
CONTINUOUS
 62
3
 10
1088.4310
 20
71.7000
 11
1088.4310
 21
77.0626
  0
LINE
  8
0_00
  6
CONTINUOUS
 62
3
 10
1088.7309
 20
71.7000
 11
1088.7309
 21
77.0626
  0
LINE
  8
0_00
  6
CONTINUOUS
 62
3
 10
1088.8375
 20
72.4725
 11
1089.6760
 21
72.4725
  0
LINE
  8
0_00
  6
CONTINUOUS
 62
3
 10
1088.8375
 20
72.1725
 11
1089.6760
 21
72.1725
  0
LINE
  8
0_00
  6
CONTINUOUS
 62
3
 10
1088.8375
 20
71.8725
 11
1089.6760
 21
71.8725
  0
LINE
  8
0_00
  6
CONTINUOUS
 62
3
 10
1090.2825
 20
78.4758
 11
1086.7853
 21
78.4758
  0
LINE
  8
0_00
  6
CONTINUOUS
 62
3
 10
1090.1032
 20
78.8278
 11
1086.7853
 21
78.8278
  0
LINE
  8
0_00
  6
CONTINUOUS
 62
3
 10
1089.8939
 20
79.2384
 11
1086.7779
 21
79.2384
  0
LINE
  8
0_00
  6
CONTINUOUS
 62
3
 10
1089.7204
 20
79.5787
 11
1086.7744
 21
79.5787
  0
LINE
  8
0_00
  6
CONTINUOUS
 62
3
 10
1091.0859
 20
83.5262
 11
1089.1502
 21
79.5579
  0
LINE
  8
0_00
  6
CONTINUOUS
 62
3
 10
1090.9896
 20
84.0133
 11
1088.8107
 21
79.5458
  0
LINE
  8
0_00
  6
CONTINUOUS
 62
3
 10
1090.8083
 20
84.3258
 11
1088.4914
 21
79.5758
  0
LINE
  8
0_00
  6
CONTINUOUS
 62
3
 10
1090.6029
 20
84.5893
 11
1088.1454
 21
79.5508
  0
LINE
  8
0_00
  6
CONTINUOUS
 62
3
 10
1090.4008
 20
84.8596
 11
1087.8790
 21
79.6887
  0
LINE
  8
0_00
  6
CONTINUOUS
 62
3
 10
1090.1371
 20
85.0026
 11
1087.4908
 21
79.5774
  0
LINE
  8
0_00
  6
CONTINUOUS
 62
3
 10
1089.8761
 20
85.1521
 11
1087.1534
 21
79.5697
  0
LINE
  8
0_00
  6
CONTINUOUS
 62
3
 10
1089.5665
 20
85.2017
 11
1086.8386
 21
79.6087
  0
LINE
  8
0_00
  6
CONTINUOUS
 62
3
 10
1089.2498
 20
85.2367
 11
1086.7053
 21
80.0197
  0
LINE
  8
0_00
  6
CONTINUOUS
 62
3
 10
1088.9374
 20
85.2802
 11
1086.7329
 21
80.7607
  0
LINE
  8
0_00
  6
CONTINUOUS
 62
3
 10
1088.5957
 20
85.2643
 11
1086.6388
 21
81.2521
  0
LINE
  8
0_00
  6
CONTINUOUS
 62
3
 10
1087.9926
 20
84.4801
 11
1086.7511
 21
84.4801
  0
LINE
  8
0_00
  6
CONTINUOUS
 62
3
 10
1088.2355
 20
84.7801
 11
1086.7511
 21
84.7801
  0
LINE
  8
0_00
  6
CONTINUOUS
 62
3
 10
1088.3496
 20
85.0800
 11
1086.7511
 21
85.0800
  0
LINE
  8
0_00
  6
CONTINUOUS
 62
3
 10
796.2610
 20
852.4893
 11
809.7610
 21
852.4893
  0
LINE
  8
0_00
  6
CONTINUOUS
 62
3
 10
797.1685
 20
854.0609
 11
796.2610
 21
852.4893
  0
LINE
  8
0_00
  6
CONTINUOUS
 62
3
 10
800.8929
 20
860.5119
 11
803.0110
 21
864.1806
  0
LINE
  8
0_00
  6
CONTINUOUS
 62
3
 10
808.8538
 20
854.0609
 11
809.7610
 21
852.4893
  0
LINE
  8
0_00
  6
CONTINUOUS
 62
3
 10
805.1292
 20
860.5119
 11
803.0110
 21
864.1806
  0
LINE
  8
0_00
  6
CONTINUOUS
 62
3
 10
1218.5110
 20
154.2001
 11
1221.5110
 21
154.2001
  0
LINE
  8
0_00
  6
CONTINUOUS
 62
3
 10
1218.5110
 20
175.2001
 11
1221.5110
 21
175.2001
  0
LINE
  8
0_00
  6
CONTINUOUS
 62
3
 10
1218.5110
 20
196.2001
 11
1221.5110
 21
196.2001
  0
LINE
  8
0_00
  6
CONTINUOUS
 62
3
 10
1218.5110
 20
217.2001
 11
1221.5110
 21
217.2001
  0
LINE
  8
0_00
  6
CONTINUOUS
 62
3
 10
1218.5110
 20
238.2001
 11
1221.5110
 21
238.2001
  0
LINE
  8
0_00
  6
CONTINUOUS
 62
3
 10
1218.5110
 20
259.2001
 11
1221.5110
 21
259.2001
  0
LINE
  8
0_00
  6
CONTINUOUS
 62
3
 10
1218.5110
 20
280.2001
 11
1221.5110
 21
280.2001
  0
LINE
  8
0_00
  6
CONTINUOUS
 62
3
 10
1218.5110
 20
301.2001
 11
1221.5110
 21
301.2001
  0
LINE
  8
0_00
  6
CONTINUOUS
 62
3
 10
1218.5110
 20
322.2001
 11
1221.5110
 21
322.2001
  0
LINE
  8
0_00
  6
CONTINUOUS
 62
3
 10
1218.5110
 20
343.2001
 11
1221.5110
 21
343.2001
  0
LINE
  8
0_00
  6
CONTINUOUS
 62
3
 10
1218.5110
 20
364.2001
 11
1221.5110
 21
364.2001
  0
LINE
  8
0_00
  6
CONTINUOUS
 62
3
 10
1218.5110
 20
385.2001
 11
1221.5110
 21
385.2001
  0
LINE
  8
0_00
  6
CONTINUOUS
 62
3
 10
1218.5110
 20
406.2001
 11
1221.5110
 21
406.2001
  0
LINE
  8
0_00
  6
CONTINUOUS
 62
3
 10
1218.5110
 20
427.2001
 11
1221.5110
 21
427.2001
  0
LINE
  8
0_00
  6
CONTINUOUS
 62
3
 10
1218.5110
 20
448.2001
 11
1221.5110
 21
448.2001
  0
LINE
  8
0_00
  6
CONTINUOUS
 62
3
 10
1218.5110
 20
469.2001
 11
1221.5110
 21
469.2001
  0
LINE
  8
0_00
  6
CONTINUOUS
 62
3
 10
1218.5110
 20
490.2001
 11
1221.5110
 21
490.2001
  0
LINE
  8
0_00
  6
CONTINUOUS
 62
3
 10
1218.5110
 20
833.7001
 11
1221.5110
 21
833.7001
  0
LINE
  8
0_00
  6
CONTINUOUS
 62
3
 10
1218.5110
 20
815.7001
 11
1221.5110
 21
815.7001
  0
LINE
  8
0_00
  6
CONTINUOUS
 62
3
 10
1218.5110
 20
797.7001
 11
1221.5110
 21
797.7001
  0
LINE
  8
0_00
  6
CONTINUOUS
 62
3
 10
1218.5110
 20
779.7001
 11
1221.5110
 21
779.7001
  0
LINE
  8
0_00
  6
CONTINUOUS
 62
3
 10
1218.5110
 20
761.7001
 11
1221.5110
 21
761.7001
  0
LINE
  8
0_00
  6
CONTINUOUS
 62
3
 10
1218.5110
 20
743.7001
 11
1221.5110
 21
743.7001
  0
LINE
  8
0_00
  6
CONTINUOUS
 62
3
 10
1218.5110
 20
511.2001
 11
1221.5110
 21
511.2001
  0
LINE
  8
0_00
  6
CONTINUOUS
 62
3
 10
1218.5110
 20
532.2001
 11
1221.5110
 21
532.2001
  0
LINE
  8
0_00
  6
CONTINUOUS
 62
3
 10
1218.5110
 20
553.2001
 11
1221.5110
 21
553.2001
  0
LINE
  8
0_00
  6
CONTINUOUS
 62
3
 10
1218.5110
 20
574.2001
 11
1221.5110
 21
574.2001
  0
LINE
  8
0_00
  6
CONTINUOUS
 62
3
 10
1218.5110
 20
595.2001
 11
1221.5110
 21
595.2001
  0
LINE
  8
0_00
  6
CONTINUOUS
 62
3
 10
1218.5110
 20
616.2001
 11
1221.5110
 21
616.2001
  0
LINE
  8
0_00
  6
CONTINUOUS
 62
3
 10
1218.5110
 20
637.2000
 11
1221.5110
 21
637.2000
  0
LINE
  8
0_00
  6
CONTINUOUS
 62
3
 10
1218.5110
 20
658.2000
 11
1221.5110
 21
658.2000
  0
LINE
  8
0_00
  6
CONTINUOUS
 62
3
 10
1218.5110
 20
679.2000
 11
1221.5110
 21
679.2000
  0
LINE
  8
0_00
  6
CONTINUOUS
 62
3
 10
1218.5110
 20
700.2001
 11
1221.5110
 21
700.2001
  0
LINE
  8
0_00
  6
CONTINUOUS
 62
3
 10
1218.5110
 20
721.2001
 11
1221.5110
 21
721.2001
  0
LINE
  8
0_00
  6
CENTER1
 62
3
 10
881.0410
 20
73.2001
 11
881.0410
 21
91.2001
  0
LINE
  8
0_00
  6
CONTINUOUS
 62
4
 10
891.5411
 20
78.4501
 11
891.5411
 21
85.9501
  0
LINE
  8
0_00
  6
CONTINUOUS
 62
4
 10
905.0410
 20
76.2001
 11
905.0410
 21
88.2001
  0
LINE
  8
0_00
  6
CONTINUOUS
 62
4
 10
891.5411
 20
85.9501
 11
905.0410
 21
88.2001
  0
LINE
  8
0_00
  6
CONTINUOUS
 62
4
 10
891.5411
 20
78.4501
 11
905.0410
 21
76.2001
  0
LINE
  8
0_00
  6
CENTER1
 62
3
 10
872.0411
 20
82.2001
 11
907.3555
 21
82.2001
  0
LINE
  8
0_00
  6
CONTINUOUS
 62
3
 10
1191.5110
 20
37.2000
 11
1191.5110
 21
67.2000
  0
LINE
  8
0_00
  6
CONTINUOUS
 62
3
 10
39.6905
 20
22.2000
 11
1233.5110
 21
22.2000
  0
LINE
  8
0_00
  6
CONTINUOUS
 62
3
 10
1182.5110
 20
865.2001
 11
1182.5110
 21
851.7001
  0
LINE
  8
0_00
  6
CONTINUOUS
 62
3
 10
0.0000
 20
443.7000
 11
39.6905
 21
443.7000
  0
LINE
  8
0_00
  6
CONTINUOUS
 62
3
 10
626.1610
 20
22.2000
 11
626.1610
 21
0.0000
  0
LINE
  8
0_00
  6
CONTINUOUS
 62
3
 10
626.1610
 20
865.2001
 11
626.1610
 21
891.0000
  0
LINE
  8
0_00
  6
CONTINUOUS
 62
3
 10
1233.5110
 20
443.7000
 11
1260.0000
 21
443.7000
  0
LINE
  8
15_0F
  6
CONTINUOUS
 62
2
 10
226.0500
 20
622.3066
 11
224.0500
 21
620.3066
  0
LINE
  8
15_0F
  6
CONTINUOUS
 62
2
 10
221.8074
 20
622.3066
 11
219.8074
 21
620.3066
  0
LINE
  8
15_0F
  6
CONTINUOUS
 62
2
 10
217.5647
 20
622.3066
 11
215.5647
 21
620.3066
  0
LINE
  8
15_0F
  6
CONTINUOUS
 62
2
 10
213.3221
 20
622.3066
 11
212.7465
 21
621.7310
  0
LINE
  8
15_0F
  6
CONTINUOUS
 62
2
 10
211.8221
 20
620.8066
 11
211.3221
 21
620.3066
  0
LINE
  8
15_0F
  6
CONTINUOUS
 62
2
 10
207.5794
 20
620.8066
 11
207.0794
 21
620.3066
  0
LINE
  8
15_0F
  6
CONTINUOUS
 62
2
 10
203.3368
 20
620.8066
 11
202.8368
 21
620.3066
  0
LINE
  8
15_0F
  6
CONTINUOUS
 62
2
 10
230.2926
 20
622.3066
 11
228.2926
 21
620.3066
  0
LINE
  8
15_0F
  6
CONTINUOUS
 62
2
 10
234.5353
 20
622.3066
 11
232.5353
 21
620.3066
  0
LINE
  8
15_0F
  6
CONTINUOUS
 62
2
 10
237.7690
 20
621.2977
 11
236.7779
 21
620.3066
  0
LINE
  8
15_0F
  6
CONTINUOUS
 62
2
 10
241.5206
 20
620.8066
 11
241.0206
 21
620.3066
  0
LINE
  8
15_0F
  6
CONTINUOUS
 62
2
 10
245.7632
 20
620.8066
 11
245.2632
 21
620.3066
  0
LINE
  8
0_00
  6
CONTINUOUS
 62
6
 10
197.2000
 20
391.3326
 11
197.2000
 21
343.7439
  0
LINE
  8
0_00
  6
CONTINUOUS
 62
6
 10
253.2000
 20
391.3326
 11
253.2000
 21
343.7439
  0
LINE
  8
0_00
  6
CONTINUOUS
 62
6
 10
197.2000
 20
349.7440
 11
253.2000
 21
349.7440
  0
LINE
  8
0_00
  6
CONTINUOUS
 62
6
 10
197.2000
 20
349.7440
 11
204.5361
 21
348.1846
  0
LINE
  8
0_00
  6
CONTINUOUS
 62
6
 10
197.2000
 20
349.7440
 11
204.5361
 21
351.3033
  0
LINE
  8
0_00
  6
CONTINUOUS
 62
6
 10
253.2000
 20
349.7440
 11
245.8639
 21
351.3033
  0
LINE
  8
0_00
  6
CONTINUOUS
 62
6
 10
253.2000
 20
349.7440
 11
245.8639
 21
348.1846
  0
LINE
  8
15_0F
  6
CONTINUOUS
 62
6
 10
654.0419
 20
744.9200
 11
654.0419
 21
792.7958
  0
LINE
  8
15_0F
  6
CONTINUOUS
 62
6
 10
616.5419
 20
744.9200
 11
616.5419
 21
792.7958
  0
LINE
  8
15_0F
  6
CONTINUOUS
 62
6
 10
616.5419
 20
786.7958
 11
654.0419
 21
786.7958
  0
LINE
  8
15_0F
  6
CONTINUOUS
 62
6
 10
809.0420
 20
744.9200
 11
809.0420
 21
792.7958
  0
LINE
  8
15_0F
  6
CONTINUOUS
 62
6
 10
654.0419
 20
786.7958
 11
809.0420
 21
786.7958
  0
LINE
  8
15_0F
  6
CONTINUOUS
 62
6
 10
654.0419
 20
786.7958
 11
661.3781
 21
785.2365
  0
LINE
  8
15_0F
  6
CONTINUOUS
 62
6
 10
654.0419
 20
786.7958
 11
661.3781
 21
788.3551
  0
LINE
  8
15_0F
  6
CONTINUOUS
 62
6
 10
809.0420
 20
786.7958
 11
801.7059
 21
788.3551
  0
LINE
  8
15_0F
  6
CONTINUOUS
 62
6
 10
809.0420
 20
786.7958
 11
801.7059
 21
785.2365
  0
LINE
  8
15_0F
  6
CONTINUOUS
 62
6
 10
964.0420
 20
744.9200
 11
964.0420
 21
792.7958
  0
LINE
  8
15_0F
  6
CONTINUOUS
 62
6
 10
809.0420
 20
786.7958
 11
964.0420
 21
786.7958
  0
LINE
  8
15_0F
  6
CONTINUOUS
 62
6
 10
809.0420
 20
786.7958
 11
816.3781
 21
785.2365
  0
LINE
  8
15_0F
  6
CONTINUOUS
 62
6
 10
809.0420
 20
786.7958
 11
816.3781
 21
788.3551
  0
LINE
  8
15_0F
  6
CONTINUOUS
 62
6
 10
964.0420
 20
786.7958
 11
956.7057
 21
788.3551
  0
LINE
  8
15_0F
  6
CONTINUOUS
 62
6
 10
964.0420
 20
786.7958
 11
956.7057
 21
785.2365
  0
LINE
  8
15_0F
  6
CONTINUOUS
 62
6
 10
1119.0420
 20
744.9200
 11
1119.0420
 21
792.7958
  0
LINE
  8
15_0F
  6
CONTINUOUS
 62
6
 10
964.0420
 20
786.7958
 11
1119.0420
 21
786.7958
  0
LINE
  8
15_0F
  6
CONTINUOUS
 62
6
 10
964.0420
 20
786.7958
 11
971.3780
 21
785.2365
  0
LINE
  8
15_0F
  6
CONTINUOUS
 62
6
 10
964.0420
 20
786.7958
 11
971.3780
 21
788.3551
  0
LINE
  8
15_0F
  6
CONTINUOUS
 62
6
 10
1119.0420
 20
786.7958
 11
1111.7058
 21
788.3551
  0
LINE
  8
15_0F
  6
CONTINUOUS
 62
6
 10
1119.0420
 20
786.7958
 11
1111.7058
 21
785.2365
  0
LINE
  8
15_0F
  6
CONTINUOUS
 62
6
 10
1156.5419
 20
744.9200
 11
1156.5419
 21
792.7958
  0
LINE
  8
15_0F
  6
CONTINUOUS
 62
6
 10
1119.0420
 20
786.7958
 11
1156.5419
 21
786.7958
  0
LINE
  8
15_0F
  6
CONTINUOUS
 62
6
 10
601.5419
 20
786.7958
 11
616.5419
 21
786.7958
  0
LINE
  8
15_0F
  6
CONTINUOUS
 62
6
 10
616.5419
 20
786.7958
 11
609.2059
 21
788.3551
  0
LINE
  8
15_0F
  6
CONTINUOUS
 62
6
 10
616.5419
 20
786.7958
 11
609.2059
 21
785.2365
  0
LINE
  8
15_0F
  6
CONTINUOUS
 62
6
 10
1171.5420
 20
786.7958
 11
1156.5419
 21
786.7958
  0
LINE
  8
15_0F
  6
CONTINUOUS
 62
6
 10
1156.5419
 20
786.7958
 11
1163.8781
 21
785.2365
  0
LINE
  8
15_0F
  6
CONTINUOUS
 62
6
 10
1156.5419
 20
786.7958
 11
1163.8781
 21
788.3551
  0
LINE
  8
15_0F
  6
CONTINUOUS
 62
6
 10
1166.8920
 20
725.1192
 11
1205.1882
 21
725.1192
  0
LINE
  8
15_0F
  6
CONTINUOUS
 62
6
 10
1181.2170
 20
695.1192
 11
1205.1882
 21
695.1192
  0
LINE
  8
15_0F
  6
CONTINUOUS
 62
6
 10
1199.1882
 20
725.1192
 11
1199.1882
 21
695.1192
  0
LINE
  8
15_0F
  6
CONTINUOUS
 62
6
 10
1199.1882
 20
743.1192
 11
1199.1882
 21
725.1192
  0
LINE
  8
15_0F
  6
CONTINUOUS
 62
6
 10
1199.1882
 20
725.1192
 11
1200.7477
 21
732.4553
  0
LINE
  8
15_0F
  6
CONTINUOUS
 62
6
 10
1199.1882
 20
725.1192
 11
1197.6289
 21
732.4553
  0
LINE
  8
15_0F
  6
CONTINUOUS
 62
6
 10
1199.1882
 20
677.1192
 11
1199.1882
 21
695.1192
  0
LINE
  8
15_0F
  6
CONTINUOUS
 62
6
 10
1199.1882
 20
695.1192
 11
1197.6289
 21
687.7831
  0
LINE
  8
15_0F
  6
CONTINUOUS
 62
6
 10
1199.1882
 20
695.1192
 11
1200.7477
 21
687.7831
  0
LINE
  8
15_0F
  6
CONTINUOUS
 62
6
 10
638.5039
 20
388.5682
 11
638.5039
 21
446.0000
  0
LINE
  8
15_0F
  6
CONTINUOUS
 62
6
 10
698.5040
 20
388.5682
 11
698.5040
 21
446.0000
  0
LINE
  8
15_0F
  6
CONTINUOUS
 62
6
 10
638.5039
 20
440.0000
 11
698.5040
 21
440.0000
  0
LINE
  8
15_0F
  6
CONTINUOUS
 62
6
 10
638.5039
 20
440.0000
 11
645.8400
 21
438.4407
  0
LINE
  8
15_0F
  6
CONTINUOUS
 62
6
 10
638.5039
 20
440.0000
 11
645.8400
 21
441.5593
  0
LINE
  8
15_0F
  6
CONTINUOUS
 62
6
 10
698.5040
 20
440.0000
 11
691.1678
 21
441.5593
  0
LINE
  8
15_0F
  6
CONTINUOUS
 62
6
 10
698.5040
 20
440.0000
 11
691.1678
 21
438.4407
  0
LINE
  8
15_0F
  6
CONTINUOUS
 62
6
 10
633.3052
 20
324.0623
 11
534.0000
 21
324.0623
  0
LINE
  8
15_0F
  6
CONTINUOUS
 62
6
 10
662.4195
 20
268.0623
 11
534.0000
 21
268.0623
  0
LINE
  8
15_0F
  6
CONTINUOUS
 62
6
 10
540.0000
 20
324.0623
 11
540.0000
 21
268.0623
  0
LINE
  8
15_0F
  6
CONTINUOUS
 62
6
 10
540.0000
 20
324.0623
 11
538.4407
 21
316.7262
  0
LINE
  8
15_0F
  6
CONTINUOUS
 62
6
 10
540.0000
 20
324.0623
 11
541.5593
 21
316.7262
  0
LINE
  8
15_0F
  6
CONTINUOUS
 62
6
 10
540.0000
 20
268.0623
 11
541.5593
 21
275.3985
  0
LINE
  8
15_0F
  6
CONTINUOUS
 62
6
 10
540.0000
 20
268.0623
 11
538.4407
 21
275.3985
  0
LINE
  8
15_0F
  6
CONTINUOUS
 62
6
 10
1039.9841
 20
330.0623
 11
1039.9841
 21
446.0000
  0
LINE
  8
15_0F
  6
CONTINUOUS
 62
6
 10
1067.9842
 20
330.0623
 11
1067.9842
 21
446.0000
  0
LINE
  8
15_0F
  6
CONTINUOUS
 62
6
 10
1039.9841
 20
440.0000
 11
1067.9842
 21
440.0000
  0
LINE
  8
15_0F
  6
CONTINUOUS
 62
6
 10
1097.3840
 20
440.0000
 11
1067.9842
 21
440.0000
  0
LINE
  8
15_0F
  6
CONTINUOUS
 62
6
 10
1067.9842
 20
440.0000
 11
1075.3202
 21
438.4407
  0
LINE
  8
15_0F
  6
CONTINUOUS
 62
6
 10
1067.9842
 20
440.0000
 11
1075.3202
 21
441.5593
  0
LINE
  8
15_0F
  6
CONTINUOUS
 62
6
 10
1021.9841
 20
440.0000
 11
1039.9841
 21
440.0000
  0
LINE
  8
15_0F
  6
CONTINUOUS
 62
6
 10
1039.9841
 20
440.0000
 11
1032.6479
 21
441.5593
  0
LINE
  8
15_0F
  6
CONTINUOUS
 62
6
 10
1039.9841
 20
440.0000
 11
1032.6479
 21
438.4407
  0
LINE
  8
15_0F
  6
CONTINUOUS
 62
6
 10
1080.4841
 20
317.5623
 11
1166.0000
 21
317.5623
  0
LINE
  8
15_0F
  6
CONTINUOUS
 62
6
 10
1080.4841
 20
274.5623
 11
1166.0000
 21
274.5623
  0
LINE
  8
15_0F
  6
CONTINUOUS
 62
6
 10
1160.0000
 20
317.5623
 11
1160.0000
 21
274.5623
  0
LINE
  8
15_0F
  6
CONTINUOUS
 62
6
 10
1160.0000
 20
317.5623
 11
1158.4406
 21
310.2262
  0
LINE
  8
15_0F
  6
CONTINUOUS
 62
6
 10
1160.0000
 20
317.5623
 11
1161.5593
 21
310.2262
  0
LINE
  8
15_0F
  6
CONTINUOUS
 62
6
 10
1160.0000
 20
274.5623
 11
1161.5593
 21
281.8984
  0
LINE
  8
15_0F
  6
CONTINUOUS
 62
6
 10
1160.0000
 20
274.5623
 11
1158.4406
 21
281.8984
  0
LINE
  8
15_0F
  6
CONTINUOUS
 62
4
 10
104.6045
 20
228.4110
 11
149.6045
 21
228.4110
  0
LINE
  8
15_0F
  6
CONTINUOUS
 62
4
 10
1086.4483
 20
522.0958
 11
1160.2483
 21
522.0958
  0
LINE
  8
15_0F
  6
CONTINUOUS
 62
6
 10
641.9355
 20
353.3623
 11
604.3947
 21
398.0495
  0
LINE
  8
15_0F
  6
CONTINUOUS
 62
6
 10
641.9355
 20
353.3623
 11
638.4105
 21
359.9824
  0
LINE
  8
15_0F
  6
CONTINUOUS
 62
6
 10
641.9355
 20
353.3623
 11
636.0228
 21
357.9764
  0
LINE
  8
15_0F
  6
CONTINUOUS
 62
6
 10
604.3947
 20
398.0495
 11
559.3947
 21
398.0495
  0
LINE
  8
15_0F
  6
CONTINUOUS
 62
6
 10
638.8447
 20
304.7721
 11
611.7843
 21
338.3649
  0
LINE
  8
15_0F
  6
CONTINUOUS
 62
6
 10
638.8447
 20
304.7721
 11
635.4570
 21
311.4634
  0
LINE
  8
15_0F
  6
CONTINUOUS
 62
6
 10
638.8447
 20
304.7721
 11
633.0283
 21
309.5069
  0
LINE
  8
15_0F
  6
CONTINUOUS
 62
6
 10
611.7843
 20
338.3649
 11
537.9843
 21
338.3649
  0
LINE
  8
12_0C
  6
DASHED
 62
2
 10
205.2000
 20
602.3265
 11
205.7500
 21
597.5066
  0
LINE
  8
12_0C
  6
DASHED
 62
2
 10
209.2000
 20
602.3265
 11
208.6500
 21
597.5066
  0
LINE
  8
12_0C
  6
DASHED
 62
2
 10
205.7500
 20
597.5066
 11
208.6500
 21
597.5066
  0
LINE
  8
12_0C
  6
CONTINUOUS
 62
2
 10
210.7000
 20
623.4765
 11
210.7000
 21
622.5066
  0
LINE
  8
12_0C
  6
CONTINUOUS
 62
2
 10
203.7000
 20
623.4765
 11
203.7000
 21
622.5066
  0
LINE
  8
0_00
  6
CONTINUOUS
 62
2
 10
203.7000
 20
622.5066
 11
210.7000
 21
622.5066
  0
LINE
  8
12_0C
  6
DASHED
 62
2
 10
205.2000
 20
622.5066
 11
205.2000
 21
602.3265
  0
LINE
  8
12_0C
  6
DASHED
 62
2
 10
205.7000
 20
622.5066
 11
205.7000
 21
597.9447
  0
LINE
  8
12_0C
  6
DASHED
 62
2
 10
209.2000
 20
622.5066
 11
209.2000
 21
602.3265
  0
LINE
  8
12_0C
  6
DASHED
 62
2
 10
208.7000
 20
622.5066
 11
208.7000
 21
597.9447
  0
LINE
  8
12_0C
  6
CONTINUOUS
 62
2
 10
217.2000
 20
635.0766
 11
217.2000
 21
634.1066
  0
LINE
  8
12_0C
  6
CONTINUOUS
 62
2
 10
224.2000
 20
635.0766
 11
224.2000
 21
634.1066
  0
LINE
  8
12_0C
  6
CONTINUOUS
 62
2
 10
224.2000
 20
634.1066
 11
217.2000
 21
634.1066
  0
LINE
  8
12_0C
  6
CONTINUOUS
 62
2
 10
222.7000
 20
631.6066
 11
222.7000
 21
629.3066
  0
LINE
  8
12_0C
  6
CONTINUOUS
 62
2
 10
222.2000
 20
631.6066
 11
222.2000
 21
629.3066
  0
LINE
  8
12_0C
  6
CONTINUOUS
 62
2
 10
218.7000
 20
631.6066
 11
218.7000
 21
629.3066
  0
LINE
  8
12_0C
  6
CONTINUOUS
 62
2
 10
219.2000
 20
631.6066
 11
219.2000
 21
629.3066
  0
LINE
  8
12_0C
  6
DASHED
 62
2
 10
218.7000
 20
613.9266
 11
222.2000
 21
609.5447
  0
LINE
  8
12_0C
  6
DASHED
 62
2
 10
222.7000
 20
634.1066
 11
222.7000
 21
631.6066
  0
LINE
  8
12_0C
  6
DASHED
 62
2
 10
222.7000
 20
629.3066
 11
222.7000
 21
613.9266
  0
LINE
  8
12_0C
  6
DASHED
 62
2
 10
222.2000
 20
634.1066
 11
222.2000
 21
631.6066
  0
LINE
  8
12_0C
  6
DASHED
 62
2
 10
222.2000
 20
629.3066
 11
222.2000
 21
604.1066
  0
LINE
  8
12_0C
  6
DASHED
 62
2
 10
218.7000
 20
634.1066
 11
218.7000
 21
631.6066
  0
LINE
  8
12_0C
  6
DASHED
 62
2
 10
218.7000
 20
629.3066
 11
218.7000
 21
613.9266
  0
LINE
  8
12_0C
  6
DASHED
 62
2
 10
219.2000
 20
634.1066
 11
219.2000
 21
631.6066
  0
LINE
  8
12_0C
  6
DASHED
 62
2
 10
219.2000
 20
629.3066
 11
219.2000
 21
604.1066
  0
LINE
  8
12_0C
  6
DASHED
 62
2
 10
222.7000
 20
613.9266
 11
222.2000
 21
609.5447
  0
LINE
  8
12_0C
  6
DASHED
 62
2
 10
218.7000
 20
613.9266
 11
219.2000
 21
609.5447
  0
LINE
  8
12_0C
  6
DASHED
 62
2
 10
222.2000
 20
604.1066
 11
219.2000
 21
604.1066
  0
LINE
  8
12_0C
  6
CONTINUOUS
 62
2
 10
226.2000
 20
635.0766
 11
226.2000
 21
634.1066
  0
LINE
  8
12_0C
  6
CONTINUOUS
 62
2
 10
233.2000
 20
635.0766
 11
233.2000
 21
634.1066
  0
LINE
  8
12_0C
  6
CONTINUOUS
 62
2
 10
233.2000
 20
634.1066
 11
226.2000
 21
634.1066
  0
LINE
  8
12_0C
  6
CONTINUOUS
 62
2
 10
231.7000
 20
631.6066
 11
231.7000
 21
629.3066
  0
LINE
  8
12_0C
  6
CONTINUOUS
 62
2
 10
231.2000
 20
631.6066
 11
231.2000
 21
629.3066
  0
LINE
  8
12_0C
  6
CONTINUOUS
 62
2
 10
227.7000
 20
631.6066
 11
227.7000
 21
629.3066
  0
LINE
  8
12_0C
  6
CONTINUOUS
 62
2
 10
228.2000
 20
631.6066
 11
228.2000
 21
629.3066
  0
LINE
  8
12_0C
  6
DASHED
 62
2
 10
227.7000
 20
613.9266
 11
231.2000
 21
609.5447
  0
LINE
  8
12_0C
  6
DASHED
 62
2
 10
231.7000
 20
634.1066
 11
231.7000
 21
631.6066
  0
LINE
  8
12_0C
  6
DASHED
 62
2
 10
231.7000
 20
629.3066
 11
231.7000
 21
613.9266
  0
LINE
  8
12_0C
  6
DASHED
 62
2
 10
231.2000
 20
634.1066
 11
231.2000
 21
631.6066
  0
LINE
  8
12_0C
  6
DASHED
 62
2
 10
231.2000
 20
629.3066
 11
231.2000
 21
604.1066
  0
LINE
  8
12_0C
  6
DASHED
 62
2
 10
227.7000
 20
634.1066
 11
227.7000
 21
631.6066
  0
LINE
  8
12_0C
  6
DASHED
 62
2
 10
227.7000
 20
629.3066
 11
227.7000
 21
613.9266
  0
LINE
  8
12_0C
  6
DASHED
 62
2
 10
228.2000
 20
634.1066
 11
228.2000
 21
631.6066
  0
LINE
  8
12_0C
  6
DASHED
 62
2
 10
228.2000
 20
629.3066
 11
228.2000
 21
604.1066
  0
LINE
  8
12_0C
  6
DASHED
 62
2
 10
231.7000
 20
613.9266
 11
231.2000
 21
609.5447
  0
LINE
  8
12_0C
  6
DASHED
 62
2
 10
227.7000
 20
613.9266
 11
228.2000
 21
609.5447
  0
LINE
  8
12_0C
  6
DASHED
 62
2
 10
231.2000
 20
604.1066
 11
228.2000
 21
604.1066
  0
LINE
  8
12_0C
  6
DASHED
 62
2
 10
241.2000
 20
602.3265
 11
241.7500
 21
597.5066
  0
LINE
  8
12_0C
  6
DASHED
 62
2
 10
245.2000
 20
602.3265
 11
244.6500
 21
597.5066
  0
LINE
  8
12_0C
  6
DASHED
 62
2
 10
241.7500
 20
597.5066
 11
244.6500
 21
597.5066
  0
LINE
  8
12_0C
  6
CONTINUOUS
 62
2
 10
246.7000
 20
623.4765
 11
246.7000
 21
622.5066
  0
LINE
  8
12_0C
  6
CONTINUOUS
 62
2
 10
239.7000
 20
623.4765
 11
239.7000
 21
622.5066
  0
LINE
  8
0_00
  6
CONTINUOUS
 62
2
 10
239.7000
 20
622.5066
 11
246.7000
 21
622.5066
  0
LINE
  8
12_0C
  6
DASHED
 62
2
 10
241.2000
 20
622.5066
 11
241.2000
 21
602.3265
  0
LINE
  8
12_0C
  6
DASHED
 62
2
 10
241.7000
 20
622.5066
 11
241.7000
 21
597.9447
  0
LINE
  8
12_0C
  6
DASHED
 62
2
 10
245.2000
 20
622.5066
 11
245.2000
 21
602.3265
  0
LINE
  8
12_0C
  6
DASHED
 62
2
 10
244.7000
 20
622.5066
 11
244.7000
 21
597.9447
  0
LINE
  8
15_0F
  6
CONTINUOUS
 62
2
 10
372.4992
 20
632.0505
 11
370.4992
 21
630.0505
  0
LINE
  8
15_0F
  6
CONTINUOUS
 62
2
 10
368.2566
 20
632.0505
 11
366.2566
 21
630.0505
  0
LINE
  8
15_0F
  6
CONTINUOUS
 62
2
 10
364.0139
 20
632.0505
 11
362.0140
 21
630.0505
  0
LINE
  8
15_0F
  6
CONTINUOUS
 62
2
 10
359.7713
 20
632.0505
 11
359.1958
 21
631.4750
  0
LINE
  8
15_0F
  6
CONTINUOUS
 62
2
 10
358.2713
 20
630.5506
 11
357.7713
 21
630.0505
  0
LINE
  8
15_0F
  6
CONTINUOUS
 62
2
 10
354.0287
 20
630.5506
 11
353.5287
 21
630.0505
  0
LINE
  8
15_0F
  6
CONTINUOUS
 62
2
 10
349.7861
 20
630.5506
 11
349.2860
 21
630.0505
  0
LINE
  8
15_0F
  6
CONTINUOUS
 62
2
 10
376.7419
 20
632.0505
 11
374.7419
 21
630.0505
  0
LINE
  8
15_0F
  6
CONTINUOUS
 62
2
 10
380.9845
 20
632.0505
 11
378.9845
 21
630.0505
  0
LINE
  8
15_0F
  6
CONTINUOUS
 62
2
 10
384.2183
 20
631.0416
 11
383.2272
 21
630.0505
  0
LINE
  8
15_0F
  6
CONTINUOUS
 62
2
 10
387.9698
 20
630.5506
 11
387.4698
 21
630.0505
  0
LINE
  8
15_0F
  6
CONTINUOUS
 62
2
 10
392.2125
 20
630.5506
 11
391.7125
 21
630.0505
  0
LINE
  8
12_0C
  6
CONTINUOUS
 62
2
 10
393.1492
 20
633.2206
 11
393.1492
 21
632.2505
  0
LINE
  8
12_0C
  6
CONTINUOUS
 62
2
 10
386.1492
 20
633.2206
 11
386.1492
 21
632.2505
  0
LINE
  8
12_0C
  6
DASHED
 62
2
 10
387.6492
 20
632.2505
 11
387.6492
 21
612.0706
  0
LINE
  8
12_0C
  6
DASHED
 62
2
 10
388.1492
 20
632.2505
 11
388.1492
 21
607.6887
  0
LINE
  8
12_0C
  6
DASHED
 62
2
 10
391.6492
 20
632.2505
 11
391.6492
 21
612.0706
  0
LINE
  8
12_0C
  6
DASHED
 62
2
 10
391.1493
 20
632.2505
 11
391.1493
 21
607.6887
  0
LINE
  8
12_0C
  6
DASHED
 62
2
 10
387.6492
 20
612.0706
 11
388.1992
 21
607.2505
  0
LINE
  8
12_0C
  6
DASHED
 62
2
 10
391.6492
 20
612.0706
 11
391.0992
 21
607.2505
  0
LINE
  8
12_0C
  6
DASHED
 62
2
 10
388.1992
 20
607.2505
 11
391.0992
 21
607.2505
  0
LINE
  8
0_00
  6
CONTINUOUS
 62
2
 10
386.1492
 20
632.2505
 11
393.1492
 21
632.2505
  0
LINE
  8
12_0C
  6
CONTINUOUS
 62
2
 10
379.6492
 20
644.8206
 11
379.6492
 21
643.8505
  0
LINE
  8
12_0C
  6
CONTINUOUS
 62
2
 10
372.6492
 20
644.8206
 11
372.6492
 21
643.8505
  0
LINE
  8
12_0C
  6
DASHED
 62
2
 10
374.1492
 20
623.6705
 11
374.6492
 21
619.2887
  0
LINE
  8
12_0C
  6
DASHED
 62
2
 10
378.1492
 20
623.6705
 11
377.6492
 21
619.2887
  0
LINE
  8
12_0C
  6
DASHED
 62
2
 10
374.6492
 20
613.8506
 11
377.6492
 21
613.8506
  0
LINE
  8
12_0C
  6
CONTINUOUS
 62
2
 10
372.6492
 20
643.8505
 11
379.6492
 21
643.8505
  0
LINE
  8
12_0C
  6
DASHED
 62
2
 10
378.1492
 20
623.6705
 11
374.6492
 21
619.2887
  0
LINE
  8
12_0C
  6
DASHED
 62
2
 10
378.1492
 20
639.3066
 11
378.1492
 21
623.6705
  0
LINE
  8
12_0C
  6
CONTINUOUS
 62
2
 10
378.1492
 20
641.3505
 11
378.1492
 21
639.3066
  0
LINE
  8
12_0C
  6
DASHED
 62
2
 10
378.1492
 20
643.8505
 11
378.1492
 21
641.3505
  0
LINE
  8
12_0C
  6
DASHED
 62
2
 10
377.6492
 20
639.3066
 11
377.6492
 21
613.8506
  0
LINE
  8
12_0C
  6
CONTINUOUS
 62
2
 10
377.6492
 20
641.3505
 11
377.6492
 21
639.3066
  0
LINE
  8
12_0C
  6
DASHED
 62
2
 10
377.6492
 20
643.8505
 11
377.6492
 21
641.3505
  0
LINE
  8
12_0C
  6
DASHED
 62
2
 10
374.6492
 20
639.3066
 11
374.6492
 21
613.8506
  0
LINE
  8
12_0C
  6
CONTINUOUS
 62
2
 10
374.6492
 20
641.3505
 11
374.6492
 21
639.3066
  0
LINE
  8
12_0C
  6
DASHED
 62
2
 10
374.6492
 20
643.8505
 11
374.6492
 21
641.3505
  0
LINE
  8
12_0C
  6
DASHED
 62
2
 10
374.1492
 20
639.3066
 11
374.1492
 21
623.6705
  0
LINE
  8
12_0C
  6
CONTINUOUS
 62
2
 10
374.1492
 20
641.3505
 11
374.1492
 21
639.3066
  0
LINE
  8
12_0C
  6
DASHED
 62
2
 10
374.1492
 20
643.8505
 11
374.1492
 21
641.3505
  0
LINE
  8
12_0C
  6
CONTINUOUS
 62
2
 10
370.6492
 20
644.8206
 11
370.6492
 21
643.8505
  0
LINE
  8
12_0C
  6
CONTINUOUS
 62
2
 10
363.6492
 20
644.8206
 11
363.6492
 21
643.8505
  0
LINE
  8
12_0C
  6
DASHED
 62
2
 10
365.1492
 20
623.6705
 11
365.6492
 21
619.2887
  0
LINE
  8
12_0C
  6
DASHED
 62
2
 10
369.1492
 20
623.6705
 11
368.6492
 21
619.2887
  0
LINE
  8
12_0C
  6
DASHED
 62
2
 10
365.6492
 20
613.8506
 11
368.6492
 21
613.8506
  0
LINE
  8
12_0C
  6
CONTINUOUS
 62
2
 10
363.6492
 20
643.8505
 11
370.6492
 21
643.8505
  0
LINE
  8
12_0C
  6
DASHED
 62
2
 10
369.1492
 20
623.6705
 11
365.6492
 21
619.2887
  0
LINE
  8
12_0C
  6
DASHED
 62
2
 10
369.1492
 20
639.3066
 11
369.1492
 21
623.6705
  0
LINE
  8
12_0C
  6
CONTINUOUS
 62
2
 10
369.1492
 20
641.3505
 11
369.1492
 21
639.3066
  0
LINE
  8
12_0C
  6
DASHED
 62
2
 10
369.1492
 20
643.8505
 11
369.1492
 21
641.3505
  0
LINE
  8
12_0C
  6
DASHED
 62
2
 10
368.6492
 20
639.3066
 11
368.6492
 21
613.8506
  0
LINE
  8
12_0C
  6
CONTINUOUS
 62
2
 10
368.6492
 20
641.3505
 11
368.6492
 21
639.3066
  0
LINE
  8
12_0C
  6
DASHED
 62
2
 10
368.6492
 20
643.8505
 11
368.6492
 21
641.3505
  0
LINE
  8
12_0C
  6
DASHED
 62
2
 10
365.6492
 20
639.3066
 11
365.6492
 21
613.8506
  0
LINE
  8
12_0C
  6
CONTINUOUS
 62
2
 10
365.6492
 20
641.3505
 11
365.6492
 21
639.3066
  0
LINE
  8
12_0C
  6
DASHED
 62
2
 10
365.6492
 20
643.8505
 11
365.6492
 21
641.3505
  0
LINE
  8
12_0C
  6
DASHED
 62
2
 10
365.1492
 20
639.3066
 11
365.1492
 21
623.6705
  0
LINE
  8
12_0C
  6
CONTINUOUS
 62
2
 10
365.1492
 20
641.3505
 11
365.1492
 21
639.3066
  0
LINE
  8
12_0C
  6
DASHED
 62
2
 10
365.1492
 20
643.8505
 11
365.1492
 21
641.3505
  0
LINE
  8
12_0C
  6
CONTINUOUS
 62
2
 10
357.1492
 20
633.2206
 11
357.1492
 21
632.2505
  0
LINE
  8
12_0C
  6
CONTINUOUS
 62
2
 10
350.1492
 20
633.2206
 11
350.1492
 21
632.2505
  0
LINE
  8
12_0C
  6
DASHED
 62
2
 10
351.6492
 20
632.2505
 11
351.6492
 21
612.0706
  0
LINE
  8
12_0C
  6
DASHED
 62
2
 10
352.1492
 20
632.2505
 11
352.1492
 21
607.6887
  0
LINE
  8
12_0C
  6
DASHED
 62
2
 10
355.6492
 20
632.2505
 11
355.6492
 21
612.0706
  0
LINE
  8
12_0C
  6
DASHED
 62
2
 10
355.1492
 20
632.2505
 11
355.1492
 21
607.6887
  0
LINE
  8
12_0C
  6
DASHED
 62
2
 10
351.6492
 20
612.0706
 11
352.1992
 21
607.2505
  0
LINE
  8
12_0C
  6
DASHED
 62
2
 10
355.6492
 20
612.0706
 11
355.0993
 21
607.2505
  0
LINE
  8
12_0C
  6
DASHED
 62
2
 10
352.1992
 20
607.2505
 11
355.0993
 21
607.2505
  0
LINE
  8
0_00
  6
CONTINUOUS
 62
2
 10
350.1492
 20
632.2505
 11
357.1492
 21
632.2505
  0
LINE
  8
15_0F
  6
CONTINUOUS
 62
6
 10
240.2000
 20
666.3066
 11
307.5274
 21
666.3066
  0
LINE
  8
15_0F
  6
CONTINUOUS
 62
6
 10
269.4999
 20
619.3066
 11
307.5274
 21
619.3066
  0
LINE
  8
15_0F
  6
CONTINUOUS
 62
6
 10
301.5274
 20
666.3066
 11
301.5274
 21
619.3066
  0
LINE
  8
15_0F
  6
CONTINUOUS
 62
6
 10
301.5274
 20
666.3066
 11
299.9680
 21
658.9704
  0
LINE
  8
15_0F
  6
CONTINUOUS
 62
6
 10
301.5274
 20
666.3066
 11
303.0867
 21
658.9704
  0
LINE
  8
15_0F
  6
CONTINUOUS
 62
6
 10
301.5274
 20
619.3066
 11
303.0867
 21
626.6427
  0
LINE
  8
15_0F
  6
CONTINUOUS
 62
6
 10
301.5274
 20
619.3066
 11
299.9680
 21
626.6427
  0
LINE
  8
15_0F
  6
CONTINUOUS
 62
6
 10
386.6492
 20
666.3066
 11
453.7701
 21
666.3066
  0
LINE
  8
15_0F
  6
CONTINUOUS
 62
6
 10
416.6592
 20
629.1970
 11
453.7701
 21
629.1970
  0
LINE
  8
15_0F
  6
CONTINUOUS
 62
6
 10
447.7701
 20
666.3066
 11
447.7701
 21
629.1970
  0
LINE
  8
15_0F
  6
CONTINUOUS
 62
6
 10
447.7701
 20
666.3066
 11
446.2108
 21
658.9704
  0
LINE
  8
15_0F
  6
CONTINUOUS
 62
6
 10
447.7701
 20
666.3066
 11
449.3294
 21
658.9704
  0
LINE
  8
15_0F
  6
CONTINUOUS
 62
6
 10
447.7701
 20
629.1970
 11
449.3294
 21
636.5332
  0
LINE
  8
15_0F
  6
CONTINUOUS
 62
6
 10
447.7701
 20
629.1970
 11
446.2108
 21
636.5332
  0
LINE
  8
15_0F
  6
CONTINUOUS
 62
4
 10
544.5400
 20
157.8600
 11
589.5400
 21
157.8600
  0
LINE
  8
0_00
  6
CONTINUOUS
 62
4
 10
225.0000
 20
464.8066
 11
163.0030
 21
464.8066
  0
LINE
  8
0_00
  6
CONTINUOUS
 62
4
 10
225.4000
 20
464.8066
 11
287.3970
 21
464.8066
  0
LINE
  8
0_00
  6
CONTINUOUS
 62
4
 10
287.3970
 20
466.3065
 11
163.0030
 21
466.3065
  0
LINE
  8
0_00
  6
CONTINUOUS
 62
4
 10
225.0000
 20
464.8066
 11
225.2000
 21
465.0066
  0
LINE
  8
0_00
  6
CONTINUOUS
 62
4
 10
225.2000
 20
465.0066
 11
225.4000
 21
464.8066
  0
LINE
  8
14_0E
  6
CONTINUOUS
 62
4
 10
142.7001
 20
458.1172
 11
142.9189
 21
426.7842
  0
LINE
  8
0_00
  6
CONTINUOUS
 62
4
 10
144.7166
 20
412.7975
 11
144.6466
 21
422.8201
  0
LINE
  8
0_00
  6
CONTINUOUS
 62
4
 10
146.0179
 20
412.6065
 11
145.9429
 21
423.3506
  0
LINE
  8
0_00
  6
CONTINUOUS
 62
4
 10
144.1737
 20
447.5935
 11
144.4757
 21
447.2956
  0
LINE
  8
0_00
  6
CONTINUOUS
 62
4
 10
144.1778
 20
446.9935
 11
144.4757
 21
447.2956
  0
LINE
  8
0_00
  6
CONTINUOUS
 62
4
 10
147.8519
 20
427.8130
 11
148.0588
 21
428.1772
  0
LINE
  8
0_00
  6
CONTINUOUS
 62
4
 10
148.0588
 20
428.1772
 11
146.7546
 21
428.9181
  0
LINE
  8
0_00
  6
CONTINUOUS
 62
4
 10
146.7546
 20
428.9181
 11
146.5477
 21
428.5540
  0
LINE
  8
0_00
  6
CONTINUOUS
 62
4
 10
145.4145
 20
428.2418
 11
145.0503
 21
428.4487
  0
LINE
  8
0_00
  6
CONTINUOUS
 62
4
 10
145.0503
 20
428.4487
 11
144.3094
 21
427.1444
  0
LINE
  8
0_00
  6
CONTINUOUS
 62
4
 10
144.3094
 20
427.1444
 11
144.6736
 21
426.9376
  0
LINE
  8
0_00
  6
CONTINUOUS
 62
4
 10
144.9857
 20
425.8044
 11
144.7788
 21
425.4402
  0
LINE
  8
0_00
  6
CONTINUOUS
 62
4
 10
144.7788
 20
425.4402
 11
146.0830
 21
424.6993
  0
LINE
  8
0_00
  6
CONTINUOUS
 62
4
 10
146.0830
 20
424.6993
 11
146.2899
 21
425.0635
  0
LINE
  8
0_00
  6
CONTINUOUS
 62
4
 10
149.1880
 20
427.6343
 11
148.8354
 21
427.0135
  0
LINE
  8
0_00
  6
CONTINUOUS
 62
4
 10
147.1276
 20
424.0073
 11
147.4803
 21
424.6281
  0
LINE
  8
0_00
  6
CONTINUOUS
 62
4
 10
147.7877
 20
464.0893
 11
161.4064
 21
466.1845
  0
LINE
  8
0_00
  6
CONTINUOUS
 62
4
 10
144.1002
 20
458.1123
 11
144.1737
 21
447.5935
  0
LINE
  8
0_00
  6
CONTINUOUS
 62
4
 10
144.1778
 20
446.9935
 11
144.2316
 21
439.2937
  0
LINE
  8
0_00
  6
CONTINUOUS
 62
4
 10
144.2553
 20
435.8938
 11
144.2884
 21
431.1574
  0
LINE
  8
0_00
  6
CONTINUOUS
 62
4
 10
147.9158
 20
462.5914
 11
161.6345
 21
464.7019
  0
LINE
  8
0_00
  6
CONTINUOUS
 62
4
 10
302.6123
 20
464.0893
 11
288.9936
 21
466.1845
  0
LINE
  8
0_00
  6
CONTINUOUS
 62
4
 10
302.4841
 20
462.5914
 11
288.7655
 21
464.7019
  0
LINE
  8
14_0E
  6
CONTINUOUS
 62
4
 10
307.6999
 20
458.1172
 11
307.4811
 21
426.7842
  0
LINE
  8
0_00
  6
CONTINUOUS
 62
4
 10
306.2998
 20
458.1123
 11
306.2264
 21
447.5935
  0
LINE
  8
0_00
  6
CONTINUOUS
 62
4
 10
306.2222
 20
446.9935
 11
306.1684
 21
439.2937
  0
LINE
  8
0_00
  6
CONTINUOUS
 62
4
 10
306.1447
 20
435.8938
 11
306.1116
 21
431.1574
  0
LINE
  8
0_00
  6
CONTINUOUS
 62
4
 10
306.2264
 20
447.5935
 11
305.9242
 21
447.2956
  0
LINE
  8
0_00
  6
CONTINUOUS
 62
4
 10
306.2222
 20
446.9935
 11
305.9242
 21
447.2956
  0
LINE
  8
0_00
  6
CONTINUOUS
 62
4
 10
147.1770
 20
411.3146
 11
146.2270
 21
411.3080
  0
LINE
  8
0_00
  6
CONTINUOUS
 62
4
 10
146.0179
 20
412.6065
 11
147.1679
 21
412.6146
  0
LINE
  8
0_00
  6
CONTINUOUS
 62
4
 10
305.6834
 20
412.7975
 11
305.7534
 21
422.8201
  0
LINE
  8
0_00
  6
CONTINUOUS
 62
4
 10
304.3820
 20
412.6065
 11
304.4571
 21
423.3506
  0
LINE
  8
0_00
  6
CONTINUOUS
 62
4
 10
302.5481
 20
427.8130
 11
302.3412
 21
428.1772
  0
LINE
  8
0_00
  6
CONTINUOUS
 62
4
 10
302.3412
 20
428.1772
 11
303.6454
 21
428.9181
  0
LINE
  8
0_00
  6
CONTINUOUS
 62
4
 10
303.6454
 20
428.9181
 11
303.8523
 21
428.5540
  0
LINE
  8
0_00
  6
CONTINUOUS
 62
4
 10
304.9855
 20
428.2418
 11
305.3497
 21
428.4487
  0
LINE
  8
0_00
  6
CONTINUOUS
 62
4
 10
305.3497
 20
428.4487
 11
306.0906
 21
427.1444
  0
LINE
  8
0_00
  6
CONTINUOUS
 62
4
 10
306.0906
 20
427.1444
 11
305.7264
 21
426.9376
  0
LINE
  8
0_00
  6
CONTINUOUS
 62
4
 10
305.4143
 20
425.8044
 11
305.6212
 21
425.4402
  0
LINE
  8
0_00
  6
CONTINUOUS
 62
4
 10
305.6212
 20
425.4402
 11
304.3170
 21
424.6993
  0
LINE
  8
0_00
  6
CONTINUOUS
 62
4
 10
304.3170
 20
424.6993
 11
304.1100
 21
425.0635
  0
LINE
  8
0_00
  6
CONTINUOUS
 62
4
 10
301.2120
 20
427.6343
 11
301.5647
 21
427.0135
  0
LINE
  8
0_00
  6
CONTINUOUS
 62
4
 10
303.2724
 20
424.0073
 11
302.9197
 21
424.6281
  0
LINE
  8
0_00
  6
CONTINUOUS
 62
4
 10
303.2230
 20
411.3146
 11
304.1730
 21
411.3080
  0
LINE
  8
0_00
  6
CONTINUOUS
 62
4
 10
304.3820
 20
412.6065
 11
303.2321
 21
412.6146
  0
LINE
  8
0_00
  6
CONTINUOUS
 62
4
 10
145.2385
 20
438.3007
 11
146.5385
 21
438.3098
  0
LINE
  8
0_00
  6
CONTINUOUS
 62
4
 10
145.2483
 20
436.9008
 11
146.5483
 21
436.9099
  0
LINE
  8
0_00
  6
CONTINUOUS
 62
4
 10
305.1614
 20
438.3007
 11
303.8615
 21
438.3098
  0
LINE
  8
0_00
  6
CONTINUOUS
 62
4
 10
305.1517
 20
436.9008
 11
303.8517
 21
436.9099
  0
LINE
  8
12_0C
  6
DASHED
 62
2
 10
245.1998
 20
481.2866
 11
244.6498
 21
486.1066
  0
LINE
  8
12_0C
  6
DASHED
 62
2
 10
241.1998
 20
481.2866
 11
241.7498
 21
486.1066
  0
LINE
  8
12_0C
  6
DASHED
 62
2
 10
244.6498
 20
486.1066
 11
241.7498
 21
486.1066
  0
LINE
  8
12_0C
  6
CONTINUOUS
 62
2
 10
239.6998
 20
460.1365
 11
239.6998
 21
461.1066
  0
LINE
  8
12_0C
  6
CONTINUOUS
 62
2
 10
246.6998
 20
460.1365
 11
246.6998
 21
461.1066
  0
LINE
  8
0_00
  6
CONTINUOUS
 62
2
 10
246.6998
 20
461.1066
 11
239.6998
 21
461.1066
  0
LINE
  8
12_0C
  6
DASHED
 62
2
 10
245.1998
 20
461.1066
 11
245.1998
 21
481.2866
  0
LINE
  8
12_0C
  6
DASHED
 62
2
 10
244.6998
 20
461.1066
 11
244.6998
 21
485.6684
  0
LINE
  8
12_0C
  6
DASHED
 62
2
 10
241.1998
 20
461.1066
 11
241.1998
 21
481.2866
  0
LINE
  8
12_0C
  6
DASHED
 62
2
 10
241.6998
 20
461.1066
 11
241.6998
 21
485.6684
  0
LINE
  8
12_0C
  6
DASHED
 62
2
 10
209.1998
 20
481.2866
 11
208.6498
 21
486.1066
  0
LINE
  8
12_0C
  6
DASHED
 62
2
 10
205.1998
 20
481.2866
 11
205.7498
 21
486.1066
  0
LINE
  8
12_0C
  6
DASHED
 62
2
 10
208.6498
 20
486.1066
 11
205.7498
 21
486.1066
  0
LINE
  8
12_0C
  6
CONTINUOUS
 62
2
 10
203.6998
 20
460.1365
 11
203.6998
 21
461.1066
  0
LINE
  8
12_0C
  6
CONTINUOUS
 62
2
 10
210.6998
 20
460.1365
 11
210.6998
 21
461.1066
  0
LINE
  8
0_00
  6
CONTINUOUS
 62
2
 10
210.6998
 20
461.1066
 11
203.6998
 21
461.1066
  0
LINE
  8
12_0C
  6
DASHED
 62
2
 10
209.1998
 20
461.1066
 11
209.1998
 21
481.2866
  0
LINE
  8
12_0C
  6
DASHED
 62
2
 10
208.6998
 20
461.1066
 11
208.6998
 21
485.6684
  0
LINE
  8
12_0C
  6
DASHED
 62
2
 10
205.1998
 20
461.1066
 11
205.1998
 21
481.2866
  0
LINE
  8
12_0C
  6
DASHED
 62
2
 10
205.6998
 20
461.1066
 11
205.6998
 21
485.6684
  0
LINE
  8
13_0D
  6
CONTINUOUS
 62
6
 10
141.7165
 20
411.3079
 11
96.8665
 21
411.3079
  0
LINE
  8
13_0D
  6
CONTINUOUS
 62
6
 10
158.5030
 20
466.3065
 11
96.8665
 21
466.3065
  0
LINE
  8
13_0D
  6
CONTINUOUS
 62
6
 10
101.3665
 20
466.3065
 11
101.3665
 21
411.3079
  0
LINE
  8
13_0D
  6
CONTINUOUS
 62
6
 10
101.3665
 20
466.3065
 11
99.8071
 21
458.9704
  0
LINE
  8
13_0D
  6
CONTINUOUS
 62
6
 10
101.3665
 20
466.3065
 11
102.9258
 21
458.9704
  0
LINE
  8
13_0D
  6
CONTINUOUS
 62
6
 10
101.3665
 20
411.3079
 11
102.9258
 21
418.6441
  0
LINE
  8
13_0D
  6
CONTINUOUS
 62
6
 10
101.3665
 20
411.3079
 11
99.8071
 21
418.6441
  0
LINE
  8
0_00
  6
CONTINUOUS
 62
4
 10
1052.3070
 20
293.5623
 11
1052.5914
 21
293.5623
  0
LINE
  8
0_00
  6
CONTINUOUS
 62
4
 10
1052.4586
 20
292.3123
 11
1051.9841
 21
292.3123
  0
LINE
  8
0_00
  6
CONTINUOUS
 62
4
 10
1051.9841
 20
290.8123
 11
1052.4586
 21
290.8123
  0
LINE
  8
0_00
  6
CONTINUOUS
 62
4
 10
1053.2341
 20
290.0367
 11
1053.2341
 21
289.5623
  0
LINE
  8
0_00
  6
CONTINUOUS
 62
4
 10
1055.6612
 20
293.5623
 11
1055.3767
 21
293.5623
  0
LINE
  8
0_00
  6
CONTINUOUS
 62
4
 10
1055.5097
 20
292.3123
 11
1055.9841
 21
292.3123
  0
LINE
  8
0_00
  6
CONTINUOUS
 62
4
 10
1055.9841
 20
290.8123
 11
1055.5097
 21
290.8123
  0
LINE
  8
0_00
  6
CONTINUOUS
 62
4
 10
1054.7341
 20
290.0367
 11
1054.7341
 21
289.5623
  0
LINE
  8
0_00
  6
CONTINUOUS
 62
4
 10
1051.9841
 20
292.3123
 11
1051.9841
 21
290.8123
  0
LINE
  8
0_00
  6
CONTINUOUS
 62
4
 10
1055.9841
 20
290.8123
 11
1055.9841
 21
292.3123
  0
LINE
  8
0_00
  6
CONTINUOUS
 62
4
 10
1053.7841
 20
288.3123
 11
1053.9841
 21
288.5123
  0
LINE
  8
0_00
  6
CONTINUOUS
 62
4
 10
1054.1841
 20
288.3123
 11
1053.9841
 21
288.5123
  0
LINE
  8
0_00
  6
CONTINUOUS
 62
4
 10
1053.2341
 20
289.5623
 11
1054.7341
 21
289.5623
  0
LINE
  8
0_00
  6
CONTINUOUS
 62
4
 10
1047.1840
 20
296.0623
 11
1046.9842
 21
295.8623
  0
LINE
  8
0_00
  6
CONTINUOUS
 62
4
 10
1047.1840
 20
296.0623
 11
1046.9842
 21
296.2623
  0
LINE
  8
0_00
  6
CONTINUOUS
 62
4
 10
1046.9842
 20
294.5623
 11
1046.9842
 21
295.8623
  0
LINE
  8
0_00
  6
CONTINUOUS
 62
4
 10
1046.9842
 20
296.2623
 11
1046.9842
 21
297.5623
  0
LINE
  8
0_00
  6
CONTINUOUS
 62
4
 10
1048.0841
 20
294.5623
 11
1048.0841
 21
297.5623
  0
LINE
  8
0_00
  6
CONTINUOUS
 62
4
 10
1060.7841
 20
296.0623
 11
1060.9841
 21
295.8623
  0
LINE
  8
0_00
  6
CONTINUOUS
 62
4
 10
1060.7841
 20
296.0623
 11
1060.9841
 21
296.2623
  0
LINE
  8
0_00
  6
CONTINUOUS
 62
4
 10
1060.9841
 20
294.5623
 11
1060.9841
 21
295.8623
  0
LINE
  8
0_00
  6
CONTINUOUS
 62
4
 10
1060.9841
 20
296.2623
 11
1060.9841
 21
297.5623
  0
LINE
  8
0_00
  6
CONTINUOUS
 62
4
 10
1059.8840
 20
294.5623
 11
1059.8840
 21
297.5623
  0
LINE
  8
0_00
  6
CONTINUOUS
 62
4
 10
1049.6841
 20
288.3123
 11
1053.7841
 21
288.3123
  0
LINE
  8
0_00
  6
CONTINUOUS
 62
4
 10
1050.9853
 20
289.3624
 11
1049.6524
 21
289.3624
  0
LINE
  8
0_00
  6
CONTINUOUS
 62
4
 10
1058.2840
 20
288.3123
 11
1054.1841
 21
288.3123
  0
LINE
  8
0_00
  6
CONTINUOUS
 62
4
 10
1056.9828
 20
289.3624
 11
1058.3158
 21
289.3624
  0
LINE
  8
0_00
  6
CONTINUOUS
 62
4
 10
1052.3070
 20
298.5623
 11
1052.5914
 21
298.5623
  0
LINE
  8
0_00
  6
CONTINUOUS
 62
4
 10
1052.4586
 20
299.8123
 11
1051.9841
 21
299.8123
  0
LINE
  8
0_00
  6
CONTINUOUS
 62
4
 10
1051.9841
 20
301.3123
 11
1052.4586
 21
301.3123
  0
LINE
  8
0_00
  6
CONTINUOUS
 62
4
 10
1053.2341
 20
302.0880
 11
1053.2341
 21
302.5623
  0
LINE
  8
0_00
  6
CONTINUOUS
 62
4
 10
1055.6612
 20
298.5623
 11
1055.3767
 21
298.5623
  0
LINE
  8
0_00
  6
CONTINUOUS
 62
4
 10
1055.5097
 20
299.8123
 11
1055.9841
 21
299.8123
  0
LINE
  8
0_00
  6
CONTINUOUS
 62
4
 10
1055.9841
 20
301.3123
 11
1055.5097
 21
301.3123
  0
LINE
  8
0_00
  6
CONTINUOUS
 62
4
 10
1054.7341
 20
302.0880
 11
1054.7341
 21
302.5623
  0
LINE
  8
0_00
  6
CONTINUOUS
 62
4
 10
1051.9841
 20
299.8123
 11
1051.9841
 21
301.3123
  0
LINE
  8
0_00
  6
CONTINUOUS
 62
4
 10
1055.9841
 20
301.3123
 11
1055.9841
 21
299.8123
  0
LINE
  8
0_00
  6
CONTINUOUS
 62
4
 10
1053.7841
 20
303.8123
 11
1053.9841
 21
303.6123
  0
LINE
  8
0_00
  6
CONTINUOUS
 62
4
 10
1054.1841
 20
303.8123
 11
1053.9841
 21
303.6123
  0
LINE
  8
0_00
  6
CONTINUOUS
 62
4
 10
1053.2341
 20
302.5623
 11
1054.7341
 21
302.5623
  0
LINE
  8
0_00
  6
CONTINUOUS
 62
4
 10
1049.6841
 20
303.8123
 11
1053.7841
 21
303.8123
  0
LINE
  8
0_00
  6
CONTINUOUS
 62
4
 10
1050.9853
 20
302.7623
 11
1049.6524
 21
302.7623
  0
LINE
  8
0_00
  6
CONTINUOUS
 62
4
 10
1058.2840
 20
303.8123
 11
1054.1841
 21
303.8123
  0
LINE
  8
0_00
  6
CONTINUOUS
 62
4
 10
1056.9828
 20
302.7623
 11
1058.3158
 21
302.7623
  0
LINE
  8
13_0D
  6
CONTINUOUS
 62
6
 10
686.0040
 20
284.7748
 11
686.0040
 21
424.5000
  0
LINE
  8
13_0D
  6
CONTINUOUS
 62
6
 10
651.0040
 20
340.7748
 11
651.0040
 21
424.5000
  0
LINE
  8
13_0D
  6
CONTINUOUS
 62
6
 10
651.0040
 20
420.0000
 11
686.0040
 21
420.0000
  0
LINE
  8
13_0D
  6
CONTINUOUS
 62
6
 10
651.0040
 20
420.0000
 11
658.3401
 21
418.4407
  0
LINE
  8
13_0D
  6
CONTINUOUS
 62
6
 10
651.0040
 20
420.0000
 11
658.3401
 21
421.5593
  0
LINE
  8
13_0D
  6
CONTINUOUS
 62
6
 10
686.0040
 20
420.0000
 11
678.6679
 21
421.5593
  0
LINE
  8
13_0D
  6
CONTINUOUS
 62
6
 10
686.0040
 20
420.0000
 11
678.6679
 21
418.4407
  0
LINE
  8
15_0F
  6
CONTINUOUS
 62
6
 10
195.2000
 20
673.8286
 11
195.2000
 21
712.7958
  0
LINE
  8
15_0F
  6
CONTINUOUS
 62
6
 10
195.2000
 20
706.7958
 11
255.2000
 21
706.7958
  0
LINE
  8
15_0F
  6
CONTINUOUS
 62
6
 10
195.2000
 20
706.7958
 11
202.5361
 21
705.2364
  0
LINE
  8
15_0F
  6
CONTINUOUS
 62
6
 10
195.2000
 20
706.7958
 11
202.5361
 21
708.3551
  0
LINE
  8
15_0F
  6
CONTINUOUS
 62
6
 10
255.2000
 20
706.7958
 11
247.8639
 21
708.3551
  0
LINE
  8
15_0F
  6
CONTINUOUS
 62
6
 10
255.2000
 20
706.7958
 11
247.8639
 21
705.2364
  0
LINE
  8
15_0F
  6
CONTINUOUS
 62
6
 10
255.2000
 20
673.8286
 11
255.2000
 21
677.9805
  0
LINE
  8
15_0F
  6
CONTINUOUS
 62
6
 10
255.2000
 20
694.4014
 11
255.2000
 21
712.7958
  0
LINE
  8
15_0F
  6
CONTINUOUS
 62
6
 10
331.6492
 20
657.5237
 11
331.6492
 21
712.7958
  0
LINE
  8
15_0F
  6
CONTINUOUS
 62
6
 10
331.6492
 20
706.7958
 11
411.6492
 21
706.7958
  0
LINE
  8
15_0F
  6
CONTINUOUS
 62
6
 10
331.6492
 20
706.7958
 11
338.9854
 21
705.2364
  0
LINE
  8
15_0F
  6
CONTINUOUS
 62
6
 10
331.6492
 20
706.7958
 11
338.9854
 21
708.3551
  0
LINE
  8
15_0F
  6
CONTINUOUS
 62
6
 10
411.6492
 20
706.7958
 11
404.3131
 21
708.3551
  0
LINE
  8
15_0F
  6
CONTINUOUS
 62
6
 10
411.6492
 20
706.7958
 11
404.3131
 21
705.2364
  0
LINE
  8
15_0F
  6
CONTINUOUS
 62
6
 10
411.6492
 20
657.5237
 11
411.6492
 21
673.3099
  0
LINE
  8
15_0F
  6
CONTINUOUS
 62
6
 10
411.6492
 20
693.2053
 11
411.6492
 21
712.7958
  0
LINE
  8
13_0D
  6
CONTINUOUS
 62
6
 10
476.9209
 20
652.5514
 11
476.9209
 21
711.2958
  0
LINE
  8
13_0D
  6
CONTINUOUS
 62
6
 10
476.9209
 20
706.7958
 11
534.9209
 21
706.7958
  0
LINE
  8
13_0D
  6
CONTINUOUS
 62
6
 10
476.9209
 20
706.7958
 11
484.2570
 21
705.2364
  0
LINE
  8
13_0D
  6
CONTINUOUS
 62
6
 10
476.9209
 20
706.7958
 11
484.2570
 21
708.3551
  0
LINE
  8
13_0D
  6
CONTINUOUS
 62
6
 10
534.9209
 20
706.7958
 11
527.5849
 21
708.3551
  0
LINE
  8
13_0D
  6
CONTINUOUS
 62
6
 10
534.9209
 20
706.7958
 11
527.5849
 21
705.2364
  0
LINE
  8
13_0D
  6
CONTINUOUS
 62
6
 10
534.9209
 20
651.1102
 11
534.9209
 21
671.6683
  0
LINE
  8
13_0D
  6
CONTINUOUS
 62
6
 10
534.9209
 20
693.6474
 11
534.9209
 21
711.2958
  0
LINE
  8
15_0F
  6
CONTINUOUS
 62
6
 10
516.2307
 20
610.2017
 11
532.1579
 21
594.2745
  0
LINE
  8
15_0F
  6
CONTINUOUS
 62
6
 10
516.2307
 20
610.2017
 11
520.3154
 21
603.9117
  0
LINE
  8
15_0F
  6
CONTINUOUS
 62
6
 10
516.2307
 20
610.2017
 11
522.5207
 21
606.1170
  0
LINE
  8
15_0F
  6
CONTINUOUS
 62
6
 10
532.1579
 20
594.2745
 11
581.3578
 21
594.2745
  0
ARC
  8
0_00
  6
CONTINUOUS
 62
4
 10
239.2123
 20
622.7065
 40
0.4000
 50
194.0363
 51
270.0000
  0
ARC
  8
0_00
  6
CONTINUOUS
 62
4
 10
238.2633
 20
623.6164
 40
0.3000
 50
14.0362
 51
87.5372
  0
ARC
  8
0_00
  6
CONTINUOUS
 62
4
 10
250.5278
 20
622.9065
 40
0.6000
 50
270.0000
 51
388.8667
  0
ARC
  8
0_00
  6
CONTINUOUS
 62
4
 10
253.4500
 20
625.5583
 40
0.3000
 50
275.0000
 51
371.6000
  0
ARC
  8
0_00
  6
CONTINUOUS
 62
4
 10
252.6500
 20
624.8358
 40
0.3500
 50
95.0000
 51
185.0988
  0
ARC
  8
0_00
  6
CONTINUOUS
 62
4
 10
251.6000
 20
625.1957
 40
1.0000
 50
95.0000
 51
180.0000
  0
ARC
  8
0_00
  6
CONTINUOUS
 62
4
 10
252.3248
 20
626.5641
 40
0.3000
 50
275.0000
 51
371.6000
  0
ARC
  8
0_00
  6
CONTINUOUS
 62
4
 10
252.5979
 20
630.2065
 40
0.7000
 50
90.0000
 51
191.6000
  0
ARC
  8
0_00
  6
CONTINUOUS
 62
4
 10
254.2935
 20
624.9825
 40
2.0000
 50
185.0988
 51
249.7122
  0
ARC
  8
0_00
  6
CONTINUOUS
 62
4
 10
254.2935
 20
624.9825
 40
3.7000
 50
183.4043
 51
208.8667
  0
ARC
  8
0_00
  6
CONTINUOUS
 62
4
 10
211.1877
 20
622.7065
 40
0.4000
 50
270.0000
 51
345.9637
  0
ARC
  8
0_00
  6
CONTINUOUS
 62
4
 10
212.1367
 20
623.6164
 40
0.3000
 50
92.4628
 51
165.9637
  0
ARC
  8
0_00
  6
CONTINUOUS
 62
4
 10
199.8722
 20
622.9065
 40
0.6000
 50
151.1333
 51
270.0000
  0
ARC
  8
0_00
  6
CONTINUOUS
 62
4
 10
196.9500
 20
625.5583
 40
0.3000
 50
168.4000
 51
265.0000
  0
ARC
  8
0_00
  6
CONTINUOUS
 62
4
 10
197.7500
 20
624.8358
 40
0.3500
 50
354.9012
 51
445.0000
  0
ARC
  8
0_00
  6
CONTINUOUS
 62
4
 10
198.8000
 20
625.1957
 40
1.0000
 50
0.0000
 51
85.0000
  0
ARC
  8
0_00
  6
CONTINUOUS
 62
4
 10
198.0752
 20
626.5641
 40
0.3000
 50
168.4000
 51
265.0000
  0
ARC
  8
0_00
  6
CONTINUOUS
 62
4
 10
197.8021
 20
630.2065
 40
0.7000
 50
348.4000
 51
450.0000
  0
ARC
  8
0_00
  6
CONTINUOUS
 62
4
 10
196.1065
 20
624.9825
 40
2.0000
 50
290.2878
 51
354.9012
  0
ARC
  8
0_00
  6
CONTINUOUS
 62
4
 10
196.1065
 20
624.9825
 40
3.7000
 50
331.1333
 51
356.5957
  0
ARC
  8
14_0E
  6
CONTINUOUS
 62
4
 10
233.7000
 20
629.6066
 40
2.0000
 50
0.0000
 51
90.0000
  0
ARC
  8
0_00
  6
CONTINUOUS
 62
4
 10
233.7000
 20
629.6066
 40
4.5000
 50
0.0000
 51
90.0000
  0
ARC
  8
0_00
  6
CONTINUOUS
 62
4
 10
249.2000
 20
622.8066
 40
0.5000
 50
270.0000
 51
360.0000
  0
ARC
  8
0_00
  6
CONTINUOUS
 62
4
 10
247.2000
 20
625.7066
 40
2.5000
 50
0.0000
 51
90.0000
  0
ARC
  8
0_00
  6
CONTINUOUS
 62
4
 10
236.7000
 20
625.0066
 40
1.0000
 50
180.0000
 51
360.0000
  0
ARC
  8
14_0E
  6
CONTINUOUS
 62
4
 10
216.7000
 20
629.6066
 40
2.0000
 50
90.0000
 51
180.0000
  0
ARC
  8
12_0C
  6
CONTINUOUS
 62
4
 10
216.7000
 20
629.6066
 40
4.5000
 50
90.0000
 51
180.0000
  0
ARC
  8
0_00
  6
CONTINUOUS
 62
4
 10
201.2000
 20
622.8066
 40
0.5000
 50
180.0000
 51
270.0000
  0
ARC
  8
0_00
  6
CONTINUOUS
 62
4
 10
203.2000
 20
625.7066
 40
2.5000
 50
90.0000
 51
180.0000
  0
ARC
  8
0_00
  6
CONTINUOUS
 62
4
 10
213.7000
 20
625.0066
 40
1.0000
 50
180.0000
 51
360.0000
  0
ARC
  8
0_00
  6
CONTINUOUS
 62
4
 10
225.2000
 20
464.7066
 40
201.6000
 50
82.9521
 51
97.0479
  0
ARC
  8
0_00
  6
CONTINUOUS
 62
4
 10
201.2000
 20
658.8286
 40
6.0000
 50
97.0479
 51
180.0001
  0
ARC
  8
0_00
  6
CONTINUOUS
 62
4
 10
249.2000
 20
658.8286
 40
6.0000
 50
359.9999
 51
442.9521
  0
ARC
  8
14_0E
  6
CONTINUOUS
 62
4
 10
225.2000
 20
464.7066
 40
200.0000
 50
82.8930
 51
97.1069
  0
ARC
  8
14_0E
  6
CONTINUOUS
 62
4
 10
201.0000
 20
658.8038
 40
4.4000
 50
97.1069
 51
180.0000
  0
ARC
  8
14_0E
  6
CONTINUOUS
 62
4
 10
249.4000
 20
658.8038
 40
4.4000
 50
0.0000
 51
82.8930
  0
ARC
  8
0_00
  6
CONTINUOUS
 62
4
 10
195.8995
 20
620.0066
 40
0.7000
 50
180.0001
 51
360.0001
  0
ARC
  8
14_0E
  6
CONTINUOUS
 62
4
 10
196.0289
 20
625.0973
 40
2.0000
 50
286.5774
 51
349.1683
  0
ARC
  8
0_00
  6
CONTINUOUS
 62
4
 10
197.6495
 20
624.7872
 40
0.3500
 50
349.1683
 51
445.0000
  0
ARC
  8
0_00
  6
CONTINUOUS
 62
4
 10
196.9995
 20
625.5969
 40
0.4000
 50
168.6000
 51
265.0000
  0
ARC
  8
0_00
  6
CONTINUOUS
 62
4
 10
196.8781
 20
628.0304
 40
0.2000
 50
348.6000
 51
450.0000
  0
ARC
  8
0_00
  6
CONTINUOUS
 62
4
 10
196.9995
 20
630.6304
 40
0.4000
 50
90.0000
 51
180.0000
  0
ARC
  8
0_00
  6
CONTINUOUS
 62
4
 10
196.9995
 20
632.4304
 40
0.4000
 50
183.0566
 51
270.0000
  0
ARC
  8
0_00
  6
CONTINUOUS
 62
4
 10
199.8995
 20
630.8303
 40
0.6000
 50
180.0000
 51
270.0000
  0
ARC
  8
0_00
  6
CONTINUOUS
 62
4
 10
199.5995
 20
631.5303
 40
0.5000
 50
0.0000
 51
90.0000
  0
ARC
  8
0_00
  6
CONTINUOUS
 62
4
 10
199.8995
 20
630.4304
 40
0.2000
 50
270.0000
 51
360.0000
  0
ARC
  8
0_00
  6
CONTINUOUS
 62
4
 10
254.4999
 20
620.0066
 40
0.7000
 50
179.9999
 51
359.9999
  0
ARC
  8
14_0E
  6
CONTINUOUS
 62
4
 10
254.3705
 20
625.0973
 40
2.0000
 50
190.8317
 51
253.4226
  0
ARC
  8
0_00
  6
CONTINUOUS
 62
4
 10
252.7499
 20
624.7872
 40
0.3500
 50
95.0000
 51
190.8317
  0
ARC
  8
0_00
  6
CONTINUOUS
 62
4
 10
253.3999
 20
625.5969
 40
0.4000
 50
275.0000
 51
371.4000
  0
ARC
  8
0_00
  6
CONTINUOUS
 62
4
 10
250.7999
 20
631.5303
 40
0.5000
 50
90.0000
 51
180.0000
  0
ARC
  8
0_00
  6
CONTINUOUS
 62
4
 10
250.4999
 20
630.4304
 40
0.2000
 50
180.0000
 51
270.0000
  0
ARC
  8
0_00
  6
CONTINUOUS
 62
4
 10
250.4999
 20
630.8303
 40
0.6000
 50
270.0000
 51
360.0000
  0
ARC
  8
0_00
  6
CONTINUOUS
 62
4
 10
253.3999
 20
632.4304
 40
0.4000
 50
270.0000
 51
359.9999
  0
ARC
  8
0_00
  6
CONTINUOUS
 62
4
 10
253.3999
 20
630.6304
 40
0.4000
 50
0.0000
 51
90.0000
  0
ARC
  8
0_00
  6
CONTINUOUS
 62
4
 10
253.5213
 20
628.0304
 40
0.2000
 50
90.0000
 51
191.4000
  0
ARC
  8
3_03
  6
CONTINUOUS
 62
4
 10
616.5419
 20
694.8793
 40
30.3450
 50
89.8197
 51
97.0407
  0
ARC
  8
3_03
  6
CONTINUOUS
 62
4
 10
612.9419
 20
724.0277
 40
0.9750
 50
97.0407
 51
180.0000
  0
ARC
  8
3_03
  6
CONTINUOUS
 62
4
 10
621.1170
 20
725.1490
 40
0.0750
 50
0.0000
 51
90.0000
  0
ARC
  8
3_03
  6
CONTINUOUS
 62
4
 10
621.1170
 20
718.0992
 40
0.0750
 50
270.0000
 51
360.0000
  0
ARC
  8
3_03
  6
CONTINUOUS
 62
4
 10
612.0419
 20
718.0992
 40
0.0750
 50
180.0000
 51
270.0000
  0
ARC
  8
0_00
  6
CONTINUOUS
 62
4
 10
385.6616
 20
632.4505
 40
0.4000
 50
194.0363
 51
270.0000
  0
ARC
  8
0_00
  6
CONTINUOUS
 62
4
 10
384.7125
 20
633.3604
 40
0.3000
 50
14.0362
 51
87.5372
  0
ARC
  8
0_00
  6
CONTINUOUS
 62
4
 10
357.6369
 20
632.4505
 40
0.4000
 50
270.0000
 51
345.9637
  0
ARC
  8
0_00
  6
CONTINUOUS
 62
4
 10
358.5859
 20
633.3604
 40
0.3000
 50
92.4628
 51
165.9637
  0
ARC
  8
14_0E
  6
CONTINUOUS
 62
4
 10
380.1492
 20
639.3506
 40
2.0000
 50
0.0000
 51
90.0000
  0
ARC
  8
0_00
  6
CONTINUOUS
 62
4
 10
380.1492
 20
639.3506
 40
4.5000
 50
0.0000
 51
90.0000
  0
ARC
  8
0_00
  6
CONTINUOUS
 62
4
 10
395.6492
 20
632.5505
 40
0.5000
 50
270.0000
 51
360.0000
  0
ARC
  8
0_00
  6
CONTINUOUS
 62
4
 10
393.6492
 20
635.4505
 40
2.5000
 50
0.0000
 51
90.0000
  0
ARC
  8
0_00
  6
CONTINUOUS
 62
4
 10
383.1492
 20
634.7505
 40
1.0000
 50
180.0000
 51
360.0000
  0
ARC
  8
14_0E
  6
CONTINUOUS
 62
4
 10
363.1492
 20
639.3506
 40
2.0000
 50
90.0000
 51
180.0000
  0
ARC
  8
12_0C
  6
CONTINUOUS
 62
4
 10
363.1492
 20
639.3506
 40
4.5000
 50
90.0000
 51
180.0000
  0
ARC
  8
0_00
  6
CONTINUOUS
 62
4
 10
347.6492
 20
632.5505
 40
0.5000
 50
180.0000
 51
270.0000
  0
ARC
  8
0_00
  6
CONTINUOUS
 62
4
 10
349.6493
 20
635.4505
 40
2.5000
 50
90.0000
 51
180.0000
  0
ARC
  8
0_00
  6
CONTINUOUS
 62
4
 10
360.1492
 20
634.7505
 40
1.0000
 50
180.0000
 51
360.0000
  0
ARC
  8
0_00
  6
CONTINUOUS
 62
4
 10
385.6616
 20
632.4505
 40
0.4000
 50
194.0363
 51
270.0000
  0
ARC
  8
0_00
  6
CONTINUOUS
 62
4
 10
384.7125
 20
633.3604
 40
0.3000
 50
14.0362
 51
87.5372
  0
ARC
  8
0_00
  6
CONTINUOUS
 62
4
 10
396.9770
 20
632.6505
 40
0.6000
 50
270.0000
 51
388.8667
  0
ARC
  8
0_00
  6
CONTINUOUS
 62
4
 10
399.8992
 20
635.3023
 40
0.3000
 50
275.0000
 51
371.6000
  0
ARC
  8
0_00
  6
CONTINUOUS
 62
4
 10
399.0992
 20
634.5798
 40
0.3500
 50
95.0000
 51
185.0988
  0
ARC
  8
0_00
  6
CONTINUOUS
 62
4
 10
398.0493
 20
634.9397
 40
1.0000
 50
95.0000
 51
180.0000
  0
ARC
  8
0_00
  6
CONTINUOUS
 62
4
 10
398.7740
 20
636.3081
 40
0.3000
 50
275.0000
 51
371.6000
  0
ARC
  8
0_00
  6
CONTINUOUS
 62
4
 10
399.0472
 20
639.9505
 40
0.7000
 50
90.0000
 51
191.6000
  0
ARC
  8
0_00
  6
CONTINUOUS
 62
4
 10
400.7427
 20
634.7264
 40
2.0000
 50
185.0988
 51
249.7122
  0
ARC
  8
0_00
  6
CONTINUOUS
 62
4
 10
400.7427
 20
634.7264
 40
3.7000
 50
183.4043
 51
208.8667
  0
ARC
  8
0_00
  6
CONTINUOUS
 62
4
 10
402.1497
 20
631.5892
 40
0.5000
 50
179.9995
 51
296.3368
  0
ARC
  8
0_00
  6
CONTINUOUS
 62
4
 10
399.8498
 20
640.3970
 40
0.4000
 50
359.4403
 51
449.9995
  0
ARC
  8
0_00
  6
CONTINUOUS
 62
4
 10
396.9499
 20
640.1971
 40
0.2000
 50
179.9995
 51
269.9996
  0
ARC
  8
0_00
  6
CONTINUOUS
 62
4
 10
396.9499
 20
640.5971
 40
0.6000
 50
269.9996
 51
359.9996
  0
ARC
  8
0_00
  6
CONTINUOUS
 62
4
 10
399.1998
 20
634.5539
 40
0.3500
 50
94.9995
 51
190.8312
  0
ARC
  8
14_0E
  6
CONTINUOUS
 62
4
 10
400.8204
 20
634.8640
 40
2.0000
 50
190.8312
 51
253.4221
  0
ARC
  8
0_00
  6
CONTINUOUS
 62
4
 10
399.8498
 20
635.3636
 40
0.4000
 50
274.9996
 51
371.3995
  0
ARC
  8
0_00
  6
CONTINUOUS
 62
4
 10
399.9712
 20
637.7970
 40
0.2000
 50
89.9995
 51
191.3996
  0
ARC
  8
0_00
  6
CONTINUOUS
 62
4
 10
397.7498
 20
641.0971
 40
1.0000
 50
89.9995
 51
179.9995
  0
ARC
  8
0_00
  6
CONTINUOUS
 62
4
 10
400.3498
 20
640.7970
 40
1.3000
 50
359.9996
 51
449.9995
  0
ARC
  8
0_00
  6
CONTINUOUS
 62
4
 10
371.6492
 20
606.3066
 40
60.0000
 50
56.5252
 51
123.4747
  0
ARC
  8
0_00
  6
CONTINUOUS
 62
4
 10
396.2493
 20
643.5087
 40
15.4000
 50
292.7488
 51
416.5252
  0
ARC
  8
0_00
  6
CONTINUOUS
 62
4
 10
401.6592
 20
630.6065
 40
1.4095
 50
179.9994
 51
292.7488
  0
ARC
  8
0_00
  6
CONTINUOUS
 62
4
 10
396.2493
 20
643.5087
 40
13.8000
 50
296.3368
 51
416.5252
  0
ARC
  8
0_00
  6
CONTINUOUS
 62
4
 10
371.6492
 20
606.3066
 40
58.4000
 50
56.5252
 51
123.4747
  0
ARC
  8
0_00
  6
CONTINUOUS
 62
4
 10
357.6369
 20
632.4505
 40
0.4000
 50
270.0000
 51
345.9637
  0
ARC
  8
0_00
  6
CONTINUOUS
 62
4
 10
358.5859
 20
633.3604
 40
0.3000
 50
92.4628
 51
165.9637
  0
ARC
  8
0_00
  6
CONTINUOUS
 62
4
 10
346.3215
 20
632.6505
 40
0.6000
 50
151.1333
 51
270.0000
  0
ARC
  8
0_00
  6
CONTINUOUS
 62
4
 10
343.3992
 20
635.3023
 40
0.3000
 50
168.4000
 51
265.0000
  0
ARC
  8
0_00
  6
CONTINUOUS
 62
4
 10
344.1992
 20
634.5798
 40
0.3500
 50
354.9012
 51
445.0000
  0
ARC
  8
0_00
  6
CONTINUOUS
 62
4
 10
345.2492
 20
634.9397
 40
1.0000
 50
0.0000
 51
85.0000
  0
ARC
  8
0_00
  6
CONTINUOUS
 62
4
 10
344.5245
 20
636.3081
 40
0.3000
 50
168.4000
 51
265.0000
  0
ARC
  8
0_00
  6
CONTINUOUS
 62
4
 10
344.2513
 20
639.9505
 40
0.7000
 50
348.4000
 51
450.0000
  0
ARC
  8
0_00
  6
CONTINUOUS
 62
4
 10
342.5558
 20
634.7264
 40
2.0000
 50
290.2878
 51
354.9012
  0
ARC
  8
0_00
  6
CONTINUOUS
 62
4
 10
342.5558
 20
634.7264
 40
3.7000
 50
331.1333
 51
356.5957
  0
ARC
  8
0_00
  6
CONTINUOUS
 62
4
 10
341.1488
 20
631.5892
 40
0.5000
 50
243.6632
 51
360.0004
  0
ARC
  8
0_00
  6
CONTINUOUS
 62
4
 10
343.4486
 20
640.3970
 40
0.4000
 50
89.9999
 51
180.5597
  0
ARC
  8
0_00
  6
CONTINUOUS
 62
4
 10
346.3486
 20
640.1971
 40
0.2000
 50
270.0005
 51
360.0004
  0
ARC
  8
0_00
  6
CONTINUOUS
 62
4
 10
346.3486
 20
640.5971
 40
0.6000
 50
180.0005
 51
270.0005
  0
ARC
  8
0_00
  6
CONTINUOUS
 62
4
 10
344.0987
 20
634.5539
 40
0.3500
 50
349.1688
 51
445.0004
  0
ARC
  8
14_0E
  6
CONTINUOUS
 62
4
 10
342.4781
 20
634.8640
 40
2.0000
 50
286.5779
 51
349.1688
  0
ARC
  8
0_00
  6
CONTINUOUS
 62
4
 10
343.4487
 20
635.3636
 40
0.4000
 50
168.6004
 51
265.0005
  0
ARC
  8
0_00
  6
CONTINUOUS
 62
4
 10
343.3273
 20
637.7970
 40
0.2000
 50
348.6005
 51
450.0004
  0
ARC
  8
0_00
  6
CONTINUOUS
 62
4
 10
345.5486
 20
641.0971
 40
1.0000
 50
0.0004
 51
90.0004
  0
ARC
  8
0_00
  6
CONTINUOUS
 62
4
 10
342.9487
 20
640.7970
 40
1.3000
 50
90.0004
 51
180.0005
  0
ARC
  8
0_00
  6
CONTINUOUS
 62
4
 10
347.0493
 20
643.5087
 40
15.4000
 50
123.4747
 51
247.2512
  0
ARC
  8
0_00
  6
CONTINUOUS
 62
4
 10
341.6392
 20
630.6065
 40
1.4095
 50
247.2512
 51
360.0006
  0
ARC
  8
0_00
  6
CONTINUOUS
 62
4
 10
347.0493
 20
643.5087
 40
13.8000
 50
123.4747
 51
243.6632
  0
ARC
  8
0_00
  6
CONTINUOUS
 62
2
 10
149.2500
 20
430.3066
 40
8.4500
 50
314.7603
 51
405.2397
  0
ARC
  8
0_00
  6
CONTINUOUS
 62
2
 10
301.1500
 20
430.3066
 40
8.4500
 50
134.7603
 51
225.2397
  0
ARC
  8
0_00
  6
CONTINUOUS
 62
4
 10
270.0000
 20
462.2066
 40
0.5000
 50
90.0000
 51
180.0000
  0
ARC
  8
0_00
  6
CONTINUOUS
 62
4
 10
266.5000
 20
460.8066
 40
0.3000
 50
90.0000
 51
180.0000
  0
ARC
  8
0_00
  6
CONTINUOUS
 62
4
 10
266.5000
 20
458.9066
 40
0.3000
 50
180.0000
 51
270.0000
  0
ARC
  8
0_00
  6
CONTINUOUS
 62
4
 10
180.4000
 20
462.2066
 40
0.5000
 50
0.0000
 51
90.0000
  0
ARC
  8
0_00
  6
CONTINUOUS
 62
4
 10
162.4000
 20
462.2066
 40
0.5000
 50
90.0000
 51
180.0000
  0
ARC
  8
0_00
  6
CONTINUOUS
 62
4
 10
176.9000
 20
458.5066
 40
1.0000
 50
0.0000
 51
90.0000
  0
ARC
  8
0_00
  6
CONTINUOUS
 62
4
 10
165.9000
 20
458.5066
 40
1.0000
 50
90.0000
 51
180.0000
  0
ARC
  8
0_00
  6
CONTINUOUS
 62
4
 10
183.9000
 20
460.8066
 40
0.3000
 50
0.0000
 51
90.0000
  0
ARC
  8
0_00
  6
CONTINUOUS
 62
4
 10
183.9000
 20
458.9066
 40
0.3000
 50
270.0000
 51
360.0000
  0
ARC
  8
0_00
  6
CONTINUOUS
 62
4
 10
236.4252
 20
458.8066
 40
2.3000
 50
32.0054
 51
90.0000
  0
ARC
  8
0_00
  6
CONTINUOUS
 62
4
 10
213.9748
 20
458.8066
 40
2.3000
 50
90.0000
 51
147.9946
  0
ARC
  8
0_00
  6
CONTINUOUS
 62
4
 10
266.5000
 20
460.8066
 40
0.3000
 50
90.0000
 51
180.0000
  0
ARC
  8
0_00
  6
CONTINUOUS
 62
4
 10
183.9000
 20
460.8066
 40
0.3000
 50
0.0000
 51
90.0000
  0
ARC
  8
0_00
  6
CONTINUOUS
 62
4
 10
288.0000
 20
462.2066
 40
0.5000
 50
0.0000
 51
90.0000
  0
ARC
  8
0_00
  6
CONTINUOUS
 62
4
 10
270.5000
 20
453.3066
 40
2.0000
 50
270.0000
 51
360.0000
  0
ARC
  8
0_00
  6
CONTINUOUS
 62
4
 10
273.5000
 20
458.5066
 40
1.0000
 50
90.0000
 51
180.0000
  0
ARC
  8
0_00
  6
CONTINUOUS
 62
4
 10
284.5000
 20
458.5066
 40
1.0000
 50
0.0000
 51
90.0000
  0
ARC
  8
0_00
  6
CONTINUOUS
 62
4
 10
305.0000
 20
439.4065
 40
1.0000
 50
270.0000
 51
374.3788
  0
ARC
  8
0_00
  6
CONTINUOUS
 62
4
 10
286.0000
 20
457.7066
 40
0.5000
 50
180.0000
 51
270.0000
  0
ARC
  8
0_00
  6
CONTINUOUS
 62
4
 10
297.9841
 20
456.7066
 40
3.5000
 50
14.3788
 51
90.0000
  0
ARC
  8
0_00
  6
CONTINUOUS
 62
4
 10
297.6695
 20
456.2066
 40
1.0000
 50
17.7004
 51
90.0000
  0
ARC
  8
0_00
  6
CONTINUOUS
 62
4
 10
179.9000
 20
453.3066
 40
2.0000
 50
180.0000
 51
270.0000
  0
ARC
  8
0_00
  6
CONTINUOUS
 62
4
 10
145.4000
 20
439.4065
 40
1.0000
 50
165.6212
 51
270.0000
  0
ARC
  8
0_00
  6
CONTINUOUS
 62
4
 10
164.4000
 20
457.7066
 40
0.5000
 50
270.0000
 51
360.0000
  0
ARC
  8
0_00
  6
CONTINUOUS
 62
4
 10
152.4159
 20
456.7066
 40
3.5000
 50
90.0000
 51
165.6212
  0
ARC
  8
0_00
  6
CONTINUOUS
 62
4
 10
152.7305
 20
456.2066
 40
1.0000
 50
90.0000
 51
162.2996
  0
ARC
  8
0_00
  6
CONTINUOUS
 62
2
 10
253.2000
 20
452.5065
 40
7.7000
 50
39.9831
 51
140.0169
  0
ARC
  8
0_00
  6
CONTINUOUS
 62
2
 10
197.2000
 20
452.5065
 40
7.7000
 50
39.9831
 51
140.0169
  0
ARC
  8
0_00
  6
CONTINUOUS
 62
4
 10
240.2000
 20
457.1066
 40
2.3000
 50
212.0054
 51
270.0000
  0
ARC
  8
0_00
  6
CONTINUOUS
 62
4
 10
210.2000
 20
457.1066
 40
2.3000
 50
270.0000
 51
327.9946
  0
ARC
  8
0_00
  6
CONTINUOUS
 62
4
 10
1065.4841
 20
315.0623
 40
2.5000
 50
0.0000
 51
90.0000
  0
ARC
  8
0_00
  6
CONTINUOUS
 62
4
 10
1061.1943
 20
315.8624
 40
0.5000
 50
331.3146
 51
450.0000
  0
ARC
  8
0_00
  6
CONTINUOUS
 62
4
 10
1066.2841
 20
310.7726
 40
0.5000
 50
0.0000
 51
118.6854
  0
ARC
  8
0_00
  6
CONTINUOUS
 62
4
 10
1064.4841
 20
314.0623
 40
1.7000
 50
161.1790
 51
176.7520
  0
ARC
  8
0_00
  6
CONTINUOUS
 62
4
 10
1064.4841
 20
314.0623
 40
3.2500
 50
273.2480
 51
298.6854
  0
ARC
  8
0_00
  6
CONTINUOUS
 62
4
 10
1064.4841
 20
314.0623
 40
3.2500
 50
151.3146
 51
176.7520
  0
ARC
  8
0_00
  6
CONTINUOUS
 62
4
 10
1064.4841
 20
314.0623
 40
1.7000
 50
341.1790
 51
378.8210
  0
ARC
  8
0_00
  6
CONTINUOUS
 62
4
 10
1064.4841
 20
314.0623
 40
1.7000
 50
71.1790
 51
108.8210
  0
ARC
  8
0_00
  6
CONTINUOUS
 62
4
 10
1064.4841
 20
314.0623
 40
1.7000
 50
273.2480
 51
288.8210
  0
ARC
  8
0_00
  6
CONTINUOUS
 62
4
 10
1062.0131
 20
314.2026
 40
0.7750
 50
176.7520
 51
356.7520
  0
ARC
  8
0_00
  6
CONTINUOUS
 62
4
 10
1064.6243
 20
311.5913
 40
0.7750
 50
93.2480
 51
273.2480
  0
ARC
  8
0_00
  6
CONTINUOUS
 62
4
 10
1042.4842
 20
315.0623
 40
2.5000
 50
90.0000
 51
180.0000
  0
ARC
  8
0_00
  6
CONTINUOUS
 62
4
 10
1046.7738
 20
315.8624
 40
0.5000
 50
90.0000
 51
208.6854
  0
ARC
  8
0_00
  6
CONTINUOUS
 62
4
 10
1041.6841
 20
310.7726
 40
0.5000
 50
61.3146
 51
180.0000
  0
ARC
  8
0_00
  6
CONTINUOUS
 62
4
 10
1043.4841
 20
314.0623
 40
1.7000
 50
3.2480
 51
18.8210
  0
ARC
  8
0_00
  6
CONTINUOUS
 62
4
 10
1043.4841
 20
314.0623
 40
3.2500
 50
241.3146
 51
266.7520
  0
ARC
  8
0_00
  6
CONTINUOUS
 62
4
 10
1043.4841
 20
314.0623
 40
3.2500
 50
3.2480
 51
28.6854
  0
ARC
  8
0_00
  6
CONTINUOUS
 62
4
 10
1043.4841
 20
314.0623
 40
1.7000
 50
161.1790
 51
198.8210
  0
ARC
  8
0_00
  6
CONTINUOUS
 62
4
 10
1043.4841
 20
314.0623
 40
1.7000
 50
71.1790
 51
108.8210
  0
ARC
  8
0_00
  6
CONTINUOUS
 62
4
 10
1043.4841
 20
314.0623
 40
1.7000
 50
251.1790
 51
266.7520
  0
ARC
  8
0_00
  6
CONTINUOUS
 62
4
 10
1045.9551
 20
314.2026
 40
0.7750
 50
183.2480
 51
363.2480
  0
ARC
  8
0_00
  6
CONTINUOUS
 62
4
 10
1043.3438
 20
311.5913
 40
0.7750
 50
266.7520
 51
446.7520
  0
ARC
  8
0_00
  6
CONTINUOUS
 62
4
 10
1065.4841
 20
277.0623
 40
2.5000
 50
270.0000
 51
360.0000
  0
ARC
  8
0_00
  6
CONTINUOUS
 62
4
 10
1061.1943
 20
276.2623
 40
0.5000
 50
270.0000
 51
388.6854
  0
ARC
  8
0_00
  6
CONTINUOUS
 62
4
 10
1066.2841
 20
281.3521
 40
0.5000
 50
241.3146
 51
360.0000
  0
ARC
  8
0_00
  6
CONTINUOUS
 62
4
 10
1064.4841
 20
278.0623
 40
1.7000
 50
183.2480
 51
198.8210
  0
ARC
  8
0_00
  6
CONTINUOUS
 62
4
 10
1064.4841
 20
278.0623
 40
3.2500
 50
61.3146
 51
86.7520
  0
ARC
  8
0_00
  6
CONTINUOUS
 62
4
 10
1064.4841
 20
278.0623
 40
3.2500
 50
183.2480
 51
208.6854
  0
ARC
  8
0_00
  6
CONTINUOUS
 62
4
 10
1064.4841
 20
278.0623
 40
1.7000
 50
341.1790
 51
378.8210
  0
ARC
  8
0_00
  6
CONTINUOUS
 62
4
 10
1064.4841
 20
278.0623
 40
1.7000
 50
251.1790
 51
288.8210
  0
ARC
  8
0_00
  6
CONTINUOUS
 62
4
 10
1064.4841
 20
278.0623
 40
1.7000
 50
71.1790
 51
86.7520
  0
ARC
  8
0_00
  6
CONTINUOUS
 62
4
 10
1062.0131
 20
277.9221
 40
0.7750
 50
3.2480
 51
183.2480
  0
ARC
  8
0_00
  6
CONTINUOUS
 62
4
 10
1064.6243
 20
280.5334
 40
0.7750
 50
86.7520
 51
266.7520
  0
ARC
  8
0_00
  6
CONTINUOUS
 62
4
 10
1042.4842
 20
277.0623
 40
2.5000
 50
180.0000
 51
270.0000
  0
ARC
  8
0_00
  6
CONTINUOUS
 62
4
 10
1046.7738
 20
276.2623
 40
0.5000
 50
151.3146
 51
270.0000
  0
ARC
  8
0_00
  6
CONTINUOUS
 62
4
 10
1041.6841
 20
281.3521
 40
0.5000
 50
180.0000
 51
298.6854
  0
ARC
  8
0_00
  6
CONTINUOUS
 62
4
 10
1043.4841
 20
278.0623
 40
1.7000
 50
341.1790
 51
356.7520
  0
ARC
  8
0_00
  6
CONTINUOUS
 62
4
 10
1043.4841
 20
278.0623
 40
3.2500
 50
93.2480
 51
118.6854
  0
ARC
  8
0_00
  6
CONTINUOUS
 62
4
 10
1043.4841
 20
278.0623
 40
3.2500
 50
331.3146
 51
356.7520
  0
ARC
  8
0_00
  6
CONTINUOUS
 62
4
 10
1043.4841
 20
278.0623
 40
1.7000
 50
161.1790
 51
198.8210
  0
ARC
  8
0_00
  6
CONTINUOUS
 62
4
 10
1043.4841
 20
278.0623
 40
1.7000
 50
251.1790
 51
288.8210
  0
ARC
  8
0_00
  6
CONTINUOUS
 62
4
 10
1043.4841
 20
278.0623
 40
1.7000
 50
93.2480
 51
108.8210
  0
ARC
  8
0_00
  6
CONTINUOUS
 62
4
 10
1045.9551
 20
277.9221
 40
0.7750
 50
356.7520
 51
536.7520
  0
ARC
  8
0_00
  6
CONTINUOUS
 62
4
 10
1043.3438
 20
280.5334
 40
0.7750
 50
273.2480
 51
453.2480
  0
CIRCLE
  8
0_00
  6
CONTINUOUS
 62
4
 10
1053.9841
 20
296.0623
 40
12.0000
  0
ARC
  8
0_00
  6
CONTINUOUS
 62
4
 10
1042.4842
 20
315.0623
 40
3.5000
 50
90.0000
 51
180.0000
  0
ARC
  8
0_00
  6
CONTINUOUS
 62
4
 10
1042.4842
 20
277.0623
 40
3.5000
 50
180.0000
 51
270.0000
  0
ARC
  8
0_00
  6
CONTINUOUS
 62
4
 10
1065.4841
 20
277.0623
 40
3.5000
 50
270.0000
 51
360.0000
  0
ARC
  8
0_00
  6
CONTINUOUS
 62
4
 10
1065.4841
 20
315.0623
 40
3.5000
 50
0.0000
 51
90.0000
  0
ARC
  8
0_00
  6
CONTINUOUS
 62
2
 10
651.0040
 20
324.0623
 40
2.4500
 50
45.0000
 51
58.5444
  0
ARC
  8
0_00
  6
CONTINUOUS
 62
2
 10
651.0040
 20
324.0623
 40
2.4500
 50
121.3667
 51
135.0000
  0
ARC
  8
0_00
  6
CONTINUOUS
 62
2
 10
651.0040
 20
324.0623
 40
2.4500
 50
211.4556
 51
225.0000
  0
ARC
  8
0_00
  6
CONTINUOUS
 62
2
 10
651.0040
 20
324.0623
 40
2.4500
 50
135.0000
 51
148.6333
  0
ARC
  8
0_00
  6
CONTINUOUS
 62
2
 10
651.0040
 20
324.0623
 40
2.4500
 50
31.4556
 51
45.0000
  0
ARC
  8
0_00
  6
CONTINUOUS
 62
2
 10
651.0040
 20
324.0623
 40
2.4500
 50
315.0000
 51
328.6334
  0
ARC
  8
0_00
  6
CONTINUOUS
 62
2
 10
651.0040
 20
324.0623
 40
2.4500
 50
225.0000
 51
238.5444
  0
ARC
  8
0_00
  6
CONTINUOUS
 62
2
 10
651.0040
 20
324.0623
 40
2.4500
 50
301.3667
 51
315.0000
  0
CIRCLE
  8
0_00
  6
CONTINUOUS
 62
2
 10
651.0040
 20
324.0623
 40
5.9000
  0
ARC
  8
0_00
  6
CONTINUOUS
 62
4
 10
641.5039
 20
335.0623
 40
3.0000
 50
138.1897
 51
180.0000
  0
ARC
  8
0_00
  6
CONTINUOUS
 62
4
 10
695.5040
 20
335.0623
 40
3.0000
 50
0.0000
 51
41.8103
  0
ARC
  8
0_00
  6
CONTINUOUS
 62
4
 10
697.0040
 20
296.0623
 40
0.5000
 50
131.5931
 51
228.4069
  0
ARC
  8
0_00
  6
CONTINUOUS
 62
4
 10
640.0039
 20
296.0623
 40
0.5000
 50
311.5931
 51
408.4069
  0
ARC
  8
0_00
  6
CONTINUOUS
 62
4
 10
668.5040
 20
335.5623
 40
0.5000
 50
222.8383
 51
317.1617
  0
ARC
  8
0_00
  6
CONTINUOUS
 62
4
 10
641.5039
 20
257.0623
 40
3.0000
 50
180.0000
 51
221.8103
  0
ARC
  8
0_00
  6
CONTINUOUS
 62
4
 10
695.5040
 20
257.0623
 40
3.0000
 50
318.1897
 51
360.0000
  0
ARC
  8
0_00
  6
CONTINUOUS
 62
4
 10
668.5040
 20
256.5623
 40
0.5000
 50
42.8383
 51
137.1617
  0
CIRCLE
  8
0_00
  6
CONTINUOUS
 62
2
 10
668.5040
 20
291.5623
 40
2.0000
  0
CIRCLE
  8
0_00
  6
CONTINUOUS
 62
2
 10
668.5040
 20
300.5623
 40
2.0000
  0
ARC
  8
0_00
  6
CONTINUOUS
 62
2
 10
686.0040
 20
268.0623
 40
2.4500
 50
225.0000
 51
238.5444
  0
ARC
  8
0_00
  6
CONTINUOUS
 62
2
 10
686.0040
 20
268.0623
 40
2.4500
 50
301.3667
 51
315.0000
  0
ARC
  8
0_00
  6
CONTINUOUS
 62
2
 10
686.0040
 20
268.0623
 40
2.4500
 50
31.4556
 51
45.0000
  0
ARC
  8
0_00
  6
CONTINUOUS
 62
2
 10
686.0040
 20
268.0623
 40
2.4500
 50
315.0000
 51
328.6334
  0
ARC
  8
0_00
  6
CONTINUOUS
 62
2
 10
686.0040
 20
268.0623
 40
2.4500
 50
211.4556
 51
225.0000
  0
ARC
  8
0_00
  6
CONTINUOUS
 62
2
 10
686.0040
 20
268.0623
 40
2.4500
 50
135.0000
 51
148.6333
  0
ARC
  8
0_00
  6
CONTINUOUS
 62
2
 10
686.0040
 20
268.0623
 40
2.4500
 50
45.0000
 51
58.5444
  0
ARC
  8
0_00
  6
CONTINUOUS
 62
2
 10
686.0040
 20
268.0623
 40
2.4500
 50
121.3667
 51
135.0000
  0
CIRCLE
  8
0_00
  6
CONTINUOUS
 62
2
 10
686.0040
 20
268.0623
 40
5.9000
  0
ARC
  8
0_00
  6
CONTINUOUS
 62
4
 10
655.2540
 20
324.0623
 40
3.2500
 50
282.9377
 51
437.0623
  0
ARC
  8
0_00
  6
CONTINUOUS
 62
4
 10
646.7540
 20
324.0623
 40
3.2500
 50
102.9377
 51
257.0623
  0
ARC
  8
0_00
  6
CONTINUOUS
 62
4
 10
681.7540
 20
324.0623
 40
3.2500
 50
90.0000
 51
270.0000
  0
ARC
  8
0_00
  6
CONTINUOUS
 62
4
 10
690.2540
 20
324.0623
 40
3.2500
 50
270.0000
 51
450.0000
  0
ARC
  8
0_00
  6
CONTINUOUS
 62
4
 10
655.2540
 20
268.0623
 40
3.2500
 50
270.0000
 51
450.0000
  0
ARC
  8
0_00
  6
CONTINUOUS
 62
4
 10
646.7540
 20
268.0623
 40
3.2500
 50
90.0000
 51
270.0000
  0
ARC
  8
0_00
  6
CONTINUOUS
 62
4
 10
681.7540
 20
268.0623
 40
3.2500
 50
102.9377
 51
257.0623
  0
ARC
  8
0_00
  6
CONTINUOUS
 62
4
 10
690.2540
 20
268.0623
 40
3.2500
 50
282.9377
 51
437.0623
  0
ARC
  8
0_00
  6
CONTINUOUS
 62
4
 10
668.5040
 20
291.5623
 40
1.7000
 50
206.1790
 51
243.8210
  0
ARC
  8
0_00
  6
CONTINUOUS
 62
4
 10
668.5040
 20
291.5623
 40
3.2500
 50
163.3985
 51
212.3582
  0
ARC
  8
0_00
  6
CONTINUOUS
 62
4
 10
665.5053
 20
289.6623
 40
0.3000
 50
270.0000
 51
392.3582
  0
ARC
  8
0_00
  6
CONTINUOUS
 62
4
 10
666.8269
 20
292.0623
 40
1.5000
 50
90.0000
 51
163.3985
  0
ARC
  8
0_00
  6
CONTINUOUS
 62
4
 10
668.5040
 20
291.5623
 40
1.7000
 50
131.2509
 51
153.8210
  0
ARC
  8
0_00
  6
CONTINUOUS
 62
4
 10
668.5040
 20
291.5623
 40
1.7000
 50
296.1790
 51
333.8210
  0
ARC
  8
0_00
  6
CONTINUOUS
 62
4
 10
668.5040
 20
291.5623
 40
3.2500
 50
327.6418
 51
376.6016
  0
ARC
  8
0_00
  6
CONTINUOUS
 62
4
 10
670.1810
 20
292.0623
 40
1.5000
 50
16.6015
 51
90.0000
  0
ARC
  8
0_00
  6
CONTINUOUS
 62
4
 10
668.5040
 20
291.5623
 40
1.7000
 50
26.1790
 51
48.7491
  0
ARC
  8
0_00
  6
CONTINUOUS
 62
4
 10
667.1114
 20
293.1503
 40
0.4121
 50
311.2509
 51
450.0000
  0
ARC
  8
0_00
  6
CONTINUOUS
 62
4
 10
669.8966
 20
293.1503
 40
0.4121
 50
90.0000
 51
228.7491
  0
ARC
  8
0_00
  6
CONTINUOUS
 62
4
 10
673.0040
 20
294.5623
 40
11.5000
 50
180.0000
 51
208.3594
  0
ARC
  8
0_00
  6
CONTINUOUS
 62
4
 10
664.2041
 20
289.8123
 40
1.5000
 50
208.3594
 51
270.0000
  0
ARC
  8
0_00
  6
CONTINUOUS
 62
4
 10
673.0040
 20
297.5623
 40
11.5000
 50
151.6406
 51
180.0000
  0
ARC
  8
0_00
  6
CONTINUOUS
 62
4
 10
673.0040
 20
294.5623
 40
10.4000
 50
180.0000
 51
209.0222
  0
ARC
  8
0_00
  6
CONTINUOUS
 62
4
 10
664.1722
 20
289.6623
 40
0.3000
 50
209.0222
 51
270.0000
  0
ARC
  8
0_00
  6
CONTINUOUS
 62
4
 10
673.0040
 20
297.5623
 40
10.4000
 50
150.9778
 51
180.0000
  0
ARC
  8
0_00
  6
CONTINUOUS
 62
4
 10
664.0039
 20
294.5623
 40
11.5000
 50
331.6407
 51
360.0000
  0
ARC
  8
0_00
  6
CONTINUOUS
 62
4
 10
664.0039
 20
297.5623
 40
11.5000
 50
0.0000
 51
28.3593
  0
ARC
  8
0_00
  6
CONTINUOUS
 62
4
 10
664.0039
 20
294.5623
 40
10.4000
 50
330.9778
 51
360.0000
  0
ARC
  8
0_00
  6
CONTINUOUS
 62
4
 10
664.0039
 20
297.5623
 40
10.4000
 50
0.0000
 51
29.0222
  0
ARC
  8
0_00
  6
CONTINUOUS
 62
4
 10
671.5028
 20
289.6623
 40
0.3000
 50
147.6418
 51
270.0000
  0
ARC
  8
0_00
  6
CONTINUOUS
 62
4
 10
672.8038
 20
289.8123
 40
1.5000
 50
270.0000
 51
331.6407
  0
ARC
  8
0_00
  6
CONTINUOUS
 62
4
 10
672.8358
 20
289.6623
 40
0.3000
 50
270.0000
 51
330.9778
  0
ARC
  8
0_00
  6
CONTINUOUS
 62
4
 10
668.5040
 20
300.5623
 40
1.7000
 50
116.1790
 51
153.8210
  0
ARC
  8
0_00
  6
CONTINUOUS
 62
4
 10
668.5040
 20
300.5623
 40
3.2500
 50
147.6418
 51
196.6015
  0
ARC
  8
0_00
  6
CONTINUOUS
 62
4
 10
665.5053
 20
302.4623
 40
0.3000
 50
327.6418
 51
450.0000
  0
ARC
  8
0_00
  6
CONTINUOUS
 62
4
 10
666.8269
 20
300.0623
 40
1.5000
 50
196.6015
 51
270.0000
  0
ARC
  8
0_00
  6
CONTINUOUS
 62
4
 10
668.5040
 20
300.5623
 40
1.7000
 50
206.1790
 51
228.7491
  0
ARC
  8
0_00
  6
CONTINUOUS
 62
4
 10
668.5040
 20
300.5623
 40
1.7000
 50
26.1790
 51
63.8210
  0
ARC
  8
0_00
  6
CONTINUOUS
 62
4
 10
668.5040
 20
300.5623
 40
3.2500
 50
343.3984
 51
392.3582
  0
ARC
  8
0_00
  6
CONTINUOUS
 62
4
 10
670.1810
 20
300.0623
 40
1.5000
 50
270.0000
 51
343.3984
  0
ARC
  8
0_00
  6
CONTINUOUS
 62
4
 10
668.5040
 20
300.5623
 40
1.7000
 50
311.2509
 51
333.8210
  0
ARC
  8
0_00
  6
CONTINUOUS
 62
4
 10
667.1114
 20
298.9744
 40
0.4121
 50
270.0000
 51
408.7491
  0
ARC
  8
0_00
  6
CONTINUOUS
 62
4
 10
669.8966
 20
298.9744
 40
0.4121
 50
131.2509
 51
270.0000
  0
ARC
  8
0_00
  6
CONTINUOUS
 62
4
 10
664.2041
 20
302.3123
 40
1.5000
 50
90.0000
 51
151.6406
  0
ARC
  8
0_00
  6
CONTINUOUS
 62
4
 10
664.1722
 20
302.4623
 40
0.3000
 50
90.0000
 51
150.9778
  0
ARC
  8
0_00
  6
CONTINUOUS
 62
4
 10
671.5028
 20
302.4623
 40
0.3000
 50
90.0000
 51
212.3582
  0
ARC
  8
0_00
  6
CONTINUOUS
 62
4
 10
672.8038
 20
302.3123
 40
1.5000
 50
28.3593
 51
90.0000
  0
ARC
  8
0_00
  6
CONTINUOUS
 62
4
 10
672.8358
 20
302.4623
 40
0.3000
 50
29.0222
 51
90.0000
  0
ARC
  8
16_10
  6
CONTINUOUS
 62
4
 10
604.7670
 20
694.2122
 40
1.2600
 50
98.4358
 51
181.8837
  0
ARC
  8
16_10
  6
CONTINUOUS
 62
4
 10
604.6170
 20
689.3592
 40
0.9900
 50
181.8837
 51
223.9454
  0
ARC
  8
16_10
  6
CONTINUOUS
 62
4
 10
604.5049
 20
687.1541
 40
0.5850
 50
181.8837
 51
271.8837
  0
ARC
  8
16_10
  6
CONTINUOUS
 62
4
 10
631.8006
 20
694.1257
 40
1.2600
 50
52.0455
 51
85.6846
  0
ARC
  8
16_10
  6
CONTINUOUS
 62
4
 10
608.5658
 20
694.0982
 40
0.9750
 50
98.4358
 51
181.8837
  0
ARC
  8
16_10
  6
CONTINUOUS
 62
4
 10
607.7133
 20
688.6977
 40
0.2700
 50
1.8837
 51
45.3477
  0
ARC
  8
16_10
  6
CONTINUOUS
 62
4
 10
608.3670
 20
689.3592
 40
0.6600
 50
181.8837
 51
225.3477
  0
ARC
  8
16_10
  6
CONTINUOUS
 62
4
 10
608.2559
 20
687.1242
 40
0.2550
 50
181.8837
 51
271.8837
  0
ARC
  8
16_10
  6
CONTINUOUS
 62
4
 10
608.7798
 20
687.0517
 40
0.3450
 50
271.8837
 51
328.0013
  0
ARC
  8
3_03
  6
CONTINUOUS
 62
4
 10
1156.5419
 20
694.8793
 40
30.3450
 50
82.9593
 51
90.1802
  0
ARC
  8
3_03
  6
CONTINUOUS
 62
4
 10
1160.1420
 20
724.0277
 40
0.9750
 50
0.0000
 51
82.9593
  0
ARC
  8
3_03
  6
CONTINUOUS
 62
4
 10
1151.9670
 20
725.1490
 40
0.0750
 50
90.0000
 51
180.0000
  0
ARC
  8
3_03
  6
CONTINUOUS
 62
4
 10
1151.9670
 20
718.0992
 40
0.0750
 50
180.0000
 51
270.0000
  0
ARC
  8
3_03
  6
CONTINUOUS
 62
4
 10
1161.0419
 20
718.0992
 40
0.0750
 50
270.0000
 51
360.0000
  0
ARC
  8
16_10
  6
CONTINUOUS
 62
4
 10
1168.3169
 20
694.2122
 40
1.2600
 50
358.1163
 51
441.5642
  0
ARC
  8
16_10
  6
CONTINUOUS
 62
4
 10
1168.4670
 20
689.3592
 40
0.9900
 50
316.0546
 51
358.1163
  0
ARC
  8
16_10
  6
CONTINUOUS
 62
4
 10
1168.5791
 20
687.1541
 40
0.5850
 50
268.1163
 51
358.1163
  0
ARC
  8
16_10
  6
CONTINUOUS
 62
4
 10
1141.2835
 20
694.1257
 40
1.2600
 50
94.3154
 51
127.9545
  0
ARC
  8
16_10
  6
CONTINUOUS
 62
4
 10
1164.5182
 20
694.0982
 40
0.9750
 50
358.1163
 51
441.5642
  0
ARC
  8
16_10
  6
CONTINUOUS
 62
4
 10
1165.3705
 20
688.6977
 40
0.2700
 50
134.6523
 51
178.1163
  0
ARC
  8
16_10
  6
CONTINUOUS
 62
4
 10
1164.7170
 20
689.3592
 40
0.6600
 50
314.6523
 51
358.1163
  0
ARC
  8
16_10
  6
CONTINUOUS
 62
4
 10
1164.8281
 20
687.1242
 40
0.2550
 50
268.1163
 51
358.1163
  0
ARC
  8
16_10
  6
CONTINUOUS
 62
4
 10
1164.2854
 20
687.0520
 40
0.3450
 50
211.9987
 51
268.1163
  0
ARC
  8
0_00
  6
CONTINUOUS
 62
4
 10
481.9192
 20
632.8916
 40
0.5000
 50
180.0000
 51
270.0000
  0
ARC
  8
0_00
  6
CONTINUOUS
 62
4
 10
497.4192
 20
639.6916
 40
4.5000
 50
90.0000
 51
180.0000
  0
ARC
  8
0_00
  6
CONTINUOUS
 62
4
 10
483.9192
 20
635.7916
 40
2.5000
 50
90.0000
 51
180.0000
  0
ARC
  8
0_00
  6
CONTINUOUS
 62
4
 10
497.4192
 20
639.6916
 40
2.0000
 50
90.0000
 51
180.0000
  0
ARC
  8
0_00
  6
CONTINUOUS
 62
4
 10
494.4192
 20
635.0916
 40
1.0000
 50
180.0000
 51
360.0000
  0
ARC
  8
0_00
  6
CONTINUOUS
 62
4
 10
529.9192
 20
632.8916
 40
0.5000
 50
270.0000
 51
360.0000
  0
ARC
  8
0_00
  6
CONTINUOUS
 62
4
 10
514.4192
 20
639.6916
 40
4.5000
 50
0.0000
 51
90.0000
  0
ARC
  8
0_00
  6
CONTINUOUS
 62
4
 10
527.9192
 20
635.7916
 40
2.5000
 50
0.0000
 51
90.0000
  0
ARC
  8
0_00
  6
CONTINUOUS
 62
4
 10
514.4192
 20
639.6916
 40
2.0000
 50
0.0000
 51
90.0000
  0
ARC
  8
0_00
  6
CONTINUOUS
 62
4
 10
517.4192
 20
635.0916
 40
1.0000
 50
180.0000
 51
360.0000
  0
ARC
  8
0_00
  6
CONTINUOUS
 62
4
 10
532.0790
 20
644.8328
 40
0.3000
 50
270.0000
 51
397.7143
  0
ARC
  8
0_00
  6
CONTINUOUS
 62
4
 10
527.5192
 20
644.0328
 40
0.5000
 50
90.0000
 51
180.0000
  0
ARC
  8
0_00
  6
CONTINUOUS
 62
4
 10
505.9192
 20
637.3065
 40
29.0000
 50
342.4088
 51
449.9966
  0
ARC
  8
0_00
  6
CONTINUOUS
 62
4
 10
533.2771
 20
628.6327
 40
0.3000
 50
191.6000
 51
342.4088
  0
ARC
  8
0_00
  6
CONTINUOUS
 62
4
 10
505.9192
 20
637.3065
 40
27.5000
 50
46.4693
 51
89.9727
  0
ARC
  8
0_00
  6
CONTINUOUS
 62
4
 10
505.9192
 20
637.3065
 40
27.5000
 50
16.2813
 51
43.5307
  0
ARC
  8
0_00
  6
CONTINUOUS
 62
4
 10
505.9192
 20
637.3065
 40
27.8000
 50
5.4220
 51
12.9434
  0
ARC
  8
0_00
  6
CONTINUOUS
 62
4
 10
505.9192
 20
637.3065
 40
27.8000
 50
357.9926
 51
362.3232
  0
ARC
  8
0_00
  6
CONTINUOUS
 62
4
 10
505.9192
 20
637.3065
 40
27.8000
 50
345.9079
 51
353.8593
  0
ARC
  8
0_00
  6
CONTINUOUS
 62
4
 10
535.7923
 20
629.8074
 40
3.0000
 50
165.9079
 51
191.6000
  0
ARC
  8
0_00
  6
CONTINUOUS
 62
4
 10
505.9192
 20
637.3065
 40
26.5000
 50
43.9189
 51
46.0811
  0
ARC
  8
0_00
  6
CONTINUOUS
 62
4
 10
525.7119
 20
656.1092
 40
0.2000
 50
43.5307
 51
135.0000
  0
ARC
  8
0_00
  6
CONTINUOUS
 62
4
 10
524.7219
 20
657.0992
 40
0.2000
 50
315.0000
 51
406.4693
  0
ARC
  8
0_00
  6
CONTINUOUS
 62
4
 10
528.0192
 20
643.5249
 40
0.2000
 50
87.8021
 51
180.0000
  0
ARC
  8
0_00
  6
CONTINUOUS
 62
4
 10
527.4192
 20
642.7328
 40
0.4000
 50
180.0000
 51
360.0000
  0
ARC
  8
0_00
  6
CONTINUOUS
 62
4
 10
533.5906
 20
638.6335
 40
0.2000
 50
191.7000
 51
270.0000
  0
ARC
  8
0_00
  6
CONTINUOUS
 62
4
 10
533.3628
 20
639.7334
 40
0.2000
 50
90.0000
 51
191.7000
  0
ARC
  8
0_00
  6
CONTINUOUS
 62
4
 10
532.6094
 20
636.0364
 40
0.2000
 50
95.0000
 51
195.1391
  0
ARC
  8
13_0D
  6
CONTINUOUS
 62
4
 10
535.3122
 20
636.7677
 40
3.0000
 50
195.1391
 51
234.2555
  0
ARC
  8
0_00
  6
CONTINUOUS
 62
4
 10
479.7606
 20
644.8312
 40
0.3000
 50
142.2891
 51
270.0034
  0
ARC
  8
0_00
  6
CONTINUOUS
 62
4
 10
484.3206
 20
644.0315
 40
0.5000
 50
0.0034
 51
90.0034
  0
ARC
  8
0_00
  6
CONTINUOUS
 62
4
 10
505.9209
 20
637.3065
 40
29.0000
 50
90.0000
 51
197.5946
  0
ARC
  8
0_00
  6
CONTINUOUS
 62
4
 10
478.5635
 20
628.6311
 40
0.3000
 50
197.5946
 51
348.4034
  0
ARC
  8
0_00
  6
CONTINUOUS
 62
4
 10
505.9209
 20
637.3065
 40
27.5000
 50
90.0307
 51
133.5341
  0
ARC
  8
0_00
  6
CONTINUOUS
 62
4
 10
505.9209
 20
637.3065
 40
27.5000
 50
136.4727
 51
163.7221
  0
ARC
  8
0_00
  6
CONTINUOUS
 62
4
 10
505.9209
 20
637.3065
 40
27.8000
 50
167.0600
 51
174.5814
  0
ARC
  8
0_00
  6
CONTINUOUS
 62
4
 10
505.9209
 20
637.3065
 40
27.8000
 50
177.6802
 51
182.0108
  0
ARC
  8
0_00
  6
CONTINUOUS
 62
4
 10
505.9209
 20
637.3065
 40
27.8000
 50
186.1442
 51
194.0955
  0
ARC
  8
0_00
  6
CONTINUOUS
 62
4
 10
476.0483
 20
629.8055
 40
3.0000
 50
348.4034
 51
374.0955
  0
ARC
  8
0_00
  6
CONTINUOUS
 62
4
 10
505.9209
 20
637.3065
 40
26.5000
 50
133.9223
 51
136.0845
  0
ARC
  8
0_00
  6
CONTINUOUS
 62
4
 10
486.1272
 20
656.1081
 40
0.2000
 50
45.0034
 51
136.4727
  0
ARC
  8
0_00
  6
CONTINUOUS
 62
4
 10
487.1171
 20
657.0981
 40
0.2000
 50
133.5341
 51
225.0034
  0
ARC
  8
0_00
  6
CONTINUOUS
 62
4
 10
483.8205
 20
643.5237
 40
0.2000
 50
0.0034
 51
92.2013
  0
ARC
  8
0_00
  6
CONTINUOUS
 62
4
 10
484.4206
 20
642.7315
 40
0.4000
 50
180.0034
 51
360.0034
  0
ARC
  8
0_00
  6
CONTINUOUS
 62
4
 10
478.2495
 20
638.6318
 40
0.2000
 50
270.0034
 51
348.3034
  0
ARC
  8
0_00
  6
CONTINUOUS
 62
4
 10
478.4772
 20
639.7318
 40
0.2000
 50
348.3034
 51
450.0034
  0
ARC
  8
0_00
  6
CONTINUOUS
 62
4
 10
479.2308
 20
636.0347
 40
0.2000
 50
344.8643
 51
445.0034
  0
ARC
  8
13_0D
  6
CONTINUOUS
 62
4
 10
476.5280
 20
636.7659
 40
3.0000
 50
305.7479
 51
344.8643
  0
ARC
  8
0_00
  6
CONTINUOUS
 62
4
 10
532.9192
 20
634.0066
 40
0.6000
 50
270.0000
 51
450.0000
  0
ARC
  8
0_00
  6
CONTINUOUS
 62
4
 10
505.9192
 20
637.3065
 40
29.0000
 50
201.7076
 51
269.4103
  0
ARC
  8
0_00
  6
CONTINUOUS
 62
4
 10
505.9192
 20
637.3065
 40
29.0000
 50
270.5897
 51
338.2924
  0
ARC
  8
0_00
  6
CONTINUOUS
 62
4
 10
481.1192
 20
632.8065
 40
0.5000
 50
180.0000
 51
270.0000
  0
ARC
  8
0_00
  6
CONTINUOUS
 62
4
 10
530.7192
 20
632.8065
 40
0.5000
 50
270.0000
 51
360.0000
  0
ARC
  8
0_00
  6
CONTINUOUS
 62
4
 10
533.2191
 20
636.7873
 40
0.5000
 50
275.0000
 51
371.6000
  0
ARC
  8
0_00
  6
CONTINUOUS
 62
4
 10
532.2192
 20
636.2982
 40
1.0000
 50
95.0000
 51
180.0000
  0
ARC
  8
0_00
  6
CONTINUOUS
 62
4
 10
528.4520
 20
637.6317
 40
5.0000
 50
11.6000
 51
45.0000
  0
ARC
  8
0_00
  6
CONTINUOUS
 62
4
 10
528.4520
 20
637.6317
 40
4.1000
 50
11.6000
 51
45.0000
  0
ARC
  8
0_00
  6
CONTINUOUS
 62
4
 10
478.9192
 20
634.0066
 40
0.6000
 50
90.0000
 51
270.0000
  0
ARC
  8
0_00
  6
CONTINUOUS
 62
4
 10
478.6192
 20
636.7873
 40
0.5000
 50
168.4000
 51
265.0000
  0
ARC
  8
0_00
  6
CONTINUOUS
 62
4
 10
481.4692
 20
642.8566
 40
0.4500
 50
0.0000
 51
180.0000
  0
ARC
  8
0_00
  6
CONTINUOUS
 62
4
 10
479.6192
 20
636.2982
 40
1.0000
 50
0.0000
 51
85.0000
  0
ARC
  8
0_00
  6
CONTINUOUS
 62
4
 10
483.3864
 20
637.6317
 40
5.0000
 50
135.0000
 51
168.4000
  0
ARC
  8
0_00
  6
CONTINUOUS
 62
4
 10
483.3864
 20
637.6317
 40
4.1000
 50
135.0000
 51
168.4000
  0
ARC
  8
0_00
  6
CONTINUOUS
 62
4
 10
480.9192
 20
642.3771
 40
1.0000
 50
315.0000
 51
360.0000
  0
ARC
  8
0_00
  6
CONTINUOUS
 62
4
 10
530.3692
 20
642.8566
 40
0.4500
 50
0.0000
 51
180.0000
  0
ARC
  8
0_00
  6
CONTINUOUS
 62
4
 10
530.9192
 20
642.3771
 40
1.0000
 50
180.0000
 51
225.0000
  0
ARC
  8
15_0F
  6
CONTINUOUS
 62
4
 10
505.9192
 20
637.3065
 40
27.9000
 50
202.3023
 51
255.4075
  0
ARC
  8
15_0F
  6
CONTINUOUS
 62
4
 10
505.9192
 20
637.3065
 40
27.9000
 50
284.5926
 51
337.6978
  0
ARC
  8
15_0F
  6
CONTINUOUS
 62
4
 10
479.4403
 20
626.7653
 40
0.5000
 50
150.0000
 51
201.7076
  0
ARC
  8
15_0F
  6
CONTINUOUS
 62
4
 10
532.3981
 20
626.7653
 40
0.5000
 50
338.2924
 51
390.0000
  0
ARC
  8
12_0C
  6
CONTINUOUS
 62
2
 10
490.1192
 20
633.7766
 40
1.3000
 50
0.0000
 51
73.3778
  0
ARC
  8
12_0C
  6
CONTINUOUS
 62
2
 10
487.9192
 20
626.4066
 40
9.0000
 50
73.3790
 51
106.6667
  0
ARC
  8
12_0C
  6
CONTINUOUS
 62
2
 10
485.7192
 20
633.7766
 40
1.3000
 50
106.6222
 51
180.0000
  0
ARC
  8
12_0C
  6
CONTINUOUS
 62
2
 10
503.6192
 20
645.1616
 40
1.3000
 50
0.0000
 51
73.3778
  0
ARC
  8
12_0C
  6
CONTINUOUS
 62
2
 10
501.4192
 20
637.7916
 40
9.0000
 50
73.3790
 51
106.6667
  0
ARC
  8
12_0C
  6
CONTINUOUS
 62
2
 10
499.2192
 20
645.1616
 40
1.3000
 50
106.6222
 51
180.0000
  0
ARC
  8
12_0C
  6
CONTINUOUS
 62
2
 10
512.6192
 20
645.1616
 40
1.3000
 50
0.0000
 51
73.3778
  0
ARC
  8
12_0C
  6
CONTINUOUS
 62
2
 10
510.4192
 20
637.7916
 40
9.0000
 50
73.3790
 51
106.6667
  0
ARC
  8
12_0C
  6
CONTINUOUS
 62
2
 10
508.2192
 20
645.1616
 40
1.3000
 50
106.6222
 51
180.0000
  0
ARC
  8
12_0C
  6
CONTINUOUS
 62
2
 10
526.1192
 20
633.7766
 40
1.3000
 50
0.0000
 51
73.3778
  0
ARC
  8
12_0C
  6
CONTINUOUS
 62
2
 10
523.9192
 20
626.4066
 40
9.0000
 50
73.3790
 51
106.6667
  0
ARC
  8
12_0C
  6
CONTINUOUS
 62
2
 10
521.7192
 20
633.7766
 40
1.3000
 50
106.6222
 51
180.0000
  0
ARC
  8
0_00
  6
CONTINUOUS
 62
3
 10
1089.6760
 20
72.2363
 40
0.5362
 50
270.0000
 51
450.0000
  0
ARC
  8
0_00
  6
CONTINUOUS
 62
3
 10
1088.1842
 20
77.0626
 40
0.6532
 50
0.0000
 51
180.0000
  0
ARC
  8
0_00
  6
CONTINUOUS
 62
3
 10
1089.1886
 20
83.4001
 40
1.9500
 50
333.9999
 51
450.0000
  0
CIRCLE
  8
0_00
  6
CONTINUOUS
 62
3
 10
1090.0660
 20
87.3000
 40
1.5600
  0
ARC
  8
0_00
  6
CONTINUOUS
 62
3
 10
1088.2811
 20
77.0626
 40
0.4500
 50
0.0000
 51
180.0000
  0
ARC
  8
0_00
  6
CONTINUOUS
 62
3
 10
1088.2811
 20
77.0626
 40
0.1500
 50
0.0000
 51
180.0000
  0
ARC
  8
0_00
  6
CONTINUOUS
 62
3
 10
1089.6760
 20
72.1725
 40
0.3000
 50
270.0000
 51
450.0000
  0
CIRCLE
  8
0_00
  6
CONTINUOUS
 62
3
 10
1090.0660
 20
87.3000
 40
1.3244
  0
CIRCLE
  8
0_00
  6
CONTINUOUS
 62
3
 10
1090.0660
 20
87.3000
 40
1.0256
  0
CIRCLE
  8
0_00
  6
CONTINUOUS
 62
3
 10
1090.0660
 20
87.3000
 40
0.7027
  0
CIRCLE
  8
0_00
  6
CONTINUOUS
 62
3
 10
1090.0660
 20
87.3000
 40
0.3440
  0
CIRCLE
  8
0_00
  6
CONTINUOUS
 62
3
 10
1090.0660
 20
87.3000
 40
0.1699
  0
CIRCLE
  8
0_00
  6
CONTINUOUS
 62
4
 10
881.0410
 20
82.2001
 40
3.7500
  0
CIRCLE
  8
0_00
  6
CONTINUOUS
 62
4
 10
881.0410
 20
82.2001
 40
6.0000
  0
ARC
  8
12_0C
  6
CONTINUOUS
 62
2
 10
209.4000
 20
623.4765
 40
1.3000
 50
0.0000
 51
73.3778
  0
ARC
  8
12_0C
  6
CONTINUOUS
 62
2
 10
207.2000
 20
616.1066
 40
9.0000
 50
73.3790
 51
106.6667
  0
ARC
  8
12_0C
  6
CONTINUOUS
 62
2
 10
205.0000
 20
623.4765
 40
1.3000
 50
106.6222
 51
180.0000
  0
ARC
  8
12_0C
  6
CONTINUOUS
 62
2
 10
218.5000
 20
635.0766
 40
1.3000
 50
106.6222
 51
180.0000
  0
ARC
  8
12_0C
  6
CONTINUOUS
 62
2
 10
220.7000
 20
627.7065
 40
9.0000
 50
73.3333
 51
106.6210
  0
ARC
  8
12_0C
  6
CONTINUOUS
 62
2
 10
222.9000
 20
635.0766
 40
1.3000
 50
0.0000
 51
73.3778
  0
ARC
  8
12_0C
  6
CONTINUOUS
 62
2
 10
227.5000
 20
635.0766
 40
1.3000
 50
106.6222
 51
180.0000
  0
ARC
  8
12_0C
  6
CONTINUOUS
 62
2
 10
229.7000
 20
627.7065
 40
9.0000
 50
73.3333
 51
106.6210
  0
ARC
  8
12_0C
  6
CONTINUOUS
 62
2
 10
231.9000
 20
635.0766
 40
1.3000
 50
0.0000
 51
73.3778
  0
ARC
  8
12_0C
  6
CONTINUOUS
 62
2
 10
245.4000
 20
623.4765
 40
1.3000
 50
0.0000
 51
73.3778
  0
ARC
  8
12_0C
  6
CONTINUOUS
 62
2
 10
243.2000
 20
616.1066
 40
9.0000
 50
73.3790
 51
106.6667
  0
ARC
  8
12_0C
  6
CONTINUOUS
 62
2
 10
241.0000
 20
623.4765
 40
1.3000
 50
106.6222
 51
180.0000
  0
ARC
  8
12_0C
  6
CONTINUOUS
 62
2
 10
391.8492
 20
633.2206
 40
1.3000
 50
0.0000
 51
73.3778
  0
ARC
  8
12_0C
  6
CONTINUOUS
 62
2
 10
389.6492
 20
625.8505
 40
9.0000
 50
73.3790
 51
106.6667
  0
ARC
  8
12_0C
  6
CONTINUOUS
 62
2
 10
387.4492
 20
633.2206
 40
1.3000
 50
106.6222
 51
180.0000
  0
ARC
  8
12_0C
  6
CONTINUOUS
 62
2
 10
378.3493
 20
644.8206
 40
1.3000
 50
0.0000
 51
73.3778
  0
ARC
  8
12_0C
  6
CONTINUOUS
 62
2
 10
376.1492
 20
637.4506
 40
9.0000
 50
73.3790
 51
106.6667
  0
ARC
  8
12_0C
  6
CONTINUOUS
 62
2
 10
373.9492
 20
644.8206
 40
1.3000
 50
106.6222
 51
180.0000
  0
ARC
  8
12_0C
  6
CONTINUOUS
 62
2
 10
369.3493
 20
644.8206
 40
1.3000
 50
0.0000
 51
73.3778
  0
ARC
  8
12_0C
  6
CONTINUOUS
 62
2
 10
367.1492
 20
637.4506
 40
9.0000
 50
73.3790
 51
106.6667
  0
ARC
  8
12_0C
  6
CONTINUOUS
 62
2
 10
364.9493
 20
644.8206
 40
1.3000
 50
106.6222
 51
180.0000
  0
ARC
  8
12_0C
  6
CONTINUOUS
 62
2
 10
355.8493
 20
633.2206
 40
1.3000
 50
0.0000
 51
73.3778
  0
ARC
  8
12_0C
  6
CONTINUOUS
 62
2
 10
353.6492
 20
625.8505
 40
9.0000
 50
73.3790
 51
106.6667
  0
ARC
  8
12_0C
  6
CONTINUOUS
 62
2
 10
351.4492
 20
633.2206
 40
1.3000
 50
106.6222
 51
180.0000
  0
ARC
  8
0_00
  6
CONTINUOUS
 62
4
 10
142.6467
 20
422.8061
 40
2.0000
 50
0.4000
 51
46.6979
  0
ARC
  8
0_00
  6
CONTINUOUS
 62
4
 10
146.4188
 20
426.8087
 40
3.5000
 50
180.4000
 51
226.6979
  0
ARC
  8
0_00
  6
CONTINUOUS
 62
4
 10
146.4188
 20
426.8087
 40
3.5000
 50
41.8470
 51
104.5490
  0
ARC
  8
0_00
  6
CONTINUOUS
 62
4
 10
145.2884
 20
431.1644
 40
1.0000
 50
180.4000
 51
284.5490
  0
ARC
  8
0_00
  6
CONTINUOUS
 62
4
 10
148.0577
 20
428.2764
 40
1.3000
 50
330.4000
 51
401.8470
  0
ARC
  8
0_00
  6
CONTINUOUS
 62
4
 10
146.4188
 20
426.8087
 40
1.7500
 50
10.5841
 51
35.0231
  0
ARC
  8
0_00
  6
CONTINUOUS
 62
4
 10
146.4188
 20
426.8087
 40
1.7500
 50
175.7769
 51
215.0231
  0
ARC
  8
0_00
  6
CONTINUOUS
 62
4
 10
146.4188
 20
426.8087
 40
1.7500
 50
85.7769
 51
125.0231
  0
ARC
  8
0_00
  6
CONTINUOUS
 62
4
 10
148.5085
 20
427.1992
 40
0.3759
 50
190.5841
 51
330.4000
  0
ARC
  8
0_00
  6
CONTINUOUS
 62
4
 10
145.9973
 20
424.6495
 40
1.3000
 50
267.6053
 51
330.4000
  0
ARC
  8
0_00
  6
CONTINUOUS
 62
4
 10
146.4188
 20
426.8087
 40
1.7500
 50
265.7769
 51
290.2159
  0
ARC
  8
0_00
  6
CONTINUOUS
 62
4
 10
147.1534
 20
424.8138
 40
0.3759
 50
330.4000
 51
470.2159
  0
ARC
  8
0_00
  6
CONTINUOUS
 62
4
 10
163.0030
 20
455.8065
 40
10.5000
 50
90.0000
 51
98.7462
  0
ARC
  8
0_00
  6
CONTINUOUS
 62
4
 10
148.7000
 20
458.1590
 40
6.0000
 50
98.7462
 51
180.4000
  0
ARC
  8
0_00
  6
CONTINUOUS
 62
4
 10
163.0030
 20
455.8065
 40
9.0000
 50
90.0000
 51
98.7462
  0
ARC
  8
0_00
  6
CONTINUOUS
 62
4
 10
148.6001
 20
458.1437
 40
4.5000
 50
98.7462
 51
180.4000
  0
ARC
  8
0_00
  6
CONTINUOUS
 62
4
 10
287.3970
 20
455.8065
 40
10.5000
 50
81.2538
 51
90.0000
  0
ARC
  8
0_00
  6
CONTINUOUS
 62
4
 10
287.3970
 20
455.8065
 40
9.0000
 50
81.2538
 51
90.0000
  0
ARC
  8
0_00
  6
CONTINUOUS
 62
4
 10
301.7000
 20
458.1590
 40
6.0000
 50
359.6000
 51
441.2538
  0
ARC
  8
0_00
  6
CONTINUOUS
 62
4
 10
301.7999
 20
458.1437
 40
4.5000
 50
359.6000
 51
441.2538
  0
ARC
  8
0_00
  6
CONTINUOUS
 62
4
 10
147.1725
 20
411.9646
 40
0.6500
 50
270.4000
 51
450.4000
  0
ARC
  8
14_0E
  6
CONTINUOUS
 62
4
 10
146.2166
 20
412.8079
 40
1.5000
 50
180.4000
 51
270.4000
  0
ARC
  8
0_00
  6
CONTINUOUS
 62
4
 10
307.7533
 20
422.8061
 40
2.0000
 50
133.3021
 51
179.6000
  0
ARC
  8
0_00
  6
CONTINUOUS
 62
4
 10
303.9812
 20
426.8087
 40
3.5000
 50
313.3021
 51
359.6000
  0
ARC
  8
0_00
  6
CONTINUOUS
 62
4
 10
303.9812
 20
426.8087
 40
3.5000
 50
75.4510
 51
138.1530
  0
ARC
  8
0_00
  6
CONTINUOUS
 62
4
 10
305.1116
 20
431.1644
 40
1.0000
 50
255.4510
 51
359.6000
  0
ARC
  8
0_00
  6
CONTINUOUS
 62
4
 10
302.3423
 20
428.2764
 40
1.3000
 50
138.1530
 51
209.6000
  0
ARC
  8
0_00
  6
CONTINUOUS
 62
4
 10
303.9812
 20
426.8087
 40
1.7500
 50
144.9769
 51
169.4159
  0
ARC
  8
0_00
  6
CONTINUOUS
 62
4
 10
303.9812
 20
426.8087
 40
1.7500
 50
324.9769
 51
364.2231
  0
ARC
  8
0_00
  6
CONTINUOUS
 62
4
 10
303.9812
 20
426.8087
 40
1.7500
 50
54.9769
 51
94.2231
  0
ARC
  8
0_00
  6
CONTINUOUS
 62
4
 10
301.8915
 20
427.1992
 40
0.3759
 50
209.6000
 51
349.4159
  0
ARC
  8
0_00
  6
CONTINUOUS
 62
4
 10
304.4027
 20
424.6495
 40
1.3000
 50
209.6000
 51
272.3947
  0
ARC
  8
0_00
  6
CONTINUOUS
 62
4
 10
303.9812
 20
426.8087
 40
1.7500
 50
249.7841
 51
274.2231
  0
ARC
  8
0_00
  6
CONTINUOUS
 62
4
 10
303.2466
 20
424.8138
 40
0.3759
 50
69.7841
 51
209.6000
  0
ARC
  8
0_00
  6
CONTINUOUS
 62
4
 10
303.2275
 20
411.9646
 40
0.6500
 50
89.6000
 51
269.6000
  0
ARC
  8
14_0E
  6
CONTINUOUS
 62
4
 10
304.1834
 20
412.8079
 40
1.5000
 50
269.6000
 51
359.6000
  0
ARC
  8
0_00
  6
CONTINUOUS
 62
4
 10
145.2316
 20
439.3007
 40
1.0000
 50
180.4000
 51
270.4000
  0
ARC
  8
0_00
  6
CONTINUOUS
 62
4
 10
145.2553
 20
435.9008
 40
1.0000
 50
90.4000
 51
180.4000
  0
ARC
  8
0_00
  6
CONTINUOUS
 62
4
 10
146.5434
 20
437.6098
 40
0.7000
 50
270.4000
 51
450.4000
  0
ARC
  8
0_00
  6
CONTINUOUS
 62
4
 10
305.1684
 20
439.3007
 40
1.0000
 50
269.6000
 51
359.6000
  0
ARC
  8
0_00
  6
CONTINUOUS
 62
4
 10
305.1447
 20
435.9008
 40
1.0000
 50
359.6000
 51
449.6000
  0
ARC
  8
0_00
  6
CONTINUOUS
 62
4
 10
303.8566
 20
437.6098
 40
0.7000
 50
89.6000
 51
269.6000
  0
ARC
  8
12_0C
  6
CONTINUOUS
 62
2
 10
240.9998
 20
460.1365
 40
1.3000
 50
180.0000
 51
253.3778
  0
ARC
  8
12_0C
  6
CONTINUOUS
 62
2
 10
243.1998
 20
467.5066
 40
9.0000
 50
253.3790
 51
286.6667
  0
ARC
  8
12_0C
  6
CONTINUOUS
 62
2
 10
245.3998
 20
460.1365
 40
1.3000
 50
286.6222
 51
360.0000
  0
ARC
  8
12_0C
  6
CONTINUOUS
 62
2
 10
204.9998
 20
460.1365
 40
1.3000
 50
180.0000
 51
253.3778
  0
ARC
  8
12_0C
  6
CONTINUOUS
 62
2
 10
207.1998
 20
467.5066
 40
9.0000
 50
253.3790
 51
286.6667
  0
ARC
  8
12_0C
  6
CONTINUOUS
 62
2
 10
209.3998
 20
460.1365
 40
1.3000
 50
286.6222
 51
360.0000
  0
ARC
  8
0_00
  6
CONTINUOUS
 62
4
 10
1053.9841
 20
291.5623
 40
1.7000
 50
206.1790
 51
243.8210
  0
ARC
  8
0_00
  6
CONTINUOUS
 62
4
 10
1053.9841
 20
291.5623
 40
3.2500
 50
163.3985
 51
212.3582
  0
ARC
  8
0_00
  6
CONTINUOUS
 62
4
 10
1050.9853
 20
289.6623
 40
0.3000
 50
270.0000
 51
392.3582
  0
ARC
  8
0_00
  6
CONTINUOUS
 62
4
 10
1052.3070
 20
292.0623
 40
1.5000
 50
90.0000
 51
163.3985
  0
ARC
  8
0_00
  6
CONTINUOUS
 62
4
 10
1053.9841
 20
291.5623
 40
1.7000
 50
131.2509
 51
153.8210
  0
ARC
  8
0_00
  6
CONTINUOUS
 62
4
 10
1053.9841
 20
291.5623
 40
1.7000
 50
296.1790
 51
333.8210
  0
ARC
  8
0_00
  6
CONTINUOUS
 62
4
 10
1053.9841
 20
291.5623
 40
3.2500
 50
327.6418
 51
376.6016
  0
ARC
  8
0_00
  6
CONTINUOUS
 62
4
 10
1055.6612
 20
292.0623
 40
1.5000
 50
16.6015
 51
90.0000
  0
ARC
  8
0_00
  6
CONTINUOUS
 62
4
 10
1053.9841
 20
291.5623
 40
1.7000
 50
26.1790
 51
48.7491
  0
ARC
  8
0_00
  6
CONTINUOUS
 62
4
 10
1052.5914
 20
293.1503
 40
0.4121
 50
311.2509
 51
450.0000
  0
ARC
  8
0_00
  6
CONTINUOUS
 62
4
 10
1055.3767
 20
293.1503
 40
0.4121
 50
90.0000
 51
228.7491
  0
ARC
  8
0_00
  6
CONTINUOUS
 62
4
 10
1058.4842
 20
294.5623
 40
11.5000
 50
180.0000
 51
208.3594
  0
ARC
  8
0_00
  6
CONTINUOUS
 62
4
 10
1049.6841
 20
289.8123
 40
1.5000
 50
208.3594
 51
270.0000
  0
ARC
  8
0_00
  6
CONTINUOUS
 62
4
 10
1058.4842
 20
297.5623
 40
11.5000
 50
151.6406
 51
180.0000
  0
ARC
  8
0_00
  6
CONTINUOUS
 62
4
 10
1058.4842
 20
294.5623
 40
10.4000
 50
180.0000
 51
209.0222
  0
ARC
  8
0_00
  6
CONTINUOUS
 62
4
 10
1049.6524
 20
289.6623
 40
0.3000
 50
209.0222
 51
270.0000
  0
ARC
  8
0_00
  6
CONTINUOUS
 62
4
 10
1058.4842
 20
297.5623
 40
10.4000
 50
150.9778
 51
180.0000
  0
ARC
  8
0_00
  6
CONTINUOUS
 62
4
 10
1049.4841
 20
294.5623
 40
11.5000
 50
331.6407
 51
360.0000
  0
ARC
  8
0_00
  6
CONTINUOUS
 62
4
 10
1049.4841
 20
297.5623
 40
11.5000
 50
0.0000
 51
28.3593
  0
ARC
  8
0_00
  6
CONTINUOUS
 62
4
 10
1049.4841
 20
294.5623
 40
10.4000
 50
330.9778
 51
360.0000
  0
ARC
  8
0_00
  6
CONTINUOUS
 62
4
 10
1049.4841
 20
297.5623
 40
10.4000
 50
0.0000
 51
29.0222
  0
ARC
  8
0_00
  6
CONTINUOUS
 62
4
 10
1056.9828
 20
289.6623
 40
0.3000
 50
147.6418
 51
270.0000
  0
ARC
  8
0_00
  6
CONTINUOUS
 62
4
 10
1058.2840
 20
289.8123
 40
1.5000
 50
270.0000
 51
331.6407
  0
ARC
  8
0_00
  6
CONTINUOUS
 62
4
 10
1058.3158
 20
289.6623
 40
0.3000
 50
270.0000
 51
330.9778
  0
ARC
  8
0_00
  6
CONTINUOUS
 62
4
 10
1053.9841
 20
300.5623
 40
1.7000
 50
116.1790
 51
153.8210
  0
ARC
  8
0_00
  6
CONTINUOUS
 62
4
 10
1053.9841
 20
300.5623
 40
3.2500
 50
147.6418
 51
196.6015
  0
ARC
  8
0_00
  6
CONTINUOUS
 62
4
 10
1050.9853
 20
302.4623
 40
0.3000
 50
327.6418
 51
450.0000
  0
ARC
  8
0_00
  6
CONTINUOUS
 62
4
 10
1052.3070
 20
300.0623
 40
1.5000
 50
196.6015
 51
270.0000
  0
ARC
  8
0_00
  6
CONTINUOUS
 62
4
 10
1053.9841
 20
300.5623
 40
1.7000
 50
206.1790
 51
228.7491
  0
ARC
  8
0_00
  6
CONTINUOUS
 62
4
 10
1053.9841
 20
300.5623
 40
1.7000
 50
26.1790
 51
63.8210
  0
ARC
  8
0_00
  6
CONTINUOUS
 62
4
 10
1053.9841
 20
300.5623
 40
3.2500
 50
343.3984
 51
392.3582
  0
ARC
  8
0_00
  6
CONTINUOUS
 62
4
 10
1055.6612
 20
300.0623
 40
1.5000
 50
270.0000
 51
343.3984
  0
ARC
  8
0_00
  6
CONTINUOUS
 62
4
 10
1053.9841
 20
300.5623
 40
1.7000
 50
311.2509
 51
333.8210
  0
ARC
  8
0_00
  6
CONTINUOUS
 62
4
 10
1052.5914
 20
298.9744
 40
0.4121
 50
270.0000
 51
408.7491
  0
ARC
  8
0_00
  6
CONTINUOUS
 62
4
 10
1055.3767
 20
298.9744
 40
0.4121
 50
131.2509
 51
270.0000
  0
ARC
  8
0_00
  6
CONTINUOUS
 62
4
 10
1049.6841
 20
302.3123
 40
1.5000
 50
90.0000
 51
151.6406
  0
ARC
  8
0_00
  6
CONTINUOUS
 62
4
 10
1049.6524
 20
302.4623
 40
0.3000
 50
90.0000
 51
150.9778
  0
ARC
  8
0_00
  6
CONTINUOUS
 62
4
 10
1056.9828
 20
302.4623
 40
0.3000
 50
90.0000
 51
212.3582
  0
ARC
  8
0_00
  6
CONTINUOUS
 62
4
 10
1058.2840
 20
302.3123
 40
1.5000
 50
28.3593
 51
90.0000
  0
ARC
  8
0_00
  6
CONTINUOUS
 62
4
 10
1058.3158
 20
302.4623
 40
0.3000
 50
29.0222
 51
90.0000
  0
TEXT
  8
0_00
 62
2
 10
130.2000
 20
742.6344
 40
12.00
 41
1.00
 50
0.0000
  1
屋外側
  0
TEXT
  8
0_00
 62
2
 10
291.4000
 20
742.6344
 40
12.00
 41
1.00
 50
0.0000
  1
建物側
  0
TEXT
  8
15_0F
 62
7
 10
78.3665
 20
421.1533
 40
6.75
 41
0.75
 50
90.0000
  1
15
  0
TEXT
  8
15_0F
 62
7
 10
78.3665
 20
461.1066
 40
7.50
 41
1.00
 50
90.0000
  1
Ｈ（トップレール手すり高さ寸法）＝１５０、２００、２５０、３００
  0
TEXT
  8
15_0F
 62
7
 10
799.3076
 20
736.1565
 40
7.50
 41
1.00
 50
0.0000
  1
Ａ
  0
TEXT
  8
15_0F
 62
7
 10
998.9372
 20
656.9344
 40
7.50
 41
1.00
 50
0.0000
  1
Ｂ
  0
TEXT
  8
15_0F
 62
7
 10
799.3076
 20
671.6605
 40
7.50
 41
1.00
 50
0.0000
  1
Ａ
  0
TEXT
  8
15_0F
 62
7
 10
254.2983
 20
682.5026
 40
7.50
 41
1.00
 50
0.0000
  1
Ｋ型笠木カバー
  0
TEXT
  8
15_0F
 62
7
 10
119.3511
 20
484.0630
 40
7.50
 41
1.00
 50
0.0000
  1
トップレールベース
  0
TEXT
  8
15_0F
 62
7
 10
824.1611
 20
70.2000
 40
7.50
 41
1.00
 50
0.0000
  1
１
  0
TEXT
  8
15_0F
 62
7
 10
852.6611
 20
70.2000
 40
7.50
 41
1.00
 50
0.0000
  1
３
  0
TEXT
  8
15_0F
 62
7
 10
704.3110
 20
74.7000
 40
7.50
 41
1.00
 50
0.0000
  1
納まり図
  0
TEXT
  8
15_0F
 62
7
 10
511.7110
 20
41.7000
 40
7.50
 41
1.00
 50
0.0000
  1
木造
  0
TEXT
  8
15_0F
 62
7
 10
511.7110
 20
71.7000
 40
7.50
 41
1.00
 50
0.0000
  1
低層
  0
TEXT
  8
15_0F
 62
7
 10
576.0610
 20
71.7000
 40
7.50
 41
1.00
 50
0.0000
  1
手すり付笠木
  0
TEXT
  8
15_0F
 62
7
 10
639.5110
 20
44.7000
 40
7.50
 41
1.00
 50
0.0000
  1
トップレール手すり［直線部］（Ｋ柱）納まり図
  0
TEXT
  8
15_0F
 62
7
 10
201.0905
 20
100.2001
 40
7.50
 41
1.00
 50
0.0000
  1
1）Ｈ、Ｌ、ＬＣは発注寸法とする。
  0
TEXT
  8
15_0F
 62
7
 10
796.4441
 20
463.0000
 40
7.50
 41
1.00
 50
0.0000
  1
１７５≦Ｌ（柱スパン寸法）≦１３６５
  0
TEXT
  8
15_0F
 62
7
 10
729.9852
 20
789.6496
 40
7.50
 41
1.00
 50
0.0000
  1
Ｌ
  0
TEXT
  8
15_0F
 62
7
 10
856.0360
 20
788.9546
 40
7.50
 41
1.00
 50
0.0000
  1
１７５≦Ｌ≦１３６５
  0
TEXT
  8
15_0F
 62
7
 10
1039.2425
 20
789.6496
 40
7.50
 41
1.00
 50
0.0000
  1
Ｌ
  0
TEXT
  8
15_0F
 62
7
 10
113.0288
 20
648.1057
 40
7.50
 41
1.00
 50
0.0000
  1
トップレール支持金具
  0
TEXT
  8
15_0F
 62
7
 10
400.7947
 20
680.1513
 40
7.50
 41
1.00
 50
0.0000
  1
Ｄ型笠木カバー
  0
TEXT
  8
15_0F
 62
7
 10
204.0306
 20
758.7404
 40
7.50
 41
1.00
 50
0.0000
  1
［ＫＡＭ型］
  0
TEXT
  8
15_0F
 62
7
 10
348.6981
 20
758.7404
 40
7.50
 41
1.00
 50
0.0000
  1
［DＡＭ型］
  0
TEXT
  8
15_0F
 62
7
 10
769.6055
 20
656.9344
 40
7.50
 41
1.00
 50
0.0000
  1
Ｂ
  0
TEXT
  8
0_00
 62
7
 10
321.2380
 20
465.8793
 40
7.50
 41
1.00
 50
0.0000
  1
ブラケット
  0
TEXT
  8
15_0F
 62
7
 10
200.5372
 20
84.4527
 40
7.50
 41
1.00
 50
0.0000
  1
　　（躯体寸法発注の場合、Ｌは標準割付寸法、ＬＣは標準寸法とする。）
  0
TEXT
  8
15_0F
 62
7
 10
200.5036
 20
68.8701
 40
7.50
 41
1.00
 50
0.0000
  1
２）［　］内寸法は標準寸法とする。
  0
TEXT
  8
15_0F
 62
7
 10
339.1045
 20
341.1505
 40
7.50
 41
1.00
 50
0.0000
  1
下穴コーキング処理
  0
TEXT
  8
15_0F
 62
7
 10
321.6273
 20
381.1883
 40
7.50
 41
1.00
 50
0.0000
  1
タッピンねじ・トラス
  0
TEXT
  8
15_0F
 62
7
 10
327.3339
 20
368.5620
 40
7.50
 41
1.00
 50
0.0000
  1
φ５×５０（１種）
  0
TEXT
  8
13_0D
 62
7
 10
114.8000
 20
319.9192
 40
6.75
 41
0.75
 50
0.0000
  1
10
  0
TEXT
  8
13_0D
 62
7
 10
150.3500
 20
307.9192
 40
6.75
 41
0.75
 50
0.0000
  1
n
  0
TEXT
  8
13_0D
 62
7
 10
171.2000
 20
319.9192
 40
7.50
 41
1.00
 50
0.0000
  1
躯体寸法（推奨寸法：Ａ－３０）
  0
TEXT
  8
13_0D
 62
7
 10
292.8500
 20
307.9192
 40
6.75
 41
0.75
 50
0.0000
  1
n
  0
TEXT
  8
13_0D
 62
7
 10
321.2000
 20
319.9192
 40
6.75
 41
0.75
 50
0.0000
  1
10
  0
TEXT
  8
13_0D
 62
7
 10
171.2000
 20
307.9192
 40
7.50
 41
1.00
 50
0.0000
  1
　　　　（最大寸法：Ａ－２０）
  0
TEXT
  8
13_0D
 62
7
 10
149.6000
 20
279.9192
 40
7.50
 41
1.00
 50
0.0000
  1
Ａ（笠木幅）＝１５０、１６５、１８０、　　
  0
TEXT
  8
13_0D
 62
7
 10
160.4000
 20
267.9193
 40
6.75
 41
0.75
 50
0.0000
  1
           １９５、２１０
  0
TEXT
  8
15_0F
 62
7
 10
335.3979
 20
353.7767
 40
7.50
 41
1.00
 50
0.0000
  1
下穴（φ３）現場加工
  0
TEXT
  8
15_0F
 62
7
 10
116.9778
 20
568.0625
 40
7.50
 41
1.00
 50
0.0000
  1
トップレール
  0
TEXT
  8
15_0F
 62
7
 10
116.2166
 20
556.7301
 40
7.50
 41
1.00
 50
0.0000
  1
手すり付笠木セット
  0
TEXT
  8
0_00
 62
7
 10
531.8081
 20
680.6728
 40
7.50
 41
1.00
 50
0.0000
  1
Ｍ型笠木カバー
  0
TEXT
  8
15_0F
 62
7
 10
482.9697
 20
759.7256
 40
7.50
 41
1.00
 50
0.0000
  1
［ＭＡＭ型］
  0
TEXT
  8
15_0F
 62
7
 10
552.1879
 20
42.8739
 40
6.00
 41
1.00
 50
0.0000
  1
ＫＡＭ、ＤＡＭ、ＭＡＭ型
  0
TEXT
  8
0_00
 62
7
 10
70.2905
 20
40.2001
 40
7.50
 41
1.00
 50
0.0000
  1
適用製品
  0
TEXT
  8
0_00
 62
7
 10
130.2905
 20
40.2001
 40
7.50
 41
1.00
 50
0.0000
  1
適用日付
  0
TEXT
  8
0_00
 62
7
 10
178.5905
 20
100.2001
 40
7.50
 41
1.00
 50
0.0000
  1
記事
  0
TEXT
  8
0_00
 62
7
 10
472.5611
 20
85.2001
 40
7.50
 41
1.00
 50
0.0000
  1
階層仕様
  0
TEXT
  8
0_00
 62
7
 10
472.5611
 20
55.2000
 40
7.50
 41
1.00
 50
0.0000
  1
適用躯体
  0
TEXT
  8
0_00
 62
7
 10
630.0610
 20
85.2001
 40
7.50
 41
1.00
 50
0.0000
  1
名　称
  0
TEXT
  8
0_00
 62
7
 10
630.0610
 20
55.2000
 40
7.50
 41
1.00
 50
0.0000
  1
図　名
  0
TEXT
  8
0_00
 62
7
 10
814.9368
 20
100.2458
 40
7.50
 41
1.00
 50
0.0000
  1
Ｎｏ．
  0
TEXT
  8
0_00
 62
7
 10
1123.5610
 20
100.2001
 40
7.50
 41
1.00
 50
0.0000
  1
適　　　　　　　　用
  0
TEXT
  8
0_00
 62
7
 10
1078.4111
 20
100.2001
 40
7.50
 41
1.00
 50
0.0000
  1
個数
  0
TEXT
  8
0_00
 62
7
 10
1023.2110
 20
100.2001
 40
7.50
 41
1.00
 50
0.0000
  1
材　　質
  0
TEXT
  8
0_00
 62
7
 10
926.1610
 20
100.2001
 40
7.50
 41
1.00
 50
0.0000
  1
部　　　品　　　名
  0
TEXT
  8
0_00
 62
7
 10
895.9360
 20
100.2001
 40
7.50
 41
1.00
 50
0.0000
  1
品番
  0
TEXT
  8
0_00
 62
7
 10
850.8611
 20
100.2001
 40
7.50
 41
1.00
 50
0.0000
  1
図　　番
  0
TEXT
  8
0_00
 62
7
 10
816.6610
 20
85.2001
 40
7.50
 41
1.00
 50
0.0000
  1
尺度
  0
TEXT
  8
0_00
 62
7
 10
816.6610
 20
55.2000
 40
7.50
 41
1.00
 50
0.0000
  1
日付
  0
TEXT
  8
0_00
 62
7
 10
928.3942
 20
85.2001
 40
7.50
 41
1.00
 50
0.0000
  1
承認
  0
TEXT
  8
0_00
 62
7
 10
970.5611
 20
85.2001
 40
7.50
 41
1.00
 50
0.0000
  1
検図
  0
TEXT
  8
0_00
 62
7
 10
1006.8610
 20
85.2001
 40
7.50
 41
1.00
 50
0.0000
  1
設計
  0
TEXT
  8
0_00
 62
7
 10
1044.2110
 20
85.2001
 40
7.50
 41
1.00
 50
0.0000
  1
製図
  0
TEXT
  8
0_00
 62
7
 10
1074.5110
 20
55.2000
 40
7.50
 41
1.00
 50
0.0000
  1
図番
  0
TEXT
  8
0_00
 62
2
 10
1103.9219
 20
74.2350
 40
12.00
 41
1.00
 50
0.0000
  1
文化シヤッター株式会社
  0
TEXT
  8
0_00
 62
7
 10
200.7905
 20
862.9501
 40
7.50
 41
1.00
 50
180.0000
  1
図番
  0
TEXT
  8
0_00
 62
7
 10
799.0510
 20
854.0169
 40
6.00
 41
1.00
 50
0.0000
  1
ＮＯ
  0
TEXT
  8
0_00
 62
7
 10
825.2111
 20
853.9501
 40
7.50
 41
1.00
 50
0.0000
  1
個　数
  0
TEXT
  8
0_00
 62
7
 10
870.3611
 20
853.9501
 40
7.50
 41
1.00
 50
0.0000
  1
日　　付
  0
TEXT
  8
0_00
 62
7
 10
984.2111
 20
853.9501
 40
7.50
 41
1.00
 50
0.0000
  1
訂　　　正　　　記　　　事
  0
TEXT
  8
0_00
 62
7
 10
838.4111
 20
70.2000
 40
6.75
 41
0.75
 50
0.0000
  1
:
  0
TEXT
  8
0_00
 62
7
 10
1137.8712
 20
26.7000
 40
6.00
 41
1.00
 50
0.0000
  1
ＪＩＳ　Ａ－３
  0
TEXT
  8
0_00
 62
7
 10
1179.4986
 20
26.6983
 40
6.00
 41
1.00
 50
0.0000
  1
（２９７×４２０）
  0
TEXT
  8
0_00
 62
7
 10
1153.1111
 20
853.9501
 40
7.50
 41
1.00
 50
0.0000
  1
担　当
  0
TEXT
  8
0_00
 62
7
 10
1189.1111
 20
853.9501
 40
7.50
 41
1.00
 50
0.0000
  1
承　認
  0
TEXT
  8
0_00
 62
7
 10
551.3111
 20
85.2001
 40
7.50
 41
1.00
 50
0.0000
  1
機種名
  0
TEXT
  8
0_00
 62
7
 10
551.3111
 20
55.2000
 40
7.50
 41
1.00
 50
0.0000
  1
型　式
  0
TEXT
  8
0_00
 62
7
 10
218.0000
 20
352.7440
 40
6.75
 41
0.75
 50
0.0000
  1
56
  0
TEXT
  8
15_0F
 62
7
 10
581.2919
 20
790.7957
 40
7.50
 41
1.00
 50
0.0000
  1
２２０≦ＬＣ［２５０］≦４５５
  0
TEXT
  8
15_0F
 62
7
 10
1130.5919
 20
790.7957
 40
7.50
 41
1.00
 50
0.0000
  1
ＬＣ
  0
TEXT
  8
15_0F
 62
7
 10
1196.1882
 20
706.4667
 40
6.75
 41
0.75
 50
90.0000
  1
H
  0
TEXT
  8
15_0F
 62
7
 10
661.3040
 20
443.0000
 40
6.75
 41
0.75
 50
0.0000
  1
60
  0
TEXT
  8
15_0F
 62
7
 10
537.0000
 20
287.5285
 40
6.75
 41
0.75
 50
90.0000
  1
56
  0
TEXT
  8
15_0F
 62
7
 10
1076.9841
 20
443.0000
 40
6.75
 41
0.75
 50
0.0000
  1
28
  0
TEXT
  8
15_0F
 62
7
 10
1157.0000
 20
288.8623
 40
6.75
 41
0.75
 50
90.0000
  1
43
  0
TEXT
  8
15_0F
 62
7
 10
105.5046
 20
229.3110
 40
7.50
 41
1.00
 50
0.0000
  1
Ａ－Ａ矢視図
  0
TEXT
  8
15_0F
 62
7
 10
1087.3484
 20
522.9957
 40
7.50
 41
1.00
 50
0.0000
  1
外観姿図（１：２０）
  0
TEXT
  8
15_0F
 62
7
 10
563.8947
 20
400.4495
 40
7.50
 41
1.00
 50
0.0000
  1
ブラケット
  0
TEXT
  8
15_0F
 62
7
 10
542.4842
 20
340.7649
 40
7.50
 41
1.00
 50
0.0000
  1
トップレールベース
  0
TEXT
  8
15_0F
 62
7
 10
298.5274
 20
635.6066
 40
6.75
 41
0.75
 50
90.0000
  1
47
  0
TEXT
  8
15_0F
 62
7
 10
444.7701
 20
640.5519
 40
6.75
 41
0.75
 50
90.0000
  1
37
  0
TEXT
  8
15_0F
 62
7
 10
545.4400
 20
158.7600
 40
7.50
 41
1.00
 50
0.0000
  1
Ｂ－Ｂ矢視図
  0
TEXT
  8
13_0D
 62
7
 10
99.8665
 20
431.6072
 40
6.75
 41
0.75
 50
90.0000
  1
55
  0
TEXT
  8
13_0D
 62
7
 10
661.4504
 20
421.5000
 40
6.75
 41
0.75
 50
0.0000
  1
35
  0
TEXT
  8
15_0F
 62
7
 10
218.0000
 20
709.7958
 40
6.75
 41
0.75
 50
0.0000
  1
60
  0
TEXT
  8
15_0F
 62
7
 10
364.7296
 20
709.7958
 40
6.75
 41
0.75
 50
0.0000
  1
80
  0
TEXT
  8
13_0D
 62
7
 10
495.1209
 20
708.2958
 40
6.75
 41
0.75
 50
0.0000
  1
φ58
  0
TEXT
  8
15_0F
 62
7
 10
535.1579
 20
595.7745
 40
7.50
 41
1.00
 50
0.0000
  1
M型笠木底板
  0
POINT
  8
15_0F
 62
5
 10
0.0000
 20
0.0000
  0
POINT
  8
13_0D
 62
6
 10
152.7000
 20
318.4192
  0
POINT
  8
13_0D
 62
6
 10
297.7000
 20
318.4192
  0
POINT
  8
13_0D
 62
6
 10
297.7000
 20
318.4192
  0
POINT
  8
15_0F
 62
2
 10
141.5254
 20
332.5323
  0
POINT
  8
0_00
 62
2
 10
24.0905
 20
14.9991
  0
POINT
  8
0_00
 62
2
 10
24.0905
 20
14.9991
  0
POINT
  8
0_00
 62
2
 10
84.6905
 20
59.7001
  0
POINT
  8
0_00
 62
2
 10
84.6905
 20
74.7001
  0
POINT
  8
0_00
 62
2
 10
84.6905
 20
89.7001
  0
POINT
  8
0_00
 62
2
 10
84.6905
 20
104.7001
  0
POINT
  8
0_00
 62
2
 10
518.9110
 20
76.2000
  0
POINT
  8
0_00
 62
2
 10
518.9110
 20
46.2000
  0
POINT
  8
0_00
 62
2
 10
718.7110
 20
79.2000
  0
POINT
  8
0_00
 62
2
 10
718.7110
 20
49.2000
  0
POINT
  8
0_00
 62
2
 10
1097.7610
 20
52.2000
  0
POINT
  8
0_00
 62
2
 10
1014.0610
 20
59.7001
  0
POINT
  8
0_00
 62
2
 10
144.6905
 20
59.7001
  0
POINT
  8
0_00
 62
2
 10
144.6905
 20
74.7001
  0
POINT
  8
0_00
 62
2
 10
144.6905
 20
89.7001
  0
POINT
  8
0_00
 62
2
 10
144.6905
 20
104.7001
  0
POINT
  8
0_00
 62
2
 10
856.2610
 20
74.7000
  0
POINT
  8
0_00
 62
2
 10
827.7610
 20
74.7000
  0
POINT
  8
0_00
 62
2
 10
204.6905
 20
104.7001
  0
POINT
  8
0_00
 62
2
 10
204.6905
 20
89.7001
  0
POINT
  8
0_00
 62
2
 10
204.6905
 20
74.7001
  0
POINT
  8
0_00
 62
2
 10
204.6905
 20
59.7001
  0
POINT
  8
0_00
 62
2
 10
204.6905
 20
44.7001
  0
POINT
  8
0_00
 62
2
 10
1051.4110
 20
59.7001
  0
POINT
  8
0_00
 62
2
 10
84.6905
 20
44.7001
  0
POINT
  8
0_00
 62
2
 10
144.6905
 20
44.7001
  0
POINT
  8
0_00
 62
2
 10
174.6905
 20
858.4501
  0
POINT
  8
0_00
 62
2
 10
862.6360
 20
49.2000
  0
POINT
  8
0_00
 62
2
 10
597.6610
 20
76.2000
  0
POINT
  8
0_00
 62
2
 10
597.6610
 20
46.2000
  0
POINT
  8
0_00
 62
2
 10
376.1492
 20
643.8505
  0
POINT
  8
0_00
 62
2
 10
367.1492
 20
643.8505
  0
POINT
  8
0_00
 62
5
 10
225.2000
 20
451.3066
  0
POINT
  8
0_00
 62
5
 10
1053.9841
 20
296.0623
  0
ENDSEC
  0
EOF
