999
  
  0
SECTION
  2
HEADER
  9
$EXTMIN
 10
0
 20
0
  9
$EXTMAX
 10
4200
 20
2960
  9
$LTSCALE
 40
10.00
  9
$PDMODE
 70
33
  9
$PDSIZE
 40
6.00
  0
ENDSEC
  0
SECTION
  2
TABLES
  0
TABLE
  2
LTYPE
 70
9
  0
LTYPE
  2
CONTINUOUS
 70
64
  3
実線
 72
65
 73
0
 40
0.00
  0
LTYPE
  2
DASHED
 70
64
  3
__  __  __  __  __  __  __ 
 72
65
 73
2
 40
1.00
 49
0.50
 49
-0.50
  0
LTYPE
  2
HIDDEN1
 70
64
  3
____    ____    ____    ___
 72
65
 73
2
 40
2.20
 49
1.20
 49
-1.00
  0
LTYPE
  2
HIDDEN2
 70
64
  3
______  ______  ______  ___
 72
65
 73
2
 40
4.50
 49
3.50
 49
-1.00
  0
LTYPE
  2
CENTER1
 70
64
  3
_______ _ _______ _ _______
 72
65
 73
4
 40
20.00
 49
17.00
 49
-1.00
 49
1.00
 49
-1.00
  0
LTYPE
  2
CENTER2
 70
64
  3
___________  __  __________
 72
65
 73
4
 40
40.00
 49
34.00
 49
-2.00
 49
2.00
 49
-2.00
  0
LTYPE
  2
PHANTOM1
 70
64
  3
______ _ _ ______ _ _ _____
 72
65
 73
6
 40
20.00
 49
15.00
 49
-1.00
 49
1.00
 49
-1.00
 49
1.00
 49
-1.00
  0
LTYPE
  2
PHANTOM2
 70
64
  3
__________  _  _  _________
 72
65
 73
6
 40
40.00
 49
30.00
 49
-2.00
 49
2.00
 49
-2.00
 49
2.00
 49
-2.00
  0
LTYPE
  2
DOT
 70
64
  3
 .  .  .  .  .  .  .  .  . 
 72
65
 73
2
 40
1.00
 49
0.00
 49
-1.00
  0
ENDTAB
  0
TABLE
  2
STYLE
 70
1
  0
STYLE
  2
STANDARD
 70
64
 40
0.0
 41
1.0
 42
0.0
 50
0.0
 71
0
  3
ROMANS
  4
BIGFONT
  0
ENDTAB
  0
TABLE
  2
LAYER
 70
8
  0
LAYER
  2
0_00
 70
64
 62
7
  6
CONTINUOUS
  0
LAYER
  2
2_02
 70
64
 62
7
  6
CONTINUOUS
  0
LAYER
  2
13_0D
 70
64
 62
7
  6
CONTINUOUS
  0
LAYER
  2
14_0E
 70
64
 62
7
  6
CONTINUOUS
  0
LAYER
  2
15_0F
 70
64
 62
7
  6
CONTINUOUS
  0
LAYER
  2
16_10
 70
64
 62
7
  6
CONTINUOUS
  0
LAYER
  2
32_20
 70
64
 62
7
  6
CONTINUOUS
  0
LAYER
  2
144_90
 70
64
 62
7
  6
CONTINUOUS
  0
ENDTAB
  0
ENDSEC
  0
SECTION
  2
ENTITIES
  0
LINE
  8
0_00
  6
CONTINUOUS
 62
7
 10
2122.0026
 20
374.0002
 11
2122.0026
 21
2838.9999
  0
LINE
  8
0_00
  6
CENTER1
 62
6
 10
568.0746
 20
2152.4684
 11
1917.2885
 21
2152.4684
  0
LINE
  8
0_00
  6
CENTER1
 62
6
 10
568.0746
 20
2152.4684
 11
568.0746
 21
1639.6693
  0
LINE
  8
0_00
  6
CENTER1
 62
6
 10
688.0745
 20
2197.6370
 11
688.0745
 21
1982.8029
  0
LINE
  8
0_00
  6
CENTER1
 62
6
 10
888.0745
 20
2197.6370
 11
888.0745
 21
1959.1862
  0
LINE
  8
0_00
  6
CENTER1
 62
6
 10
1788.0745
 20
2192.6848
 11
1788.0745
 21
1961.8309
  0
LINE
  8
0_00
  6
CENTER1
 62
6
 10
522.9057
 20
1832.4684
 11
761.3567
 21
1832.4684
  0
LINE
  8
0_00
  6
CENTER1
 62
6
 10
1242.7820
 20
2622.8485
 11
1242.7820
 21
2542.1109
  0
LINE
  8
2_02
  6
CONTINUOUS
 62
4
 10
1223.0319
 20
2666.9879
 11
1208.1002
 21
2666.9879
  0
LINE
  8
2_02
  6
CONTINUOUS
 62
4
 10
1223.2819
 20
2643.1384
 11
1223.2819
 21
2666.7380
  0
LINE
  8
2_02
  6
CONTINUOUS
 62
4
 10
1192.5319
 20
2663.0002
 11
1192.5319
 21
2643.2382
  0
LINE
  8
2_02
  6
CONTINUOUS
 62
4
 10
1192.7819
 20
2642.9883
 11
1223.0319
 21
2642.9883
  0
LINE
  8
0_00
  6
CONTINUOUS
 62
4
 10
1223.2819
 20
2666.6382
 11
2000.1109
 21
2666.6382
  0
LINE
  8
0_00
  6
CONTINUOUS
 62
4
 10
1223.2819
 20
2643.1384
 11
2000.1109
 21
2643.1384
  0
LINE
  8
0_00
  6
CENTER1
 62
6
 10
1367.7818
 20
2681.7743
 11
1367.7818
 21
2542.1109
  0
LINE
  8
0_00
  6
CENTER1
 62
6
 10
1817.7818
 20
2681.7743
 11
1817.7818
 21
2542.1109
  0
LINE
  8
0_00
  6
CONTINUOUS
 62
4
 10
599.0744
 20
2182.4684
 11
1893.5132
 21
2182.4684
  0
LINE
  8
0_00
  6
CONTINUOUS
 62
4
 10
1893.5132
 20
2122.4683
 11
599.0744
 21
2122.4683
  0
LINE
  8
2_02
  6
CONTINUOUS
 62
4
 10
599.0744
 20
2182.4684
 11
599.0744
 21
2121.9684
  0
LINE
  8
2_02
  6
CONTINUOUS
 62
4
 10
599.0744
 20
2121.9684
 11
598.5744
 21
2121.4684
  0
LINE
  8
2_02
  6
CONTINUOUS
 62
4
 10
538.0745
 20
2121.4684
 11
598.5744
 21
2121.4684
  0
LINE
  8
2_02
  6
CONTINUOUS
 62
4
 10
537.5746
 20
2176.4684
 11
537.5746
 21
2121.9684
  0
LINE
  8
2_02
  6
CONTINUOUS
 62
4
 10
544.0746
 20
2182.9683
 11
598.5744
 21
2182.9683
  0
LINE
  8
0_00
  6
CONTINUOUS
 62
4
 10
598.0745
 20
1671.3612
 11
598.0745
 21
2121.4684
  0
LINE
  8
0_00
  6
CONTINUOUS
 62
4
 10
538.0745
 20
2121.4684
 11
538.0745
 21
1669.3271
  0
LINE
  8
0_00
  6
CONTINUOUS
 62
4
 10
538.0745
 20
1669.3280
 11
538.5110
 21
1669.5448
  0
LINE
  8
0_00
  6
CONTINUOUS
 62
4
 10
538.5110
 20
1669.5448
 11
538.8155
 21
1669.6938
  0
LINE
  8
0_00
  6
CONTINUOUS
 62
4
 10
538.8155
 20
1669.6938
 11
539.1219
 21
1669.8407
  0
LINE
  8
0_00
  6
CONTINUOUS
 62
4
 10
539.1219
 20
1669.8407
 11
539.4304
 21
1669.9852
  0
LINE
  8
0_00
  6
CONTINUOUS
 62
4
 10
539.4304
 20
1669.9852
 11
539.7412
 21
1670.1271
  0
LINE
  8
0_00
  6
CONTINUOUS
 62
4
 10
539.7412
 20
1670.1271
 11
540.0548
 21
1670.2660
  0
LINE
  8
0_00
  6
CONTINUOUS
 62
4
 10
540.0548
 20
1670.2660
 11
540.3713
 21
1670.4015
  0
LINE
  8
0_00
  6
CONTINUOUS
 62
4
 10
540.3713
 20
1670.4015
 11
540.6911
 21
1670.5331
  0
LINE
  8
0_00
  6
CONTINUOUS
 62
4
 10
540.6911
 20
1670.5331
 11
541.0146
 21
1670.6609
  0
LINE
  8
0_00
  6
CONTINUOUS
 62
4
 10
541.0146
 20
1670.6609
 11
541.3420
 21
1670.7840
  0
LINE
  8
0_00
  6
CONTINUOUS
 62
4
 10
541.3420
 20
1670.7840
 11
541.6737
 21
1670.9027
  0
LINE
  8
0_00
  6
CONTINUOUS
 62
4
 10
541.6737
 20
1670.9027
 11
542.0097
 21
1671.0162
  0
LINE
  8
0_00
  6
CONTINUOUS
 62
4
 10
542.0097
 20
1671.0162
 11
542.3507
 21
1671.1244
  0
LINE
  8
0_00
  6
CONTINUOUS
 62
4
 10
542.3507
 20
1671.1244
 11
542.6966
 21
1671.2270
  0
LINE
  8
0_00
  6
CONTINUOUS
 62
4
 10
542.6966
 20
1671.2270
 11
543.0481
 21
1671.3234
  0
LINE
  8
0_00
  6
CONTINUOUS
 62
4
 10
543.0481
 20
1671.3234
 11
543.4053
 21
1671.4133
  0
LINE
  8
0_00
  6
CONTINUOUS
 62
4
 10
543.4053
 20
1671.4133
 11
543.7684
 21
1671.4966
  0
LINE
  8
0_00
  6
CONTINUOUS
 62
4
 10
543.7684
 20
1671.4966
 11
544.1378
 21
1671.5727
  0
LINE
  8
0_00
  6
CONTINUOUS
 62
4
 10
544.1378
 20
1671.5727
 11
544.5139
 21
1671.6414
  0
LINE
  8
0_00
  6
CONTINUOUS
 62
4
 10
544.5139
 20
1671.6414
 11
544.8969
 21
1671.7026
  0
LINE
  8
0_00
  6
CONTINUOUS
 62
4
 10
544.8969
 20
1671.7026
 11
545.2871
 21
1671.7555
  0
LINE
  8
0_00
  6
CONTINUOUS
 62
4
 10
545.2871
 20
1671.7555
 11
545.6848
 21
1671.8001
  0
LINE
  8
0_00
  6
CONTINUOUS
 62
4
 10
545.6848
 20
1671.8001
 11
546.0903
 21
1671.8359
  0
LINE
  8
0_00
  6
CONTINUOUS
 62
4
 10
546.0903
 20
1671.8359
 11
546.5040
 21
1671.8625
  0
LINE
  8
0_00
  6
CONTINUOUS
 62
4
 10
546.5040
 20
1671.8625
 11
546.9260
 21
1671.8799
  0
LINE
  8
0_00
  6
CONTINUOUS
 62
4
 10
546.9260
 20
1671.8799
 11
547.3568
 21
1671.8874
  0
LINE
  8
0_00
  6
CONTINUOUS
 62
4
 10
547.3568
 20
1671.8874
 11
547.7964
 21
1671.8851
  0
LINE
  8
0_00
  6
CONTINUOUS
 62
4
 10
547.7964
 20
1671.8851
 11
548.2446
 21
1671.8730
  0
LINE
  8
0_00
  6
CONTINUOUS
 62
4
 10
548.2446
 20
1671.8730
 11
548.7008
 21
1671.8523
  0
LINE
  8
0_00
  6
CONTINUOUS
 62
4
 10
548.7008
 20
1671.8523
 11
549.1644
 21
1671.8231
  0
LINE
  8
0_00
  6
CONTINUOUS
 62
4
 10
549.1644
 20
1671.8231
 11
549.6351
 21
1671.7865
  0
LINE
  8
0_00
  6
CONTINUOUS
 62
4
 10
549.6351
 20
1671.7865
 11
550.1122
 21
1671.7427
  0
LINE
  8
0_00
  6
CONTINUOUS
 62
4
 10
550.1122
 20
1671.7427
 11
550.5953
 21
1671.6925
  0
LINE
  8
0_00
  6
CONTINUOUS
 62
4
 10
550.5953
 20
1671.6925
 11
551.0839
 21
1671.6364
  0
LINE
  8
0_00
  6
CONTINUOUS
 62
4
 10
551.0839
 20
1671.6364
 11
551.5775
 21
1671.5752
  0
LINE
  8
0_00
  6
CONTINUOUS
 62
4
 10
551.5775
 20
1671.5752
 11
552.0755
 21
1671.5092
  0
LINE
  8
0_00
  6
CONTINUOUS
 62
4
 10
552.0755
 20
1671.5092
 11
552.5775
 21
1671.4394
  0
LINE
  8
0_00
  6
CONTINUOUS
 62
4
 10
552.5775
 20
1671.4394
 11
553.0830
 21
1671.3661
  0
LINE
  8
0_00
  6
CONTINUOUS
 62
4
 10
553.0830
 20
1671.3661
 11
553.5913
 21
1671.2901
  0
LINE
  8
0_00
  6
CONTINUOUS
 62
4
 10
553.5913
 20
1671.2901
 11
554.1021
 21
1671.2117
  0
LINE
  8
0_00
  6
CONTINUOUS
 62
4
 10
554.1021
 20
1671.2117
 11
554.6149
 21
1671.1319
  0
LINE
  8
0_00
  6
CONTINUOUS
 62
4
 10
554.6149
 20
1671.1319
 11
555.1291
 21
1671.0512
  0
LINE
  8
0_00
  6
CONTINUOUS
 62
4
 10
555.1291
 20
1671.0512
 11
555.6442
 21
1670.9702
  0
LINE
  8
0_00
  6
CONTINUOUS
 62
4
 10
555.6442
 20
1670.9702
 11
556.1598
 21
1670.8893
  0
LINE
  8
0_00
  6
CONTINUOUS
 62
4
 10
556.1598
 20
1670.8893
 11
556.6751
 21
1670.8093
  0
LINE
  8
0_00
  6
CONTINUOUS
 62
4
 10
556.6751
 20
1670.8093
 11
557.1901
 21
1670.7309
  0
LINE
  8
0_00
  6
CONTINUOUS
 62
4
 10
557.1901
 20
1670.7309
 11
557.7038
 21
1670.6546
  0
LINE
  8
0_00
  6
CONTINUOUS
 62
4
 10
557.7038
 20
1670.6546
 11
558.2159
 21
1670.5807
  0
LINE
  8
0_00
  6
CONTINUOUS
 62
4
 10
558.2159
 20
1670.5807
 11
558.7259
 21
1670.5106
  0
LINE
  8
0_00
  6
CONTINUOUS
 62
4
 10
558.7259
 20
1670.5106
 11
559.2334
 21
1670.4440
  0
LINE
  8
0_00
  6
CONTINUOUS
 62
4
 10
559.2334
 20
1670.4440
 11
559.7376
 21
1670.3822
  0
LINE
  8
0_00
  6
CONTINUOUS
 62
4
 10
559.7376
 20
1670.3822
 11
560.2384
 21
1670.3255
  0
LINE
  8
0_00
  6
CONTINUOUS
 62
4
 10
560.2384
 20
1670.3255
 11
560.7348
 21
1670.2745
  0
LINE
  8
0_00
  6
CONTINUOUS
 62
4
 10
560.7348
 20
1670.2745
 11
561.2268
 21
1670.2298
  0
LINE
  8
0_00
  6
CONTINUOUS
 62
4
 10
561.2268
 20
1670.2298
 11
561.7134
 21
1670.1923
  0
LINE
  8
0_00
  6
CONTINUOUS
 62
4
 10
561.7134
 20
1670.1923
 11
562.1945
 21
1670.1622
  0
LINE
  8
0_00
  6
CONTINUOUS
 62
4
 10
562.1945
 20
1670.1622
 11
562.6696
 21
1670.1399
  0
LINE
  8
0_00
  6
CONTINUOUS
 62
4
 10
562.6696
 20
1670.1399
 11
563.1388
 21
1670.1254
  0
LINE
  8
0_00
  6
CONTINUOUS
 62
4
 10
563.1388
 20
1670.1254
 11
563.6020
 21
1670.1178
  0
LINE
  8
0_00
  6
CONTINUOUS
 62
4
 10
563.6020
 20
1670.1178
 11
564.0597
 21
1670.1164
  0
LINE
  8
0_00
  6
CONTINUOUS
 62
4
 10
564.0597
 20
1670.1164
 11
564.5121
 21
1670.1207
  0
LINE
  8
0_00
  6
CONTINUOUS
 62
4
 10
564.5121
 20
1670.1207
 11
564.9591
 21
1670.1300
  0
LINE
  8
0_00
  6
CONTINUOUS
 62
4
 10
564.9591
 20
1670.1300
 11
565.4012
 21
1670.1433
  0
LINE
  8
0_00
  6
CONTINUOUS
 62
4
 10
565.4012
 20
1670.1433
 11
565.8385
 21
1670.1605
  0
LINE
  8
0_00
  6
CONTINUOUS
 62
4
 10
565.8385
 20
1670.1605
 11
566.2710
 21
1670.1808
  0
LINE
  8
0_00
  6
CONTINUOUS
 62
4
 10
566.2710
 20
1670.1808
 11
566.6992
 21
1670.2034
  0
LINE
  8
0_00
  6
CONTINUOUS
 62
4
 10
566.6992
 20
1670.2034
 11
567.1230
 21
1670.2277
  0
LINE
  8
0_00
  6
CONTINUOUS
 62
4
 10
567.1230
 20
1670.2277
 11
567.5428
 21
1670.2531
  0
LINE
  8
0_00
  6
CONTINUOUS
 62
4
 10
567.5428
 20
1670.2531
 11
567.9587
 21
1670.2791
  0
LINE
  8
0_00
  6
CONTINUOUS
 62
4
 10
567.9587
 20
1670.2791
 11
568.3709
 21
1670.3047
  0
LINE
  8
0_00
  6
CONTINUOUS
 62
4
 10
568.3709
 20
1670.3047
 11
568.7795
 21
1670.3296
  0
LINE
  8
0_00
  6
CONTINUOUS
 62
4
 10
568.7795
 20
1670.3296
 11
569.1849
 21
1670.3529
  0
LINE
  8
0_00
  6
CONTINUOUS
 62
4
 10
569.1849
 20
1670.3529
 11
569.5871
 21
1670.3741
  0
LINE
  8
0_00
  6
CONTINUOUS
 62
4
 10
569.5871
 20
1670.3741
 11
569.9864
 21
1670.3926
  0
LINE
  8
0_00
  6
CONTINUOUS
 62
4
 10
569.9864
 20
1670.3926
 11
570.3830
 21
1670.4076
  0
LINE
  8
0_00
  6
CONTINUOUS
 62
4
 10
570.3830
 20
1670.4076
 11
570.7769
 21
1670.4185
  0
LINE
  8
0_00
  6
CONTINUOUS
 62
4
 10
570.7769
 20
1670.4185
 11
571.1686
 21
1670.4248
  0
LINE
  8
0_00
  6
CONTINUOUS
 62
4
 10
571.1686
 20
1670.4248
 11
571.5580
 21
1670.4257
  0
LINE
  8
0_00
  6
CONTINUOUS
 62
4
 10
571.5580
 20
1670.4257
 11
571.9453
 21
1670.4205
  0
LINE
  8
0_00
  6
CONTINUOUS
 62
4
 10
571.9453
 20
1670.4205
 11
572.3309
 21
1670.4086
  0
LINE
  8
0_00
  6
CONTINUOUS
 62
4
 10
572.3309
 20
1670.4086
 11
572.7148
 21
1670.3897
  0
LINE
  8
0_00
  6
CONTINUOUS
 62
4
 10
572.7148
 20
1670.3897
 11
573.0973
 21
1670.3625
  0
LINE
  8
0_00
  6
CONTINUOUS
 62
4
 10
573.0973
 20
1670.3625
 11
573.4786
 21
1670.3270
  0
LINE
  8
0_00
  6
CONTINUOUS
 62
4
 10
573.4786
 20
1670.3270
 11
573.8588
 21
1670.2821
  0
LINE
  8
0_00
  6
CONTINUOUS
 62
4
 10
573.8588
 20
1670.2821
 11
574.2382
 21
1670.2274
  0
LINE
  8
0_00
  6
CONTINUOUS
 62
4
 10
574.2382
 20
1670.2274
 11
574.6169
 21
1670.1622
  0
LINE
  8
0_00
  6
CONTINUOUS
 62
4
 10
574.6169
 20
1670.1622
 11
574.9951
 21
1670.0858
  0
LINE
  8
0_00
  6
CONTINUOUS
 62
4
 10
574.9951
 20
1670.0858
 11
575.3727
 21
1669.9992
  0
LINE
  8
0_00
  6
CONTINUOUS
 62
4
 10
575.3727
 20
1669.9992
 11
575.7499
 21
1669.9031
  0
LINE
  8
0_00
  6
CONTINUOUS
 62
4
 10
575.7499
 20
1669.9031
 11
576.1264
 21
1669.7986
  0
LINE
  8
0_00
  6
CONTINUOUS
 62
4
 10
576.1264
 20
1669.7986
 11
576.5026
 21
1669.6858
  0
LINE
  8
0_00
  6
CONTINUOUS
 62
4
 10
576.5026
 20
1669.6858
 11
576.8779
 21
1669.5660
  0
LINE
  8
0_00
  6
CONTINUOUS
 62
4
 10
576.8779
 20
1669.5660
 11
577.2528
 21
1669.4402
  0
LINE
  8
0_00
  6
CONTINUOUS
 62
4
 10
577.2528
 20
1669.4402
 11
577.6269
 21
1669.3088
  0
LINE
  8
0_00
  6
CONTINUOUS
 62
4
 10
577.6269
 20
1669.3088
 11
578.0004
 21
1669.1727
  0
LINE
  8
0_00
  6
CONTINUOUS
 62
4
 10
578.0004
 20
1669.1727
 11
578.3734
 21
1669.0329
  0
LINE
  8
0_00
  6
CONTINUOUS
 62
4
 10
578.3734
 20
1669.0329
 11
578.7456
 21
1668.8902
  0
LINE
  8
0_00
  6
CONTINUOUS
 62
4
 10
578.7456
 20
1668.8902
 11
579.1170
 21
1668.7456
  0
LINE
  8
0_00
  6
CONTINUOUS
 62
4
 10
579.1170
 20
1668.7456
 11
579.4877
 21
1668.5994
  0
LINE
  8
0_00
  6
CONTINUOUS
 62
4
 10
579.4877
 20
1668.5994
 11
579.8578
 21
1668.4528
  0
LINE
  8
0_00
  6
CONTINUOUS
 62
4
 10
579.8578
 20
1668.4528
 11
580.2269
 21
1668.3064
  0
LINE
  8
0_00
  6
CONTINUOUS
 62
4
 10
580.2269
 20
1668.3064
 11
580.5955
 21
1668.1613
  0
LINE
  8
0_00
  6
CONTINUOUS
 62
4
 10
580.5955
 20
1668.1613
 11
580.9630
 21
1668.0182
  0
LINE
  8
0_00
  6
CONTINUOUS
 62
4
 10
580.9630
 20
1668.0182
 11
581.3298
 21
1667.8780
  0
LINE
  8
0_00
  6
CONTINUOUS
 62
4
 10
581.3298
 20
1667.8780
 11
581.6957
 21
1667.7412
  0
LINE
  8
0_00
  6
CONTINUOUS
 62
4
 10
581.6957
 20
1667.7412
 11
582.0607
 21
1667.6088
  0
LINE
  8
0_00
  6
CONTINUOUS
 62
4
 10
582.0607
 20
1667.6088
 11
582.4249
 21
1667.4818
  0
LINE
  8
0_00
  6
CONTINUOUS
 62
4
 10
582.4249
 20
1667.4818
 11
582.7882
 21
1667.3608
  0
LINE
  8
0_00
  6
CONTINUOUS
 62
4
 10
582.7882
 20
1667.3608
 11
583.1506
 21
1667.2469
  0
LINE
  8
0_00
  6
CONTINUOUS
 62
4
 10
583.1506
 20
1667.2469
 11
583.5119
 21
1667.1407
  0
LINE
  8
0_00
  6
CONTINUOUS
 62
4
 10
583.5119
 20
1667.1407
 11
583.8723
 21
1667.0428
  0
LINE
  8
0_00
  6
CONTINUOUS
 62
4
 10
583.8723
 20
1667.0428
 11
584.2318
 21
1666.9545
  0
LINE
  8
0_00
  6
CONTINUOUS
 62
4
 10
584.2318
 20
1666.9545
 11
584.5902
 21
1666.8764
  0
LINE
  8
0_00
  6
CONTINUOUS
 62
4
 10
584.5902
 20
1666.8764
 11
584.9475
 21
1666.8094
  0
LINE
  8
0_00
  6
CONTINUOUS
 62
4
 10
584.9475
 20
1666.8094
 11
585.3038
 21
1666.7540
  0
LINE
  8
0_00
  6
CONTINUOUS
 62
4
 10
585.3038
 20
1666.7540
 11
585.6590
 21
1666.7114
  0
LINE
  8
0_00
  6
CONTINUOUS
 62
4
 10
585.6590
 20
1666.7114
 11
586.0131
 21
1666.6820
  0
LINE
  8
0_00
  6
CONTINUOUS
 62
4
 10
586.0131
 20
1666.6820
 11
586.3659
 21
1666.6656
  0
LINE
  8
0_00
  6
CONTINUOUS
 62
4
 10
586.3659
 20
1666.6656
 11
586.7170
 21
1666.6615
  0
LINE
  8
0_00
  6
CONTINUOUS
 62
4
 10
586.7170
 20
1666.6615
 11
587.0663
 21
1666.6693
  0
LINE
  8
0_00
  6
CONTINUOUS
 62
4
 10
587.0663
 20
1666.6693
 11
587.4134
 21
1666.6882
  0
LINE
  8
0_00
  6
CONTINUOUS
 62
4
 10
587.4134
 20
1666.6882
 11
587.7581
 21
1666.7177
  0
LINE
  8
0_00
  6
CONTINUOUS
 62
4
 10
587.7581
 20
1666.7177
 11
588.1002
 21
1666.7572
  0
LINE
  8
0_00
  6
CONTINUOUS
 62
4
 10
588.1002
 20
1666.7572
 11
588.4393
 21
1666.8063
  0
LINE
  8
0_00
  6
CONTINUOUS
 62
4
 10
588.4393
 20
1666.8063
 11
588.7753
 21
1666.8642
  0
LINE
  8
0_00
  6
CONTINUOUS
 62
4
 10
588.7753
 20
1666.8642
 11
589.1077
 21
1666.9305
  0
LINE
  8
0_00
  6
CONTINUOUS
 62
4
 10
589.1077
 20
1666.9305
 11
589.4365
 21
1667.0045
  0
LINE
  8
0_00
  6
CONTINUOUS
 62
4
 10
589.4365
 20
1667.0045
 11
589.7613
 21
1667.0859
  0
LINE
  8
0_00
  6
CONTINUOUS
 62
4
 10
589.7613
 20
1667.0859
 11
590.0819
 21
1667.1736
  0
LINE
  8
0_00
  6
CONTINUOUS
 62
4
 10
590.0819
 20
1667.1736
 11
590.3979
 21
1667.2678
  0
LINE
  8
0_00
  6
CONTINUOUS
 62
4
 10
590.3979
 20
1667.2678
 11
590.7093
 21
1667.3671
  0
LINE
  8
0_00
  6
CONTINUOUS
 62
4
 10
590.7093
 20
1667.3671
 11
591.0156
 21
1667.4715
  0
LINE
  8
0_00
  6
CONTINUOUS
 62
4
 10
591.0156
 20
1667.4715
 11
591.3166
 21
1667.5801
  0
LINE
  8
0_00
  6
CONTINUOUS
 62
4
 10
591.3166
 20
1667.5801
 11
591.6122
 21
1667.6926
  0
LINE
  8
0_00
  6
CONTINUOUS
 62
4
 10
591.6122
 20
1667.6926
 11
591.9019
 21
1667.8081
  0
LINE
  8
0_00
  6
CONTINUOUS
 62
4
 10
591.9019
 20
1667.8081
 11
592.1854
 21
1667.9263
  0
LINE
  8
0_00
  6
CONTINUOUS
 62
4
 10
592.1854
 20
1667.9263
 11
592.4627
 21
1668.0466
  0
LINE
  8
0_00
  6
CONTINUOUS
 62
4
 10
592.4627
 20
1668.0466
 11
592.7335
 21
1668.1683
  0
LINE
  8
0_00
  6
CONTINUOUS
 62
4
 10
592.7335
 20
1668.1683
 11
592.9972
 21
1668.2910
  0
LINE
  8
0_00
  6
CONTINUOUS
 62
4
 10
592.9972
 20
1668.2910
 11
593.2541
 21
1668.4142
  0
LINE
  8
0_00
  6
CONTINUOUS
 62
4
 10
593.2541
 20
1668.4142
 11
593.5035
 21
1668.5368
  0
LINE
  8
0_00
  6
CONTINUOUS
 62
4
 10
593.5035
 20
1668.5368
 11
593.7452
 21
1668.6588
  0
LINE
  8
0_00
  6
CONTINUOUS
 62
4
 10
593.7452
 20
1668.6588
 11
593.9791
 21
1668.7793
  0
LINE
  8
0_00
  6
CONTINUOUS
 62
4
 10
593.9791
 20
1668.7793
 11
594.2048
 21
1668.8979
  0
LINE
  8
0_00
  6
CONTINUOUS
 62
4
 10
594.2048
 20
1668.8979
 11
594.4221
 21
1669.0138
  0
LINE
  8
0_00
  6
CONTINUOUS
 62
4
 10
594.4221
 20
1669.0138
 11
594.6307
 21
1669.1269
  0
LINE
  8
0_00
  6
CONTINUOUS
 62
4
 10
594.6307
 20
1669.1269
 11
594.8306
 21
1669.2361
  0
LINE
  8
0_00
  6
CONTINUOUS
 62
4
 10
594.8306
 20
1669.2361
 11
595.0217
 21
1669.3422
  0
LINE
  8
0_00
  6
CONTINUOUS
 62
4
 10
595.0217
 20
1669.3422
 11
595.2044
 21
1669.4446
  0
LINE
  8
0_00
  6
CONTINUOUS
 62
4
 10
595.2044
 20
1669.4446
 11
595.3791
 21
1669.5436
  0
LINE
  8
0_00
  6
CONTINUOUS
 62
4
 10
595.3791
 20
1669.5436
 11
595.5461
 21
1669.6396
  0
LINE
  8
0_00
  6
CONTINUOUS
 62
4
 10
595.5461
 20
1669.6396
 11
595.7057
 21
1669.7325
  0
LINE
  8
0_00
  6
CONTINUOUS
 62
4
 10
595.7057
 20
1669.7325
 11
595.8581
 21
1669.8224
  0
LINE
  8
0_00
  6
CONTINUOUS
 62
4
 10
595.8581
 20
1669.8224
 11
596.0036
 21
1669.9095
  0
LINE
  8
0_00
  6
CONTINUOUS
 62
4
 10
596.0036
 20
1669.9095
 11
596.1427
 21
1669.9939
  0
LINE
  8
0_00
  6
CONTINUOUS
 62
4
 10
596.1427
 20
1669.9939
 11
596.2753
 21
1670.0758
  0
LINE
  8
0_00
  6
CONTINUOUS
 62
4
 10
596.2753
 20
1670.0758
 11
596.4020
 21
1670.1552
  0
LINE
  8
0_00
  6
CONTINUOUS
 62
4
 10
596.4020
 20
1670.1552
 11
596.5232
 21
1670.2321
  0
LINE
  8
0_00
  6
CONTINUOUS
 62
4
 10
596.5232
 20
1670.2321
 11
596.6389
 21
1670.3070
  0
LINE
  8
0_00
  6
CONTINUOUS
 62
4
 10
596.6389
 20
1670.3070
 11
596.7496
 21
1670.3799
  0
LINE
  8
0_00
  6
CONTINUOUS
 62
4
 10
596.7496
 20
1670.3799
 11
596.8555
 21
1670.4507
  0
LINE
  8
0_00
  6
CONTINUOUS
 62
4
 10
596.8555
 20
1670.4507
 11
596.9569
 21
1670.5197
  0
LINE
  8
0_00
  6
CONTINUOUS
 62
4
 10
596.9569
 20
1670.5197
 11
597.0542
 21
1670.5870
  0
LINE
  8
0_00
  6
CONTINUOUS
 62
4
 10
597.0542
 20
1670.5870
 11
597.1476
 21
1670.6526
  0
LINE
  8
0_00
  6
CONTINUOUS
 62
4
 10
597.1476
 20
1670.6526
 11
597.2374
 21
1670.7167
  0
LINE
  8
0_00
  6
CONTINUOUS
 62
4
 10
597.2374
 20
1670.7167
 11
597.3240
 21
1670.7797
  0
LINE
  8
0_00
  6
CONTINUOUS
 62
4
 10
597.3240
 20
1670.7797
 11
597.4075
 21
1670.8414
  0
LINE
  8
0_00
  6
CONTINUOUS
 62
4
 10
597.4075
 20
1670.8414
 11
597.4884
 21
1670.9018
  0
LINE
  8
0_00
  6
CONTINUOUS
 62
4
 10
597.4884
 20
1670.9018
 11
597.5669
 21
1670.9615
  0
LINE
  8
0_00
  6
CONTINUOUS
 62
4
 10
597.5669
 20
1670.9615
 11
597.6432
 21
1671.0201
  0
LINE
  8
0_00
  6
CONTINUOUS
 62
4
 10
597.6432
 20
1671.0201
 11
597.7179
 21
1671.0782
  0
LINE
  8
0_00
  6
CONTINUOUS
 62
4
 10
597.7179
 20
1671.0782
 11
597.7910
 21
1671.1354
  0
LINE
  8
0_00
  6
CONTINUOUS
 62
4
 10
597.7910
 20
1671.1354
 11
597.8629
 21
1671.1923
  0
LINE
  8
0_00
  6
CONTINUOUS
 62
4
 10
597.8629
 20
1671.1923
 11
597.9339
 21
1671.2488
  0
LINE
  8
0_00
  6
CONTINUOUS
 62
4
 10
597.9339
 20
1671.2488
 11
598.0043
 21
1671.3051
  0
LINE
  8
0_00
  6
CONTINUOUS
 62
4
 10
598.0043
 20
1671.3051
 11
598.0745
 21
1671.3612
  0
LINE
  8
0_00
  6
CONTINUOUS
 62
6
 10
683.4763
 20
2170.9685
 11
725.4117
 21
2243.6026
  0
LINE
  8
0_00
  6
CONTINUOUS
 62
6
 10
683.4763
 20
2170.9685
 11
700.2045
 21
2189.5470
  0
LINE
  8
0_00
  6
CONTINUOUS
 62
6
 10
683.4763
 20
2170.9685
 11
691.2017
 21
2194.7447
  0
LINE
  8
0_00
  6
CONTINUOUS
 62
6
 10
725.4117
 20
2243.6026
 11
971.4117
 21
2243.6026
  0
LINE
  8
0_00
  6
CONTINUOUS
 62
6
 10
560.9247
 20
2166.9800
 11
524.2884
 21
2230.4355
  0
LINE
  8
0_00
  6
CONTINUOUS
 62
6
 10
560.9247
 20
2166.9800
 11
553.1992
 21
2190.7562
  0
LINE
  8
0_00
  6
CONTINUOUS
 62
6
 10
560.9247
 20
2166.9800
 11
544.1964
 21
2185.5585
  0
LINE
  8
0_00
  6
CONTINUOUS
 62
6
 10
524.2884
 20
2230.4355
 11
180.2562
 21
2230.4355
  0
LINE
  8
0_00
  6
PHANTOM1
 62
6
 10
1197.0319
 20
2642.9883
 11
1197.0319
 21
2637.3184
  0
LINE
  8
0_00
  6
PHANTOM1
 62
6
 10
1218.5319
 20
2642.9883
 11
1218.5319
 21
2635.9619
  0
LINE
  8
0_00
  6
PHANTOM1
 62
6
 10
1254.5319
 20
2588.9883
 11
1254.5319
 21
2594.8746
  0
LINE
  8
0_00
  6
PHANTOM1
 62
6
 10
1231.0319
 20
2588.9883
 11
1231.0319
 21
2590.5597
  0
LINE
  8
0_00
  6
PHANTOM1
 62
6
 10
1230.9293
 20
2591.5680
 11
1254.5319
 21
2591.5680
  0
LINE
  8
0_00
  6
CENTER1
 62
6
 10
2054.6738
 20
2082.4684
 11
638.0745
 21
2082.4684
  0
LINE
  8
0_00
  6
CENTER1
 62
6
 10
638.0745
 20
2082.4684
 11
638.0745
 21
1639.6693
  0
LINE
  8
0_00
  6
CONTINUOUS
 62
2
 10
886.7986
 20
2098.0583
 11
887.6675
 21
2097.2195
  0
LINE
  8
0_00
  6
CONTINUOUS
 62
2
 10
887.6675
 20
2097.2195
 11
888.0745
 21
2097.0712
  0
LINE
  8
0_00
  6
CONTINUOUS
 62
2
 10
888.0745
 20
2097.0712
 11
888.4595
 21
2097.2113
  0
LINE
  8
0_00
  6
CONTINUOUS
 62
2
 10
888.4595
 20
2097.2113
 11
889.3559
 21
2098.0556
  0
LINE
  8
0_00
  6
CONTINUOUS
 62
2
 10
885.9847
 20
2097.2443
 11
886.8233
 21
2096.3754
  0
LINE
  8
0_00
  6
CONTINUOUS
 62
2
 10
886.8233
 20
2096.3754
 11
886.9718
 21
2095.9685
  0
LINE
  8
0_00
  6
CONTINUOUS
 62
2
 10
886.9718
 20
2095.9685
 11
886.8316
 21
2095.5835
  0
LINE
  8
0_00
  6
CONTINUOUS
 62
2
 10
886.8316
 20
2095.5835
 11
885.9873
 21
2094.6869
  0
LINE
  8
0_00
  6
CONTINUOUS
 62
2
 10
890.1644
 20
2094.6924
 11
889.3257
 21
2095.5614
  0
LINE
  8
0_00
  6
CONTINUOUS
 62
2
 10
889.3257
 20
2095.5614
 11
889.1772
 21
2095.9685
  0
LINE
  8
0_00
  6
CONTINUOUS
 62
2
 10
889.1772
 20
2095.9685
 11
889.3175
 21
2096.3535
  0
LINE
  8
0_00
  6
CONTINUOUS
 62
2
 10
889.3175
 20
2096.3535
 11
890.1617
 21
2097.2499
  0
LINE
  8
0_00
  6
CONTINUOUS
 62
2
 10
889.3504
 20
2093.8786
 11
888.4815
 21
2094.7171
  0
LINE
  8
0_00
  6
CONTINUOUS
 62
2
 10
888.4815
 20
2094.7171
 11
888.0745
 21
2094.8656
  0
LINE
  8
0_00
  6
CONTINUOUS
 62
2
 10
888.0745
 20
2094.8656
 11
887.6896
 21
2094.7255
  0
LINE
  8
0_00
  6
CONTINUOUS
 62
2
 10
887.6896
 20
2094.7255
 11
886.7930
 21
2093.8812
  0
LINE
  8
0_00
  6
CONTINUOUS
 62
2
 10
886.7986
 20
2071.0582
 11
887.6675
 21
2070.2196
  0
LINE
  8
0_00
  6
CONTINUOUS
 62
2
 10
887.6675
 20
2070.2196
 11
888.0745
 21
2070.0711
  0
LINE
  8
0_00
  6
CONTINUOUS
 62
2
 10
888.0745
 20
2070.0711
 11
888.4595
 21
2070.2113
  0
LINE
  8
0_00
  6
CONTINUOUS
 62
2
 10
888.4595
 20
2070.2113
 11
889.3559
 21
2071.0556
  0
LINE
  8
0_00
  6
CONTINUOUS
 62
2
 10
885.9847
 20
2070.2443
 11
886.8233
 21
2069.3753
  0
LINE
  8
0_00
  6
CONTINUOUS
 62
2
 10
886.8233
 20
2069.3753
 11
886.9718
 21
2068.9685
  0
LINE
  8
0_00
  6
CONTINUOUS
 62
2
 10
886.9718
 20
2068.9685
 11
886.8316
 21
2068.5834
  0
LINE
  8
0_00
  6
CONTINUOUS
 62
2
 10
886.8316
 20
2068.5834
 11
885.9873
 21
2067.6869
  0
LINE
  8
0_00
  6
CONTINUOUS
 62
2
 10
890.1644
 20
2067.6926
 11
889.3257
 21
2068.5614
  0
LINE
  8
0_00
  6
CONTINUOUS
 62
2
 10
889.3257
 20
2068.5614
 11
889.1772
 21
2068.9685
  0
LINE
  8
0_00
  6
CONTINUOUS
 62
2
 10
889.1772
 20
2068.9685
 11
889.3175
 21
2069.3535
  0
LINE
  8
0_00
  6
CONTINUOUS
 62
2
 10
889.3175
 20
2069.3535
 11
890.1617
 21
2070.2499
  0
LINE
  8
0_00
  6
CONTINUOUS
 62
2
 10
889.3504
 20
2066.8785
 11
888.4815
 21
2067.7171
  0
LINE
  8
0_00
  6
CONTINUOUS
 62
2
 10
888.4815
 20
2067.7171
 11
888.0745
 21
2067.8656
  0
LINE
  8
0_00
  6
CONTINUOUS
 62
2
 10
888.0745
 20
2067.8656
 11
887.6896
 21
2067.7254
  0
LINE
  8
0_00
  6
CONTINUOUS
 62
2
 10
887.6896
 20
2067.7254
 11
886.7930
 21
2066.8813
  0
LINE
  8
0_00
  6
CONTINUOUS
 62
4
 10
874.0746
 20
2061.4684
 11
874.0746
 21
2122.4683
  0
LINE
  8
0_00
  6
CONTINUOUS
 62
4
 10
879.0746
 20
2058.9684
 11
879.0746
 21
2122.4683
  0
LINE
  8
0_00
  6
CONTINUOUS
 62
4
 10
879.0746
 20
2058.9684
 11
874.5746
 21
2058.9684
  0
LINE
  8
0_00
  6
CONTINUOUS
 62
4
 10
872.0746
 20
2061.4684
 11
872.0746
 21
2103.4683
  0
LINE
  8
0_00
  6
CONTINUOUS
 62
4
 10
897.0745
 20
2058.9684
 11
879.0746
 21
2058.9684
  0
LINE
  8
0_00
  6
CONTINUOUS
 62
4
 10
902.0745
 20
2061.4684
 11
902.0745
 21
2122.4683
  0
LINE
  8
0_00
  6
CONTINUOUS
 62
4
 10
897.0745
 20
2058.9684
 11
897.0745
 21
2122.4683
  0
LINE
  8
0_00
  6
CONTINUOUS
 62
4
 10
901.5745
 20
2058.9684
 11
897.0745
 21
2058.9684
  0
LINE
  8
0_00
  6
CONTINUOUS
 62
4
 10
904.0746
 20
2061.4684
 11
904.0746
 21
2103.4683
  0
LINE
  8
0_00
  6
CONTINUOUS
 62
4
 10
897.0745
 20
2105.9685
 11
879.0746
 21
2105.9685
  0
LINE
  8
0_00
  6
CONTINUOUS
 62
2
 10
1786.7984
 20
2098.0583
 11
1787.6674
 21
2097.2195
  0
LINE
  8
0_00
  6
CONTINUOUS
 62
2
 10
1787.6674
 20
2097.2195
 11
1788.0745
 21
2097.0712
  0
LINE
  8
0_00
  6
CONTINUOUS
 62
2
 10
1788.0745
 20
2097.0712
 11
1788.4595
 21
2097.2113
  0
LINE
  8
0_00
  6
CONTINUOUS
 62
2
 10
1788.4595
 20
2097.2113
 11
1789.3559
 21
2098.0556
  0
LINE
  8
0_00
  6
CONTINUOUS
 62
2
 10
1785.9845
 20
2097.2443
 11
1786.8233
 21
2096.3754
  0
LINE
  8
0_00
  6
CONTINUOUS
 62
2
 10
1786.8233
 20
2096.3754
 11
1786.9717
 21
2095.9685
  0
LINE
  8
0_00
  6
CONTINUOUS
 62
2
 10
1786.9717
 20
2095.9685
 11
1786.8317
 21
2095.5835
  0
LINE
  8
0_00
  6
CONTINUOUS
 62
2
 10
1786.8317
 20
2095.5835
 11
1785.9874
 21
2094.6869
  0
LINE
  8
0_00
  6
CONTINUOUS
 62
2
 10
1790.1643
 20
2094.6924
 11
1789.3256
 21
2095.5614
  0
LINE
  8
0_00
  6
CONTINUOUS
 62
2
 10
1789.3256
 20
2095.5614
 11
1789.1771
 21
2095.9685
  0
LINE
  8
0_00
  6
CONTINUOUS
 62
2
 10
1789.1771
 20
2095.9685
 11
1789.3173
 21
2096.3535
  0
LINE
  8
0_00
  6
CONTINUOUS
 62
2
 10
1789.3173
 20
2096.3535
 11
1790.1616
 21
2097.2499
  0
LINE
  8
0_00
  6
CONTINUOUS
 62
2
 10
1789.3503
 20
2093.8786
 11
1788.4814
 21
2094.7171
  0
LINE
  8
0_00
  6
CONTINUOUS
 62
2
 10
1788.4814
 20
2094.7171
 11
1788.0745
 21
2094.8656
  0
LINE
  8
0_00
  6
CONTINUOUS
 62
2
 10
1788.0745
 20
2094.8656
 11
1787.6895
 21
2094.7255
  0
LINE
  8
0_00
  6
CONTINUOUS
 62
2
 10
1787.6895
 20
2094.7255
 11
1786.7931
 21
2093.8812
  0
LINE
  8
0_00
  6
CONTINUOUS
 62
2
 10
1786.7984
 20
2071.0582
 11
1787.6674
 21
2070.2196
  0
LINE
  8
0_00
  6
CONTINUOUS
 62
2
 10
1787.6674
 20
2070.2196
 11
1788.0745
 21
2070.0711
  0
LINE
  8
0_00
  6
CONTINUOUS
 62
2
 10
1788.0745
 20
2070.0711
 11
1788.4595
 21
2070.2113
  0
LINE
  8
0_00
  6
CONTINUOUS
 62
2
 10
1788.4595
 20
2070.2113
 11
1789.3559
 21
2071.0556
  0
LINE
  8
0_00
  6
CONTINUOUS
 62
2
 10
1785.9845
 20
2070.2443
 11
1786.8233
 21
2069.3753
  0
LINE
  8
0_00
  6
CONTINUOUS
 62
2
 10
1786.8233
 20
2069.3753
 11
1786.9717
 21
2068.9685
  0
LINE
  8
0_00
  6
CONTINUOUS
 62
2
 10
1786.9717
 20
2068.9685
 11
1786.8317
 21
2068.5834
  0
LINE
  8
0_00
  6
CONTINUOUS
 62
2
 10
1786.8317
 20
2068.5834
 11
1785.9874
 21
2067.6869
  0
LINE
  8
0_00
  6
CONTINUOUS
 62
2
 10
1790.1643
 20
2067.6926
 11
1789.3256
 21
2068.5614
  0
LINE
  8
0_00
  6
CONTINUOUS
 62
2
 10
1789.3256
 20
2068.5614
 11
1789.1771
 21
2068.9685
  0
LINE
  8
0_00
  6
CONTINUOUS
 62
2
 10
1789.1771
 20
2068.9685
 11
1789.3173
 21
2069.3535
  0
LINE
  8
0_00
  6
CONTINUOUS
 62
2
 10
1789.3173
 20
2069.3535
 11
1790.1616
 21
2070.2499
  0
LINE
  8
0_00
  6
CONTINUOUS
 62
2
 10
1789.3503
 20
2066.8785
 11
1788.4814
 21
2067.7171
  0
LINE
  8
0_00
  6
CONTINUOUS
 62
2
 10
1788.4814
 20
2067.7171
 11
1788.0745
 21
2067.8656
  0
LINE
  8
0_00
  6
CONTINUOUS
 62
2
 10
1788.0745
 20
2067.8656
 11
1787.6895
 21
2067.7254
  0
LINE
  8
0_00
  6
CONTINUOUS
 62
2
 10
1787.6895
 20
2067.7254
 11
1786.7931
 21
2066.8813
  0
LINE
  8
0_00
  6
CONTINUOUS
 62
4
 10
1774.0746
 20
2061.4684
 11
1774.0746
 21
2122.4683
  0
LINE
  8
0_00
  6
CONTINUOUS
 62
4
 10
1779.0746
 20
2058.9684
 11
1779.0746
 21
2122.4683
  0
LINE
  8
0_00
  6
CONTINUOUS
 62
4
 10
1779.0746
 20
2058.9684
 11
1774.5744
 21
2058.9684
  0
LINE
  8
0_00
  6
CONTINUOUS
 62
4
 10
1772.0744
 20
2061.4684
 11
1772.0744
 21
2103.4683
  0
LINE
  8
0_00
  6
CONTINUOUS
 62
4
 10
1797.0744
 20
2058.9684
 11
1779.0746
 21
2058.9684
  0
LINE
  8
0_00
  6
CONTINUOUS
 62
4
 10
1802.0746
 20
2061.4684
 11
1802.0746
 21
2122.4683
  0
LINE
  8
0_00
  6
CONTINUOUS
 62
4
 10
1797.0744
 20
2058.9684
 11
1797.0744
 21
2122.4683
  0
LINE
  8
0_00
  6
CONTINUOUS
 62
4
 10
1801.5744
 20
2058.9684
 11
1797.0744
 21
2058.9684
  0
LINE
  8
0_00
  6
CONTINUOUS
 62
4
 10
1804.0744
 20
2061.4684
 11
1804.0744
 21
2103.4683
  0
LINE
  8
0_00
  6
CONTINUOUS
 62
4
 10
1797.0744
 20
2105.9685
 11
1779.0746
 21
2105.9685
  0
LINE
  8
0_00
  6
CONTINUOUS
 62
2
 10
622.4847
 20
1831.1923
 11
623.3233
 21
1832.0613
  0
LINE
  8
0_00
  6
CONTINUOUS
 62
2
 10
623.3233
 20
1832.0613
 11
623.4719
 21
1832.4684
  0
LINE
  8
0_00
  6
CONTINUOUS
 62
2
 10
623.4719
 20
1832.4684
 11
623.3316
 21
1832.8534
  0
LINE
  8
0_00
  6
CONTINUOUS
 62
2
 10
623.3316
 20
1832.8534
 11
622.4874
 21
1833.7498
  0
LINE
  8
0_00
  6
CONTINUOUS
 62
2
 10
623.2986
 20
1830.3786
 11
624.1676
 21
1831.2170
  0
LINE
  8
0_00
  6
CONTINUOUS
 62
2
 10
624.1676
 20
1831.2170
 11
624.5745
 21
1831.3655
  0
LINE
  8
0_00
  6
CONTINUOUS
 62
2
 10
624.5745
 20
1831.3655
 11
624.9596
 21
1831.2256
  0
LINE
  8
0_00
  6
CONTINUOUS
 62
2
 10
624.9596
 20
1831.2256
 11
625.8559
 21
1830.3813
  0
LINE
  8
0_00
  6
CONTINUOUS
 62
2
 10
625.8504
 20
1834.5583
 11
624.9815
 21
1833.7196
  0
LINE
  8
0_00
  6
CONTINUOUS
 62
2
 10
624.9815
 20
1833.7196
 11
624.5745
 21
1833.5710
  0
LINE
  8
0_00
  6
CONTINUOUS
 62
2
 10
624.5745
 20
1833.5710
 11
624.1895
 21
1833.7112
  0
LINE
  8
0_00
  6
CONTINUOUS
 62
2
 10
624.1895
 20
1833.7112
 11
623.2930
 21
1834.5555
  0
LINE
  8
0_00
  6
CONTINUOUS
 62
2
 10
626.6644
 20
1833.7442
 11
625.8258
 21
1832.8754
  0
LINE
  8
0_00
  6
CONTINUOUS
 62
2
 10
625.8258
 20
1832.8754
 11
625.6772
 21
1832.4684
  0
LINE
  8
0_00
  6
CONTINUOUS
 62
2
 10
625.6772
 20
1832.4684
 11
625.8175
 21
1832.0834
  0
LINE
  8
0_00
  6
CONTINUOUS
 62
2
 10
625.8175
 20
1832.0834
 11
626.6617
 21
1831.1870
  0
LINE
  8
0_00
  6
CONTINUOUS
 62
2
 10
649.4847
 20
1831.1923
 11
650.3233
 21
1832.0613
  0
LINE
  8
0_00
  6
CONTINUOUS
 62
2
 10
650.3233
 20
1832.0613
 11
650.4719
 21
1832.4684
  0
LINE
  8
0_00
  6
CONTINUOUS
 62
2
 10
650.4719
 20
1832.4684
 11
650.3316
 21
1832.8534
  0
LINE
  8
0_00
  6
CONTINUOUS
 62
2
 10
650.3316
 20
1832.8534
 11
649.4874
 21
1833.7498
  0
LINE
  8
0_00
  6
CONTINUOUS
 62
2
 10
650.2985
 20
1830.3786
 11
651.1676
 21
1831.2170
  0
LINE
  8
0_00
  6
CONTINUOUS
 62
2
 10
651.1676
 20
1831.2170
 11
651.5746
 21
1831.3655
  0
LINE
  8
0_00
  6
CONTINUOUS
 62
2
 10
651.5746
 20
1831.3655
 11
651.9596
 21
1831.2256
  0
LINE
  8
0_00
  6
CONTINUOUS
 62
2
 10
651.9596
 20
1831.2256
 11
652.8559
 21
1830.3813
  0
LINE
  8
0_00
  6
CONTINUOUS
 62
2
 10
652.8504
 20
1834.5583
 11
651.9815
 21
1833.7196
  0
LINE
  8
0_00
  6
CONTINUOUS
 62
2
 10
651.9815
 20
1833.7196
 11
651.5746
 21
1833.5710
  0
LINE
  8
0_00
  6
CONTINUOUS
 62
2
 10
651.5746
 20
1833.5710
 11
651.1896
 21
1833.7112
  0
LINE
  8
0_00
  6
CONTINUOUS
 62
2
 10
651.1896
 20
1833.7112
 11
650.2930
 21
1834.5555
  0
LINE
  8
0_00
  6
CONTINUOUS
 62
2
 10
653.6644
 20
1833.7442
 11
652.8257
 21
1832.8754
  0
LINE
  8
0_00
  6
CONTINUOUS
 62
2
 10
652.8257
 20
1832.8754
 11
652.6772
 21
1832.4684
  0
LINE
  8
0_00
  6
CONTINUOUS
 62
2
 10
652.6772
 20
1832.4684
 11
652.8175
 21
1832.0834
  0
LINE
  8
0_00
  6
CONTINUOUS
 62
2
 10
652.8175
 20
1832.0834
 11
653.6617
 21
1831.1870
  0
LINE
  8
0_00
  6
CONTINUOUS
 62
4
 10
659.0746
 20
1818.4683
 11
598.0745
 21
1818.4683
  0
LINE
  8
0_00
  6
CONTINUOUS
 62
4
 10
661.5746
 20
1823.4685
 11
598.0745
 21
1823.4685
  0
LINE
  8
0_00
  6
CONTINUOUS
 62
4
 10
661.5746
 20
1823.4685
 11
661.5746
 21
1818.9684
  0
LINE
  8
0_00
  6
CONTINUOUS
 62
4
 10
659.0746
 20
1816.4684
 11
617.0745
 21
1816.4684
  0
LINE
  8
0_00
  6
CONTINUOUS
 62
4
 10
661.5746
 20
1841.4684
 11
661.5746
 21
1823.4685
  0
LINE
  8
0_00
  6
CONTINUOUS
 62
4
 10
659.0746
 20
1846.4685
 11
598.0745
 21
1846.4685
  0
LINE
  8
0_00
  6
CONTINUOUS
 62
4
 10
661.5746
 20
1841.4684
 11
598.0745
 21
1841.4684
  0
LINE
  8
0_00
  6
CONTINUOUS
 62
4
 10
661.5746
 20
1845.9683
 11
661.5746
 21
1841.4684
  0
LINE
  8
0_00
  6
CONTINUOUS
 62
4
 10
659.0746
 20
1848.4683
 11
617.0745
 21
1848.4683
  0
LINE
  8
0_00
  6
CONTINUOUS
 62
4
 10
614.5746
 20
1841.4684
 11
614.5746
 21
1823.4685
  0
LINE
  8
0_00
  6
CONTINUOUS
 62
6
 10
660.7195
 20
1817.0857
 11
688.5384
 21
1768.9018
  0
LINE
  8
0_00
  6
CONTINUOUS
 62
6
 10
660.7195
 20
1817.0857
 11
668.4449
 21
1793.3093
  0
LINE
  8
0_00
  6
CONTINUOUS
 62
6
 10
660.7195
 20
1817.0857
 11
677.4477
 21
1798.5071
  0
LINE
  8
0_00
  6
CONTINUOUS
 62
6
 10
688.5384
 20
1768.9018
 11
878.5384
 21
1768.9018
  0
LINE
  8
0_00
  6
CENTER1
 62
6
 10
708.0746
 20
787.4684
 11
1917.2885
 21
787.4684
  0
LINE
  8
0_00
  6
CENTER1
 62
6
 10
708.0746
 20
787.4684
 11
708.0746
 21
414.6694
  0
LINE
  8
0_00
  6
CENTER1
 62
6
 10
688.0745
 20
972.6373
 11
688.0745
 21
757.8030
  0
LINE
  8
0_00
  6
CENTER1
 62
6
 10
888.0745
 20
972.6373
 11
888.0745
 21
734.1862
  0
LINE
  8
0_00
  6
CENTER1
 62
6
 10
1788.0745
 20
967.6847
 11
1788.0745
 21
736.8309
  0
LINE
  8
0_00
  6
CENTER1
 62
6
 10
522.9057
 20
607.4685
 11
761.3567
 21
607.4685
  0
LINE
  8
0_00
  6
CENTER1
 62
6
 10
1242.7820
 20
1399.0013
 11
1242.7820
 21
1317.1111
  0
LINE
  8
2_02
  6
CONTINUOUS
 62
4
 10
1293.0319
 20
1441.9879
 11
1278.1001
 21
1441.9879
  0
LINE
  8
2_02
  6
CONTINUOUS
 62
4
 10
1293.2820
 20
1418.1384
 11
1293.2820
 21
1441.7380
  0
LINE
  8
2_02
  6
CONTINUOUS
 62
4
 10
1262.5319
 20
1438.0000
 11
1262.5319
 21
1418.2384
  0
LINE
  8
2_02
  6
CONTINUOUS
 62
4
 10
1262.7819
 20
1417.9884
 11
1293.0319
 21
1417.9884
  0
LINE
  8
0_00
  6
CONTINUOUS
 62
4
 10
1293.2820
 20
1441.6383
 11
2000.1109
 21
1441.6383
  0
LINE
  8
0_00
  6
CONTINUOUS
 62
4
 10
1293.2820
 20
1418.1384
 11
2000.1109
 21
1418.1384
  0
LINE
  8
0_00
  6
CENTER1
 62
6
 10
1367.7818
 20
1456.7743
 11
1367.7818
 21
1317.1111
  0
LINE
  8
0_00
  6
CENTER1
 62
6
 10
1817.7818
 20
1456.7743
 11
1817.7818
 21
1317.1111
  0
LINE
  8
0_00
  6
CONTINUOUS
 62
4
 10
739.0744
 20
817.4685
 11
1893.5132
 21
817.4685
  0
LINE
  8
0_00
  6
CONTINUOUS
 62
4
 10
1893.5132
 20
757.4685
 11
739.0744
 21
757.4685
  0
LINE
  8
2_02
  6
CONTINUOUS
 62
4
 10
739.0744
 20
817.4685
 11
739.0744
 21
756.9685
  0
LINE
  8
2_02
  6
CONTINUOUS
 62
4
 10
739.0744
 20
756.9685
 11
738.5744
 21
756.4684
  0
LINE
  8
2_02
  6
CONTINUOUS
 62
4
 10
678.0746
 20
756.4684
 11
738.5744
 21
756.4684
  0
LINE
  8
2_02
  6
CONTINUOUS
 62
4
 10
677.5745
 20
811.4684
 11
677.5745
 21
756.9685
  0
LINE
  8
2_02
  6
CONTINUOUS
 62
4
 10
684.0746
 20
817.9684
 11
738.5744
 21
817.9684
  0
LINE
  8
0_00
  6
CONTINUOUS
 62
4
 10
738.0746
 20
446.3613
 11
738.0746
 21
756.4684
  0
LINE
  8
0_00
  6
CONTINUOUS
 62
4
 10
678.0746
 20
756.4684
 11
678.0746
 21
444.3272
  0
LINE
  8
0_00
  6
CONTINUOUS
 62
4
 10
678.0746
 20
444.3281
 11
678.5109
 21
444.5450
  0
LINE
  8
0_00
  6
CONTINUOUS
 62
4
 10
678.5109
 20
444.5450
 11
678.8155
 21
444.6939
  0
LINE
  8
0_00
  6
CONTINUOUS
 62
4
 10
678.8155
 20
444.6939
 11
679.1219
 21
444.8408
  0
LINE
  8
0_00
  6
CONTINUOUS
 62
4
 10
679.1219
 20
444.8408
 11
679.4304
 21
444.9853
  0
LINE
  8
0_00
  6
CONTINUOUS
 62
4
 10
679.4304
 20
444.9853
 11
679.7412
 21
445.1272
  0
LINE
  8
0_00
  6
CONTINUOUS
 62
4
 10
679.7412
 20
445.1272
 11
680.0548
 21
445.2660
  0
LINE
  8
0_00
  6
CONTINUOUS
 62
4
 10
680.0548
 20
445.2660
 11
680.3713
 21
445.4015
  0
LINE
  8
0_00
  6
CONTINUOUS
 62
4
 10
680.3713
 20
445.4015
 11
680.6911
 21
445.5332
  0
LINE
  8
0_00
  6
CONTINUOUS
 62
4
 10
680.6911
 20
445.5332
 11
681.0146
 21
445.6609
  0
LINE
  8
0_00
  6
CONTINUOUS
 62
4
 10
681.0146
 20
445.6609
 11
681.3420
 21
445.7841
  0
LINE
  8
0_00
  6
CONTINUOUS
 62
4
 10
681.3420
 20
445.7841
 11
681.6737
 21
445.9028
  0
LINE
  8
0_00
  6
CONTINUOUS
 62
4
 10
681.6737
 20
445.9028
 11
682.0097
 21
446.0163
  0
LINE
  8
0_00
  6
CONTINUOUS
 62
4
 10
682.0097
 20
446.0163
 11
682.3507
 21
446.1245
  0
LINE
  8
0_00
  6
CONTINUOUS
 62
4
 10
682.3507
 20
446.1245
 11
682.6966
 21
446.2270
  0
LINE
  8
0_00
  6
CONTINUOUS
 62
4
 10
682.6966
 20
446.2270
 11
683.0480
 21
446.3234
  0
LINE
  8
0_00
  6
CONTINUOUS
 62
4
 10
683.0480
 20
446.3234
 11
683.4052
 21
446.4134
  0
LINE
  8
0_00
  6
CONTINUOUS
 62
4
 10
683.4052
 20
446.4134
 11
683.7684
 21
446.4967
  0
LINE
  8
0_00
  6
CONTINUOUS
 62
4
 10
683.7684
 20
446.4967
 11
684.1377
 21
446.5729
  0
LINE
  8
0_00
  6
CONTINUOUS
 62
4
 10
684.1377
 20
446.5729
 11
684.5139
 21
446.6416
  0
LINE
  8
0_00
  6
CONTINUOUS
 62
4
 10
684.5139
 20
446.6416
 11
684.8969
 21
446.7027
  0
LINE
  8
0_00
  6
CONTINUOUS
 62
4
 10
684.8969
 20
446.7027
 11
685.2871
 21
446.7556
  0
LINE
  8
0_00
  6
CONTINUOUS
 62
4
 10
685.2871
 20
446.7556
 11
685.6847
 21
446.8001
  0
LINE
  8
0_00
  6
CONTINUOUS
 62
4
 10
685.6847
 20
446.8001
 11
686.0903
 21
446.8361
  0
LINE
  8
0_00
  6
CONTINUOUS
 62
4
 10
686.0903
 20
446.8361
 11
686.5040
 21
446.8626
  0
LINE
  8
0_00
  6
CONTINUOUS
 62
4
 10
686.5040
 20
446.8626
 11
686.9260
 21
446.8800
  0
LINE
  8
0_00
  6
CONTINUOUS
 62
4
 10
686.9260
 20
446.8800
 11
687.3568
 21
446.8874
  0
LINE
  8
0_00
  6
CONTINUOUS
 62
4
 10
687.3568
 20
446.8874
 11
687.7963
 21
446.8851
  0
LINE
  8
0_00
  6
CONTINUOUS
 62
4
 10
687.7963
 20
446.8851
 11
688.2446
 21
446.8731
  0
LINE
  8
0_00
  6
CONTINUOUS
 62
4
 10
688.2446
 20
446.8731
 11
688.7007
 21
446.8524
  0
LINE
  8
0_00
  6
CONTINUOUS
 62
4
 10
688.7007
 20
446.8524
 11
689.1644
 21
446.8232
  0
LINE
  8
0_00
  6
CONTINUOUS
 62
4
 10
689.1644
 20
446.8232
 11
689.6351
 21
446.7866
  0
LINE
  8
0_00
  6
CONTINUOUS
 62
4
 10
689.6351
 20
446.7866
 11
690.1122
 21
446.7427
  0
LINE
  8
0_00
  6
CONTINUOUS
 62
4
 10
690.1122
 20
446.7427
 11
690.5953
 21
446.6926
  0
LINE
  8
0_00
  6
CONTINUOUS
 62
4
 10
690.5953
 20
446.6926
 11
691.0840
 21
446.6365
  0
LINE
  8
0_00
  6
CONTINUOUS
 62
4
 10
691.0840
 20
446.6365
 11
691.5775
 21
446.5752
  0
LINE
  8
0_00
  6
CONTINUOUS
 62
4
 10
691.5775
 20
446.5752
 11
692.0755
 21
446.5094
  0
LINE
  8
0_00
  6
CONTINUOUS
 62
4
 10
692.0755
 20
446.5094
 11
692.5775
 21
446.4394
  0
LINE
  8
0_00
  6
CONTINUOUS
 62
4
 10
692.5775
 20
446.4394
 11
693.0830
 21
446.3662
  0
LINE
  8
0_00
  6
CONTINUOUS
 62
4
 10
693.0830
 20
446.3662
 11
693.5912
 21
446.2901
  0
LINE
  8
0_00
  6
CONTINUOUS
 62
4
 10
693.5912
 20
446.2901
 11
694.1021
 21
446.2119
  0
LINE
  8
0_00
  6
CONTINUOUS
 62
4
 10
694.1021
 20
446.2119
 11
694.6149
 21
446.1320
  0
LINE
  8
0_00
  6
CONTINUOUS
 62
4
 10
694.6149
 20
446.1320
 11
695.1291
 21
446.0514
  0
LINE
  8
0_00
  6
CONTINUOUS
 62
4
 10
695.1291
 20
446.0514
 11
695.6443
 21
445.9702
  0
LINE
  8
0_00
  6
CONTINUOUS
 62
4
 10
695.6443
 20
445.9702
 11
696.1597
 21
445.8894
  0
LINE
  8
0_00
  6
CONTINUOUS
 62
4
 10
696.1597
 20
445.8894
 11
696.6751
 21
445.8094
  0
LINE
  8
0_00
  6
CONTINUOUS
 62
4
 10
696.6751
 20
445.8094
 11
697.1900
 21
445.7309
  0
LINE
  8
0_00
  6
CONTINUOUS
 62
4
 10
697.1900
 20
445.7309
 11
697.7039
 21
445.6546
  0
LINE
  8
0_00
  6
CONTINUOUS
 62
4
 10
697.7039
 20
445.6546
 11
698.2159
 21
445.5809
  0
LINE
  8
0_00
  6
CONTINUOUS
 62
4
 10
698.2159
 20
445.5809
 11
698.7259
 21
445.5106
  0
LINE
  8
0_00
  6
CONTINUOUS
 62
4
 10
698.7259
 20
445.5106
 11
699.2334
 21
445.4442
  0
LINE
  8
0_00
  6
CONTINUOUS
 62
4
 10
699.2334
 20
445.4442
 11
699.7376
 21
445.3823
  0
LINE
  8
0_00
  6
CONTINUOUS
 62
4
 10
699.7376
 20
445.3823
 11
700.2383
 21
445.3255
  0
LINE
  8
0_00
  6
CONTINUOUS
 62
4
 10
700.2383
 20
445.3255
 11
700.7349
 21
445.2745
  0
LINE
  8
0_00
  6
CONTINUOUS
 62
4
 10
700.7349
 20
445.2745
 11
701.2267
 21
445.2298
  0
LINE
  8
0_00
  6
CONTINUOUS
 62
4
 10
701.2267
 20
445.2298
 11
701.7135
 21
445.1922
  0
LINE
  8
0_00
  6
CONTINUOUS
 62
4
 10
701.7135
 20
445.1922
 11
702.1946
 21
445.1622
  0
LINE
  8
0_00
  6
CONTINUOUS
 62
4
 10
702.1946
 20
445.1622
 11
702.6697
 21
445.1401
  0
LINE
  8
0_00
  6
CONTINUOUS
 62
4
 10
702.6697
 20
445.1401
 11
703.1387
 21
445.1256
  0
LINE
  8
0_00
  6
CONTINUOUS
 62
4
 10
703.1387
 20
445.1256
 11
703.6020
 21
445.1179
  0
LINE
  8
0_00
  6
CONTINUOUS
 62
4
 10
703.6020
 20
445.1179
 11
704.0596
 21
445.1165
  0
LINE
  8
0_00
  6
CONTINUOUS
 62
4
 10
704.0596
 20
445.1165
 11
704.5120
 21
445.1207
  0
LINE
  8
0_00
  6
CONTINUOUS
 62
4
 10
704.5120
 20
445.1207
 11
704.9591
 21
445.1300
  0
LINE
  8
0_00
  6
CONTINUOUS
 62
4
 10
704.9591
 20
445.1300
 11
705.4012
 21
445.1434
  0
LINE
  8
0_00
  6
CONTINUOUS
 62
4
 10
705.4012
 20
445.1434
 11
705.8385
 21
445.1606
  0
LINE
  8
0_00
  6
CONTINUOUS
 62
4
 10
705.8385
 20
445.1606
 11
706.2710
 21
445.1809
  0
LINE
  8
0_00
  6
CONTINUOUS
 62
4
 10
706.2710
 20
445.1809
 11
706.6992
 21
445.2035
  0
LINE
  8
0_00
  6
CONTINUOUS
 62
4
 10
706.6992
 20
445.2035
 11
707.1230
 21
445.2279
  0
LINE
  8
0_00
  6
CONTINUOUS
 62
4
 10
707.1230
 20
445.2279
 11
707.5428
 21
445.2533
  0
LINE
  8
0_00
  6
CONTINUOUS
 62
4
 10
707.5428
 20
445.2533
 11
707.9587
 21
445.2792
  0
LINE
  8
0_00
  6
CONTINUOUS
 62
4
 10
707.9587
 20
445.2792
 11
708.3709
 21
445.3048
  0
LINE
  8
0_00
  6
CONTINUOUS
 62
4
 10
708.3709
 20
445.3048
 11
708.7795
 21
445.3297
  0
LINE
  8
0_00
  6
CONTINUOUS
 62
4
 10
708.7795
 20
445.3297
 11
709.1850
 21
445.3530
  0
LINE
  8
0_00
  6
CONTINUOUS
 62
4
 10
709.1850
 20
445.3530
 11
709.5871
 21
445.3742
  0
LINE
  8
0_00
  6
CONTINUOUS
 62
4
 10
709.5871
 20
445.3742
 11
709.9864
 21
445.3927
  0
LINE
  8
0_00
  6
CONTINUOUS
 62
4
 10
709.9864
 20
445.3927
 11
710.3830
 21
445.4077
  0
LINE
  8
0_00
  6
CONTINUOUS
 62
4
 10
710.3830
 20
445.4077
 11
710.7770
 21
445.4187
  0
LINE
  8
0_00
  6
CONTINUOUS
 62
4
 10
710.7770
 20
445.4187
 11
711.1685
 21
445.4249
  0
LINE
  8
0_00
  6
CONTINUOUS
 62
4
 10
711.1685
 20
445.4249
 11
711.5579
 21
445.4258
  0
LINE
  8
0_00
  6
CONTINUOUS
 62
4
 10
711.5579
 20
445.4258
 11
711.9453
 21
445.4206
  0
LINE
  8
0_00
  6
CONTINUOUS
 62
4
 10
711.9453
 20
445.4206
 11
712.3309
 21
445.4088
  0
LINE
  8
0_00
  6
CONTINUOUS
 62
4
 10
712.3309
 20
445.4088
 11
712.7148
 21
445.3897
  0
LINE
  8
0_00
  6
CONTINUOUS
 62
4
 10
712.7148
 20
445.3897
 11
713.0974
 21
445.3626
  0
LINE
  8
0_00
  6
CONTINUOUS
 62
4
 10
713.0974
 20
445.3626
 11
713.4786
 21
445.3270
  0
LINE
  8
0_00
  6
CONTINUOUS
 62
4
 10
713.4786
 20
445.3270
 11
713.8589
 21
445.2822
  0
LINE
  8
0_00
  6
CONTINUOUS
 62
4
 10
713.8589
 20
445.2822
 11
714.2383
 21
445.2274
  0
LINE
  8
0_00
  6
CONTINUOUS
 62
4
 10
714.2383
 20
445.2274
 11
714.6169
 21
445.1622
  0
LINE
  8
0_00
  6
CONTINUOUS
 62
4
 10
714.6169
 20
445.1622
 11
714.9950
 21
445.0859
  0
LINE
  8
0_00
  6
CONTINUOUS
 62
4
 10
714.9950
 20
445.0859
 11
715.3728
 21
444.9994
  0
LINE
  8
0_00
  6
CONTINUOUS
 62
4
 10
715.3728
 20
444.9994
 11
715.7498
 21
444.9033
  0
LINE
  8
0_00
  6
CONTINUOUS
 62
4
 10
715.7498
 20
444.9033
 11
716.1264
 21
444.7985
  0
LINE
  8
0_00
  6
CONTINUOUS
 62
4
 10
716.1264
 20
444.7985
 11
716.5025
 21
444.6859
  0
LINE
  8
0_00
  6
CONTINUOUS
 62
4
 10
716.5025
 20
444.6859
 11
716.8779
 21
444.5661
  0
LINE
  8
0_00
  6
CONTINUOUS
 62
4
 10
716.8779
 20
444.5661
 11
717.2527
 21
444.4402
  0
LINE
  8
0_00
  6
CONTINUOUS
 62
4
 10
717.2527
 20
444.4402
 11
717.6269
 21
444.3088
  0
LINE
  8
0_00
  6
CONTINUOUS
 62
4
 10
717.6269
 20
444.3088
 11
718.0005
 21
444.1728
  0
LINE
  8
0_00
  6
CONTINUOUS
 62
4
 10
718.0005
 20
444.1728
 11
718.3733
 21
444.0331
  0
LINE
  8
0_00
  6
CONTINUOUS
 62
4
 10
718.3733
 20
444.0331
 11
718.7456
 21
443.8904
  0
LINE
  8
0_00
  6
CONTINUOUS
 62
4
 10
718.7456
 20
443.8904
 11
719.1171
 21
443.7456
  0
LINE
  8
0_00
  6
CONTINUOUS
 62
4
 10
719.1171
 20
443.7456
 11
719.4878
 21
443.5995
  0
LINE
  8
0_00
  6
CONTINUOUS
 62
4
 10
719.4878
 20
443.5995
 11
719.8577
 21
443.4529
  0
LINE
  8
0_00
  6
CONTINUOUS
 62
4
 10
719.8577
 20
443.4529
 11
720.2268
 21
443.3065
  0
LINE
  8
0_00
  6
CONTINUOUS
 62
4
 10
720.2268
 20
443.3065
 11
720.5954
 21
443.1614
  0
LINE
  8
0_00
  6
CONTINUOUS
 62
4
 10
720.5954
 20
443.1614
 11
720.9630
 21
443.0183
  0
LINE
  8
0_00
  6
CONTINUOUS
 62
4
 10
720.9630
 20
443.0183
 11
721.3298
 21
442.8779
  0
LINE
  8
0_00
  6
CONTINUOUS
 62
4
 10
721.3298
 20
442.8779
 11
721.6958
 21
442.7412
  0
LINE
  8
0_00
  6
CONTINUOUS
 62
4
 10
721.6958
 20
442.7412
 11
722.0608
 21
442.6088
  0
LINE
  8
0_00
  6
CONTINUOUS
 62
4
 10
722.0608
 20
442.6088
 11
722.4249
 21
442.4819
  0
LINE
  8
0_00
  6
CONTINUOUS
 62
4
 10
722.4249
 20
442.4819
 11
722.7882
 21
442.3610
  0
LINE
  8
0_00
  6
CONTINUOUS
 62
4
 10
722.7882
 20
442.3610
 11
723.1506
 21
442.2469
  0
LINE
  8
0_00
  6
CONTINUOUS
 62
4
 10
723.1506
 20
442.2469
 11
723.5120
 21
442.1407
  0
LINE
  8
0_00
  6
CONTINUOUS
 62
4
 10
723.5120
 20
442.1407
 11
723.8723
 21
442.0430
  0
LINE
  8
0_00
  6
CONTINUOUS
 62
4
 10
723.8723
 20
442.0430
 11
724.2318
 21
441.9547
  0
LINE
  8
0_00
  6
CONTINUOUS
 62
4
 10
724.2318
 20
441.9547
 11
724.5901
 21
441.8764
  0
LINE
  8
0_00
  6
CONTINUOUS
 62
4
 10
724.5901
 20
441.8764
 11
724.9474
 21
441.8094
  0
LINE
  8
0_00
  6
CONTINUOUS
 62
4
 10
724.9474
 20
441.8094
 11
725.3038
 21
441.7541
  0
LINE
  8
0_00
  6
CONTINUOUS
 62
4
 10
725.3038
 20
441.7541
 11
725.6590
 21
441.7115
  0
LINE
  8
0_00
  6
CONTINUOUS
 62
4
 10
725.6590
 20
441.7115
 11
726.0131
 21
441.6821
  0
LINE
  8
0_00
  6
CONTINUOUS
 62
4
 10
726.0131
 20
441.6821
 11
726.3659
 21
441.6658
  0
LINE
  8
0_00
  6
CONTINUOUS
 62
4
 10
726.3659
 20
441.6658
 11
726.7170
 21
441.6616
  0
LINE
  8
0_00
  6
CONTINUOUS
 62
4
 10
726.7170
 20
441.6616
 11
727.0662
 21
441.6693
  0
LINE
  8
0_00
  6
CONTINUOUS
 62
4
 10
727.0662
 20
441.6693
 11
727.4134
 21
441.6882
  0
LINE
  8
0_00
  6
CONTINUOUS
 62
4
 10
727.4134
 20
441.6882
 11
727.7581
 21
441.7178
  0
LINE
  8
0_00
  6
CONTINUOUS
 62
4
 10
727.7581
 20
441.7178
 11
728.1001
 21
441.7573
  0
LINE
  8
0_00
  6
CONTINUOUS
 62
4
 10
728.1001
 20
441.7573
 11
728.4393
 21
441.8064
  0
LINE
  8
0_00
  6
CONTINUOUS
 62
4
 10
728.4393
 20
441.8064
 11
728.7753
 21
441.8642
  0
LINE
  8
0_00
  6
CONTINUOUS
 62
4
 10
728.7753
 20
441.8642
 11
729.1077
 21
441.9307
  0
LINE
  8
0_00
  6
CONTINUOUS
 62
4
 10
729.1077
 20
441.9307
 11
729.4365
 21
442.0046
  0
LINE
  8
0_00
  6
CONTINUOUS
 62
4
 10
729.4365
 20
442.0046
 11
729.7614
 21
442.0859
  0
LINE
  8
0_00
  6
CONTINUOUS
 62
4
 10
729.7614
 20
442.0859
 11
730.0819
 21
442.1738
  0
LINE
  8
0_00
  6
CONTINUOUS
 62
4
 10
730.0819
 20
442.1738
 11
730.3979
 21
442.2678
  0
LINE
  8
0_00
  6
CONTINUOUS
 62
4
 10
730.3979
 20
442.2678
 11
730.7093
 21
442.3672
  0
LINE
  8
0_00
  6
CONTINUOUS
 62
4
 10
730.7093
 20
442.3672
 11
731.0156
 21
442.4715
  0
LINE
  8
0_00
  6
CONTINUOUS
 62
4
 10
731.0156
 20
442.4715
 11
731.3166
 21
442.5802
  0
LINE
  8
0_00
  6
CONTINUOUS
 62
4
 10
731.3166
 20
442.5802
 11
731.6121
 21
442.6926
  0
LINE
  8
0_00
  6
CONTINUOUS
 62
4
 10
731.6121
 20
442.6926
 11
731.9018
 21
442.8082
  0
LINE
  8
0_00
  6
CONTINUOUS
 62
4
 10
731.9018
 20
442.8082
 11
732.1854
 21
442.9265
  0
LINE
  8
0_00
  6
CONTINUOUS
 62
4
 10
732.1854
 20
442.9265
 11
732.4627
 21
443.0467
  0
LINE
  8
0_00
  6
CONTINUOUS
 62
4
 10
732.4627
 20
443.0467
 11
732.7335
 21
443.1684
  0
LINE
  8
0_00
  6
CONTINUOUS
 62
4
 10
732.7335
 20
443.1684
 11
732.9973
 21
443.2911
  0
LINE
  8
0_00
  6
CONTINUOUS
 62
4
 10
732.9973
 20
443.2911
 11
733.2542
 21
443.4142
  0
LINE
  8
0_00
  6
CONTINUOUS
 62
4
 10
733.2542
 20
443.4142
 11
733.5035
 21
443.5368
  0
LINE
  8
0_00
  6
CONTINUOUS
 62
4
 10
733.5035
 20
443.5368
 11
733.7452
 21
443.6588
  0
LINE
  8
0_00
  6
CONTINUOUS
 62
4
 10
733.7452
 20
443.6588
 11
733.9790
 21
443.7794
  0
LINE
  8
0_00
  6
CONTINUOUS
 62
4
 10
733.9790
 20
443.7794
 11
734.2048
 21
443.8979
  0
LINE
  8
0_00
  6
CONTINUOUS
 62
4
 10
734.2048
 20
443.8979
 11
734.4221
 21
444.0140
  0
LINE
  8
0_00
  6
CONTINUOUS
 62
4
 10
734.4221
 20
444.0140
 11
734.6307
 21
444.1269
  0
LINE
  8
0_00
  6
CONTINUOUS
 62
4
 10
734.6307
 20
444.1269
 11
734.8305
 21
444.2363
  0
LINE
  8
0_00
  6
CONTINUOUS
 62
4
 10
734.8305
 20
444.2363
 11
735.0217
 21
444.3423
  0
LINE
  8
0_00
  6
CONTINUOUS
 62
4
 10
735.0217
 20
444.3423
 11
735.2045
 21
444.4447
  0
LINE
  8
0_00
  6
CONTINUOUS
 62
4
 10
735.2045
 20
444.4447
 11
735.3791
 21
444.5438
  0
LINE
  8
0_00
  6
CONTINUOUS
 62
4
 10
735.3791
 20
444.5438
 11
735.5461
 21
444.6396
  0
LINE
  8
0_00
  6
CONTINUOUS
 62
4
 10
735.5461
 20
444.6396
 11
735.7056
 21
444.7325
  0
LINE
  8
0_00
  6
CONTINUOUS
 62
4
 10
735.7056
 20
444.7325
 11
735.8582
 21
444.8225
  0
LINE
  8
0_00
  6
CONTINUOUS
 62
4
 10
735.8582
 20
444.8225
 11
736.0036
 21
444.9095
  0
LINE
  8
0_00
  6
CONTINUOUS
 62
4
 10
736.0036
 20
444.9095
 11
736.1427
 21
444.9940
  0
LINE
  8
0_00
  6
CONTINUOUS
 62
4
 10
736.1427
 20
444.9940
 11
736.2754
 21
445.0758
  0
LINE
  8
0_00
  6
CONTINUOUS
 62
4
 10
736.2754
 20
445.0758
 11
736.4021
 21
445.1553
  0
LINE
  8
0_00
  6
CONTINUOUS
 62
4
 10
736.4021
 20
445.1553
 11
736.5231
 21
445.2323
  0
LINE
  8
0_00
  6
CONTINUOUS
 62
4
 10
736.5231
 20
445.2323
 11
736.6389
 21
445.3072
  0
LINE
  8
0_00
  6
CONTINUOUS
 62
4
 10
736.6389
 20
445.3072
 11
736.7496
 21
445.3800
  0
LINE
  8
0_00
  6
CONTINUOUS
 62
4
 10
736.7496
 20
445.3800
 11
736.8555
 21
445.4508
  0
LINE
  8
0_00
  6
CONTINUOUS
 62
4
 10
736.8555
 20
445.4508
 11
736.9569
 21
445.5198
  0
LINE
  8
0_00
  6
CONTINUOUS
 62
4
 10
736.9569
 20
445.5198
 11
737.0541
 21
445.5870
  0
LINE
  8
0_00
  6
CONTINUOUS
 62
4
 10
737.0541
 20
445.5870
 11
737.1475
 21
445.6527
  0
LINE
  8
0_00
  6
CONTINUOUS
 62
4
 10
737.1475
 20
445.6527
 11
737.2373
 21
445.7169
  0
LINE
  8
0_00
  6
CONTINUOUS
 62
4
 10
737.2373
 20
445.7169
 11
737.3240
 21
445.7798
  0
LINE
  8
0_00
  6
CONTINUOUS
 62
4
 10
737.3240
 20
445.7798
 11
737.4074
 21
445.8414
  0
LINE
  8
0_00
  6
CONTINUOUS
 62
4
 10
737.4074
 20
445.8414
 11
737.4884
 21
445.9019
  0
LINE
  8
0_00
  6
CONTINUOUS
 62
4
 10
737.4884
 20
445.9019
 11
737.5668
 21
445.9615
  0
LINE
  8
0_00
  6
CONTINUOUS
 62
4
 10
737.5668
 20
445.9615
 11
737.6433
 21
446.0202
  0
LINE
  8
0_00
  6
CONTINUOUS
 62
4
 10
737.6433
 20
446.0202
 11
737.7178
 21
446.0782
  0
LINE
  8
0_00
  6
CONTINUOUS
 62
4
 10
737.7178
 20
446.0782
 11
737.7909
 21
446.1355
  0
LINE
  8
0_00
  6
CONTINUOUS
 62
4
 10
737.7909
 20
446.1355
 11
737.8629
 21
446.1924
  0
LINE
  8
0_00
  6
CONTINUOUS
 62
4
 10
737.8629
 20
446.1924
 11
737.9339
 21
446.2489
  0
LINE
  8
0_00
  6
CONTINUOUS
 62
4
 10
737.9339
 20
446.2489
 11
738.0044
 21
446.3052
  0
LINE
  8
0_00
  6
CONTINUOUS
 62
4
 10
738.0044
 20
446.3052
 11
738.0746
 21
446.3613
  0
LINE
  8
0_00
  6
CONTINUOUS
 62
6
 10
679.0308
 20
938.2684
 11
725.4117
 21
1018.6028
  0
LINE
  8
0_00
  6
CONTINUOUS
 62
6
 10
679.0308
 20
938.2684
 11
695.7590
 21
956.8471
  0
LINE
  8
0_00
  6
CONTINUOUS
 62
6
 10
679.0308
 20
938.2684
 11
686.7561
 21
962.0448
  0
LINE
  8
0_00
  6
CONTINUOUS
 62
6
 10
725.4117
 20
1018.6028
 11
971.4117
 21
1018.6028
  0
LINE
  8
0_00
  6
CONTINUOUS
 62
6
 10
1087.6839
 20
646.6985
 11
743.6518
 21
646.6985
  0
LINE
  8
0_00
  6
PHANTOM1
 62
6
 10
1288.5318
 20
1417.9884
 11
1288.5318
 21
1412.3183
  0
LINE
  8
0_00
  6
PHANTOM1
 62
6
 10
1267.0319
 20
1417.9884
 11
1267.0319
 21
1410.9619
  0
LINE
  8
0_00
  6
PHANTOM1
 62
6
 10
1231.0319
 20
1363.9885
 11
1231.0319
 21
1369.8744
  0
LINE
  8
0_00
  6
PHANTOM1
 62
6
 10
1254.5319
 20
1363.9885
 11
1254.5319
 21
1365.5600
  0
LINE
  8
0_00
  6
PHANTOM1
 62
6
 10
1254.6347
 20
1366.5681
 11
1231.0319
 21
1366.5681
  0
LINE
  8
0_00
  6
CONTINUOUS
 62
4
 10
1360.7819
 20
1366.1195
 11
1360.7819
 21
1418.1384
  0
LINE
  8
0_00
  6
CONTINUOUS
 62
4
 10
1374.7820
 20
1366.1195
 11
1374.7820
 21
1418.1384
  0
LINE
  8
0_00
  6
CONTINUOUS
 62
4
 10
1363.2820
 20
1367.3695
 11
1363.2820
 21
1411.0681
  0
LINE
  8
0_00
  6
CONTINUOUS
 62
4
 10
1372.2820
 20
1367.3695
 11
1372.2820
 21
1411.0681
  0
LINE
  8
0_00
  6
CONTINUOUS
 62
4
 10
1374.7820
 20
1366.1195
 11
1375.6783
 21
1361.6383
  0
LINE
  8
0_00
  6
CONTINUOUS
 62
4
 10
1360.7819
 20
1366.1195
 11
1359.8857
 21
1361.6383
  0
LINE
  8
0_00
  6
CENTER1
 62
6
 10
2054.6738
 20
857.4684
 11
638.0745
 21
857.4684
  0
LINE
  8
0_00
  6
CENTER1
 62
6
 10
638.0745
 20
857.4684
 11
638.0745
 21
414.6694
  0
LINE
  8
0_00
  6
CONTINUOUS
 62
2
 10
889.3504
 20
841.8785
 11
888.4815
 21
842.7172
  0
LINE
  8
0_00
  6
CONTINUOUS
 62
2
 10
888.4815
 20
842.7172
 11
888.0745
 21
842.8657
  0
LINE
  8
0_00
  6
CONTINUOUS
 62
2
 10
888.0745
 20
842.8657
 11
887.6896
 21
842.7254
  0
LINE
  8
0_00
  6
CONTINUOUS
 62
2
 10
887.6896
 20
842.7254
 11
886.7930
 21
841.8813
  0
LINE
  8
0_00
  6
CONTINUOUS
 62
2
 10
890.1644
 20
842.6925
 11
889.3257
 21
843.5615
  0
LINE
  8
0_00
  6
CONTINUOUS
 62
2
 10
889.3257
 20
843.5615
 11
889.1772
 21
843.9685
  0
LINE
  8
0_00
  6
CONTINUOUS
 62
2
 10
889.1772
 20
843.9685
 11
889.3175
 21
844.3534
  0
LINE
  8
0_00
  6
CONTINUOUS
 62
2
 10
889.3175
 20
844.3534
 11
890.1617
 21
845.2499
  0
LINE
  8
0_00
  6
CONTINUOUS
 62
2
 10
885.9847
 20
845.2444
 11
886.8233
 21
844.3754
  0
LINE
  8
0_00
  6
CONTINUOUS
 62
2
 10
886.8233
 20
844.3754
 11
886.9718
 21
843.9685
  0
LINE
  8
0_00
  6
CONTINUOUS
 62
2
 10
886.9718
 20
843.9685
 11
886.8316
 21
843.5835
  0
LINE
  8
0_00
  6
CONTINUOUS
 62
2
 10
886.8316
 20
843.5835
 11
885.9873
 21
842.6871
  0
LINE
  8
0_00
  6
CONTINUOUS
 62
2
 10
886.7986
 20
846.0583
 11
887.6675
 21
845.2196
  0
LINE
  8
0_00
  6
CONTINUOUS
 62
2
 10
887.6675
 20
845.2196
 11
888.0745
 21
845.0711
  0
LINE
  8
0_00
  6
CONTINUOUS
 62
2
 10
888.0745
 20
845.0711
 11
888.4595
 21
845.2114
  0
LINE
  8
0_00
  6
CONTINUOUS
 62
2
 10
888.4595
 20
845.2114
 11
889.3559
 21
846.0556
  0
LINE
  8
0_00
  6
CONTINUOUS
 62
2
 10
889.3504
 20
868.8786
 11
888.4815
 21
869.7173
  0
LINE
  8
0_00
  6
CONTINUOUS
 62
2
 10
888.4815
 20
869.7173
 11
888.0745
 21
869.8657
  0
LINE
  8
0_00
  6
CONTINUOUS
 62
2
 10
888.0745
 20
869.8657
 11
887.6896
 21
869.7255
  0
LINE
  8
0_00
  6
CONTINUOUS
 62
2
 10
887.6896
 20
869.7255
 11
886.7930
 21
868.8813
  0
LINE
  8
0_00
  6
CONTINUOUS
 62
2
 10
890.1644
 20
869.6925
 11
889.3257
 21
870.5614
  0
LINE
  8
0_00
  6
CONTINUOUS
 62
2
 10
889.3257
 20
870.5614
 11
889.1772
 21
870.9684
  0
LINE
  8
0_00
  6
CONTINUOUS
 62
2
 10
889.1772
 20
870.9684
 11
889.3175
 21
871.3534
  0
LINE
  8
0_00
  6
CONTINUOUS
 62
2
 10
889.3175
 20
871.3534
 11
890.1617
 21
872.2498
  0
LINE
  8
0_00
  6
CONTINUOUS
 62
2
 10
885.9847
 20
872.2443
 11
886.8233
 21
871.3754
  0
LINE
  8
0_00
  6
CONTINUOUS
 62
2
 10
886.8233
 20
871.3754
 11
886.9718
 21
870.9684
  0
LINE
  8
0_00
  6
CONTINUOUS
 62
2
 10
886.9718
 20
870.9684
 11
886.8316
 21
870.5834
  0
LINE
  8
0_00
  6
CONTINUOUS
 62
2
 10
886.8316
 20
870.5834
 11
885.9873
 21
869.6870
  0
LINE
  8
0_00
  6
CONTINUOUS
 62
2
 10
886.7986
 20
873.0583
 11
887.6675
 21
872.2196
  0
LINE
  8
0_00
  6
CONTINUOUS
 62
2
 10
887.6675
 20
872.2196
 11
888.0745
 21
872.0711
  0
LINE
  8
0_00
  6
CONTINUOUS
 62
2
 10
888.0745
 20
872.0711
 11
888.4595
 21
872.2114
  0
LINE
  8
0_00
  6
CONTINUOUS
 62
2
 10
888.4595
 20
872.2114
 11
889.3559
 21
873.0555
  0
LINE
  8
0_00
  6
CONTINUOUS
 62
4
 10
902.0745
 20
878.4685
 11
902.0745
 21
817.4685
  0
LINE
  8
0_00
  6
CONTINUOUS
 62
4
 10
897.0745
 20
880.9685
 11
897.0745
 21
817.4685
  0
LINE
  8
0_00
  6
CONTINUOUS
 62
4
 10
897.0745
 20
880.9685
 11
901.5745
 21
880.9685
  0
LINE
  8
0_00
  6
CONTINUOUS
 62
4
 10
904.0746
 20
878.4685
 11
904.0746
 21
836.4684
  0
LINE
  8
0_00
  6
CONTINUOUS
 62
4
 10
879.0746
 20
880.9685
 11
897.0745
 21
880.9685
  0
LINE
  8
0_00
  6
CONTINUOUS
 62
4
 10
874.0746
 20
878.4685
 11
874.0746
 21
817.4685
  0
LINE
  8
0_00
  6
CONTINUOUS
 62
4
 10
879.0746
 20
880.9685
 11
879.0746
 21
817.4685
  0
LINE
  8
0_00
  6
CONTINUOUS
 62
4
 10
874.5746
 20
880.9685
 11
879.0746
 21
880.9685
  0
LINE
  8
0_00
  6
CONTINUOUS
 62
4
 10
872.0746
 20
878.4685
 11
872.0746
 21
836.4684
  0
LINE
  8
0_00
  6
CONTINUOUS
 62
4
 10
879.0746
 20
833.9684
 11
897.0745
 21
833.9684
  0
LINE
  8
0_00
  6
CONTINUOUS
 62
2
 10
1789.3503
 20
841.8785
 11
1788.4814
 21
842.7172
  0
LINE
  8
0_00
  6
CONTINUOUS
 62
2
 10
1788.4814
 20
842.7172
 11
1788.0745
 21
842.8657
  0
LINE
  8
0_00
  6
CONTINUOUS
 62
2
 10
1788.0745
 20
842.8657
 11
1787.6895
 21
842.7254
  0
LINE
  8
0_00
  6
CONTINUOUS
 62
2
 10
1787.6895
 20
842.7254
 11
1786.7931
 21
841.8813
  0
LINE
  8
0_00
  6
CONTINUOUS
 62
2
 10
1790.1643
 20
842.6925
 11
1789.3256
 21
843.5615
  0
LINE
  8
0_00
  6
CONTINUOUS
 62
2
 10
1789.3256
 20
843.5615
 11
1789.1771
 21
843.9685
  0
LINE
  8
0_00
  6
CONTINUOUS
 62
2
 10
1789.1771
 20
843.9685
 11
1789.3173
 21
844.3534
  0
LINE
  8
0_00
  6
CONTINUOUS
 62
2
 10
1789.3173
 20
844.3534
 11
1790.1616
 21
845.2499
  0
LINE
  8
0_00
  6
CONTINUOUS
 62
2
 10
1785.9845
 20
845.2444
 11
1786.8233
 21
844.3754
  0
LINE
  8
0_00
  6
CONTINUOUS
 62
2
 10
1786.8233
 20
844.3754
 11
1786.9717
 21
843.9685
  0
LINE
  8
0_00
  6
CONTINUOUS
 62
2
 10
1786.9717
 20
843.9685
 11
1786.8317
 21
843.5835
  0
LINE
  8
0_00
  6
CONTINUOUS
 62
2
 10
1786.8317
 20
843.5835
 11
1785.9874
 21
842.6871
  0
LINE
  8
0_00
  6
CONTINUOUS
 62
2
 10
1786.7984
 20
846.0583
 11
1787.6674
 21
845.2196
  0
LINE
  8
0_00
  6
CONTINUOUS
 62
2
 10
1787.6674
 20
845.2196
 11
1788.0745
 21
845.0711
  0
LINE
  8
0_00
  6
CONTINUOUS
 62
2
 10
1788.0745
 20
845.0711
 11
1788.4595
 21
845.2114
  0
LINE
  8
0_00
  6
CONTINUOUS
 62
2
 10
1788.4595
 20
845.2114
 11
1789.3559
 21
846.0556
  0
LINE
  8
0_00
  6
CONTINUOUS
 62
2
 10
1789.3503
 20
868.8786
 11
1788.4814
 21
869.7173
  0
LINE
  8
0_00
  6
CONTINUOUS
 62
2
 10
1788.4814
 20
869.7173
 11
1788.0745
 21
869.8657
  0
LINE
  8
0_00
  6
CONTINUOUS
 62
2
 10
1788.0745
 20
869.8657
 11
1787.6895
 21
869.7255
  0
LINE
  8
0_00
  6
CONTINUOUS
 62
2
 10
1787.6895
 20
869.7255
 11
1786.7931
 21
868.8813
  0
LINE
  8
0_00
  6
CONTINUOUS
 62
2
 10
1790.1643
 20
869.6925
 11
1789.3256
 21
870.5614
  0
LINE
  8
0_00
  6
CONTINUOUS
 62
2
 10
1789.3256
 20
870.5614
 11
1789.1771
 21
870.9684
  0
LINE
  8
0_00
  6
CONTINUOUS
 62
2
 10
1789.1771
 20
870.9684
 11
1789.3173
 21
871.3534
  0
LINE
  8
0_00
  6
CONTINUOUS
 62
2
 10
1789.3173
 20
871.3534
 11
1790.1616
 21
872.2498
  0
LINE
  8
0_00
  6
CONTINUOUS
 62
2
 10
1785.9845
 20
872.2443
 11
1786.8233
 21
871.3754
  0
LINE
  8
0_00
  6
CONTINUOUS
 62
2
 10
1786.8233
 20
871.3754
 11
1786.9717
 21
870.9684
  0
LINE
  8
0_00
  6
CONTINUOUS
 62
2
 10
1786.9717
 20
870.9684
 11
1786.8317
 21
870.5834
  0
LINE
  8
0_00
  6
CONTINUOUS
 62
2
 10
1786.8317
 20
870.5834
 11
1785.9874
 21
869.6870
  0
LINE
  8
0_00
  6
CONTINUOUS
 62
2
 10
1786.7984
 20
873.0583
 11
1787.6674
 21
872.2196
  0
LINE
  8
0_00
  6
CONTINUOUS
 62
2
 10
1787.6674
 20
872.2196
 11
1788.0745
 21
872.0711
  0
LINE
  8
0_00
  6
CONTINUOUS
 62
2
 10
1788.0745
 20
872.0711
 11
1788.4595
 21
872.2114
  0
LINE
  8
0_00
  6
CONTINUOUS
 62
2
 10
1788.4595
 20
872.2114
 11
1789.3559
 21
873.0555
  0
LINE
  8
0_00
  6
CONTINUOUS
 62
4
 10
1802.0746
 20
878.4685
 11
1802.0746
 21
817.4685
  0
LINE
  8
0_00
  6
CONTINUOUS
 62
4
 10
1797.0744
 20
880.9685
 11
1797.0744
 21
817.4685
  0
LINE
  8
0_00
  6
CONTINUOUS
 62
4
 10
1797.0744
 20
880.9685
 11
1801.5744
 21
880.9685
  0
LINE
  8
0_00
  6
CONTINUOUS
 62
4
 10
1804.0744
 20
878.4685
 11
1804.0744
 21
836.4684
  0
LINE
  8
0_00
  6
CONTINUOUS
 62
4
 10
1779.0746
 20
880.9685
 11
1797.0744
 21
880.9685
  0
LINE
  8
0_00
  6
CONTINUOUS
 62
4
 10
1774.0746
 20
878.4685
 11
1774.0746
 21
817.4685
  0
LINE
  8
0_00
  6
CONTINUOUS
 62
4
 10
1779.0746
 20
880.9685
 11
1779.0746
 21
817.4685
  0
LINE
  8
0_00
  6
CONTINUOUS
 62
4
 10
1774.5744
 20
880.9685
 11
1779.0746
 21
880.9685
  0
LINE
  8
0_00
  6
CONTINUOUS
 62
4
 10
1772.0744
 20
878.4685
 11
1772.0744
 21
836.4684
  0
LINE
  8
0_00
  6
CONTINUOUS
 62
4
 10
1779.0746
 20
833.9684
 11
1797.0744
 21
833.9684
  0
LINE
  8
0_00
  6
CONTINUOUS
 62
2
 10
653.6644
 20
608.7443
 11
652.8257
 21
607.8754
  0
LINE
  8
0_00
  6
CONTINUOUS
 62
2
 10
652.8257
 20
607.8754
 11
652.6772
 21
607.4685
  0
LINE
  8
0_00
  6
CONTINUOUS
 62
2
 10
652.6772
 20
607.4685
 11
652.8175
 21
607.0835
  0
LINE
  8
0_00
  6
CONTINUOUS
 62
2
 10
652.8175
 20
607.0835
 11
653.6617
 21
606.1871
  0
LINE
  8
0_00
  6
CONTINUOUS
 62
2
 10
652.8504
 20
609.5583
 11
651.9815
 21
608.7196
  0
LINE
  8
0_00
  6
CONTINUOUS
 62
2
 10
651.9815
 20
608.7196
 11
651.5746
 21
608.5711
  0
LINE
  8
0_00
  6
CONTINUOUS
 62
2
 10
651.5746
 20
608.5711
 11
651.1896
 21
608.7114
  0
LINE
  8
0_00
  6
CONTINUOUS
 62
2
 10
651.1896
 20
608.7114
 11
650.2930
 21
609.5555
  0
LINE
  8
0_00
  6
CONTINUOUS
 62
2
 10
650.2985
 20
605.3786
 11
651.1676
 21
606.2172
  0
LINE
  8
0_00
  6
CONTINUOUS
 62
2
 10
651.1676
 20
606.2172
 11
651.5746
 21
606.3657
  0
LINE
  8
0_00
  6
CONTINUOUS
 62
2
 10
651.5746
 20
606.3657
 11
651.9596
 21
606.2255
  0
LINE
  8
0_00
  6
CONTINUOUS
 62
2
 10
651.9596
 20
606.2255
 11
652.8559
 21
605.3813
  0
LINE
  8
0_00
  6
CONTINUOUS
 62
2
 10
649.4847
 20
606.1926
 11
650.3233
 21
607.0615
  0
LINE
  8
0_00
  6
CONTINUOUS
 62
2
 10
650.3233
 20
607.0615
 11
650.4719
 21
607.4685
  0
LINE
  8
0_00
  6
CONTINUOUS
 62
2
 10
650.4719
 20
607.4685
 11
650.3316
 21
607.8534
  0
LINE
  8
0_00
  6
CONTINUOUS
 62
2
 10
650.3316
 20
607.8534
 11
649.4874
 21
608.7498
  0
LINE
  8
0_00
  6
CONTINUOUS
 62
2
 10
626.6644
 20
608.7443
 11
625.8258
 21
607.8754
  0
LINE
  8
0_00
  6
CONTINUOUS
 62
2
 10
625.8258
 20
607.8754
 11
625.6772
 21
607.4685
  0
LINE
  8
0_00
  6
CONTINUOUS
 62
2
 10
625.6772
 20
607.4685
 11
625.8175
 21
607.0835
  0
LINE
  8
0_00
  6
CONTINUOUS
 62
2
 10
625.8175
 20
607.0835
 11
626.6617
 21
606.1871
  0
LINE
  8
0_00
  6
CONTINUOUS
 62
2
 10
625.8504
 20
609.5583
 11
624.9815
 21
608.7196
  0
LINE
  8
0_00
  6
CONTINUOUS
 62
2
 10
624.9815
 20
608.7196
 11
624.5745
 21
608.5711
  0
LINE
  8
0_00
  6
CONTINUOUS
 62
2
 10
624.5745
 20
608.5711
 11
624.1895
 21
608.7114
  0
LINE
  8
0_00
  6
CONTINUOUS
 62
2
 10
624.1895
 20
608.7114
 11
623.2930
 21
609.5555
  0
LINE
  8
0_00
  6
CONTINUOUS
 62
2
 10
623.2986
 20
605.3786
 11
624.1676
 21
606.2172
  0
LINE
  8
0_00
  6
CONTINUOUS
 62
2
 10
624.1676
 20
606.2172
 11
624.5745
 21
606.3657
  0
LINE
  8
0_00
  6
CONTINUOUS
 62
2
 10
624.5745
 20
606.3657
 11
624.9596
 21
606.2255
  0
LINE
  8
0_00
  6
CONTINUOUS
 62
2
 10
624.9596
 20
606.2255
 11
625.8559
 21
605.3813
  0
LINE
  8
0_00
  6
CONTINUOUS
 62
2
 10
622.4847
 20
606.1926
 11
623.3233
 21
607.0615
  0
LINE
  8
0_00
  6
CONTINUOUS
 62
2
 10
623.3233
 20
607.0615
 11
623.4719
 21
607.4685
  0
LINE
  8
0_00
  6
CONTINUOUS
 62
2
 10
623.4719
 20
607.4685
 11
623.3316
 21
607.8534
  0
LINE
  8
0_00
  6
CONTINUOUS
 62
2
 10
623.3316
 20
607.8534
 11
622.4874
 21
608.7498
  0
LINE
  8
0_00
  6
CONTINUOUS
 62
4
 10
617.0745
 20
621.4685
 11
678.0746
 21
621.4685
  0
LINE
  8
0_00
  6
CONTINUOUS
 62
4
 10
614.5746
 20
616.4685
 11
678.0746
 21
616.4685
  0
LINE
  8
0_00
  6
CONTINUOUS
 62
4
 10
614.5746
 20
616.4685
 11
614.5746
 21
620.9685
  0
LINE
  8
0_00
  6
CONTINUOUS
 62
4
 10
617.0745
 20
623.4685
 11
659.0746
 21
623.4685
  0
LINE
  8
0_00
  6
CONTINUOUS
 62
4
 10
614.5746
 20
598.4685
 11
614.5746
 21
616.4685
  0
LINE
  8
0_00
  6
CONTINUOUS
 62
4
 10
617.0745
 20
593.4684
 11
678.0746
 21
593.4684
  0
LINE
  8
0_00
  6
CONTINUOUS
 62
4
 10
614.5746
 20
598.4685
 11
678.0746
 21
598.4685
  0
LINE
  8
0_00
  6
CONTINUOUS
 62
4
 10
614.5746
 20
593.9685
 11
614.5746
 21
598.4685
  0
LINE
  8
0_00
  6
CONTINUOUS
 62
4
 10
617.0745
 20
591.4685
 11
659.0746
 21
591.4685
  0
LINE
  8
0_00
  6
CONTINUOUS
 62
4
 10
661.5746
 20
598.4685
 11
661.5746
 21
616.4685
  0
LINE
  8
0_00
  6
DASHED
 62
2
 10
2122.0026
 20
1606.5002
 11
182.3016
 21
1606.5002
  0
LINE
  8
0_00
  6
CENTER1
 62
6
 10
1208.1002
 20
2681.7743
 11
1208.1002
 21
2602.2977
  0
LINE
  8
0_00
  6
CENTER1
 62
6
 10
1278.1001
 20
1456.7743
 11
1278.1001
 21
1388.3202
  0
LINE
  8
0_00
  6
CONTINUOUS
 62
4
 10
1360.7819
 20
1412.3183
 11
1374.7820
 21
1412.3183
  0
LINE
  8
0_00
  6
CONTINUOUS
 62
4
 10
1360.7819
 20
1366.1195
 11
1374.7820
 21
1366.1195
  0
LINE
  8
0_00
  6
CONTINUOUS
 62
4
 10
1810.7819
 20
1366.1195
 11
1810.7819
 21
1418.1384
  0
LINE
  8
0_00
  6
CONTINUOUS
 62
4
 10
1824.7818
 20
1366.1195
 11
1824.7818
 21
1418.1384
  0
LINE
  8
0_00
  6
CONTINUOUS
 62
4
 10
1813.2820
 20
1367.3695
 11
1813.2820
 21
1411.0681
  0
LINE
  8
0_00
  6
CONTINUOUS
 62
4
 10
1822.2818
 20
1367.3695
 11
1822.2818
 21
1411.0681
  0
LINE
  8
0_00
  6
CONTINUOUS
 62
4
 10
1824.7818
 20
1366.1195
 11
1825.6781
 21
1361.6383
  0
LINE
  8
0_00
  6
CONTINUOUS
 62
4
 10
1810.7819
 20
1366.1195
 11
1809.8856
 21
1361.6383
  0
LINE
  8
0_00
  6
CONTINUOUS
 62
4
 10
1810.7819
 20
1412.3183
 11
1824.7818
 21
1412.3183
  0
LINE
  8
0_00
  6
CONTINUOUS
 62
4
 10
1810.7819
 20
1366.1195
 11
1824.7818
 21
1366.1195
  0
LINE
  8
0_00
  6
CONTINUOUS
 62
6
 10
615.3237
 20
592.1839
 11
565.8471
 21
506.4882
  0
LINE
  8
0_00
  6
CONTINUOUS
 62
6
 10
615.3237
 20
592.1839
 11
598.5954
 21
573.6053
  0
LINE
  8
0_00
  6
CONTINUOUS
 62
6
 10
615.3237
 20
592.1839
 11
607.5983
 21
568.4076
  0
LINE
  8
0_00
  6
CONTINUOUS
 62
6
 10
565.8471
 20
506.4882
 11
390.8472
 21
506.4882
  0
LINE
  8
0_00
  6
CONTINUOUS
 62
6
 10
719.7599
 20
787.4684
 11
771.0363
 21
698.6552
  0
LINE
  8
0_00
  6
CONTINUOUS
 62
6
 10
719.7599
 20
787.4684
 11
727.4854
 21
763.6920
  0
LINE
  8
0_00
  6
CONTINUOUS
 62
6
 10
719.7599
 20
787.4684
 11
736.4883
 21
768.8898
  0
LINE
  8
0_00
  6
CONTINUOUS
 62
2
 10
1893.5132
 20
920.4684
 11
599.8233
 21
920.4684
  0
LINE
  8
0_00
  6
CONTINUOUS
 62
4
 10
1893.5132
 20
939.9684
 11
580.3233
 21
939.9684
  0
LINE
  8
0_00
  6
DASHED
 62
6
 10
658.0746
 20
938.2684
 11
718.0746
 21
938.2684
  0
LINE
  8
0_00
  6
DASHED
 62
6
 10
718.0746
 20
938.2684
 11
718.0746
 21
816.7685
  0
LINE
  8
0_00
  6
DASHED
 62
6
 10
658.0746
 20
816.7685
 11
658.0746
 21
938.2684
  0
LINE
  8
0_00
  6
DASHED
 62
6
 10
658.0746
 20
816.7685
 11
718.0746
 21
816.7685
  0
LINE
  8
144_90
  6
CONTINUOUS
 62
4
 10
551.9934
 20
918.9921
 11
551.1745
 21
944.3684
  0
LINE
  8
144_90
  6
CONTINUOUS
 62
4
 10
576.5509
 20
943.5497
 11
551.1745
 21
944.3684
  0
LINE
  8
0_00
  6
CONTINUOUS
 62
2
 10
575.8746
 20
894.9197
 11
575.8746
 21
919.6684
  0
LINE
  8
0_00
  6
CONTINUOUS
 62
2
 10
600.6232
 20
919.6684
 11
575.8746
 21
919.6684
  0
LINE
  8
144_90
  6
CONTINUOUS
 62
4
 10
551.1745
 20
944.3684
 11
679.4784
 21
816.0646
  0
LINE
  8
144_90
  6
CONTINUOUS
 62
4
 10
552.1395
 20
918.6546
 11
677.5745
 21
793.2197
  0
LINE
  8
144_90
  6
CONTINUOUS
 62
4
 10
576.8882
 20
943.4035
 11
702.3234
 21
817.9684
  0
LINE
  8
0_00
  6
CONTINUOUS
 62
2
 10
575.0746
 20
422.7186
 11
575.0746
 21
895.7197
  0
LINE
  8
0_00
  6
CONTINUOUS
 62
4
 10
555.5745
 20
422.7186
 11
555.5745
 21
915.2197
  0
LINE
  8
0_00
  6
CONTINUOUS
 62
6
 10
1021.2745
 20
939.9684
 11
1066.6740
 21
1018.6028
  0
LINE
  8
0_00
  6
CONTINUOUS
 62
6
 10
1021.2745
 20
939.9684
 11
1038.0028
 21
958.5471
  0
LINE
  8
0_00
  6
CONTINUOUS
 62
6
 10
1021.2745
 20
939.9684
 11
1028.9999
 21
963.7448
  0
LINE
  8
0_00
  6
CONTINUOUS
 62
6
 10
1066.6740
 20
1018.6028
 11
1302.6741
 21
1018.6028
  0
LINE
  8
16_10
  6
CONTINUOUS
 62
4
 10
1292.9381
 20
1362.6384
 11
1224.3473
 21
1362.6384
  0
LINE
  8
16_10
  6
CONTINUOUS
 62
4
 10
1275.0480
 20
1363.9885
 11
1211.7477
 21
1363.9885
  0
LINE
  8
16_10
  6
CONTINUOUS
 62
4
 10
1211.7477
 20
1363.9885
 11
1203.5314
 21
1362.7699
  0
LINE
  8
16_10
  6
CONTINUOUS
 62
4
 10
1200.3493
 20
1342.3299
 11
1199.9499
 21
1358.4772
  0
LINE
  8
16_10
  6
CONTINUOUS
 62
4
 10
1201.2717
 20
1340.1483
 11
1201.3251
 21
1335.0243
  0
LINE
  8
16_10
  6
CONTINUOUS
 62
4
 10
1294.5761
 20
1362.5148
 11
1275.0480
 21
1363.9885
  0
LINE
  8
16_10
  6
CONTINUOUS
 62
4
 10
1215.8250
 20
1333.5391
 11
1217.6240
 21
1333.5983
  0
LINE
  8
16_10
  6
CONTINUOUS
 62
4
 10
1216.3335
 20
1361.4499
 11
1224.3473
 21
1362.6384
  0
LINE
  8
16_10
  6
CONTINUOUS
 62
4
 10
1213.5620
 20
1358.1282
 11
1213.9489
 21
1342.3660
  0
LINE
  8
16_10
  6
CONTINUOUS
 62
4
 10
1214.9277
 20
1334.9603
 11
1214.8685
 21
1340.2626
  0
LINE
  8
16_10
  6
CONTINUOUS
 62
4
 10
1215.8237
 20
1333.5391
 11
1203.3363
 21
1333.1393
  0
LINE
  8
0_00
  6
CONTINUOUS
 62
6
 10
1202.2651
 20
1340.1483
 11
1214.2712
 21
1340.1483
  0
LINE
  8
16_10
  6
CONTINUOUS
 62
2
 10
1214.7836
 20
1340.6157
 11
2000.1109
 21
1340.6157
  0
LINE
  8
0_00
  6
CONTINUOUS
 62
4
 10
1208.3978
 20
1333.3267
 11
1208.3978
 21
1224.0342
  0
LINE
  8
0_00
  6
CONTINUOUS
 62
4
 10
1217.6044
 20
1361.6383
 11
2000.1109
 21
1361.6383
  0
LINE
  8
0_00
  6
CONTINUOUS
 62
4
 10
1215.7773
 20
1334.1383
 11
2000.1109
 21
1334.1383
  0
LINE
  8
0_00
  6
CONTINUOUS
 62
2
 10
1214.1740
 20
1360.1357
 11
2000.1109
 21
1360.1357
  0
LINE
  8
0_00
  6
CONTINUOUS
 62
4
 10
1374.7820
 20
2591.1194
 11
1375.6783
 21
2586.6385
  0
LINE
  8
0_00
  6
CONTINUOUS
 62
4
 10
1360.7819
 20
2591.1194
 11
1359.8857
 21
2586.6385
  0
LINE
  8
0_00
  6
CONTINUOUS
 62
4
 10
1360.7819
 20
2591.1194
 11
1374.7820
 21
2591.1194
  0
LINE
  8
0_00
  6
CONTINUOUS
 62
4
 10
1824.7818
 20
2591.1194
 11
1825.6781
 21
2586.6385
  0
LINE
  8
0_00
  6
CONTINUOUS
 62
4
 10
1810.7819
 20
2591.1194
 11
1809.8856
 21
2586.6385
  0
LINE
  8
0_00
  6
CONTINUOUS
 62
4
 10
1810.7819
 20
2591.1194
 11
1824.7818
 21
2591.1194
  0
LINE
  8
16_10
  6
CONTINUOUS
 62
4
 10
1292.9381
 20
2587.6385
 11
1224.3473
 21
2587.6385
  0
LINE
  8
16_10
  6
CONTINUOUS
 62
4
 10
1275.0480
 20
2588.9883
 11
1211.7477
 21
2588.9883
  0
LINE
  8
16_10
  6
CONTINUOUS
 62
4
 10
1211.7477
 20
2588.9883
 11
1203.5314
 21
2587.7701
  0
LINE
  8
16_10
  6
CONTINUOUS
 62
4
 10
1200.3493
 20
2567.3300
 11
1199.9499
 21
2583.4772
  0
LINE
  8
16_10
  6
CONTINUOUS
 62
4
 10
1201.2717
 20
2565.1483
 11
1201.3251
 21
2560.0244
  0
LINE
  8
16_10
  6
CONTINUOUS
 62
4
 10
1294.5761
 20
2587.5150
 11
1275.0480
 21
2588.9883
  0
LINE
  8
16_10
  6
CONTINUOUS
 62
4
 10
1215.8250
 20
2558.5388
 11
1217.6240
 21
2558.5983
  0
LINE
  8
16_10
  6
CONTINUOUS
 62
4
 10
1216.3335
 20
2586.4499
 11
1224.3473
 21
2587.6385
  0
LINE
  8
16_10
  6
CONTINUOUS
 62
4
 10
1213.5620
 20
2583.1284
 11
1213.9489
 21
2567.3660
  0
LINE
  8
16_10
  6
CONTINUOUS
 62
4
 10
1214.9277
 20
2559.9605
 11
1214.8685
 21
2565.2625
  0
LINE
  8
16_10
  6
CONTINUOUS
 62
4
 10
1215.8237
 20
2558.5388
 11
1203.3363
 21
2558.1390
  0
LINE
  8
16_10
  6
CONTINUOUS
 62
2
 10
1214.7836
 20
2565.6155
 11
2000.1109
 21
2565.6155
  0
LINE
  8
0_00
  6
CONTINUOUS
 62
4
 10
1208.3978
 20
2558.3266
 11
1208.3978
 21
2449.0341
  0
LINE
  8
0_00
  6
CONTINUOUS
 62
4
 10
1217.6044
 20
2586.6385
 11
2000.1109
 21
2586.6385
  0
LINE
  8
0_00
  6
CONTINUOUS
 62
4
 10
1215.7773
 20
2559.1382
 11
2000.1109
 21
2559.1382
  0
LINE
  8
0_00
  6
CONTINUOUS
 62
2
 10
1214.1740
 20
2585.1358
 11
2000.1109
 21
2585.1358
  0
LINE
  8
0_00
  6
CONTINUOUS
 62
4
 10
1360.7819
 20
2591.1194
 11
1360.7819
 21
2643.1384
  0
LINE
  8
0_00
  6
CONTINUOUS
 62
4
 10
1374.7820
 20
2591.1194
 11
1374.7820
 21
2643.1384
  0
LINE
  8
0_00
  6
CONTINUOUS
 62
4
 10
1363.2820
 20
2592.3697
 11
1363.2820
 21
2636.0681
  0
LINE
  8
0_00
  6
CONTINUOUS
 62
4
 10
1372.2820
 20
2592.3697
 11
1372.2820
 21
2636.0681
  0
LINE
  8
0_00
  6
CONTINUOUS
 62
4
 10
1360.7819
 20
2637.3184
 11
1374.7820
 21
2637.3184
  0
LINE
  8
0_00
  6
CONTINUOUS
 62
4
 10
1810.7819
 20
2591.1194
 11
1810.7819
 21
2643.1384
  0
LINE
  8
0_00
  6
CONTINUOUS
 62
4
 10
1824.7818
 20
2591.1194
 11
1824.7818
 21
2643.1384
  0
LINE
  8
0_00
  6
CONTINUOUS
 62
4
 10
1813.2820
 20
2592.3697
 11
1813.2820
 21
2636.0681
  0
LINE
  8
0_00
  6
CONTINUOUS
 62
4
 10
1822.2818
 20
2592.3697
 11
1822.2818
 21
2636.0681
  0
LINE
  8
0_00
  6
CONTINUOUS
 62
4
 10
1810.7819
 20
2637.3184
 11
1824.7818
 21
2637.3184
  0
LINE
  8
0_00
  6
CONTINUOUS
 62
6
 10
1202.2651
 20
2565.1483
 11
1214.2712
 21
2565.1483
  0
LINE
  8
0_00
  6
CONTINUOUS
 62
4
 10
1893.5132
 20
1999.9684
 11
745.3233
 21
1999.9684
  0
LINE
  8
0_00
  6
CONTINUOUS
 62
2
 10
1893.5132
 20
2019.4684
 11
725.8234
 21
2019.4684
  0
LINE
  8
0_00
  6
CONTINUOUS
 62
4
 10
720.5745
 20
1975.2197
 11
720.5745
 21
1649.0099
  0
LINE
  8
0_00
  6
CONTINUOUS
 62
2
 10
701.0745
 20
1649.0099
 11
701.0745
 21
1994.7197
  0
LINE
  8
0_00
  6
CONTINUOUS
 62
2
 10
575.0746
 20
1649.0099
 11
575.0746
 21
1670.0676
  0
LINE
  8
0_00
  6
CONTINUOUS
 62
4
 10
555.5745
 20
1649.0099
 11
555.5745
 21
1670.9811
  0
LINE
  8
144_90
  6
CONTINUOUS
 62
4
 10
724.1891
 20
1972.7946
 11
724.9745
 21
1995.5684
  0
LINE
  8
144_90
  6
CONTINUOUS
 62
4
 10
747.7481
 20
1996.3539
 11
724.9745
 21
1995.5684
  0
LINE
  8
0_00
  6
CONTINUOUS
 62
2
 10
700.2745
 20
1995.5196
 11
700.2745
 21
2020.2684
  0
LINE
  8
0_00
  6
CONTINUOUS
 62
2
 10
725.0233
 20
2020.2684
 11
700.2745
 21
2020.2684
  0
LINE
  8
144_90
  6
CONTINUOUS
 62
4
 10
622.8233
 20
2122.4683
 11
748.0846
 21
1997.2072
  0
LINE
  8
0_00
  6
CONTINUOUS
 62
4
 10
724.9745
 20
1995.5684
 11
598.8245
 21
2121.7183
  0
LINE
  8
144_90
  6
CONTINUOUS
 62
4
 10
598.0745
 20
2097.7196
 11
723.3357
 21
1972.4583
  0
LINE
  8
0_00
  6
DASHED
 62
6
 10
718.0746
 20
2163.2684
 11
718.0746
 21
2041.7685
  0
LINE
  8
0_00
  6
DASHED
 62
6
 10
658.0746
 20
2041.7685
 11
658.0746
 21
2163.2684
  0
LINE
  8
0_00
  6
DASHED
 62
6
 10
658.0746
 20
2041.7685
 11
718.0746
 21
2041.7685
  0
LINE
  8
0_00
  6
DASHED
 62
6
 10
658.0746
 20
2163.2684
 11
718.0746
 21
2163.2684
  0
LINE
  8
13_0D
  6
CONTINUOUS
 62
6
 10
761.5383
 20
1983.7534
 11
818.7962
 21
1926.4955
  0
LINE
  8
13_0D
  6
CONTINUOUS
 62
6
 10
736.7895
 20
1959.0047
 11
794.0473
 21
1901.7467
  0
LINE
  8
13_0D
  6
CONTINUOUS
 62
6
 10
783.4408
 20
1912.3534
 11
808.1895
 21
1937.1022
  0
LINE
  8
13_0D
  6
CONTINUOUS
 62
6
 10
843.5448
 20
1972.4574
 11
808.1895
 21
1937.1022
  0
LINE
  8
13_0D
  6
CONTINUOUS
 62
6
 10
808.1895
 20
1937.1022
 11
829.1563
 21
1950.7182
  0
LINE
  8
13_0D
  6
CONTINUOUS
 62
6
 10
808.1895
 20
1937.1022
 11
821.8055
 21
1958.0688
  0
LINE
  8
13_0D
  6
CONTINUOUS
 62
6
 10
748.0854
 20
1876.9980
 11
783.4408
 21
1912.3534
  0
LINE
  8
13_0D
  6
CONTINUOUS
 62
6
 10
783.4408
 20
1912.3534
 11
762.4739
 21
1898.7373
  0
LINE
  8
13_0D
  6
CONTINUOUS
 62
6
 10
783.4408
 20
1912.3534
 11
769.8248
 21
1891.3866
  0
LINE
  8
0_00
  6
CENTER1
 62
6
 10
2577.7753
 20
1102.4685
 11
3994.3744
 21
1102.4685
  0
LINE
  8
0_00
  6
CENTER1
 62
6
 10
2577.7753
 20
1102.4685
 11
2577.7753
 21
439.4099
  0
LINE
  8
0_00
  6
CENTER1
 62
6
 10
2627.7753
 20
1217.6373
 11
2627.7753
 21
1002.8030
  0
LINE
  8
0_00
  6
CENTER1
 62
6
 10
2827.7753
 20
1199.2361
 11
2827.7753
 21
979.1862
  0
LINE
  8
0_00
  6
CENTER1
 62
6
 10
3727.7753
 20
1212.6847
 11
3727.7753
 21
981.8309
  0
LINE
  8
0_00
  6
CENTER1
 62
6
 10
2462.6065
 20
852.4685
 11
2701.0574
 21
852.4685
  0
LINE
  8
0_00
  6
CENTER1
 62
6
 10
3082.4829
 20
1972.9597
 11
3082.4829
 21
1738.6078
  0
LINE
  8
2_02
  6
CONTINUOUS
 62
4
 10
3097.7328
 20
1955.9883
 11
3082.8009
 21
1955.9883
  0
LINE
  8
2_02
  6
CONTINUOUS
 62
4
 10
3097.9828
 20
1932.1388
 11
3097.9828
 21
1955.7382
  0
LINE
  8
2_02
  6
CONTINUOUS
 62
4
 10
3067.2330
 20
1952.0007
 11
3067.2330
 21
1932.2388
  0
LINE
  8
2_02
  6
CONTINUOUS
 62
4
 10
3067.4826
 20
1931.9887
 11
3097.7328
 21
1931.9887
  0
LINE
  8
0_00
  6
CONTINUOUS
 62
4
 10
3097.9828
 20
1955.6387
 11
3839.8117
 21
1955.6387
  0
LINE
  8
0_00
  6
CONTINUOUS
 62
4
 10
3097.9828
 20
1932.1388
 11
3839.8117
 21
1932.1388
  0
LINE
  8
0_00
  6
CENTER1
 62
6
 10
3207.4826
 20
1972.9597
 11
3207.4826
 21
1762.1111
  0
LINE
  8
0_00
  6
CENTER1
 62
6
 10
3657.4826
 20
1972.9597
 11
3657.4826
 21
1762.1111
  0
LINE
  8
0_00
  6
CONTINUOUS
 62
4
 10
3102.8827
 20
2480.2667
 11
3839.8117
 21
2480.2667
  0
LINE
  8
0_00
  6
CONTINUOUS
 62
4
 10
3839.8117
 20
2461.7006
 11
3102.8827
 21
2461.7006
  0
LINE
  8
32_20
  6
CONTINUOUS
 62
4
 10
3072.9773
 20
2461.2886
 11
3067.3468
 21
2461.2886
  0
LINE
  8
32_20
  6
CONTINUOUS
 62
4
 10
3082.4829
 20
2480.6389
 11
3102.8827
 21
2480.6389
  0
LINE
  8
32_20
  6
CONTINUOUS
 62
4
 10
3102.8827
 20
2480.6389
 11
3102.8827
 21
2461.2886
  0
LINE
  8
32_20
  6
CONTINUOUS
 62
4
 10
3102.8827
 20
2461.2886
 11
3091.9882
 21
2461.2886
  0
LINE
  8
32_20
  6
CONTINUOUS
 62
4
 10
3090.9775
 20
2461.2886
 11
3073.9883
 21
2461.2886
  0
LINE
  8
0_00
  6
CENTER1
 62
6
 10
3082.4829
 20
2502.4216
 11
3082.4829
 21
2263.8388
  0
LINE
  8
0_00
  6
CENTER1
 62
6
 10
3657.4826
 20
2502.4216
 11
3657.4826
 21
2291.5729
  0
LINE
  8
0_00
  6
CENTER1
 62
6
 10
3207.4826
 20
2502.4216
 11
3207.4826
 21
2291.5729
  0
LINE
  8
0_00
  6
CONTINUOUS
 62
4
 10
2721.3989
 20
1132.4685
 11
3833.2141
 21
1132.4685
  0
LINE
  8
0_00
  6
CONTINUOUS
 62
4
 10
3833.2141
 20
1072.4684
 11
2723.4189
 21
1072.4684
  0
LINE
  8
0_00
  6
CONTINUOUS
 62
4
 10
2607.7753
 20
469.2236
 11
2607.7753
 21
956.8248
  0
LINE
  8
0_00
  6
CONTINUOUS
 62
4
 10
2547.7753
 20
958.8447
 11
2547.7753
 21
469.2236
  0
LINE
  8
0_00
  6
CENTER1
 62
6
 10
2468.9046
 20
1211.3392
 11
2490.8752
 21
1189.3684
  0
LINE
  8
0_00
  6
CENTER1
 62
6
 10
2664.6756
 20
1015.5685
 11
2709.3762
 21
970.8674
  0
LINE
  8
0_00
  6
CONTINUOUS
 62
6
 10
2623.6194
 20
1171.7343
 11
2665.1126
 21
1243.6028
  0
LINE
  8
0_00
  6
CONTINUOUS
 62
6
 10
2623.6194
 20
1171.7343
 11
2640.3473
 21
1190.3130
  0
LINE
  8
0_00
  6
CONTINUOUS
 62
6
 10
2623.6194
 20
1171.7343
 11
2631.3446
 21
1195.5107
  0
LINE
  8
0_00
  6
CONTINUOUS
 62
6
 10
2665.1126
 20
1243.6028
 11
2911.1127
 21
1243.6028
  0
LINE
  8
16_10
  6
CONTINUOUS
 62
4
 10
3132.0026
 20
1806.6388
 11
3063.4116
 21
1806.6388
  0
LINE
  8
16_10
  6
CONTINUOUS
 62
4
 10
3114.1122
 20
1807.9889
 11
3050.8121
 21
1807.9889
  0
LINE
  8
16_10
  6
CONTINUOUS
 62
4
 10
3050.8121
 20
1807.9889
 11
3042.5961
 21
1806.7703
  0
LINE
  8
16_10
  6
CONTINUOUS
 62
4
 10
3039.4141
 20
1786.3301
 11
3039.0146
 21
1802.4777
  0
LINE
  8
16_10
  6
CONTINUOUS
 62
4
 10
3040.3360
 20
1784.1486
 11
3040.3897
 21
1779.0245
  0
LINE
  8
16_10
  6
CONTINUOUS
 62
4
 10
3133.6404
 20
1806.5152
 11
3114.1122
 21
1807.9889
  0
LINE
  8
16_10
  6
CONTINUOUS
 62
4
 10
3054.8895
 20
1777.5395
 11
3056.6885
 21
1777.5986
  0
LINE
  8
16_10
  6
CONTINUOUS
 62
4
 10
3055.3979
 20
1805.4503
 11
3063.4116
 21
1806.6388
  0
LINE
  8
16_10
  6
CONTINUOUS
 62
4
 10
3052.6263
 20
1802.1286
 11
3053.0133
 21
1786.3663
  0
LINE
  8
16_10
  6
CONTINUOUS
 62
4
 10
3053.9923
 20
1778.9607
 11
3053.9328
 21
1784.2630
  0
LINE
  8
16_10
  6
CONTINUOUS
 62
4
 10
3054.8880
 20
1777.5395
 11
3042.4008
 21
1777.1396
  0
LINE
  8
0_00
  6
CONTINUOUS
 62
6
 10
3041.3293
 20
1784.1486
 11
3053.3356
 21
1784.1486
  0
LINE
  8
16_10
  6
CONTINUOUS
 62
2
 10
3053.8480
 20
1784.6161
 11
3839.8117
 21
1784.6161
  0
LINE
  8
0_00
  6
CONTINUOUS
 62
4
 10
3047.4622
 20
1777.3271
 11
3047.4622
 21
1668.0345
  0
LINE
  8
0_00
  6
CONTINUOUS
 62
4
 10
3056.6687
 20
1805.6387
 11
3839.8117
 21
1805.6387
  0
LINE
  8
0_00
  6
CONTINUOUS
 62
4
 10
3054.8419
 20
1778.1387
 11
3839.8117
 21
1778.1387
  0
LINE
  8
16_10
  6
CONTINUOUS
 62
4
 10
3132.0026
 20
2331.2666
 11
3063.4116
 21
2331.2666
  0
LINE
  8
16_10
  6
CONTINUOUS
 62
4
 10
3114.1122
 20
2332.6169
 11
3050.8121
 21
2332.6169
  0
LINE
  8
16_10
  6
CONTINUOUS
 62
4
 10
3050.8121
 20
2332.6169
 11
3042.5961
 21
2331.3983
  0
LINE
  8
16_10
  6
CONTINUOUS
 62
4
 10
3039.4141
 20
2310.9579
 11
3039.0146
 21
2327.1057
  0
LINE
  8
16_10
  6
CONTINUOUS
 62
4
 10
3040.3360
 20
2308.7766
 11
3040.3897
 21
2303.6523
  0
LINE
  8
16_10
  6
CONTINUOUS
 62
4
 10
3133.6404
 20
2331.1432
 11
3114.1122
 21
2332.6169
  0
LINE
  8
16_10
  6
CONTINUOUS
 62
4
 10
3054.8895
 20
2302.1672
 11
3056.6885
 21
2302.2266
  0
LINE
  8
16_10
  6
CONTINUOUS
 62
4
 10
3055.3979
 20
2330.0781
 11
3063.4116
 21
2331.2666
  0
LINE
  8
16_10
  6
CONTINUOUS
 62
4
 10
3052.6263
 20
2326.7567
 11
3053.0133
 21
2310.9941
  0
LINE
  8
16_10
  6
CONTINUOUS
 62
4
 10
3053.9923
 20
2303.5887
 11
3053.9328
 21
2308.8908
  0
LINE
  8
16_10
  6
CONTINUOUS
 62
4
 10
3054.8880
 20
2302.1672
 11
3042.4008
 21
2301.7676
  0
LINE
  8
0_00
  6
CONTINUOUS
 62
6
 10
3041.3293
 20
2308.7766
 11
3053.3356
 21
2308.7766
  0
LINE
  8
16_10
  6
CONTINUOUS
 62
2
 10
3053.8480
 20
2309.2441
 11
3839.8117
 21
2309.2441
  0
LINE
  8
0_00
  6
CONTINUOUS
 62
4
 10
3047.4622
 20
2301.9550
 11
3047.4622
 21
2192.6625
  0
LINE
  8
0_00
  6
CONTINUOUS
 62
4
 10
3056.6687
 20
2330.2667
 11
3839.8117
 21
2330.2667
  0
LINE
  8
0_00
  6
CONTINUOUS
 62
4
 10
3054.8419
 20
2302.7667
 11
3839.8117
 21
2302.7667
  0
LINE
  8
0_00
  6
CONTINUOUS
 62
4
 10
3833.2141
 20
1184.9684
 11
2520.0241
 21
1184.9684
  0
LINE
  8
0_00
  6
CONTINUOUS
 62
4
 10
3833.2141
 20
1019.9685
 11
2685.0238
 21
1019.9685
  0
LINE
  8
144_90
  6
CONTINUOUS
 62
4
 10
2491.6942
 20
1163.9922
 11
2490.8752
 21
1189.3684
  0
LINE
  8
144_90
  6
CONTINUOUS
 62
4
 10
2663.8901
 20
992.7947
 11
2664.6756
 21
1015.5685
  0
LINE
  8
144_90
  6
CONTINUOUS
 62
4
 10
2516.2517
 20
1188.5496
 11
2490.8752
 21
1189.3684
  0
LINE
  8
144_90
  6
CONTINUOUS
 62
4
 10
2687.4490
 20
1016.3539
 11
2664.6756
 21
1015.5685
  0
LINE
  8
144_90
  6
CONTINUOUS
 62
4
 10
2490.8752
 20
1189.3684
 11
2664.6756
 21
1015.5685
  0
LINE
  8
0_00
  6
CONTINUOUS
 62
2
 10
2639.9756
 20
1015.5197
 11
2639.9756
 21
1040.2684
  0
LINE
  8
0_00
  6
CONTINUOUS
 62
2
 10
2664.7238
 20
1040.2684
 11
2639.9756
 21
1040.2684
  0
LINE
  8
0_00
  6
CONTINUOUS
 62
2
 10
2515.5754
 20
1139.9196
 11
2515.5754
 21
1164.6684
  0
LINE
  8
0_00
  6
CONTINUOUS
 62
2
 10
2540.3241
 20
1164.6684
 11
2515.5754
 21
1164.6684
  0
LINE
  8
0_00
  6
CONTINUOUS
 62
4
 10
2660.2753
 20
995.2197
 11
2660.2753
 21
469.2236
  0
LINE
  8
0_00
  6
CONTINUOUS
 62
4
 10
2495.2753
 20
469.2236
 11
2495.2753
 21
1160.2197
  0
LINE
  8
0_00
  6
CONTINUOUS
 62
2
 10
3833.2141
 20
1039.4685
 11
2665.5240
 21
1039.4685
  0
LINE
  8
0_00
  6
CONTINUOUS
 62
2
 10
3833.2141
 20
1165.4684
 11
2539.5241
 21
1165.4684
  0
LINE
  8
0_00
  6
CONTINUOUS
 62
2
 10
2640.7751
 20
469.2236
 11
2640.7751
 21
1014.7196
  0
LINE
  8
0_00
  6
CONTINUOUS
 62
2
 10
2514.7752
 20
469.2236
 11
2514.7752
 21
1140.7198
  0
LINE
  8
0_00
  6
DASHED
 62
6
 10
2597.7753
 20
1183.2684
 11
2657.7750
 21
1183.2684
  0
LINE
  8
0_00
  6
DASHED
 62
6
 10
2597.7753
 20
1061.7683
 11
2657.7750
 21
1061.7683
  0
LINE
  8
0_00
  6
DASHED
 62
6
 10
2657.7750
 20
1183.2684
 11
2657.7750
 21
1061.7683
  0
LINE
  8
0_00
  6
DASHED
 62
6
 10
2597.7753
 20
1061.7683
 11
2597.7753
 21
1183.2684
  0
LINE
  8
0_00
  6
CONTINUOUS
 62
6
 10
3116.7499
 20
1192.4684
 11
3146.2723
 21
1243.6028
  0
LINE
  8
0_00
  6
CONTINUOUS
 62
6
 10
3116.7499
 20
1192.4684
 11
3133.4778
 21
1211.0471
  0
LINE
  8
0_00
  6
CONTINUOUS
 62
6
 10
3116.7499
 20
1192.4684
 11
3124.4751
 21
1216.2448
  0
LINE
  8
0_00
  6
CONTINUOUS
 62
6
 10
3146.2723
 20
1243.6028
 11
3392.2723
 21
1243.6028
  0
LINE
  8
13_0D
  6
CONTINUOUS
 62
6
 10
2670.7233
 20
984.7718
 11
2722.4756
 21
933.0194
  0
LINE
  8
13_0D
  6
CONTINUOUS
 62
6
 10
2695.4721
 20
1009.5206
 11
2747.2244
 21
957.7682
  0
LINE
  8
13_0D
  6
CONTINUOUS
 62
6
 10
2711.8689
 20
943.6260
 11
2736.6177
 21
968.3747
  0
LINE
  8
13_0D
  6
CONTINUOUS
 62
6
 10
2771.9730
 20
1003.7301
 11
2736.6177
 21
968.3747
  0
LINE
  8
13_0D
  6
CONTINUOUS
 62
6
 10
2736.6177
 20
968.3747
 11
2757.5845
 21
981.9907
  0
LINE
  8
13_0D
  6
CONTINUOUS
 62
6
 10
2736.6177
 20
968.3747
 11
2750.2338
 21
989.3415
  0
LINE
  8
13_0D
  6
CONTINUOUS
 62
6
 10
2676.5134
 20
908.2706
 11
2711.8689
 21
943.6260
  0
LINE
  8
13_0D
  6
CONTINUOUS
 62
6
 10
2711.8689
 20
943.6260
 11
2690.9021
 21
930.0101
  0
LINE
  8
13_0D
  6
CONTINUOUS
 62
6
 10
2711.8689
 20
943.6260
 11
2698.2532
 21
922.6592
  0
LINE
  8
0_00
  6
CONTINUOUS
 62
2
 10
3053.2385
 20
1804.1359
 11
3839.8117
 21
1804.1359
  0
LINE
  8
0_00
  6
CONTINUOUS
 62
2
 10
3053.2385
 20
2328.7640
 11
3839.8117
 21
2328.7640
  0
LINE
  8
0_00
  6
CONTINUOUS
 62
4
 10
2547.7753
 20
958.8447
 11
2547.7919
 21
958.8521
  0
LINE
  8
0_00
  6
CONTINUOUS
 62
4
 10
2547.7919
 20
958.8521
 11
2548.1224
 21
958.9954
  0
LINE
  8
0_00
  6
CONTINUOUS
 62
4
 10
2548.1224
 20
958.9954
 11
2548.4532
 21
959.1339
  0
LINE
  8
0_00
  6
CONTINUOUS
 62
4
 10
2548.4532
 20
959.1339
 11
2548.7836
 21
959.2673
  0
LINE
  8
0_00
  6
CONTINUOUS
 62
4
 10
2548.7836
 20
959.2673
 11
2549.1139
 21
959.3951
  0
LINE
  8
0_00
  6
CONTINUOUS
 62
4
 10
2549.1139
 20
959.3951
 11
2549.4443
 21
959.5169
  0
LINE
  8
0_00
  6
CONTINUOUS
 62
4
 10
2549.4443
 20
959.5169
 11
2549.7743
 21
959.6323
  0
LINE
  8
0_00
  6
CONTINUOUS
 62
4
 10
2549.7743
 20
959.6323
 11
2550.1042
 21
959.7412
  0
LINE
  8
0_00
  6
CONTINUOUS
 62
4
 10
2550.1042
 20
959.7412
 11
2550.4340
 21
959.8427
  0
LINE
  8
0_00
  6
CONTINUOUS
 62
4
 10
2550.4340
 20
959.8427
 11
2550.7635
 21
959.9368
  0
LINE
  8
0_00
  6
CONTINUOUS
 62
4
 10
2550.7635
 20
959.9368
 11
2551.0930
 21
960.0227
  0
LINE
  8
0_00
  6
CONTINUOUS
 62
4
 10
2551.0930
 20
960.0227
 11
2551.4223
 21
960.1006
  0
LINE
  8
0_00
  6
CONTINUOUS
 62
4
 10
2551.4223
 20
960.1006
 11
2551.7511
 21
960.1695
  0
LINE
  8
0_00
  6
CONTINUOUS
 62
4
 10
2551.7511
 20
960.1695
 11
2552.0799
 21
960.2293
  0
LINE
  8
0_00
  6
CONTINUOUS
 62
4
 10
2552.0799
 20
960.2293
 11
2552.4086
 21
960.2796
  0
LINE
  8
0_00
  6
CONTINUOUS
 62
4
 10
2552.4086
 20
960.2796
 11
2552.7370
 21
960.3200
  0
LINE
  8
0_00
  6
CONTINUOUS
 62
4
 10
2552.7370
 20
960.3200
 11
2553.0650
 21
960.3500
  0
LINE
  8
0_00
  6
CONTINUOUS
 62
4
 10
2553.0650
 20
960.3500
 11
2553.3929
 21
960.3692
  0
LINE
  8
0_00
  6
CONTINUOUS
 62
4
 10
2553.3929
 20
960.3692
 11
2553.7206
 21
960.3774
  0
LINE
  8
0_00
  6
CONTINUOUS
 62
4
 10
2553.7206
 20
960.3774
 11
2554.0479
 21
960.3740
  0
LINE
  8
0_00
  6
CONTINUOUS
 62
4
 10
2554.0479
 20
960.3740
 11
2554.3752
 21
960.3589
  0
LINE
  8
0_00
  6
CONTINUOUS
 62
4
 10
2554.3752
 20
960.3589
 11
2554.7021
 21
960.3327
  0
LINE
  8
0_00
  6
CONTINUOUS
 62
4
 10
2554.7021
 20
960.3327
 11
2555.0287
 21
960.2965
  0
LINE
  8
0_00
  6
CONTINUOUS
 62
4
 10
2555.0287
 20
960.2965
 11
2555.3554
 21
960.2510
  0
LINE
  8
0_00
  6
CONTINUOUS
 62
4
 10
2555.3554
 20
960.2510
 11
2555.6818
 21
960.1970
  0
LINE
  8
0_00
  6
CONTINUOUS
 62
4
 10
2555.6818
 20
960.1970
 11
2556.0080
 21
960.1356
  0
LINE
  8
0_00
  6
CONTINUOUS
 62
4
 10
2556.0080
 20
960.1356
 11
2556.3350
 21
960.0676
  0
LINE
  8
0_00
  6
CONTINUOUS
 62
4
 10
2556.3350
 20
960.0676
 11
2556.6614
 21
959.9940
  0
LINE
  8
0_00
  6
CONTINUOUS
 62
4
 10
2556.6614
 20
959.9940
 11
2556.9876
 21
959.9154
  0
LINE
  8
0_00
  6
CONTINUOUS
 62
4
 10
2556.9876
 20
959.9154
 11
2557.3146
 21
959.8329
  0
LINE
  8
0_00
  6
CONTINUOUS
 62
4
 10
2557.3146
 20
959.8329
 11
2557.6414
 21
959.7474
  0
LINE
  8
0_00
  6
CONTINUOUS
 62
4
 10
2557.6414
 20
959.7474
 11
2557.9686
 21
959.6597
  0
LINE
  8
0_00
  6
CONTINUOUS
 62
4
 10
2557.9686
 20
959.6597
 11
2558.2956
 21
959.5708
  0
LINE
  8
0_00
  6
CONTINUOUS
 62
4
 10
2558.2956
 20
959.5708
 11
2558.6238
 21
959.4814
  0
LINE
  8
0_00
  6
CONTINUOUS
 62
4
 10
2558.6238
 20
959.4814
 11
2558.9516
 21
959.3926
  0
LINE
  8
0_00
  6
CONTINUOUS
 62
4
 10
2558.9516
 20
959.3926
 11
2559.2802
 21
959.3052
  0
LINE
  8
0_00
  6
CONTINUOUS
 62
4
 10
2559.2802
 20
959.3052
 11
2559.6091
 21
959.2200
  0
LINE
  8
0_00
  6
CONTINUOUS
 62
4
 10
2559.6091
 20
959.2200
 11
2559.9384
 21
959.1380
  0
LINE
  8
0_00
  6
CONTINUOUS
 62
4
 10
2559.9384
 20
959.1380
 11
2560.2686
 21
959.0601
  0
LINE
  8
0_00
  6
CONTINUOUS
 62
4
 10
2560.2686
 20
959.0601
 11
2560.5991
 21
958.9870
  0
LINE
  8
0_00
  6
CONTINUOUS
 62
4
 10
2560.5991
 20
958.9870
 11
2560.9302
 21
958.9199
  0
LINE
  8
0_00
  6
CONTINUOUS
 62
4
 10
2560.9302
 20
958.9199
 11
2561.2619
 21
958.8594
  0
LINE
  8
0_00
  6
CONTINUOUS
 62
4
 10
2561.2619
 20
958.8594
 11
2561.5945
 21
958.8067
  0
LINE
  8
0_00
  6
CONTINUOUS
 62
4
 10
2561.5945
 20
958.8067
 11
2561.9278
 21
958.7623
  0
LINE
  8
0_00
  6
CONTINUOUS
 62
4
 10
2561.9278
 20
958.7623
 11
2562.2620
 21
958.7273
  0
LINE
  8
0_00
  6
CONTINUOUS
 62
4
 10
2562.2620
 20
958.7273
 11
2562.5970
 21
958.7025
  0
LINE
  8
0_00
  6
CONTINUOUS
 62
4
 10
2562.5970
 20
958.7025
 11
2562.9330
 21
958.6890
  0
LINE
  8
0_00
  6
CONTINUOUS
 62
4
 10
2562.9330
 20
958.6890
 11
2563.2700
 21
958.6876
  0
LINE
  8
0_00
  6
CONTINUOUS
 62
4
 10
2563.2700
 20
958.6876
 11
2563.6075
 21
958.6990
  0
LINE
  8
0_00
  6
CONTINUOUS
 62
4
 10
2563.6075
 20
958.6990
 11
2563.9465
 21
958.7243
  0
LINE
  8
0_00
  6
CONTINUOUS
 62
4
 10
2563.9465
 20
958.7243
 11
2564.2865
 21
958.7639
  0
LINE
  8
0_00
  6
CONTINUOUS
 62
4
 10
2564.2865
 20
958.7639
 11
2564.6274
 21
958.8171
  0
LINE
  8
0_00
  6
CONTINUOUS
 62
4
 10
2564.6274
 20
958.8171
 11
2564.9689
 21
958.8827
  0
LINE
  8
0_00
  6
CONTINUOUS
 62
4
 10
2564.9689
 20
958.8827
 11
2565.3107
 21
958.9597
  0
LINE
  8
0_00
  6
CONTINUOUS
 62
4
 10
2565.3107
 20
958.9597
 11
2565.6534
 21
959.0467
  0
LINE
  8
0_00
  6
CONTINUOUS
 62
4
 10
2565.6534
 20
959.0467
 11
2565.9961
 21
959.1428
  0
LINE
  8
0_00
  6
CONTINUOUS
 62
4
 10
2565.9961
 20
959.1428
 11
2566.3388
 21
959.2468
  0
LINE
  8
0_00
  6
CONTINUOUS
 62
4
 10
2566.3388
 20
959.2468
 11
2566.6815
 21
959.3576
  0
LINE
  8
0_00
  6
CONTINUOUS
 62
4
 10
2566.6815
 20
959.3576
 11
2567.0242
 21
959.4740
  0
LINE
  8
0_00
  6
CONTINUOUS
 62
4
 10
2567.0242
 20
959.4740
 11
2567.3660
 21
959.5948
  0
LINE
  8
0_00
  6
CONTINUOUS
 62
4
 10
2567.3660
 20
959.5948
 11
2567.7072
 21
959.7189
  0
LINE
  8
0_00
  6
CONTINUOUS
 62
4
 10
2567.7072
 20
959.7189
 11
2568.0478
 21
959.8453
  0
LINE
  8
0_00
  6
CONTINUOUS
 62
4
 10
2568.0478
 20
959.8453
 11
2568.3871
 21
959.9727
  0
LINE
  8
0_00
  6
CONTINUOUS
 62
4
 10
2568.3871
 20
959.9727
 11
2568.7256
 21
960.1000
  0
LINE
  8
0_00
  6
CONTINUOUS
 62
4
 10
2568.7256
 20
960.1000
 11
2569.0628
 21
960.2261
  0
LINE
  8
0_00
  6
CONTINUOUS
 62
4
 10
2569.0628
 20
960.2261
 11
2569.3985
 21
960.3500
  0
LINE
  8
0_00
  6
CONTINUOUS
 62
4
 10
2569.3985
 20
960.3500
 11
2569.7324
 21
960.4702
  0
LINE
  8
0_00
  6
CONTINUOUS
 62
4
 10
2569.7324
 20
960.4702
 11
2570.0647
 21
960.5859
  0
LINE
  8
0_00
  6
CONTINUOUS
 62
4
 10
2570.0647
 20
960.5859
 11
2570.3946
 21
960.6957
  0
LINE
  8
0_00
  6
CONTINUOUS
 62
4
 10
2570.3946
 20
960.6957
 11
2570.7227
 21
960.7988
  0
LINE
  8
0_00
  6
CONTINUOUS
 62
4
 10
2570.7227
 20
960.7988
 11
2571.0483
 21
960.8937
  0
LINE
  8
0_00
  6
CONTINUOUS
 62
4
 10
2571.0483
 20
960.8937
 11
2571.3712
 21
960.9795
  0
LINE
  8
0_00
  6
CONTINUOUS
 62
4
 10
2571.3712
 20
960.9795
 11
2571.6919
 21
961.0550
  0
LINE
  8
0_00
  6
CONTINUOUS
 62
4
 10
2571.6919
 20
961.0550
 11
2572.0090
 21
961.1190
  0
LINE
  8
0_00
  6
CONTINUOUS
 62
4
 10
2572.0090
 20
961.1190
 11
2572.3236
 21
961.1704
  0
LINE
  8
0_00
  6
CONTINUOUS
 62
4
 10
2572.3236
 20
961.1704
 11
2572.6349
 21
961.2080
  0
LINE
  8
0_00
  6
CONTINUOUS
 62
4
 10
2572.6349
 20
961.2080
 11
2572.9428
 21
961.2309
  0
LINE
  8
0_00
  6
CONTINUOUS
 62
4
 10
2572.9428
 20
961.2309
 11
2573.2474
 21
961.2378
  0
LINE
  8
0_00
  6
CONTINUOUS
 62
4
 10
2573.2474
 20
961.2378
 11
2573.5480
 21
961.2275
  0
LINE
  8
0_00
  6
CONTINUOUS
 62
4
 10
2573.5480
 20
961.2275
 11
2573.8449
 21
961.1989
  0
LINE
  8
0_00
  6
CONTINUOUS
 62
4
 10
2573.8449
 20
961.1989
 11
2574.1379
 21
961.1513
  0
LINE
  8
0_00
  6
CONTINUOUS
 62
4
 10
2574.1379
 20
961.1513
 11
2574.4269
 21
961.0856
  0
LINE
  8
0_00
  6
CONTINUOUS
 62
4
 10
2574.4269
 20
961.0856
 11
2574.7131
 21
961.0030
  0
LINE
  8
0_00
  6
CONTINUOUS
 62
4
 10
2574.7131
 20
961.0030
 11
2574.9966
 21
960.9048
  0
LINE
  8
0_00
  6
CONTINUOUS
 62
4
 10
2574.9966
 20
960.9048
 11
2575.2780
 21
960.7925
  0
LINE
  8
0_00
  6
CONTINUOUS
 62
4
 10
2575.2780
 20
960.7925
 11
2575.5576
 21
960.6669
  0
LINE
  8
0_00
  6
CONTINUOUS
 62
4
 10
2575.5576
 20
960.6669
 11
2575.8356
 21
960.5297
  0
LINE
  8
0_00
  6
CONTINUOUS
 62
4
 10
2575.8356
 20
960.5297
 11
2576.1127
 21
960.3821
  0
LINE
  8
0_00
  6
CONTINUOUS
 62
4
 10
2576.1127
 20
960.3821
 11
2576.3898
 21
960.2251
  0
LINE
  8
0_00
  6
CONTINUOUS
 62
4
 10
2576.3898
 20
960.2251
 11
2576.6666
 21
960.0604
  0
LINE
  8
0_00
  6
CONTINUOUS
 62
4
 10
2576.6666
 20
960.0604
 11
2576.9443
 21
959.8890
  0
LINE
  8
0_00
  6
CONTINUOUS
 62
4
 10
2576.9443
 20
959.8890
 11
2577.2226
 21
959.7124
  0
LINE
  8
0_00
  6
CONTINUOUS
 62
4
 10
2577.2226
 20
959.7124
 11
2577.5021
 21
959.5315
  0
LINE
  8
0_00
  6
CONTINUOUS
 62
4
 10
2577.5021
 20
959.5315
 11
2577.7841
 21
959.3478
  0
LINE
  8
0_00
  6
CONTINUOUS
 62
4
 10
2577.7841
 20
959.3478
 11
2578.0679
 21
959.1628
  0
LINE
  8
0_00
  6
CONTINUOUS
 62
4
 10
2578.0679
 20
959.1628
 11
2578.3548
 21
958.9774
  0
LINE
  8
0_00
  6
CONTINUOUS
 62
4
 10
2578.3548
 20
958.9774
 11
2578.6447
 21
958.7933
  0
LINE
  8
0_00
  6
CONTINUOUS
 62
4
 10
2578.6447
 20
958.7933
 11
2578.9389
 21
958.6112
  0
LINE
  8
0_00
  6
CONTINUOUS
 62
4
 10
2578.9389
 20
958.6112
 11
2579.2368
 21
958.4329
  0
LINE
  8
0_00
  6
CONTINUOUS
 62
4
 10
2579.2368
 20
958.4329
 11
2579.5392
 21
958.2594
  0
LINE
  8
0_00
  6
CONTINUOUS
 62
4
 10
2579.5392
 20
958.2594
 11
2579.8468
 21
958.0921
  0
LINE
  8
0_00
  6
CONTINUOUS
 62
4
 10
2579.8468
 20
958.0921
 11
2580.1599
 21
957.9323
  0
LINE
  8
0_00
  6
CONTINUOUS
 62
4
 10
2580.1599
 20
957.9323
 11
2580.4791
 21
957.7811
  0
LINE
  8
0_00
  6
CONTINUOUS
 62
4
 10
2580.4791
 20
957.7811
 11
2580.8044
 21
957.6399
  0
LINE
  8
0_00
  6
CONTINUOUS
 62
4
 10
2580.8044
 20
957.6399
 11
2581.1371
 21
957.5100
  0
LINE
  8
0_00
  6
CONTINUOUS
 62
4
 10
2581.1371
 20
957.5100
 11
2581.4767
 21
957.3927
  0
LINE
  8
0_00
  6
CONTINUOUS
 62
4
 10
2581.4767
 20
957.3927
 11
2581.8243
 21
957.2892
  0
LINE
  8
0_00
  6
CONTINUOUS
 62
4
 10
2581.8243
 20
957.2892
 11
2582.1802
 21
957.2008
  0
LINE
  8
0_00
  6
CONTINUOUS
 62
4
 10
2582.1802
 20
957.2008
 11
2582.5449
 21
957.1288
  0
LINE
  8
0_00
  6
CONTINUOUS
 62
4
 10
2582.5449
 20
957.1288
 11
2582.9187
 21
957.0745
  0
LINE
  8
0_00
  6
CONTINUOUS
 62
4
 10
2582.9187
 20
957.0745
 11
2583.3017
 21
957.0388
  0
LINE
  8
0_00
  6
CONTINUOUS
 62
4
 10
2583.3017
 20
957.0388
 11
2583.6935
 21
957.0209
  0
LINE
  8
0_00
  6
CONTINUOUS
 62
4
 10
2583.6935
 20
957.0209
 11
2584.0939
 21
957.0199
  0
LINE
  8
0_00
  6
CONTINUOUS
 62
4
 10
2584.0939
 20
957.0199
 11
2584.5016
 21
957.0347
  0
LINE
  8
0_00
  6
CONTINUOUS
 62
4
 10
2584.5016
 20
957.0347
 11
2584.9161
 21
957.0643
  0
LINE
  8
0_00
  6
CONTINUOUS
 62
4
 10
2584.9161
 20
957.0643
 11
2585.3363
 21
957.1076
  0
LINE
  8
0_00
  6
CONTINUOUS
 62
4
 10
2585.3363
 20
957.1076
 11
2585.7614
 21
957.1636
  0
LINE
  8
0_00
  6
CONTINUOUS
 62
4
 10
2585.7614
 20
957.1636
 11
2586.1917
 21
957.2312
  0
LINE
  8
0_00
  6
CONTINUOUS
 62
4
 10
2586.1917
 20
957.2312
 11
2586.6254
 21
957.3094
  0
LINE
  8
0_00
  6
CONTINUOUS
 62
4
 10
2586.6254
 20
957.3094
 11
2587.0621
 21
957.3972
  0
LINE
  8
0_00
  6
CONTINUOUS
 62
4
 10
2587.0621
 20
957.3972
 11
2587.5006
 21
957.4935
  0
LINE
  8
0_00
  6
CONTINUOUS
 62
4
 10
2587.5006
 20
957.4935
 11
2587.9413
 21
957.5972
  0
LINE
  8
0_00
  6
CONTINUOUS
 62
4
 10
2587.9413
 20
957.5972
 11
2588.3826
 21
957.7074
  0
LINE
  8
0_00
  6
CONTINUOUS
 62
4
 10
2588.3826
 20
957.7074
 11
2588.8242
 21
957.8229
  0
LINE
  8
0_00
  6
CONTINUOUS
 62
4
 10
2588.8242
 20
957.8229
 11
2589.2648
 21
957.9427
  0
LINE
  8
0_00
  6
CONTINUOUS
 62
4
 10
2589.2648
 20
957.9427
 11
2589.7040
 21
958.0658
  0
LINE
  8
0_00
  6
CONTINUOUS
 62
4
 10
2589.7040
 20
958.0658
 11
2590.1410
 21
958.1911
  0
LINE
  8
0_00
  6
CONTINUOUS
 62
4
 10
2590.1410
 20
958.1911
 11
2590.5753
 21
958.3177
  0
LINE
  8
0_00
  6
CONTINUOUS
 62
4
 10
2590.5753
 20
958.3177
 11
2591.0059
 21
958.4444
  0
LINE
  8
0_00
  6
CONTINUOUS
 62
4
 10
2591.0059
 20
958.4444
 11
2591.4322
 21
958.5702
  0
LINE
  8
0_00
  6
CONTINUOUS
 62
4
 10
2591.4322
 20
958.5702
 11
2591.8530
 21
958.6940
  0
LINE
  8
0_00
  6
CONTINUOUS
 62
4
 10
2591.8530
 20
958.6940
 11
2592.2681
 21
958.8149
  0
LINE
  8
0_00
  6
CONTINUOUS
 62
4
 10
2592.2681
 20
958.8149
 11
2592.6770
 21
958.9317
  0
LINE
  8
0_00
  6
CONTINUOUS
 62
4
 10
2592.6770
 20
958.9317
 11
2593.0783
 21
959.0435
  0
LINE
  8
0_00
  6
CONTINUOUS
 62
4
 10
2593.0783
 20
959.0435
 11
2593.4714
 21
959.1492
  0
LINE
  8
0_00
  6
CONTINUOUS
 62
4
 10
2593.4714
 20
959.1492
 11
2593.8559
 21
959.2477
  0
LINE
  8
0_00
  6
CONTINUOUS
 62
4
 10
2593.8559
 20
959.2477
 11
2594.2310
 21
959.3380
  0
LINE
  8
0_00
  6
CONTINUOUS
 62
4
 10
2594.2310
 20
959.3380
 11
2594.5959
 21
959.4190
  0
LINE
  8
0_00
  6
CONTINUOUS
 62
4
 10
2594.5959
 20
959.4190
 11
2594.9496
 21
959.4897
  0
LINE
  8
0_00
  6
CONTINUOUS
 62
4
 10
2594.9496
 20
959.4897
 11
2595.2917
 21
959.5491
  0
LINE
  8
0_00
  6
CONTINUOUS
 62
4
 10
2595.2917
 20
959.5491
 11
2595.6213
 21
959.5964
  0
LINE
  8
0_00
  6
CONTINUOUS
 62
4
 10
2595.6213
 20
959.5964
 11
2595.9393
 21
959.6317
  0
LINE
  8
0_00
  6
CONTINUOUS
 62
4
 10
2595.9393
 20
959.6317
 11
2596.2463
 21
959.6558
  0
LINE
  8
0_00
  6
CONTINUOUS
 62
4
 10
2596.2463
 20
959.6558
 11
2596.5427
 21
959.6690
  0
LINE
  8
0_00
  6
CONTINUOUS
 62
4
 10
2596.5427
 20
959.6690
 11
2596.8289
 21
959.6719
  0
LINE
  8
0_00
  6
CONTINUOUS
 62
4
 10
2596.8289
 20
959.6719
 11
2597.1063
 21
959.6651
  0
LINE
  8
0_00
  6
CONTINUOUS
 62
4
 10
2597.1063
 20
959.6651
 11
2597.3752
 21
959.6488
  0
LINE
  8
0_00
  6
CONTINUOUS
 62
4
 10
2597.3752
 20
959.6488
 11
2597.6361
 21
959.6239
  0
LINE
  8
0_00
  6
CONTINUOUS
 62
4
 10
2597.6361
 20
959.6239
 11
2597.8897
 21
959.5906
  0
LINE
  8
0_00
  6
CONTINUOUS
 62
4
 10
2597.8897
 20
959.5906
 11
2598.1372
 21
959.5496
  0
LINE
  8
0_00
  6
CONTINUOUS
 62
4
 10
2598.1372
 20
959.5496
 11
2598.3783
 21
959.5015
  0
LINE
  8
0_00
  6
CONTINUOUS
 62
4
 10
2598.3783
 20
959.5015
 11
2598.6142
 21
959.4466
  0
LINE
  8
0_00
  6
CONTINUOUS
 62
4
 10
2598.6142
 20
959.4466
 11
2598.8458
 21
959.3855
  0
LINE
  8
0_00
  6
CONTINUOUS
 62
4
 10
2598.8458
 20
959.3855
 11
2599.0729
 21
959.3187
  0
LINE
  8
0_00
  6
CONTINUOUS
 62
4
 10
2599.0729
 20
959.3187
 11
2599.2975
 21
959.2468
  0
LINE
  8
0_00
  6
CONTINUOUS
 62
4
 10
2599.2975
 20
959.2468
 11
2599.5190
 21
959.1702
  0
LINE
  8
0_00
  6
CONTINUOUS
 62
4
 10
2599.5190
 20
959.1702
 11
2599.7388
 21
959.0895
  0
LINE
  8
0_00
  6
CONTINUOUS
 62
4
 10
2599.7388
 20
959.0895
 11
2599.9570
 21
959.0051
  0
LINE
  8
0_00
  6
CONTINUOUS
 62
4
 10
2599.9570
 20
959.0051
 11
2600.1749
 21
958.9177
  0
LINE
  8
0_00
  6
CONTINUOUS
 62
4
 10
2600.1749
 20
958.9177
 11
2600.3925
 21
958.8277
  0
LINE
  8
0_00
  6
CONTINUOUS
 62
4
 10
2600.3925
 20
958.8277
 11
2600.6110
 21
958.7357
  0
LINE
  8
0_00
  6
CONTINUOUS
 62
4
 10
2600.6110
 20
958.7357
 11
2600.8307
 21
958.6420
  0
LINE
  8
0_00
  6
CONTINUOUS
 62
4
 10
2600.8307
 20
958.6420
 11
2601.0526
 21
958.5474
  0
LINE
  8
0_00
  6
CONTINUOUS
 62
4
 10
2601.0526
 20
958.5474
 11
2601.2769
 21
958.4523
  0
LINE
  8
0_00
  6
CONTINUOUS
 62
4
 10
2601.2769
 20
958.4523
 11
2601.5045
 21
958.3572
  0
LINE
  8
0_00
  6
CONTINUOUS
 62
4
 10
2601.5045
 20
958.3572
 11
2601.7361
 21
958.2625
  0
LINE
  8
0_00
  6
CONTINUOUS
 62
4
 10
2601.7361
 20
958.2625
 11
2601.9724
 21
958.1689
  0
LINE
  8
0_00
  6
CONTINUOUS
 62
4
 10
2601.9724
 20
958.1689
 11
2602.2141
 21
958.0768
  0
LINE
  8
0_00
  6
CONTINUOUS
 62
4
 10
2602.2141
 20
958.0768
 11
2602.4615
 21
957.9868
  0
LINE
  8
0_00
  6
CONTINUOUS
 62
4
 10
2602.4615
 20
957.9868
 11
2602.7151
 21
957.8994
  0
LINE
  8
0_00
  6
CONTINUOUS
 62
4
 10
2602.7151
 20
957.8994
 11
2602.9767
 21
957.8149
  0
LINE
  8
0_00
  6
CONTINUOUS
 62
4
 10
2602.9767
 20
957.8149
 11
2603.2449
 21
957.7335
  0
LINE
  8
0_00
  6
CONTINUOUS
 62
4
 10
2603.2449
 20
957.7335
 11
2603.5196
 21
957.6550
  0
LINE
  8
0_00
  6
CONTINUOUS
 62
4
 10
2603.5196
 20
957.6550
 11
2603.8010
 21
957.5793
  0
LINE
  8
0_00
  6
CONTINUOUS
 62
4
 10
2603.8010
 20
957.5793
 11
2604.0884
 21
957.5062
  0
LINE
  8
0_00
  6
CONTINUOUS
 62
4
 10
2604.0884
 20
957.5062
 11
2604.3823
 21
957.4357
  0
LINE
  8
0_00
  6
CONTINUOUS
 62
4
 10
2604.3823
 20
957.4357
 11
2604.6820
 21
957.3677
  0
LINE
  8
0_00
  6
CONTINUOUS
 62
4
 10
2604.6820
 20
957.3677
 11
2604.9869
 21
957.3020
  0
LINE
  8
0_00
  6
CONTINUOUS
 62
4
 10
2604.9869
 20
957.3020
 11
2605.2969
 21
957.2386
  0
LINE
  8
0_00
  6
CONTINUOUS
 62
4
 10
2605.2969
 20
957.2386
 11
2605.6125
 21
957.1774
  0
LINE
  8
0_00
  6
CONTINUOUS
 62
4
 10
2605.6125
 20
957.1774
 11
2605.9329
 21
957.1184
  0
LINE
  8
0_00
  6
CONTINUOUS
 62
4
 10
2605.9329
 20
957.1184
 11
2606.2576
 21
957.0612
  0
LINE
  8
0_00
  6
CONTINUOUS
 62
4
 10
2606.2576
 20
957.0612
 11
2606.5869
 21
957.0058
  0
LINE
  8
0_00
  6
CONTINUOUS
 62
4
 10
2606.5869
 20
957.0058
 11
2606.9202
 21
956.9523
  0
LINE
  8
0_00
  6
CONTINUOUS
 62
4
 10
2606.9202
 20
956.9523
 11
2607.2574
 21
956.9003
  0
LINE
  8
0_00
  6
CONTINUOUS
 62
4
 10
2607.2574
 20
956.9003
 11
2607.5983
 21
956.8500
  0
LINE
  8
0_00
  6
CONTINUOUS
 62
4
 10
2607.5983
 20
956.8500
 11
2607.7753
 21
956.8248
  0
LINE
  8
0_00
  6
CONTINUOUS
 62
4
 10
2721.3989
 20
1132.4685
 11
2721.3916
 21
1132.4520
  0
LINE
  8
0_00
  6
CONTINUOUS
 62
4
 10
2721.3989
 20
1132.4685
 11
2721.2485
 21
1132.1213
  0
LINE
  8
0_00
  6
CONTINUOUS
 62
4
 10
2721.2485
 20
1132.1213
 11
2721.1099
 21
1131.7907
  0
LINE
  8
0_00
  6
CONTINUOUS
 62
4
 10
2721.1099
 20
1131.7907
 11
2720.9766
 21
1131.4601
  0
LINE
  8
0_00
  6
CONTINUOUS
 62
4
 10
2720.9766
 20
1131.4601
 11
2720.8487
 21
1131.1298
  0
LINE
  8
0_00
  6
CONTINUOUS
 62
4
 10
2720.8487
 20
1131.1298
 11
2720.7266
 21
1130.7996
  0
LINE
  8
0_00
  6
CONTINUOUS
 62
4
 10
2720.7266
 20
1130.7996
 11
2720.6116
 21
1130.4695
  0
LINE
  8
0_00
  6
CONTINUOUS
 62
4
 10
2720.6116
 20
1130.4695
 11
2720.5029
 21
1130.1395
  0
LINE
  8
0_00
  6
CONTINUOUS
 62
4
 10
2720.5029
 20
1130.1395
 11
2720.4010
 21
1129.8099
  0
LINE
  8
0_00
  6
CONTINUOUS
 62
4
 10
2720.4010
 20
1129.8099
 11
2720.3070
 21
1129.4803
  0
LINE
  8
0_00
  6
CONTINUOUS
 62
4
 10
2720.3070
 20
1129.4803
 11
2720.2209
 21
1129.1508
  0
LINE
  8
0_00
  6
CONTINUOUS
 62
4
 10
2720.2209
 20
1129.1508
 11
2720.1434
 21
1128.8216
  0
LINE
  8
0_00
  6
CONTINUOUS
 62
4
 10
2720.1434
 20
1128.8216
 11
2720.0742
 21
1128.4926
  0
LINE
  8
0_00
  6
CONTINUOUS
 62
4
 10
2720.0742
 20
1128.4926
 11
2720.0143
 21
1128.1638
  0
LINE
  8
0_00
  6
CONTINUOUS
 62
4
 10
2720.0143
 20
1128.1638
 11
2719.9643
 21
1127.8352
  0
LINE
  8
0_00
  6
CONTINUOUS
 62
4
 10
2719.9643
 20
1127.8352
 11
2719.9237
 21
1127.5068
  0
LINE
  8
0_00
  6
CONTINUOUS
 62
4
 10
2719.9237
 20
1127.5068
 11
2719.8938
 21
1127.1787
  0
LINE
  8
0_00
  6
CONTINUOUS
 62
4
 10
2719.8938
 20
1127.1787
 11
2719.8746
 21
1126.8507
  0
LINE
  8
0_00
  6
CONTINUOUS
 62
4
 10
2719.8746
 20
1126.8507
 11
2719.8660
 21
1126.5231
  0
LINE
  8
0_00
  6
CONTINUOUS
 62
4
 10
2719.8660
 20
1126.5231
 11
2719.8697
 21
1126.1958
  0
LINE
  8
0_00
  6
CONTINUOUS
 62
4
 10
2719.8697
 20
1126.1958
 11
2719.8846
 21
1125.8686
  0
LINE
  8
0_00
  6
CONTINUOUS
 62
4
 10
2719.8846
 20
1125.8686
 11
2719.9109
 21
1125.5418
  0
LINE
  8
0_00
  6
CONTINUOUS
 62
4
 10
2719.9109
 20
1125.5418
 11
2719.9472
 21
1125.2150
  0
LINE
  8
0_00
  6
CONTINUOUS
 62
4
 10
2719.9472
 20
1125.2150
 11
2719.9930
 21
1124.8885
  0
LINE
  8
0_00
  6
CONTINUOUS
 62
4
 10
2719.9930
 20
1124.8885
 11
2720.0467
 21
1124.5619
  0
LINE
  8
0_00
  6
CONTINUOUS
 62
4
 10
2720.0467
 20
1124.5619
 11
2720.1080
 21
1124.2355
  0
LINE
  8
0_00
  6
CONTINUOUS
 62
4
 10
2720.1080
 20
1124.2355
 11
2720.1761
 21
1123.9091
  0
LINE
  8
0_00
  6
CONTINUOUS
 62
4
 10
2720.1761
 20
1123.9091
 11
2720.2499
 21
1123.5825
  0
LINE
  8
0_00
  6
CONTINUOUS
 62
4
 10
2720.2499
 20
1123.5825
 11
2720.3284
 21
1123.2561
  0
LINE
  8
0_00
  6
CONTINUOUS
 62
4
 10
2720.3284
 20
1123.2561
 11
2720.4111
 21
1122.9294
  0
LINE
  8
0_00
  6
CONTINUOUS
 62
4
 10
2720.4111
 20
1122.9294
 11
2720.4965
 21
1122.6024
  0
LINE
  8
0_00
  6
CONTINUOUS
 62
4
 10
2720.4965
 20
1122.6024
 11
2720.5841
 21
1122.2753
  0
LINE
  8
0_00
  6
CONTINUOUS
 62
4
 10
2720.5841
 20
1122.2753
 11
2720.6729
 21
1121.9479
  0
LINE
  8
0_00
  6
CONTINUOUS
 62
4
 10
2720.6729
 20
1121.9479
 11
2720.7623
 21
1121.6202
  0
LINE
  8
0_00
  6
CONTINUOUS
 62
4
 10
2720.7623
 20
1121.6202
 11
2720.8511
 21
1121.2923
  0
LINE
  8
0_00
  6
CONTINUOUS
 62
4
 10
2720.8511
 20
1121.2923
 11
2720.9387
 21
1120.9636
  0
LINE
  8
0_00
  6
CONTINUOUS
 62
4
 10
2720.9387
 20
1120.9636
 11
2721.0236
 21
1120.6347
  0
LINE
  8
0_00
  6
CONTINUOUS
 62
4
 10
2721.0236
 20
1120.6347
 11
2721.1060
 21
1120.3053
  0
LINE
  8
0_00
  6
CONTINUOUS
 62
4
 10
2721.1060
 20
1120.3053
 11
2721.1838
 21
1119.9754
  0
LINE
  8
0_00
  6
CONTINUOUS
 62
4
 10
2721.1838
 20
1119.9754
 11
2721.2567
 21
1119.6448
  0
LINE
  8
0_00
  6
CONTINUOUS
 62
4
 10
2721.2567
 20
1119.6448
 11
2721.3239
 21
1119.3137
  0
LINE
  8
0_00
  6
CONTINUOUS
 62
4
 10
2721.3239
 20
1119.3137
 11
2721.3846
 21
1118.9819
  0
LINE
  8
0_00
  6
CONTINUOUS
 62
4
 10
2721.3846
 20
1118.9819
 11
2721.4371
 21
1118.6492
  0
LINE
  8
0_00
  6
CONTINUOUS
 62
4
 10
2721.4371
 20
1118.6492
 11
2721.4813
 21
1118.3159
  0
LINE
  8
0_00
  6
CONTINUOUS
 62
4
 10
2721.4813
 20
1118.3159
 11
2721.5164
 21
1117.9817
  0
LINE
  8
0_00
  6
CONTINUOUS
 62
4
 10
2721.5164
 20
1117.9817
 11
2721.5411
 21
1117.6468
  0
LINE
  8
0_00
  6
CONTINUOUS
 62
4
 10
2721.5411
 20
1117.6468
 11
2721.5546
 21
1117.3108
  0
LINE
  8
0_00
  6
CONTINUOUS
 62
4
 10
2721.5546
 20
1117.3108
 11
2721.5561
 21
1116.9740
  0
LINE
  8
0_00
  6
CONTINUOUS
 62
4
 10
2721.5561
 20
1116.9740
 11
2721.5448
 21
1116.6361
  0
LINE
  8
0_00
  6
CONTINUOUS
 62
4
 10
2721.5448
 20
1116.6361
 11
2721.5195
 21
1116.2973
  0
LINE
  8
0_00
  6
CONTINUOUS
 62
4
 10
2721.5195
 20
1116.2973
 11
2721.4798
 21
1115.9574
  0
LINE
  8
0_00
  6
CONTINUOUS
 62
4
 10
2721.4798
 20
1115.9574
 11
2721.4264
 21
1115.6166
  0
LINE
  8
0_00
  6
CONTINUOUS
 62
4
 10
2721.4264
 20
1115.6166
 11
2721.3611
 21
1115.2750
  0
LINE
  8
0_00
  6
CONTINUOUS
 62
4
 10
2721.3611
 20
1115.2750
 11
2721.2839
 21
1114.9328
  0
LINE
  8
0_00
  6
CONTINUOUS
 62
4
 10
2721.2839
 20
1114.9328
 11
2721.1972
 21
1114.5905
  0
LINE
  8
0_00
  6
CONTINUOUS
 62
4
 10
2721.1972
 20
1114.5905
 11
2721.1008
 21
1114.2476
  0
LINE
  8
0_00
  6
CONTINUOUS
 62
4
 10
2721.1008
 20
1114.2476
 11
2720.9970
 21
1113.9046
  0
LINE
  8
0_00
  6
CONTINUOUS
 62
4
 10
2720.9970
 20
1113.9046
 11
2720.8862
 21
1113.5621
  0
LINE
  8
0_00
  6
CONTINUOUS
 62
4
 10
2720.8862
 20
1113.5621
 11
2720.7700
 21
1113.2196
  0
LINE
  8
0_00
  6
CONTINUOUS
 62
4
 10
2720.7700
 20
1113.2196
 11
2720.6491
 21
1112.8778
  0
LINE
  8
0_00
  6
CONTINUOUS
 62
4
 10
2720.6491
 20
1112.8778
 11
2720.5249
 21
1112.5365
  0
LINE
  8
0_00
  6
CONTINUOUS
 62
4
 10
2720.5249
 20
1112.5365
 11
2720.3986
 21
1112.1960
  0
LINE
  8
0_00
  6
CONTINUOUS
 62
4
 10
2720.3986
 20
1112.1960
 11
2720.2710
 21
1111.8564
  0
LINE
  8
0_00
  6
CONTINUOUS
 62
4
 10
2720.2710
 20
1111.8564
 11
2720.1434
 21
1111.5180
  0
LINE
  8
0_00
  6
CONTINUOUS
 62
4
 10
2720.1434
 20
1111.5180
 11
2720.0177
 21
1111.1810
  0
LINE
  8
0_00
  6
CONTINUOUS
 62
4
 10
2720.0177
 20
1111.1810
 11
2719.8938
 21
1110.8454
  0
LINE
  8
0_00
  6
CONTINUOUS
 62
4
 10
2719.8938
 20
1110.8454
 11
2719.7736
 21
1110.5114
  0
LINE
  8
0_00
  6
CONTINUOUS
 62
4
 10
2719.7736
 20
1110.5114
 11
2719.6579
 21
1110.1792
  0
LINE
  8
0_00
  6
CONTINUOUS
 62
4
 10
2719.6579
 20
1110.1792
 11
2719.5480
 21
1109.8491
  0
LINE
  8
0_00
  6
CONTINUOUS
 62
4
 10
2719.5480
 20
1109.8491
 11
2719.4449
 21
1109.5212
  0
LINE
  8
0_00
  6
CONTINUOUS
 62
4
 10
2719.4449
 20
1109.5212
 11
2719.3500
 21
1109.1956
  0
LINE
  8
0_00
  6
CONTINUOUS
 62
4
 10
2719.3500
 20
1109.1956
 11
2719.2642
 21
1108.8725
  0
LINE
  8
0_00
  6
CONTINUOUS
 62
4
 10
2719.2642
 20
1108.8725
 11
2719.1885
 21
1108.5522
  0
LINE
  8
0_00
  6
CONTINUOUS
 62
4
 10
2719.1885
 20
1108.5522
 11
2719.1248
 21
1108.2346
  0
LINE
  8
0_00
  6
CONTINUOUS
 62
4
 10
2719.1248
 20
1108.2346
 11
2719.0735
 21
1107.9201
  0
LINE
  8
0_00
  6
CONTINUOUS
 62
4
 10
2719.0735
 20
1107.9201
 11
2719.0356
 21
1107.6088
  0
LINE
  8
0_00
  6
CONTINUOUS
 62
4
 10
2719.0356
 20
1107.6088
 11
2719.0128
 21
1107.3009
  0
LINE
  8
0_00
  6
CONTINUOUS
 62
4
 10
2719.0128
 20
1107.3009
 11
2719.0057
 21
1106.9964
  0
LINE
  8
0_00
  6
CONTINUOUS
 62
4
 10
2719.0057
 20
1106.9964
 11
2719.0164
 21
1106.6958
  0
LINE
  8
0_00
  6
CONTINUOUS
 62
4
 10
2719.0164
 20
1106.6958
 11
2719.0448
 21
1106.3988
  0
LINE
  8
0_00
  6
CONTINUOUS
 62
4
 10
2719.0448
 20
1106.3988
 11
2719.0927
 21
1106.1059
  0
LINE
  8
0_00
  6
CONTINUOUS
 62
4
 10
2719.0927
 20
1106.1059
 11
2719.1580
 21
1105.8167
  0
LINE
  8
0_00
  6
CONTINUOUS
 62
4
 10
2719.1580
 20
1105.8167
 11
2719.2410
 21
1105.5305
  0
LINE
  8
0_00
  6
CONTINUOUS
 62
4
 10
2719.2410
 20
1105.5305
 11
2719.3390
 21
1105.2470
  0
LINE
  8
0_00
  6
CONTINUOUS
 62
4
 10
2719.3390
 20
1105.2470
 11
2719.4516
 21
1104.9659
  0
LINE
  8
0_00
  6
CONTINUOUS
 62
4
 10
2719.4516
 20
1104.9659
 11
2719.5767
 21
1104.6863
  0
LINE
  8
0_00
  6
CONTINUOUS
 62
4
 10
2719.5767
 20
1104.6863
 11
2719.7144
 21
1104.4083
  0
LINE
  8
0_00
  6
CONTINUOUS
 62
4
 10
2719.7144
 20
1104.4083
 11
2719.8618
 21
1104.1309
  0
LINE
  8
0_00
  6
CONTINUOUS
 62
4
 10
2719.8618
 20
1104.1309
 11
2720.0186
 21
1103.8541
  0
LINE
  8
0_00
  6
CONTINUOUS
 62
4
 10
2720.0186
 20
1103.8541
 11
2720.1834
 21
1103.5770
  0
LINE
  8
0_00
  6
CONTINUOUS
 62
4
 10
2720.1834
 20
1103.5770
 11
2720.3549
 21
1103.2998
  0
LINE
  8
0_00
  6
CONTINUOUS
 62
4
 10
2720.3549
 20
1103.2998
 11
2720.5316
 21
1103.0212
  0
LINE
  8
0_00
  6
CONTINUOUS
 62
4
 10
2720.5316
 20
1103.0212
 11
2720.7123
 21
1102.7414
  0
LINE
  8
0_00
  6
CONTINUOUS
 62
4
 10
2720.7123
 20
1102.7414
 11
2720.8957
 21
1102.4599
  0
LINE
  8
0_00
  6
CONTINUOUS
 62
4
 10
2720.8957
 20
1102.4599
 11
2721.0809
 21
1102.1758
  0
LINE
  8
0_00
  6
CONTINUOUS
 62
4
 10
2721.0809
 20
1102.1758
 11
2721.2662
 21
1101.8889
  0
LINE
  8
0_00
  6
CONTINUOUS
 62
4
 10
2721.2662
 20
1101.8889
 11
2721.4505
 21
1101.5989
  0
LINE
  8
0_00
  6
CONTINUOUS
 62
4
 10
2721.4505
 20
1101.5989
 11
2721.6327
 21
1101.3052
  0
LINE
  8
0_00
  6
CONTINUOUS
 62
4
 10
2721.6327
 20
1101.3052
 11
2721.8109
 21
1101.0071
  0
LINE
  8
0_00
  6
CONTINUOUS
 62
4
 10
2721.8109
 20
1101.0071
 11
2721.9843
 21
1100.7047
  0
LINE
  8
0_00
  6
CONTINUOUS
 62
4
 10
2721.9843
 20
1100.7047
 11
2722.1518
 21
1100.3970
  0
LINE
  8
0_00
  6
CONTINUOUS
 62
4
 10
2722.1518
 20
1100.3970
 11
2722.3117
 21
1100.0839
  0
LINE
  8
0_00
  6
CONTINUOUS
 62
4
 10
2722.3117
 20
1100.0839
 11
2722.4628
 21
1099.7649
  0
LINE
  8
0_00
  6
CONTINUOUS
 62
4
 10
2722.4628
 20
1099.7649
 11
2722.6038
 21
1099.4391
  0
LINE
  8
0_00
  6
CONTINUOUS
 62
4
 10
2722.6038
 20
1099.4391
 11
2722.7338
 21
1099.1068
  0
LINE
  8
0_00
  6
CONTINUOUS
 62
4
 10
2722.7338
 20
1099.1068
 11
2722.8506
 21
1098.7670
  0
LINE
  8
0_00
  6
CONTINUOUS
 62
4
 10
2722.8506
 20
1098.7670
 11
2722.9544
 21
1098.4194
  0
LINE
  8
0_00
  6
CONTINUOUS
 62
4
 10
2722.9544
 20
1098.4194
 11
2723.0429
 21
1098.0636
  0
LINE
  8
0_00
  6
CONTINUOUS
 62
4
 10
2723.0429
 20
1098.0636
 11
2723.1149
 21
1097.6990
  0
LINE
  8
0_00
  6
CONTINUOUS
 62
4
 10
2723.1149
 20
1097.6990
 11
2723.1693
 21
1097.3252
  0
LINE
  8
0_00
  6
CONTINUOUS
 62
4
 10
2723.1693
 20
1097.3252
 11
2723.2050
 21
1096.9421
  0
LINE
  8
0_00
  6
CONTINUOUS
 62
4
 10
2723.2050
 20
1096.9421
 11
2723.2230
 21
1096.5500
  0
LINE
  8
0_00
  6
CONTINUOUS
 62
4
 10
2723.2230
 20
1096.5500
 11
2723.2239
 21
1096.1499
  0
LINE
  8
0_00
  6
CONTINUOUS
 62
4
 10
2723.2239
 20
1096.1499
 11
2723.2092
 21
1095.7421
  0
LINE
  8
0_00
  6
CONTINUOUS
 62
4
 10
2723.2092
 20
1095.7421
 11
2723.1796
 21
1095.3279
  0
LINE
  8
0_00
  6
CONTINUOUS
 62
4
 10
2723.1796
 20
1095.3279
 11
2723.1360
 21
1094.9075
  0
LINE
  8
0_00
  6
CONTINUOUS
 62
4
 10
2723.1360
 20
1094.9075
 11
2723.0801
 21
1094.4821
  0
LINE
  8
0_00
  6
CONTINUOUS
 62
4
 10
2723.0801
 20
1094.4821
 11
2723.0127
 21
1094.0522
  0
LINE
  8
0_00
  6
CONTINUOUS
 62
4
 10
2723.0127
 20
1094.0522
 11
2722.9346
 21
1093.6185
  0
LINE
  8
0_00
  6
CONTINUOUS
 62
4
 10
2722.9346
 20
1093.6185
 11
2722.8467
 21
1093.1818
  0
LINE
  8
0_00
  6
CONTINUOUS
 62
4
 10
2722.8467
 20
1093.1818
 11
2722.7502
 21
1092.7428
  0
LINE
  8
0_00
  6
CONTINUOUS
 62
4
 10
2722.7502
 20
1092.7428
 11
2722.6468
 21
1092.3023
  0
LINE
  8
0_00
  6
CONTINUOUS
 62
4
 10
2722.6468
 20
1092.3023
 11
2722.5366
 21
1091.8610
  0
LINE
  8
0_00
  6
CONTINUOUS
 62
4
 10
2722.5366
 20
1091.8610
 11
2722.4210
 21
1091.4197
  0
LINE
  8
0_00
  6
CONTINUOUS
 62
4
 10
2722.4210
 20
1091.4197
 11
2722.3010
 21
1090.9792
  0
LINE
  8
0_00
  6
CONTINUOUS
 62
4
 10
2722.3010
 20
1090.9792
 11
2722.1780
 21
1090.5399
  0
LINE
  8
0_00
  6
CONTINUOUS
 62
4
 10
2722.1780
 20
1090.5399
 11
2722.0526
 21
1090.1028
  0
LINE
  8
0_00
  6
CONTINUOUS
 62
4
 10
2722.0526
 20
1090.1028
 11
2721.9260
 21
1089.6687
  0
LINE
  8
0_00
  6
CONTINUOUS
 62
4
 10
2721.9260
 20
1089.6687
 11
2721.7993
 21
1089.2381
  0
LINE
  8
0_00
  6
CONTINUOUS
 62
4
 10
2721.7993
 20
1089.2381
 11
2721.6736
 21
1088.8120
  0
LINE
  8
0_00
  6
CONTINUOUS
 62
4
 10
2721.6736
 20
1088.8120
 11
2721.5497
 21
1088.3908
  0
LINE
  8
0_00
  6
CONTINUOUS
 62
4
 10
2721.5497
 20
1088.3908
 11
2721.4288
 21
1087.9755
  0
LINE
  8
0_00
  6
CONTINUOUS
 62
4
 10
2721.4288
 20
1087.9755
 11
2721.3120
 21
1087.5668
  0
LINE
  8
0_00
  6
CONTINUOUS
 62
4
 10
2721.3120
 20
1087.5668
 11
2721.2003
 21
1087.1656
  0
LINE
  8
0_00
  6
CONTINUOUS
 62
4
 10
2721.2003
 20
1087.1656
 11
2721.0944
 21
1086.7723
  0
LINE
  8
0_00
  6
CONTINUOUS
 62
4
 10
2721.0944
 20
1086.7723
 11
2720.9961
 21
1086.3876
  0
LINE
  8
0_00
  6
CONTINUOUS
 62
4
 10
2720.9961
 20
1086.3876
 11
2720.9061
 21
1086.0126
  0
LINE
  8
0_00
  6
CONTINUOUS
 62
4
 10
2720.9061
 20
1086.0126
 11
2720.8249
 21
1085.6479
  0
LINE
  8
0_00
  6
CONTINUOUS
 62
4
 10
2720.8249
 20
1085.6479
 11
2720.7541
 21
1085.2940
  0
LINE
  8
0_00
  6
CONTINUOUS
 62
4
 10
2720.7541
 20
1085.2940
 11
2720.6946
 21
1084.9521
  0
LINE
  8
0_00
  6
CONTINUOUS
 62
4
 10
2720.6946
 20
1084.9521
 11
2720.6473
 21
1084.6224
  0
LINE
  8
0_00
  6
CONTINUOUS
 62
4
 10
2720.6473
 20
1084.6224
 11
2720.6119
 21
1084.3044
  0
LINE
  8
0_00
  6
CONTINUOUS
 62
4
 10
2720.6119
 20
1084.3044
 11
2720.5881
 21
1083.9975
  0
LINE
  8
0_00
  6
CONTINUOUS
 62
4
 10
2720.5881
 20
1083.9975
 11
2720.5746
 21
1083.7012
  0
LINE
  8
0_00
  6
CONTINUOUS
 62
4
 10
2720.5746
 20
1083.7012
 11
2720.5719
 21
1083.4148
  0
LINE
  8
0_00
  6
CONTINUOUS
 62
4
 10
2720.5719
 20
1083.4148
 11
2720.5789
 21
1083.1374
  0
LINE
  8
0_00
  6
CONTINUOUS
 62
4
 10
2720.5789
 20
1083.1374
 11
2720.5951
 21
1082.8685
  0
LINE
  8
0_00
  6
CONTINUOUS
 62
4
 10
2720.5951
 20
1082.8685
 11
2720.6198
 21
1082.6076
  0
LINE
  8
0_00
  6
CONTINUOUS
 62
4
 10
2720.6198
 20
1082.6076
 11
2720.6531
 21
1082.3540
  0
LINE
  8
0_00
  6
CONTINUOUS
 62
4
 10
2720.6531
 20
1082.3540
 11
2720.6940
 21
1082.1068
  0
LINE
  8
0_00
  6
CONTINUOUS
 62
4
 10
2720.6940
 20
1082.1068
 11
2720.7425
 21
1081.8655
  0
LINE
  8
0_00
  6
CONTINUOUS
 62
4
 10
2720.7425
 20
1081.8655
 11
2720.7974
 21
1081.6296
  0
LINE
  8
0_00
  6
CONTINUOUS
 62
4
 10
2720.7974
 20
1081.6296
 11
2720.8582
 21
1081.3982
  0
LINE
  8
0_00
  6
CONTINUOUS
 62
4
 10
2720.8582
 20
1081.3982
 11
2720.9253
 21
1081.1706
  0
LINE
  8
0_00
  6
CONTINUOUS
 62
4
 10
2720.9253
 20
1081.1706
 11
2720.9970
 21
1080.9463
  0
LINE
  8
0_00
  6
CONTINUOUS
 62
4
 10
2720.9970
 20
1080.9463
 11
2721.0736
 21
1080.7247
  0
LINE
  8
0_00
  6
CONTINUOUS
 62
4
 10
2721.0736
 20
1080.7247
 11
2721.1545
 21
1080.5051
  0
LINE
  8
0_00
  6
CONTINUOUS
 62
4
 10
2721.1545
 20
1080.5051
 11
2721.2387
 21
1080.2865
  0
LINE
  8
0_00
  6
CONTINUOUS
 62
4
 10
2721.2387
 20
1080.2865
 11
2721.3260
 21
1080.0689
  0
LINE
  8
0_00
  6
CONTINUOUS
 62
4
 10
2721.3260
 20
1080.0689
 11
2721.4160
 21
1079.8512
  0
LINE
  8
0_00
  6
CONTINUOUS
 62
4
 10
2721.4160
 20
1079.8512
 11
2721.5082
 21
1079.6328
  0
LINE
  8
0_00
  6
CONTINUOUS
 62
4
 10
2721.5082
 20
1079.6328
 11
2721.6019
 21
1079.4131
  0
LINE
  8
0_00
  6
CONTINUOUS
 62
4
 10
2721.6019
 20
1079.4131
 11
2721.6965
 21
1079.1912
  0
LINE
  8
0_00
  6
CONTINUOUS
 62
4
 10
2721.6965
 20
1079.1912
 11
2721.7914
 21
1078.9669
  0
LINE
  8
0_00
  6
CONTINUOUS
 62
4
 10
2721.7914
 20
1078.9669
 11
2721.8866
 21
1078.7392
  0
LINE
  8
0_00
  6
CONTINUOUS
 62
4
 10
2721.8866
 20
1078.7392
 11
2721.9812
 21
1078.5075
  0
LINE
  8
0_00
  6
CONTINUOUS
 62
4
 10
2721.9812
 20
1078.5075
 11
2722.0752
 21
1078.2713
  0
LINE
  8
0_00
  6
CONTINUOUS
 62
4
 10
2722.0752
 20
1078.2713
 11
2722.1667
 21
1078.0297
  0
LINE
  8
0_00
  6
CONTINUOUS
 62
4
 10
2722.1667
 20
1078.0297
 11
2722.2571
 21
1077.7824
  0
LINE
  8
0_00
  6
CONTINUOUS
 62
4
 10
2722.2571
 20
1077.7824
 11
2722.3444
 21
1077.5283
  0
LINE
  8
0_00
  6
CONTINUOUS
 62
4
 10
2722.3444
 20
1077.5283
 11
2722.4289
 21
1077.2672
  0
LINE
  8
0_00
  6
CONTINUOUS
 62
4
 10
2722.4289
 20
1077.2672
 11
2722.5101
 21
1076.9991
  0
LINE
  8
0_00
  6
CONTINUOUS
 62
4
 10
2722.5101
 20
1076.9991
 11
2722.5888
 21
1076.7242
  0
LINE
  8
0_00
  6
CONTINUOUS
 62
4
 10
2722.5888
 20
1076.7242
 11
2722.6645
 21
1076.4428
  0
LINE
  8
0_00
  6
CONTINUOUS
 62
4
 10
2722.6645
 20
1076.4428
 11
2722.7377
 21
1076.1551
  0
LINE
  8
0_00
  6
CONTINUOUS
 62
4
 10
2722.7377
 20
1076.1551
 11
2722.8079
 21
1075.8614
  0
LINE
  8
0_00
  6
CONTINUOUS
 62
4
 10
2722.8079
 20
1075.8614
 11
2722.8760
 21
1075.5620
  0
LINE
  8
0_00
  6
CONTINUOUS
 62
4
 10
2722.8760
 20
1075.5620
 11
2722.9419
 21
1075.2569
  0
LINE
  8
0_00
  6
CONTINUOUS
 62
4
 10
2722.9419
 20
1075.2569
 11
2723.0051
 21
1074.9465
  0
LINE
  8
0_00
  6
CONTINUOUS
 62
4
 10
2723.0051
 20
1074.9465
 11
2723.0664
 21
1074.6310
  0
LINE
  8
0_00
  6
CONTINUOUS
 62
4
 10
2723.0664
 20
1074.6310
 11
2723.1253
 21
1074.3108
  0
LINE
  8
0_00
  6
CONTINUOUS
 62
4
 10
2723.1253
 20
1074.3108
 11
2723.1827
 21
1073.9861
  0
LINE
  8
0_00
  6
CONTINUOUS
 62
4
 10
2723.1827
 20
1073.9861
 11
2723.2379
 21
1073.6568
  0
LINE
  8
0_00
  6
CONTINUOUS
 62
4
 10
2723.2379
 20
1073.6568
 11
2723.2913
 21
1073.3235
  0
LINE
  8
0_00
  6
CONTINUOUS
 62
4
 10
2723.2913
 20
1073.3235
 11
2723.3435
 21
1072.9864
  0
LINE
  8
0_00
  6
CONTINUOUS
 62
4
 10
2723.3435
 20
1072.9864
 11
2723.3939
 21
1072.6456
  0
LINE
  8
0_00
  6
CONTINUOUS
 62
4
 10
2723.3939
 20
1072.6456
 11
2723.4189
 21
1072.4684
  0
LINE
  8
0_00
  6
CONTINUOUS
 62
4
 10
2525.7751
 20
1126.9685
 11
2525.7751
 21
1151.4684
  0
LINE
  8
0_00
  6
CONTINUOUS
 62
4
 10
2551.7754
 20
1126.9685
 11
2551.7754
 21
1128.4685
  0
LINE
  8
0_00
  6
CONTINUOUS
 62
4
 10
2525.7751
 20
1126.9685
 11
2551.7754
 21
1126.9685
  0
LINE
  8
0_00
  6
CONTINUOUS
 62
4
 10
2528.7753
 20
1154.4685
 11
2553.2753
 21
1154.4685
  0
LINE
  8
0_00
  6
CONTINUOUS
 62
4
 10
2553.2753
 20
1128.4685
 11
2553.2753
 21
1154.4685
  0
LINE
  8
0_00
  6
CONTINUOUS
 62
4
 10
2551.7754
 20
1128.4685
 11
2553.2753
 21
1128.4685
  0
LINE
  8
0_00
  6
CONTINUOUS
 62
4
 10
2526.2752
 20
469.2236
 11
2526.2752
 21
1126.9685
  0
LINE
  8
0_00
  6
CONTINUOUS
 62
4
 10
2551.2753
 20
1126.9685
 11
2551.2753
 21
960.0659
  0
LINE
  8
0_00
  6
CONTINUOUS
 62
4
 10
2553.2753
 20
1128.9684
 11
2720.1776
 21
1128.9684
  0
LINE
  8
0_00
  6
CONTINUOUS
 62
4
 10
3833.2141
 20
1153.9684
 11
2553.2753
 21
1153.9684
  0
LINE
  8
144_90
  6
CONTINUOUS
 62
4
 10
2516.5892
 20
1188.4035
 11
2550.5240
 21
1154.4685
  0
LINE
  8
144_90
  6
CONTINUOUS
 62
4
 10
2576.0239
 20
1128.9684
 11
2687.7853
 21
1017.2073
  0
LINE
  8
144_90
  6
CONTINUOUS
 62
4
 10
2491.8405
 20
1163.6546
 11
2525.7751
 21
1129.7197
  0
LINE
  8
144_90
  6
CONTINUOUS
 62
4
 10
2551.2753
 20
1104.2196
 11
2663.0365
 21
992.4584
  0
LINE
  8
0_00
  6
CONTINUOUS
 62
4
 10
2783.7183
 20
1469.9998
 11
2986.6379
 21
1469.9998
  0
LINE
  8
13_0D
  6
CONTINUOUS
 62
6
 10
2433.8725
 20
852.4685
 11
2285.3493
 21
852.4685
  0
LINE
  8
13_0D
  6
CONTINUOUS
 62
6
 10
2537.3058
 20
1102.4685
 11
2285.3493
 21
1102.4685
  0
LINE
  8
13_0D
  6
CONTINUOUS
 62
6
 10
2300.3493
 20
852.4685
 11
2300.3493
 21
1102.4685
  0
LINE
  8
13_0D
  6
CONTINUOUS
 62
6
 10
2300.3493
 20
852.4685
 11
2305.5470
 21
876.9221
  0
LINE
  8
13_0D
  6
CONTINUOUS
 62
6
 10
2300.3493
 20
852.4685
 11
2295.1515
 21
876.9221
  0
LINE
  8
13_0D
  6
CONTINUOUS
 62
6
 10
2300.3493
 20
1102.4685
 11
2295.1515
 21
1078.0148
  0
LINE
  8
13_0D
  6
CONTINUOUS
 62
6
 10
2300.3493
 20
1102.4685
 11
2305.5470
 21
1078.0148
  0
LINE
  8
13_0D
  6
CONTINUOUS
 62
6
 10
2476.1859
 20
1153.9684
 11
2285.3493
 21
1153.9684
  0
LINE
  8
13_0D
  6
CONTINUOUS
 62
6
 10
2300.3493
 20
1102.4685
 11
2300.3493
 21
1153.9684
  0
LINE
  8
13_0D
  6
CONTINUOUS
 62
6
 10
2300.3493
 20
1309.9684
 11
2300.3493
 21
1153.9684
  0
LINE
  8
13_0D
  6
CONTINUOUS
 62
6
 10
2300.3493
 20
1153.9684
 11
2305.5470
 21
1178.4220
  0
LINE
  8
13_0D
  6
CONTINUOUS
 62
6
 10
2300.3493
 20
1153.9684
 11
2295.1515
 21
1178.4220
  0
LINE
  8
13_0D
  6
CONTINUOUS
 62
6
 10
2577.7753
 20
1142.2267
 11
2577.7753
 21
1485.0000
  0
LINE
  8
13_0D
  6
CONTINUOUS
 62
6
 10
2526.2752
 20
1201.6154
 11
2526.2752
 21
1485.0000
  0
LINE
  8
13_0D
  6
CONTINUOUS
 62
6
 10
2526.2752
 20
1469.9998
 11
2577.7753
 21
1469.9998
  0
LINE
  8
13_0D
  6
CONTINUOUS
 62
6
 10
2370.2753
 20
1469.9998
 11
2526.2752
 21
1469.9998
  0
LINE
  8
13_0D
  6
CONTINUOUS
 62
6
 10
2526.2752
 20
1469.9998
 11
2501.8217
 21
1475.1976
  0
LINE
  8
13_0D
  6
CONTINUOUS
 62
6
 10
2526.2752
 20
1469.9998
 11
2501.8217
 21
1464.8021
  0
LINE
  8
13_0D
  6
CONTINUOUS
 62
6
 10
2577.7753
 20
1469.9998
 11
2827.7753
 21
1469.9998
  0
LINE
  8
13_0D
  6
CONTINUOUS
 62
6
 10
2577.7753
 20
1469.9998
 11
2602.2290
 21
1464.8021
  0
LINE
  8
13_0D
  6
CONTINUOUS
 62
6
 10
2577.7753
 20
1469.9998
 11
2602.2290
 21
1475.1976
  0
LINE
  8
13_0D
  6
CONTINUOUS
 62
6
 10
2827.7753
 20
1469.9998
 11
2803.3218
 21
1475.1976
  0
LINE
  8
13_0D
  6
CONTINUOUS
 62
6
 10
2827.7753
 20
1469.9998
 11
2803.3218
 21
1464.8021
  0
LINE
  8
13_0D
  6
CONTINUOUS
 62
6
 10
3727.7753
 20
1243.6834
 11
3727.7753
 21
1485.0000
  0
LINE
  8
13_0D
  6
CONTINUOUS
 62
6
 10
2827.7753
 20
1469.9998
 11
3727.7753
 21
1469.9998
  0
LINE
  8
13_0D
  6
CONTINUOUS
 62
6
 10
2827.7753
 20
1469.9998
 11
2852.2293
 21
1464.8021
  0
LINE
  8
13_0D
  6
CONTINUOUS
 62
6
 10
2827.7753
 20
1469.9998
 11
2852.2293
 21
1475.1976
  0
LINE
  8
13_0D
  6
CONTINUOUS
 62
6
 10
3727.7753
 20
1469.9998
 11
3703.3215
 21
1475.1976
  0
LINE
  8
13_0D
  6
CONTINUOUS
 62
6
 10
3727.7753
 20
1469.9998
 11
3703.3215
 21
1464.8021
  0
LINE
  8
13_0D
  6
CONTINUOUS
 62
6
 10
2827.7753
 20
1288.9516
 11
2827.7753
 21
1382.5760
  0
LINE
  8
13_0D
  6
CONTINUOUS
 62
6
 10
2827.7753
 20
1450.3490
 11
2827.7753
 21
1485.0000
  0
LINE
  8
0_00
  6
CONTINUOUS
 62
4
 10
3056.7328
 20
1896.2221
 11
3839.8117
 21
1896.2221
  0
LINE
  8
0_00
  6
CONTINUOUS
 62
4
 10
3839.8117
 20
1883.7221
 11
3056.7328
 21
1883.7221
  0
LINE
  8
0_00
  6
CONTINUOUS
 62
4
 10
3056.7328
 20
1896.2221
 11
3056.7328
 21
1883.7221
  0
LINE
  8
0_00
  6
CONTINUOUS
 62
4
 10
3069.2328
 20
1896.2221
 11
3069.2328
 21
1883.7221
  0
LINE
  8
0_00
  6
CONTINUOUS
 62
4
 10
3056.7328
 20
1854.0555
 11
3839.8117
 21
1854.0555
  0
LINE
  8
0_00
  6
CONTINUOUS
 62
4
 10
3839.8117
 20
1841.5553
 11
3056.7328
 21
1841.5553
  0
LINE
  8
0_00
  6
CONTINUOUS
 62
4
 10
3056.7328
 20
1854.0555
 11
3056.7328
 21
1841.5553
  0
LINE
  8
0_00
  6
CONTINUOUS
 62
4
 10
3069.2328
 20
1854.0555
 11
3069.2328
 21
1841.5553
  0
LINE
  8
0_00
  6
CONTINUOUS
 62
4
 10
3056.7328
 20
2424.1393
 11
3056.7328
 21
2411.6393
  0
LINE
  8
0_00
  6
CONTINUOUS
 62
4
 10
3069.2328
 20
2424.1393
 11
3069.2328
 21
2411.6393
  0
LINE
  8
0_00
  6
CONTINUOUS
 62
4
 10
3839.8117
 20
2411.6393
 11
3056.7328
 21
2411.6393
  0
LINE
  8
0_00
  6
CONTINUOUS
 62
4
 10
3056.7328
 20
2424.1393
 11
3839.8117
 21
2424.1393
  0
LINE
  8
0_00
  6
CONTINUOUS
 62
4
 10
3056.7328
 20
2380.3281
 11
3056.7328
 21
2367.8281
  0
LINE
  8
0_00
  6
CONTINUOUS
 62
4
 10
3069.2328
 20
2380.3281
 11
3069.2328
 21
2367.8281
  0
LINE
  8
0_00
  6
CONTINUOUS
 62
4
 10
3839.8117
 20
2367.8281
 11
3056.7328
 21
2367.8281
  0
LINE
  8
0_00
  6
CONTINUOUS
 62
4
 10
3056.7328
 20
2380.3281
 11
3839.8117
 21
2380.3281
  0
LINE
  8
0_00
  6
CONTINUOUS
 62
4
 10
3214.4827
 20
2461.6624
 11
3214.4827
 21
2424.1393
  0
LINE
  8
0_00
  6
CONTINUOUS
 62
4
 10
3200.4828
 20
2461.6624
 11
3200.4828
 21
2424.1393
  0
LINE
  8
0_00
  6
CONTINUOUS
 62
4
 10
3214.4827
 20
2411.6393
 11
3214.4827
 21
2380.3281
  0
LINE
  8
0_00
  6
CONTINUOUS
 62
4
 10
3214.4827
 20
2367.8281
 11
3214.4827
 21
2330.2667
  0
LINE
  8
0_00
  6
CONTINUOUS
 62
4
 10
3200.4828
 20
2411.6393
 11
3200.4828
 21
2380.3281
  0
LINE
  8
0_00
  6
CONTINUOUS
 62
4
 10
3200.4828
 20
2367.8281
 11
3200.4828
 21
2330.2667
  0
LINE
  8
0_00
  6
CONTINUOUS
 62
4
 10
3664.4827
 20
2461.6624
 11
3664.4827
 21
2424.1393
  0
LINE
  8
0_00
  6
CONTINUOUS
 62
4
 10
3650.4828
 20
2461.6624
 11
3650.4828
 21
2424.1393
  0
LINE
  8
0_00
  6
CONTINUOUS
 62
4
 10
3650.4828
 20
2411.6393
 11
3650.4828
 21
2380.3281
  0
LINE
  8
0_00
  6
CONTINUOUS
 62
4
 10
3650.4828
 20
2367.8281
 11
3650.4828
 21
2330.2667
  0
LINE
  8
0_00
  6
CONTINUOUS
 62
4
 10
3664.4827
 20
2411.6393
 11
3664.4827
 21
2380.3281
  0
LINE
  8
0_00
  6
CONTINUOUS
 62
4
 10
3664.4827
 20
2367.8281
 11
3664.4827
 21
2330.2667
  0
LINE
  8
0_00
  6
CONTINUOUS
 62
4
 10
3214.4827
 20
1932.2006
 11
3214.4827
 21
1896.2221
  0
LINE
  8
0_00
  6
CONTINUOUS
 62
4
 10
3200.4828
 20
1932.2006
 11
3200.4828
 21
1896.2221
  0
LINE
  8
0_00
  6
CONTINUOUS
 62
4
 10
3200.4828
 20
1883.7221
 11
3200.4828
 21
1854.0555
  0
LINE
  8
0_00
  6
CONTINUOUS
 62
4
 10
3200.4828
 20
1841.5553
 11
3200.4828
 21
1805.6387
  0
LINE
  8
0_00
  6
CONTINUOUS
 62
4
 10
3214.4827
 20
1883.7221
 11
3214.4827
 21
1854.0555
  0
LINE
  8
0_00
  6
CONTINUOUS
 62
4
 10
3214.4827
 20
1841.5553
 11
3214.4827
 21
1805.6387
  0
LINE
  8
0_00
  6
CONTINUOUS
 62
4
 10
3664.4827
 20
1932.2006
 11
3664.4827
 21
1896.2221
  0
LINE
  8
0_00
  6
CONTINUOUS
 62
4
 10
3650.4828
 20
1932.2006
 11
3650.4828
 21
1896.2221
  0
LINE
  8
0_00
  6
CONTINUOUS
 62
4
 10
3650.4828
 20
1883.7221
 11
3650.4828
 21
1854.0555
  0
LINE
  8
0_00
  6
CONTINUOUS
 62
4
 10
3650.4828
 20
1841.5553
 11
3650.4828
 21
1805.6387
  0
LINE
  8
0_00
  6
CONTINUOUS
 62
4
 10
3664.4827
 20
1883.7221
 11
3664.4827
 21
1854.0555
  0
LINE
  8
0_00
  6
CONTINUOUS
 62
4
 10
3664.4827
 20
1841.5553
 11
3664.4827
 21
1805.6387
  0
LINE
  8
0_00
  6
CONTINUOUS
 62
4
 10
322.0179
 20
2424.4980
 11
426.0179
 21
2424.4980
  0
LINE
  8
0_00
  6
CONTINUOUS
 62
4
 10
426.0179
 20
2424.4980
 11
426.0179
 21
2472.4979
  0
LINE
  8
0_00
  6
CONTINUOUS
 62
4
 10
322.0179
 20
2472.4979
 11
426.0179
 21
2472.4979
  0
LINE
  8
0_00
  6
CONTINUOUS
 62
4
 10
322.0179
 20
2424.4980
 11
322.0179
 21
2472.4979
  0
LINE
  8
0_00
  6
CONTINUOUS
 62
4
 10
956.1762
 20
1734.5035
 11
1060.1762
 21
1734.5035
  0
LINE
  8
0_00
  6
CONTINUOUS
 62
4
 10
1060.1762
 20
1734.5035
 11
1060.1762
 21
1782.5034
  0
LINE
  8
0_00
  6
CONTINUOUS
 62
4
 10
956.1762
 20
1782.5034
 11
1060.1762
 21
1782.5034
  0
LINE
  8
0_00
  6
CONTINUOUS
 62
4
 10
956.1762
 20
1734.5035
 11
956.1762
 21
1782.5034
  0
LINE
  8
0_00
  6
CONTINUOUS
 62
4
 10
956.1762
 20
509.5035
 11
1060.1762
 21
509.5035
  0
LINE
  8
0_00
  6
CONTINUOUS
 62
4
 10
1060.1762
 20
509.5035
 11
1060.1762
 21
557.5035
  0
LINE
  8
0_00
  6
CONTINUOUS
 62
4
 10
956.1762
 20
557.5035
 11
1060.1762
 21
557.5035
  0
LINE
  8
0_00
  6
CONTINUOUS
 62
4
 10
956.1762
 20
509.5035
 11
956.1762
 21
557.5035
  0
LINE
  8
0_00
  6
CONTINUOUS
 62
4
 10
322.0179
 20
1199.4978
 11
426.0179
 21
1199.4978
  0
LINE
  8
0_00
  6
CONTINUOUS
 62
4
 10
426.0179
 20
1199.4978
 11
426.0179
 21
1247.4978
  0
LINE
  8
0_00
  6
CONTINUOUS
 62
4
 10
322.0179
 20
1247.4978
 11
426.0179
 21
1247.4978
  0
LINE
  8
0_00
  6
CONTINUOUS
 62
4
 10
322.0179
 20
1199.4978
 11
322.0179
 21
1247.4978
  0
LINE
  8
0_00
  6
CONTINUOUS
 62
3
 10
1824.7032
 20
324.0002
 11
1824.7032
 21
124.0001
  0
LINE
  8
0_00
  6
CONTINUOUS
 62
7
 10
182.3016
 20
374.0002
 11
4061.7035
 21
374.0002
  0
LINE
  8
0_00
  6
CONTINUOUS
 62
3
 10
4061.7035
 20
2838.9999
 11
4061.7035
 21
2883.9999
  0
LINE
  8
0_00
  6
CONTINUOUS
 62
7
 10
4061.7035
 20
124.0001
 11
4061.7035
 21
2838.9999
  0
LINE
  8
0_00
  6
CONTINUOUS
 62
3
 10
182.3016
 20
2838.9999
 11
182.3016
 21
2883.9999
  0
LINE
  8
0_00
  6
CONTINUOUS
 62
7
 10
182.3016
 20
124.0001
 11
182.3016
 21
2838.9999
  0
LINE
  8
0_00
  6
CONTINUOUS
 62
7
 10
182.3016
 20
2838.9999
 11
4061.7035
 21
2838.9999
  0
LINE
  8
0_00
  6
CONTINUOUS
 62
7
 10
182.3016
 20
124.0001
 11
4061.7035
 21
124.0001
  0
LINE
  8
0_00
  6
CONTINUOUS
 62
3
 10
132.3016
 20
74.0001
 11
132.3016
 21
2883.9999
  0
LINE
  8
0_00
  6
CONTINUOUS
 62
3
 10
4111.7032
 20
74.0001
 11
4111.7032
 21
2883.9999
  0
LINE
  8
0_00
  6
CONTINUOUS
 62
3
 10
132.3016
 20
2883.9999
 11
4111.7032
 21
2883.9999
  0
LINE
  8
0_00
  6
CONTINUOUS
 62
3
 10
3568.7033
 20
124.0001
 11
3568.7033
 21
374.0002
  0
LINE
  8
0_00
  6
CONTINUOUS
 62
3
 10
182.3016
 20
324.0002
 11
2709.2035
 21
324.0002
  0
LINE
  8
0_00
  6
CONTINUOUS
 62
7
 10
2709.2035
 20
324.0002
 11
4061.7035
 21
324.0002
  0
LINE
  8
0_00
  6
CONTINUOUS
 62
3
 10
3568.7033
 20
224.0001
 11
4061.7035
 21
224.0001
  0
LINE
  8
0_00
  6
CONTINUOUS
 62
3
 10
3668.7033
 20
374.0002
 11
3668.7033
 21
324.0002
  0
LINE
  8
0_00
  6
CONTINUOUS
 62
3
 10
2709.2035
 20
124.0001
 11
2709.2035
 21
324.0002
  0
LINE
  8
0_00
  6
CONTINUOUS
 62
7
 10
2709.2035
 20
324.0002
 11
2709.2035
 21
374.0002
  0
LINE
  8
0_00
  6
CONTINUOUS
 62
3
 10
2789.2035
 20
324.0002
 11
2789.2035
 21
374.0002
  0
LINE
  8
0_00
  6
CONTINUOUS
 62
3
 10
3041.7035
 20
124.0001
 11
3041.7035
 21
374.0002
  0
LINE
  8
0_00
  6
CONTINUOUS
 62
3
 10
3348.7033
 20
324.0002
 11
3348.7033
 21
374.0002
  0
LINE
  8
0_00
  6
CONTINUOUS
 62
3
 10
3440.7034
 20
124.0001
 11
3440.7034
 21
324.0002
  0
LINE
  8
0_00
  6
CONTINUOUS
 62
3
 10
3319.7031
 20
124.0001
 11
3319.7031
 21
324.0002
  0
LINE
  8
0_00
  6
CONTINUOUS
 62
3
 10
3198.7030
 20
124.0001
 11
3198.7030
 21
324.0002
  0
LINE
  8
0_00
  6
CONTINUOUS
 62
3
 10
1562.2032
 20
124.0001
 11
1562.2032
 21
374.0002
  0
LINE
  8
0_00
  6
CONTINUOUS
 62
3
 10
2087.2031
 20
124.0001
 11
2087.2031
 21
324.0002
  0
LINE
  8
0_00
  6
CONTINUOUS
 62
3
 10
182.3016
 20
274.0002
 11
1562.2032
 21
274.0002
  0
LINE
  8
0_00
  6
CONTINUOUS
 62
3
 10
182.3016
 20
224.0001
 11
3041.7035
 21
224.0001
  0
LINE
  8
0_00
  6
CONTINUOUS
 62
3
 10
582.3016
 20
174.0001
 11
1562.2032
 21
174.0001
  0
LINE
  8
0_00
  6
CONTINUOUS
 62
7
 10
182.3016
 20
174.0001
 11
582.3016
 21
174.0001
  0
LINE
  8
0_00
  6
CONTINUOUS
 62
3
 10
2726.7035
 20
2838.9999
 11
2726.7035
 21
2883.9999
  0
LINE
  8
0_00
  6
CONTINUOUS
 62
3
 10
2626.7035
 20
2838.9999
 11
2626.7035
 21
2883.9999
  0
LINE
  8
0_00
  6
CONTINUOUS
 62
3
 10
682.3016
 20
2838.9999
 11
682.3016
 21
2883.9999
  0
LINE
  8
0_00
  6
CONTINUOUS
 62
3
 10
2846.7032
 20
2838.9999
 11
2846.7032
 21
2883.9999
  0
LINE
  8
0_00
  6
CONTINUOUS
 62
3
 10
3051.7035
 20
2838.9999
 11
3051.7035
 21
2883.9999
  0
LINE
  8
0_00
  6
CONTINUOUS
 62
3
 10
3821.7032
 20
2838.9999
 11
3821.7032
 21
2883.9999
  0
LINE
  8
0_00
  6
CONTINUOUS
 62
3
 10
382.3016
 20
374.0002
 11
382.3016
 21
124.0001
  0
LINE
  8
0_00
  6
CONTINUOUS
 62
7
 10
582.3016
 20
374.0002
 11
582.3016
 21
124.0001
  0
LINE
  8
0_00
  6
CONTINUOUS
 62
3
 10
2899.2035
 20
224.0001
 11
2899.2035
 21
324.0002
  0
LINE
  8
0_00
  6
CONTINUOUS
 62
3
 10
2979.2035
 20
374.0002
 11
2979.2035
 21
324.0002
  0
LINE
  8
0_00
  6
CONTINUOUS
 62
3
 10
3041.7035
 20
274.0002
 11
3568.7033
 21
274.0002
  0
LINE
  8
0_00
  6
CONTINUOUS
 62
3
 10
3588.7033
 20
239.0001
 11
3595.2029
 21
239.0001
  0
LINE
  8
0_00
  6
CONTINUOUS
 62
3
 10
3595.2029
 20
239.0001
 11
3595.2029
 21
304.0001
  0
LINE
  8
0_00
  6
CONTINUOUS
 62
3
 10
3595.2029
 20
304.0001
 11
3588.7033
 21
304.0001
  0
LINE
  8
0_00
  6
CONTINUOUS
 62
3
 10
3588.7033
 20
239.0001
 11
3588.7033
 21
304.0001
  0
LINE
  8
0_00
  6
CONTINUOUS
 62
3
 10
3597.8030
 20
239.0001
 11
3604.3033
 21
239.0001
  0
LINE
  8
0_00
  6
CONTINUOUS
 62
3
 10
3604.3033
 20
239.0001
 11
3604.3033
 21
304.0001
  0
LINE
  8
0_00
  6
CONTINUOUS
 62
3
 10
3604.3033
 20
304.0001
 11
3597.8030
 21
304.0001
  0
LINE
  8
0_00
  6
CONTINUOUS
 62
3
 10
3597.8030
 20
239.0001
 11
3597.8030
 21
304.0001
  0
LINE
  8
0_00
  6
CONTINUOUS
 62
3
 10
3606.9034
 20
239.0001
 11
3613.4030
 21
239.0001
  0
LINE
  8
0_00
  6
CONTINUOUS
 62
3
 10
3613.4030
 20
239.0001
 11
3613.4030
 21
304.0001
  0
LINE
  8
0_00
  6
CONTINUOUS
 62
3
 10
3613.4030
 20
304.0001
 11
3606.9034
 21
304.0001
  0
LINE
  8
0_00
  6
CONTINUOUS
 62
3
 10
3606.9034
 20
239.0001
 11
3606.9034
 21
304.0001
  0
LINE
  8
0_00
  6
CONTINUOUS
 62
3
 10
3616.0031
 20
239.0001
 11
3622.5031
 21
239.0001
  0
LINE
  8
0_00
  6
CONTINUOUS
 62
3
 10
3622.5031
 20
304.0001
 11
3616.0031
 21
304.0001
  0
LINE
  8
0_00
  6
CONTINUOUS
 62
3
 10
3616.0031
 20
239.0001
 11
3616.0031
 21
304.0001
  0
LINE
  8
0_00
  6
CONTINUOUS
 62
3
 10
3641.3535
 20
239.0001
 11
3666.7032
 21
239.0001
  0
LINE
  8
0_00
  6
CONTINUOUS
 62
3
 10
3666.7032
 20
239.0001
 11
3666.7032
 21
244.8501
  0
LINE
  8
0_00
  6
CONTINUOUS
 62
3
 10
3666.7032
 20
244.8501
 11
3641.3535
 21
244.8501
  0
LINE
  8
0_00
  6
CONTINUOUS
 62
3
 10
3641.3535
 20
244.8501
 11
3641.3535
 21
239.0001
  0
LINE
  8
0_00
  6
CONTINUOUS
 62
3
 10
3641.3535
 20
247.4502
 11
3666.7032
 21
247.4502
  0
LINE
  8
0_00
  6
CONTINUOUS
 62
3
 10
3666.7032
 20
247.4502
 11
3666.7032
 21
253.3000
  0
LINE
  8
0_00
  6
CONTINUOUS
 62
3
 10
3666.7032
 20
253.3000
 11
3641.3535
 21
253.3000
  0
LINE
  8
0_00
  6
CONTINUOUS
 62
3
 10
3641.3535
 20
253.3000
 11
3641.3535
 21
247.4502
  0
LINE
  8
0_00
  6
CONTINUOUS
 62
3
 10
3641.3535
 20
255.9001
 11
3666.7032
 21
255.9001
  0
LINE
  8
0_00
  6
CONTINUOUS
 62
3
 10
3666.7032
 20
255.9001
 11
3666.7032
 21
261.7501
  0
LINE
  8
0_00
  6
CONTINUOUS
 62
3
 10
3666.7032
 20
261.7501
 11
3641.3535
 21
261.7501
  0
LINE
  8
0_00
  6
CONTINUOUS
 62
3
 10
3641.3535
 20
261.7501
 11
3641.3535
 21
255.9001
  0
LINE
  8
0_00
  6
CONTINUOUS
 62
3
 10
3641.3535
 20
264.3502
 11
3666.7032
 21
264.3502
  0
LINE
  8
0_00
  6
CONTINUOUS
 62
3
 10
3666.7032
 20
264.3502
 11
3666.7032
 21
270.2000
  0
LINE
  8
0_00
  6
CONTINUOUS
 62
3
 10
3666.7032
 20
270.2000
 11
3641.3535
 21
270.2000
  0
LINE
  8
0_00
  6
CONTINUOUS
 62
3
 10
3641.3535
 20
270.2000
 11
3641.3535
 21
264.3502
  0
LINE
  8
0_00
  6
CONTINUOUS
 62
3
 10
3641.3535
 20
272.8001
 11
3666.7032
 21
272.8001
  0
LINE
  8
0_00
  6
CONTINUOUS
 62
3
 10
3666.7032
 20
272.8001
 11
3666.7032
 21
278.6501
  0
LINE
  8
0_00
  6
CONTINUOUS
 62
3
 10
3666.7032
 20
278.6501
 11
3641.3535
 21
278.6501
  0
LINE
  8
0_00
  6
CONTINUOUS
 62
3
 10
3641.3535
 20
278.6501
 11
3641.3535
 21
272.8001
  0
LINE
  8
0_00
  6
CONTINUOUS
 62
3
 10
3641.3535
 20
281.2502
 11
3666.7032
 21
281.2502
  0
LINE
  8
0_00
  6
CONTINUOUS
 62
3
 10
3666.7032
 20
281.2502
 11
3666.7032
 21
287.1001
  0
LINE
  8
0_00
  6
CONTINUOUS
 62
3
 10
3666.7032
 20
287.1001
 11
3641.3535
 21
287.1001
  0
LINE
  8
0_00
  6
CONTINUOUS
 62
3
 10
3641.3535
 20
287.1001
 11
3641.3535
 21
281.2502
  0
LINE
  8
0_00
  6
CONTINUOUS
 62
3
 10
3641.3535
 20
289.7002
 11
3666.7032
 21
289.7002
  0
LINE
  8
0_00
  6
CONTINUOUS
 62
3
 10
3666.7032
 20
289.7002
 11
3666.7032
 21
295.5502
  0
LINE
  8
0_00
  6
CONTINUOUS
 62
3
 10
3666.7032
 20
295.5502
 11
3641.3535
 21
295.5502
  0
LINE
  8
0_00
  6
CONTINUOUS
 62
3
 10
3641.3535
 20
295.5502
 11
3641.3535
 21
289.7002
  0
LINE
  8
0_00
  6
CONTINUOUS
 62
3
 10
3641.3535
 20
298.1503
 11
3666.7032
 21
298.1503
  0
LINE
  8
0_00
  6
CONTINUOUS
 62
3
 10
3666.7032
 20
298.1503
 11
3666.7032
 21
304.0001
  0
LINE
  8
0_00
  6
CONTINUOUS
 62
3
 10
3666.7032
 20
304.0001
 11
3641.3535
 21
304.0001
  0
LINE
  8
0_00
  6
CONTINUOUS
 62
3
 10
3641.3535
 20
304.0001
 11
3641.3535
 21
298.1503
  0
LINE
  8
0_00
  6
CONTINUOUS
 62
3
 10
3625.1031
 20
239.0001
 11
3625.1031
 21
256.8752
  0
LINE
  8
0_00
  6
CONTINUOUS
 62
3
 10
3629.4583
 20
242.5749
 11
3629.4583
 21
256.8752
  0
LINE
  8
0_00
  6
CONTINUOUS
 62
3
 10
3625.1031
 20
239.0001
 11
3632.2531
 21
239.0001
  0
LINE
  8
0_00
  6
CONTINUOUS
 62
3
 10
3629.4583
 20
242.5749
 11
3632.2531
 21
242.5749
  0
LINE
  8
0_00
  6
CONTINUOUS
 62
3
 10
3632.0166
 20
266.0185
 11
3634.8532
 21
260.4502
  0
LINE
  8
0_00
  6
CONTINUOUS
 62
3
 10
3636.4697
 20
275.1509
 11
3632.0157
 21
266.0183
  0
LINE
  8
0_00
  6
CONTINUOUS
 62
3
 10
3622.5031
 20
284.5003
 11
3622.5031
 21
304.0001
  0
LINE
  8
0_00
  6
CONTINUOUS
 62
3
 10
3622.5031
 20
284.5003
 11
3630.6284
 21
284.5003
  0
LINE
  8
0_00
  6
CONTINUOUS
 62
3
 10
3622.5031
 20
280.6002
 11
3626.1105
 21
280.6002
  0
LINE
  8
0_00
  6
CONTINUOUS
 62
3
 10
3622.5031
 20
260.4502
 11
3634.8532
 21
260.4502
  0
LINE
  8
0_00
  6
CONTINUOUS
 62
3
 10
3622.5031
 20
273.2036
 11
3626.1111
 21
280.6003
  0
LINE
  8
0_00
  6
CONTINUOUS
 62
3
 10
3622.5031
 20
273.2042
 11
3622.5031
 21
280.6002
  0
LINE
  8
0_00
  6
CONTINUOUS
 62
3
 10
3622.5031
 20
260.4502
 11
3622.5031
 21
239.0001
  0
LINE
  8
0_00
  6
CONTINUOUS
 62
3
 10
3589.7031
 20
304.0001
 11
3589.7031
 21
239.0001
  0
LINE
  8
0_00
  6
CONTINUOUS
 62
3
 10
3590.7034
 20
304.0001
 11
3590.7034
 21
239.0001
  0
LINE
  8
0_00
  6
CONTINUOUS
 62
3
 10
3591.7032
 20
304.0001
 11
3591.7032
 21
239.0001
  0
LINE
  8
0_00
  6
CONTINUOUS
 62
3
 10
3592.7029
 20
304.0001
 11
3592.7029
 21
239.0001
  0
LINE
  8
0_00
  6
CONTINUOUS
 62
3
 10
3593.7033
 20
304.0001
 11
3593.7033
 21
239.0001
  0
LINE
  8
0_00
  6
CONTINUOUS
 62
3
 10
3598.8037
 20
304.0001
 11
3598.8037
 21
239.0001
  0
LINE
  8
0_00
  6
CONTINUOUS
 62
3
 10
3599.8032
 20
304.0001
 11
3599.8032
 21
239.0001
  0
LINE
  8
0_00
  6
CONTINUOUS
 62
3
 10
3600.8029
 20
304.0001
 11
3600.8029
 21
239.0001
  0
LINE
  8
0_00
  6
CONTINUOUS
 62
3
 10
3601.8033
 20
304.0001
 11
3601.8033
 21
239.0001
  0
LINE
  8
0_00
  6
CONTINUOUS
 62
3
 10
3602.8030
 20
304.0001
 11
3602.8030
 21
239.0001
  0
LINE
  8
0_00
  6
CONTINUOUS
 62
3
 10
3603.8037
 20
304.0001
 11
3603.8037
 21
239.0001
  0
LINE
  8
0_00
  6
CONTINUOUS
 62
3
 10
3607.9031
 20
304.0001
 11
3607.9031
 21
239.0001
  0
LINE
  8
0_00
  6
CONTINUOUS
 62
3
 10
3608.9035
 20
304.0001
 11
3608.9035
 21
239.0001
  0
LINE
  8
0_00
  6
CONTINUOUS
 62
3
 10
3609.9030
 20
304.0001
 11
3609.9030
 21
239.0001
  0
LINE
  8
0_00
  6
CONTINUOUS
 62
3
 10
3610.9030
 20
304.0001
 11
3610.9030
 21
239.0001
  0
LINE
  8
0_00
  6
CONTINUOUS
 62
3
 10
3611.9034
 20
304.0001
 11
3611.9034
 21
239.0001
  0
LINE
  8
0_00
  6
CONTINUOUS
 62
3
 10
3612.9031
 20
304.0001
 11
3612.9031
 21
239.0001
  0
LINE
  8
0_00
  6
CONTINUOUS
 62
3
 10
3641.3535
 20
240.0002
 11
3666.7032
 21
240.0002
  0
LINE
  8
0_00
  6
CONTINUOUS
 62
3
 10
3641.3535
 20
241.0002
 11
3666.7032
 21
241.0002
  0
LINE
  8
0_00
  6
CONTINUOUS
 62
3
 10
3641.3535
 20
242.0000
 11
3666.7032
 21
242.0000
  0
LINE
  8
0_00
  6
CONTINUOUS
 62
3
 10
3641.3535
 20
243.0001
 11
3666.7032
 21
243.0001
  0
LINE
  8
0_00
  6
CONTINUOUS
 62
3
 10
3641.3535
 20
244.0001
 11
3666.7032
 21
244.0001
  0
LINE
  8
0_00
  6
CONTINUOUS
 62
3
 10
3641.3535
 20
248.4502
 11
3666.7032
 21
248.4502
  0
LINE
  8
0_00
  6
CONTINUOUS
 62
3
 10
3641.3535
 20
249.4503
 11
3666.7032
 21
249.4503
  0
LINE
  8
0_00
  6
CONTINUOUS
 62
3
 10
3641.3535
 20
250.4501
 11
3666.7032
 21
250.4501
  0
LINE
  8
0_00
  6
CONTINUOUS
 62
3
 10
3641.3535
 20
251.4501
 11
3666.7032
 21
251.4501
  0
LINE
  8
0_00
  6
CONTINUOUS
 62
3
 10
3641.3535
 20
252.4502
 11
3666.7032
 21
252.4502
  0
LINE
  8
0_00
  6
CONTINUOUS
 62
3
 10
3641.3535
 20
256.9003
 11
3666.7032
 21
256.9003
  0
LINE
  8
0_00
  6
CONTINUOUS
 62
3
 10
3641.3535
 20
257.9002
 11
3666.7032
 21
257.9002
  0
LINE
  8
0_00
  6
CONTINUOUS
 62
3
 10
3641.3535
 20
258.9000
 11
3666.7032
 21
258.9000
  0
LINE
  8
0_00
  6
CONTINUOUS
 62
3
 10
3641.3535
 20
259.9001
 11
3666.7032
 21
259.9001
  0
LINE
  8
0_00
  6
CONTINUOUS
 62
3
 10
3641.3535
 20
260.9002
 11
3666.7032
 21
260.9002
  0
LINE
  8
0_00
  6
CONTINUOUS
 62
3
 10
3641.3535
 20
265.3502
 11
3666.7032
 21
265.3502
  0
LINE
  8
0_00
  6
CONTINUOUS
 62
3
 10
3641.3535
 20
266.3503
 11
3666.7032
 21
266.3503
  0
LINE
  8
0_00
  6
CONTINUOUS
 62
3
 10
3641.3535
 20
267.3501
 11
3666.7032
 21
267.3501
  0
LINE
  8
0_00
  6
CONTINUOUS
 62
3
 10
3641.3535
 20
268.3501
 11
3666.7032
 21
268.3501
  0
LINE
  8
0_00
  6
CONTINUOUS
 62
3
 10
3641.3535
 20
269.3502
 11
3666.7032
 21
269.3502
  0
LINE
  8
0_00
  6
CONTINUOUS
 62
3
 10
3641.3535
 20
273.8003
 11
3666.7032
 21
273.8003
  0
LINE
  8
0_00
  6
CONTINUOUS
 62
3
 10
3641.3535
 20
274.8003
 11
3666.7032
 21
274.8003
  0
LINE
  8
0_00
  6
CONTINUOUS
 62
3
 10
3641.3535
 20
275.8000
 11
3666.7032
 21
275.8000
  0
LINE
  8
0_00
  6
CONTINUOUS
 62
3
 10
3641.3535
 20
276.8002
 11
3666.7032
 21
276.8002
  0
LINE
  8
0_00
  6
CONTINUOUS
 62
3
 10
3641.3535
 20
277.8002
 11
3666.7032
 21
277.8002
  0
LINE
  8
0_00
  6
CONTINUOUS
 62
3
 10
3666.7032
 20
282.2503
 11
3641.3535
 21
282.2503
  0
LINE
  8
0_00
  6
CONTINUOUS
 62
3
 10
3666.7032
 20
283.2504
 11
3641.3535
 21
283.2504
  0
LINE
  8
0_00
  6
CONTINUOUS
 62
3
 10
3666.7032
 20
284.2501
 11
3641.3535
 21
284.2501
  0
LINE
  8
0_00
  6
CONTINUOUS
 62
3
 10
3666.7032
 20
285.2501
 11
3641.3535
 21
285.2501
  0
LINE
  8
0_00
  6
CONTINUOUS
 62
3
 10
3666.7032
 20
286.2502
 11
3641.3535
 21
286.2502
  0
LINE
  8
0_00
  6
CONTINUOUS
 62
3
 10
3641.3535
 20
290.7003
 11
3666.7032
 21
290.7003
  0
LINE
  8
0_00
  6
CONTINUOUS
 62
3
 10
3641.3535
 20
291.7003
 11
3666.7032
 21
291.7003
  0
LINE
  8
0_00
  6
CONTINUOUS
 62
3
 10
3641.3535
 20
292.7001
 11
3666.7032
 21
292.7001
  0
LINE
  8
0_00
  6
CONTINUOUS
 62
3
 10
3641.3535
 20
293.7002
 11
3666.7032
 21
293.7002
  0
LINE
  8
0_00
  6
CONTINUOUS
 62
3
 10
3641.3535
 20
294.7002
 11
3666.7032
 21
294.7002
  0
LINE
  8
0_00
  6
CONTINUOUS
 62
3
 10
3641.3535
 20
299.1503
 11
3666.7032
 21
299.1503
  0
LINE
  8
0_00
  6
CONTINUOUS
 62
3
 10
3641.3535
 20
300.1504
 11
3666.7032
 21
300.1504
  0
LINE
  8
0_00
  6
CONTINUOUS
 62
3
 10
3641.3535
 20
301.1501
 11
3666.7032
 21
301.1501
  0
LINE
  8
0_00
  6
CONTINUOUS
 62
3
 10
3641.3535
 20
302.1501
 11
3666.7032
 21
302.1501
  0
LINE
  8
0_00
  6
CONTINUOUS
 62
3
 10
3641.3535
 20
303.1503
 11
3666.7032
 21
303.1503
  0
LINE
  8
0_00
  6
CONTINUOUS
 62
3
 10
3617.0029
 20
304.0001
 11
3617.0029
 21
239.0001
  0
LINE
  8
0_00
  6
CONTINUOUS
 62
3
 10
3618.0032
 20
304.0001
 11
3618.0032
 21
239.0001
  0
LINE
  8
0_00
  6
CONTINUOUS
 62
3
 10
3619.0030
 20
304.0001
 11
3619.0030
 21
239.0001
  0
LINE
  8
0_00
  6
CONTINUOUS
 62
3
 10
3620.0027
 20
304.0001
 11
3620.0027
 21
239.0001
  0
LINE
  8
0_00
  6
CONTINUOUS
 62
3
 10
3621.0031
 20
304.0001
 11
3621.0031
 21
239.0001
  0
LINE
  8
0_00
  6
CONTINUOUS
 62
3
 10
3622.0029
 20
304.0001
 11
3622.0029
 21
239.0001
  0
LINE
  8
0_00
  6
CONTINUOUS
 62
3
 10
3626.1035
 20
239.0001
 11
3626.1035
 21
256.8752
  0
LINE
  8
0_00
  6
CONTINUOUS
 62
3
 10
3627.1036
 20
239.0001
 11
3627.1036
 21
256.8752
  0
LINE
  8
0_00
  6
CONTINUOUS
 62
3
 10
3628.1033
 20
239.0001
 11
3628.1033
 21
256.8752
  0
LINE
  8
0_00
  6
CONTINUOUS
 62
3
 10
3629.1031
 20
239.0001
 11
3629.1031
 21
256.8752
  0
LINE
  8
0_00
  6
CONTINUOUS
 62
3
 10
3629.4583
 20
241.5749
 11
3632.2531
 21
241.5749
  0
LINE
  8
0_00
  6
CONTINUOUS
 62
3
 10
3629.4583
 20
240.5748
 11
3632.2531
 21
240.5748
  0
LINE
  8
0_00
  6
CONTINUOUS
 62
3
 10
3629.4583
 20
239.5751
 11
3632.2531
 21
239.5751
  0
LINE
  8
0_00
  6
CONTINUOUS
 62
3
 10
3634.2746
 20
261.5859
 11
3622.6175
 21
261.5859
  0
LINE
  8
0_00
  6
CONTINUOUS
 62
3
 10
3633.6771
 20
262.7591
 11
3622.6175
 21
262.7591
  0
LINE
  8
0_00
  6
CONTINUOUS
 62
3
 10
3632.9791
 20
264.1280
 11
3622.5931
 21
264.1280
  0
LINE
  8
0_00
  6
CONTINUOUS
 62
3
 10
3632.4014
 20
265.2622
 11
3622.5809
 21
265.2622
  0
LINE
  8
0_00
  6
CONTINUOUS
 62
3
 10
3636.9528
 20
278.4206
 11
3630.5008
 21
265.1930
  0
LINE
  8
0_00
  6
CONTINUOUS
 62
3
 10
3636.6318
 20
280.0444
 11
3629.3683
 21
265.1528
  0
LINE
  8
0_00
  6
CONTINUOUS
 62
3
 10
3636.0278
 20
281.0859
 11
3628.3047
 21
265.2528
  0
LINE
  8
0_00
  6
CONTINUOUS
 62
3
 10
3635.3424
 20
281.9643
 11
3627.1512
 21
265.1693
  0
LINE
  8
0_00
  6
CONTINUOUS
 62
3
 10
3634.6695
 20
282.8654
 11
3626.2631
 21
265.6290
  0
LINE
  8
0_00
  6
CONTINUOUS
 62
3
 10
3633.7900
 20
283.3419
 11
3624.9692
 21
265.2581
  0
LINE
  8
0_00
  6
CONTINUOUS
 62
3
 10
3632.9202
 20
283.8402
 11
3623.8443
 21
265.2324
  0
LINE
  8
0_00
  6
CONTINUOUS
 62
3
 10
3631.8881
 20
284.0058
 11
3622.7951
 21
265.3624
  0
LINE
  8
0_00
  6
CONTINUOUS
 62
3
 10
3630.8328
 20
284.1224
 11
3622.3511
 21
266.7324
  0
LINE
  8
0_00
  6
CONTINUOUS
 62
3
 10
3629.7906
 20
284.2674
 11
3622.4429
 21
269.2024
  0
LINE
  8
0_00
  6
CONTINUOUS
 62
3
 10
3628.6520
 20
284.2143
 11
3622.1292
 21
270.8403
  0
LINE
  8
0_00
  6
CONTINUOUS
 62
3
 10
3626.6412
 20
281.6002
 11
3622.5031
 21
281.6002
  0
LINE
  8
0_00
  6
CONTINUOUS
 62
3
 10
3627.4515
 20
282.6003
 11
3622.5031
 21
282.6003
  0
LINE
  8
0_00
  6
CONTINUOUS
 62
3
 10
3627.8317
 20
283.6001
 11
3622.5031
 21
283.6001
  0
LINE
  8
0_00
  6
CONTINUOUS
 62
3
 10
2654.2035
 20
2841.6306
 11
2699.2035
 21
2841.6306
  0
LINE
  8
0_00
  6
CONTINUOUS
 62
3
 10
2657.2284
 20
2846.8695
 11
2654.2035
 21
2841.6306
  0
LINE
  8
0_00
  6
CONTINUOUS
 62
3
 10
2669.6429
 20
2868.3728
 11
2676.7035
 21
2880.6018
  0
LINE
  8
0_00
  6
CONTINUOUS
 62
3
 10
2696.1789
 20
2846.8695
 11
2699.2035
 21
2841.6306
  0
LINE
  8
0_00
  6
CONTINUOUS
 62
3
 10
2683.7640
 20
2868.3728
 11
2676.7035
 21
2880.6018
  0
LINE
  8
0_00
  6
CONTINUOUS
 62
3
 10
4061.7035
 20
514.0002
 11
4071.7035
 21
514.0002
  0
LINE
  8
0_00
  6
CONTINUOUS
 62
3
 10
4061.7035
 20
584.0002
 11
4071.7035
 21
584.0002
  0
LINE
  8
0_00
  6
CONTINUOUS
 62
3
 10
4061.7035
 20
654.0002
 11
4071.7035
 21
654.0002
  0
LINE
  8
0_00
  6
CONTINUOUS
 62
3
 10
4061.7035
 20
724.0002
 11
4071.7035
 21
724.0002
  0
LINE
  8
0_00
  6
CONTINUOUS
 62
3
 10
4061.7035
 20
794.0002
 11
4071.7035
 21
794.0002
  0
LINE
  8
0_00
  6
CONTINUOUS
 62
3
 10
4061.7035
 20
864.0002
 11
4071.7035
 21
864.0002
  0
LINE
  8
0_00
  6
CONTINUOUS
 62
3
 10
4061.7035
 20
934.0002
 11
4071.7035
 21
934.0002
  0
LINE
  8
0_00
  6
CONTINUOUS
 62
3
 10
4061.7035
 20
1004.0002
 11
4071.7035
 21
1004.0002
  0
LINE
  8
0_00
  6
CONTINUOUS
 62
3
 10
4061.7035
 20
1074.0002
 11
4071.7035
 21
1074.0002
  0
LINE
  8
0_00
  6
CONTINUOUS
 62
3
 10
4061.7035
 20
1144.0002
 11
4071.7035
 21
1144.0002
  0
LINE
  8
0_00
  6
CONTINUOUS
 62
3
 10
4061.7035
 20
1214.0002
 11
4071.7035
 21
1214.0002
  0
LINE
  8
0_00
  6
CONTINUOUS
 62
3
 10
4061.7035
 20
1284.0001
 11
4071.7035
 21
1284.0001
  0
LINE
  8
0_00
  6
CONTINUOUS
 62
3
 10
4061.7035
 20
1354.0002
 11
4071.7035
 21
1354.0002
  0
LINE
  8
0_00
  6
CONTINUOUS
 62
3
 10
4061.7035
 20
1424.0002
 11
4071.7035
 21
1424.0002
  0
LINE
  8
0_00
  6
CONTINUOUS
 62
3
 10
4061.7035
 20
1494.0002
 11
4071.7035
 21
1494.0002
  0
LINE
  8
0_00
  6
CONTINUOUS
 62
3
 10
4061.7035
 20
1564.0002
 11
4071.7035
 21
1564.0002
  0
LINE
  8
0_00
  6
CONTINUOUS
 62
3
 10
4061.7035
 20
1634.0001
 11
4071.7035
 21
1634.0001
  0
LINE
  8
0_00
  6
CONTINUOUS
 62
3
 10
4061.7035
 20
2778.9999
 11
4071.7035
 21
2778.9999
  0
LINE
  8
0_00
  6
CONTINUOUS
 62
3
 10
4061.7035
 20
2719.0002
 11
4071.7035
 21
2719.0002
  0
LINE
  8
0_00
  6
CONTINUOUS
 62
3
 10
4061.7035
 20
2659.0002
 11
4071.7035
 21
2659.0002
  0
LINE
  8
0_00
  6
CONTINUOUS
 62
3
 10
4061.7035
 20
2598.9999
 11
4071.7035
 21
2598.9999
  0
LINE
  8
0_00
  6
CONTINUOUS
 62
3
 10
4061.7035
 20
2539.0001
 11
4071.7035
 21
2539.0001
  0
LINE
  8
0_00
  6
CONTINUOUS
 62
3
 10
4061.7035
 20
2479.0001
 11
4071.7035
 21
2479.0001
  0
LINE
  8
0_00
  6
CONTINUOUS
 62
3
 10
4061.7035
 20
1704.0001
 11
4071.7035
 21
1704.0001
  0
LINE
  8
0_00
  6
CONTINUOUS
 62
3
 10
4061.7035
 20
1774.0001
 11
4071.7035
 21
1774.0001
  0
LINE
  8
0_00
  6
CONTINUOUS
 62
3
 10
4061.7035
 20
1844.0001
 11
4071.7035
 21
1844.0001
  0
LINE
  8
0_00
  6
CONTINUOUS
 62
3
 10
4061.7035
 20
1914.0001
 11
4071.7035
 21
1914.0001
  0
LINE
  8
0_00
  6
CONTINUOUS
 62
3
 10
4061.7035
 20
1984.0001
 11
4071.7035
 21
1984.0001
  0
LINE
  8
0_00
  6
CONTINUOUS
 62
3
 10
4061.7035
 20
2054.0002
 11
4071.7035
 21
2054.0002
  0
LINE
  8
0_00
  6
CONTINUOUS
 62
3
 10
4061.7035
 20
2124.0001
 11
4071.7035
 21
2124.0001
  0
LINE
  8
0_00
  6
CONTINUOUS
 62
3
 10
4061.7035
 20
2194.0001
 11
4071.7035
 21
2194.0001
  0
LINE
  8
0_00
  6
CONTINUOUS
 62
3
 10
4061.7035
 20
2264.0001
 11
4071.7035
 21
2264.0001
  0
LINE
  8
0_00
  6
CONTINUOUS
 62
3
 10
4061.7035
 20
2334.0001
 11
4071.7035
 21
2334.0001
  0
LINE
  8
0_00
  6
CONTINUOUS
 62
3
 10
4061.7035
 20
2404.0001
 11
4071.7035
 21
2404.0001
  0
LINE
  8
0_00
  6
CENTER1
 62
3
 10
2936.8030
 20
244.0002
 11
2936.8030
 21
304.0002
  0
LINE
  8
0_00
  6
CONTINUOUS
 62
4
 10
2971.8030
 20
261.5002
 11
2971.8030
 21
286.5002
  0
LINE
  8
0_00
  6
CONTINUOUS
 62
4
 10
3016.8030
 20
254.0002
 11
3016.8030
 21
294.0002
  0
LINE
  8
0_00
  6
CONTINUOUS
 62
4
 10
2971.8030
 20
286.5002
 11
3016.8030
 21
294.0002
  0
LINE
  8
0_00
  6
CONTINUOUS
 62
4
 10
2971.8030
 20
261.5002
 11
3016.8030
 21
254.0002
  0
LINE
  8
0_00
  6
CENTER1
 62
3
 10
2906.8030
 20
274.0002
 11
3024.5184
 21
274.0002
  0
LINE
  8
0_00
  6
CONTINUOUS
 62
3
 10
3971.7032
 20
124.0001
 11
3971.7032
 21
224.0001
  0
LINE
  8
0_00
  6
CONTINUOUS
 62
3
 10
132.3016
 20
74.0001
 11
4111.7032
 21
74.0001
  0
LINE
  8
0_00
  6
CONTINUOUS
 62
3
 10
3941.7035
 20
2883.9999
 11
3941.7035
 21
2838.9999
  0
LINE
  8
0_00
  6
CONTINUOUS
 62
3
 10
0.0000
 20
1479.0001
 11
132.3016
 21
1479.0001
  0
LINE
  8
0_00
  6
CONTINUOUS
 62
3
 10
2087.2031
 20
74.0001
 11
2087.2031
 21
0.0000
  0
LINE
  8
0_00
  6
CONTINUOUS
 62
3
 10
2087.2031
 20
2883.9999
 11
2087.2031
 21
2970.0000
  0
LINE
  8
0_00
  6
CONTINUOUS
 62
3
 10
4111.7032
 20
1479.0001
 11
4200.0000
 21
1479.0001
  0
LINE
  8
0_00
  6
CONTINUOUS
 62
6
 10
638.0745
 20
2252.4684
 11
638.0745
 21
2329.9997
  0
LINE
  8
0_00
  6
CONTINUOUS
 62
6
 10
688.0745
 20
2202.4683
 11
688.0745
 21
2329.9997
  0
LINE
  8
0_00
  6
CONTINUOUS
 62
6
 10
638.0745
 20
2310.0000
 11
688.0745
 21
2310.0000
  0
LINE
  8
0_00
  6
CONTINUOUS
 62
6
 10
925.0745
 20
2310.0000
 11
688.0745
 21
2310.0000
  0
LINE
  8
0_00
  6
CONTINUOUS
 62
6
 10
688.0745
 20
2310.0000
 11
712.5282
 21
2304.8022
  0
LINE
  8
0_00
  6
CONTINUOUS
 62
6
 10
688.0745
 20
2310.0000
 11
712.5282
 21
2315.1976
  0
LINE
  8
0_00
  6
CONTINUOUS
 62
6
 10
578.0745
 20
2310.0000
 11
638.0745
 21
2310.0000
  0
LINE
  8
0_00
  6
CONTINUOUS
 62
6
 10
638.0745
 20
2310.0000
 11
613.6208
 21
2315.1976
  0
LINE
  8
0_00
  6
CONTINUOUS
 62
6
 10
638.0745
 20
2310.0000
 11
613.6208
 21
2304.8022
  0
LINE
  8
0_00
  6
CONTINUOUS
 62
4
 10
1504.1608
 20
1671.9206
 11
1942.1606
 21
1671.9206
  0
LINE
  8
0_00
  6
CONTINUOUS
 62
4
 10
1291.9095
 20
1731.8239
 11
1825.9096
 21
1731.8239
  0
LINE
  8
0_00
  6
CONTINUOUS
 62
6
 10
500.3516
 20
1832.4684
 11
400.0000
 21
1832.4684
  0
LINE
  8
0_00
  6
CONTINUOUS
 62
6
 10
588.0746
 20
2082.4684
 11
400.0000
 21
2082.4684
  0
LINE
  8
0_00
  6
CONTINUOUS
 62
6
 10
420.0000
 20
2082.4684
 11
420.0000
 21
1832.4684
  0
LINE
  8
0_00
  6
CONTINUOUS
 62
6
 10
420.0000
 20
2082.4684
 11
414.8022
 21
2058.0145
  0
LINE
  8
0_00
  6
CONTINUOUS
 62
6
 10
420.0000
 20
2082.4684
 11
425.1978
 21
2058.0145
  0
LINE
  8
0_00
  6
CONTINUOUS
 62
6
 10
420.0000
 20
1832.4684
 11
425.1978
 21
1856.9220
  0
LINE
  8
0_00
  6
CONTINUOUS
 62
6
 10
420.0000
 20
1832.4684
 11
414.8022
 21
1856.9220
  0
LINE
  8
0_00
  6
CONTINUOUS
 62
6
 10
638.0745
 20
2172.4684
 11
638.0745
 21
2400.0000
  0
LINE
  8
0_00
  6
CONTINUOUS
 62
6
 10
568.0746
 20
2202.4683
 11
568.0746
 21
2400.0000
  0
LINE
  8
0_00
  6
CONTINUOUS
 62
6
 10
568.0746
 20
2379.9998
 11
638.0745
 21
2379.9998
  0
LINE
  8
0_00
  6
CONTINUOUS
 62
6
 10
470.0746
 20
2379.9998
 11
568.0746
 21
2379.9998
  0
LINE
  8
0_00
  6
CONTINUOUS
 62
6
 10
568.0746
 20
2379.9998
 11
543.6208
 21
2385.1976
  0
LINE
  8
0_00
  6
CONTINUOUS
 62
6
 10
568.0746
 20
2379.9998
 11
543.6208
 21
2374.8022
  0
LINE
  8
0_00
  6
CONTINUOUS
 62
6
 10
698.0746
 20
2379.9998
 11
638.0745
 21
2379.9998
  0
LINE
  8
0_00
  6
CONTINUOUS
 62
6
 10
638.0745
 20
2379.9998
 11
662.5283
 21
2374.8022
  0
LINE
  8
0_00
  6
CONTINUOUS
 62
6
 10
638.0745
 20
2379.9998
 11
662.5283
 21
2385.1976
  0
LINE
  8
0_00
  6
CONTINUOUS
 62
6
 10
1085.9293
 20
2182.4684
 11
1085.9293
 21
2122.4683
  0
LINE
  8
0_00
  6
CONTINUOUS
 62
6
 10
1085.9293
 20
2280.4684
 11
1085.9293
 21
2182.4684
  0
LINE
  8
0_00
  6
CONTINUOUS
 62
6
 10
1085.9293
 20
2182.4684
 11
1091.1271
 21
2206.9220
  0
LINE
  8
0_00
  6
CONTINUOUS
 62
6
 10
1085.9293
 20
2182.4684
 11
1080.7317
 21
2206.9220
  0
LINE
  8
0_00
  6
CONTINUOUS
 62
6
 10
1085.9293
 20
2062.4684
 11
1085.9293
 21
2122.4683
  0
LINE
  8
0_00
  6
CONTINUOUS
 62
6
 10
1085.9293
 20
2122.4683
 11
1080.7317
 21
2098.0145
  0
LINE
  8
0_00
  6
CONTINUOUS
 62
6
 10
1085.9293
 20
2122.4683
 11
1091.1271
 21
2098.0145
  0
LINE
  8
0_00
  6
CONTINUOUS
 62
6
 10
638.0745
 20
1027.4684
 11
638.0745
 21
1104.9999
  0
LINE
  8
0_00
  6
CONTINUOUS
 62
6
 10
688.0745
 20
977.4684
 11
688.0745
 21
1104.9999
  0
LINE
  8
0_00
  6
CONTINUOUS
 62
6
 10
638.0745
 20
1085.0000
 11
688.0745
 21
1085.0000
  0
LINE
  8
0_00
  6
CONTINUOUS
 62
6
 10
940.0745
 20
1085.0000
 11
688.0745
 21
1085.0000
  0
LINE
  8
0_00
  6
CONTINUOUS
 62
6
 10
688.0745
 20
1085.0000
 11
712.5282
 21
1079.8022
  0
LINE
  8
0_00
  6
CONTINUOUS
 62
6
 10
688.0745
 20
1085.0000
 11
712.5282
 21
1090.1977
  0
LINE
  8
0_00
  6
CONTINUOUS
 62
6
 10
588.0746
 20
1085.0000
 11
638.0745
 21
1085.0000
  0
LINE
  8
0_00
  6
CONTINUOUS
 62
6
 10
638.0745
 20
1085.0000
 11
613.6208
 21
1090.1977
  0
LINE
  8
0_00
  6
CONTINUOUS
 62
6
 10
638.0745
 20
1085.0000
 11
613.6208
 21
1079.8022
  0
LINE
  8
0_00
  6
CONTINUOUS
 62
4
 10
1504.1608
 20
446.9206
 11
1942.1606
 21
446.9206
  0
LINE
  8
0_00
  6
CONTINUOUS
 62
4
 10
1291.9095
 20
506.8240
 11
1825.9096
 21
506.8240
  0
LINE
  8
0_00
  6
CONTINUOUS
 62
6
 10
500.3516
 20
607.4685
 11
400.0000
 21
607.4685
  0
LINE
  8
0_00
  6
CONTINUOUS
 62
6
 10
588.0746
 20
857.4684
 11
400.0000
 21
857.4684
  0
LINE
  8
0_00
  6
CONTINUOUS
 62
6
 10
420.0000
 20
857.4684
 11
420.0000
 21
607.4685
  0
LINE
  8
0_00
  6
CONTINUOUS
 62
6
 10
420.0000
 20
857.4684
 11
414.8022
 21
833.0147
  0
LINE
  8
0_00
  6
CONTINUOUS
 62
6
 10
420.0000
 20
857.4684
 11
425.1978
 21
833.0147
  0
LINE
  8
0_00
  6
CONTINUOUS
 62
6
 10
420.0000
 20
607.4685
 11
425.1978
 21
631.9221
  0
LINE
  8
0_00
  6
CONTINUOUS
 62
6
 10
420.0000
 20
607.4685
 11
414.8022
 21
631.9221
  0
LINE
  8
0_00
  6
CONTINUOUS
 62
4
 10
1715.5600
 20
1231.1703
 11
1961.5601
 21
1231.1703
  0
LINE
  8
0_00
  6
CONTINUOUS
 62
6
 10
1152.3515
 20
817.4685
 11
1152.3515
 21
757.4685
  0
LINE
  8
0_00
  6
CONTINUOUS
 62
6
 10
1152.3515
 20
659.4685
 11
1152.3515
 21
757.4685
  0
LINE
  8
0_00
  6
CONTINUOUS
 62
6
 10
1152.3515
 20
757.4685
 11
1147.1538
 21
733.0148
  0
LINE
  8
0_00
  6
CONTINUOUS
 62
6
 10
1152.3515
 20
757.4685
 11
1157.5492
 21
733.0148
  0
LINE
  8
0_00
  6
CONTINUOUS
 62
6
 10
1152.3515
 20
877.4684
 11
1152.3515
 21
817.4685
  0
LINE
  8
0_00
  6
CONTINUOUS
 62
6
 10
1152.3515
 20
817.4685
 11
1157.5492
 21
841.9221
  0
LINE
  8
0_00
  6
CONTINUOUS
 62
6
 10
1152.3515
 20
817.4685
 11
1147.1538
 21
841.9221
  0
LINE
  8
0_00
  6
CONTINUOUS
 62
6
 10
1242.7820
 20
2672.8485
 11
1242.7820
 21
2784.9997
  0
LINE
  8
0_00
  6
CONTINUOUS
 62
6
 10
1208.1002
 20
2701.4941
 11
1208.1002
 21
2784.9997
  0
LINE
  8
0_00
  6
CONTINUOUS
 62
6
 10
1208.1002
 20
2765.0000
 11
1242.7820
 21
2765.0000
  0
LINE
  8
0_00
  6
CONTINUOUS
 62
6
 10
1110.1002
 20
2765.0000
 11
1208.1002
 21
2765.0000
  0
LINE
  8
0_00
  6
CONTINUOUS
 62
6
 10
1208.1002
 20
2765.0000
 11
1183.6465
 21
2770.1978
  0
LINE
  8
0_00
  6
CONTINUOUS
 62
6
 10
1208.1002
 20
2765.0000
 11
1183.6465
 21
2759.8019
  0
LINE
  8
0_00
  6
CONTINUOUS
 62
6
 10
1367.7818
 20
2701.4941
 11
1367.7818
 21
2784.9997
  0
LINE
  8
0_00
  6
CONTINUOUS
 62
6
 10
1242.7820
 20
2765.0000
 11
1367.7818
 21
2765.0000
  0
LINE
  8
0_00
  6
CONTINUOUS
 62
6
 10
1242.7820
 20
2765.0000
 11
1267.2357
 21
2759.8019
  0
LINE
  8
0_00
  6
CONTINUOUS
 62
6
 10
1242.7820
 20
2765.0000
 11
1267.2357
 21
2770.1978
  0
LINE
  8
0_00
  6
CONTINUOUS
 62
6
 10
1367.7818
 20
2765.0000
 11
1343.3282
 21
2770.1978
  0
LINE
  8
0_00
  6
CONTINUOUS
 62
6
 10
1367.7818
 20
2765.0000
 11
1343.3282
 21
2759.8019
  0
LINE
  8
0_00
  6
CONTINUOUS
 62
6
 10
1817.7818
 20
2701.4941
 11
1817.7818
 21
2784.9997
  0
LINE
  8
0_00
  6
CONTINUOUS
 62
6
 10
1367.7818
 20
2765.0000
 11
1817.7818
 21
2765.0000
  0
LINE
  8
0_00
  6
CONTINUOUS
 62
6
 10
1367.7818
 20
2765.0000
 11
1392.2356
 21
2759.8019
  0
LINE
  8
0_00
  6
CONTINUOUS
 62
6
 10
1367.7818
 20
2765.0000
 11
1392.2356
 21
2770.1978
  0
LINE
  8
0_00
  6
CONTINUOUS
 62
6
 10
1817.7818
 20
2765.0000
 11
1793.3282
 21
2770.1978
  0
LINE
  8
0_00
  6
CONTINUOUS
 62
6
 10
1817.7818
 20
2765.0000
 11
1793.3282
 21
2759.8019
  0
LINE
  8
0_00
  6
CONTINUOUS
 62
6
 10
1188.7318
 20
2586.7239
 11
1029.9999
 21
2586.7239
  0
LINE
  8
0_00
  6
CONTINUOUS
 62
6
 10
1173.2819
 20
2666.6382
 11
1029.9999
 21
2666.6382
  0
LINE
  8
0_00
  6
CONTINUOUS
 62
6
 10
1050.0000
 20
2666.6382
 11
1050.0000
 21
2586.7239
  0
LINE
  8
0_00
  6
CONTINUOUS
 62
6
 10
1050.0000
 20
2726.6385
 11
1050.0000
 21
2666.6382
  0
LINE
  8
0_00
  6
CONTINUOUS
 62
6
 10
1050.0000
 20
2666.6382
 11
1055.1977
 21
2691.0922
  0
LINE
  8
0_00
  6
CONTINUOUS
 62
6
 10
1050.0000
 20
2666.6382
 11
1044.8022
 21
2691.0922
  0
LINE
  8
0_00
  6
CONTINUOUS
 62
6
 10
1050.0000
 20
2526.7241
 11
1050.0000
 21
2586.7239
  0
LINE
  8
0_00
  6
CONTINUOUS
 62
6
 10
1050.0000
 20
2586.7239
 11
1044.8022
 21
2562.2702
  0
LINE
  8
0_00
  6
CONTINUOUS
 62
6
 10
1050.0000
 20
2586.7239
 11
1055.1977
 21
2562.2702
  0
LINE
  8
0_00
  6
CONTINUOUS
 62
6
 10
1278.1001
 20
1476.4941
 11
1278.1001
 21
1560.0000
  0
LINE
  8
0_00
  6
CONTINUOUS
 62
6
 10
1243.4184
 20
1418.0980
 11
1243.4184
 21
1560.0000
  0
LINE
  8
0_00
  6
CONTINUOUS
 62
6
 10
1243.4184
 20
1539.9998
 11
1278.1001
 21
1539.9998
  0
LINE
  8
0_00
  6
CONTINUOUS
 62
6
 10
1145.4183
 20
1539.9998
 11
1243.4184
 21
1539.9998
  0
LINE
  8
0_00
  6
CONTINUOUS
 62
6
 10
1243.4184
 20
1539.9998
 11
1218.9646
 21
1545.1978
  0
LINE
  8
0_00
  6
CONTINUOUS
 62
6
 10
1243.4184
 20
1539.9998
 11
1218.9646
 21
1534.8021
  0
LINE
  8
0_00
  6
CONTINUOUS
 62
6
 10
1367.7818
 20
1476.4941
 11
1367.7818
 21
1560.0000
  0
LINE
  8
0_00
  6
CONTINUOUS
 62
6
 10
1278.1001
 20
1539.9998
 11
1367.7818
 21
1539.9998
  0
LINE
  8
0_00
  6
CONTINUOUS
 62
6
 10
1278.1001
 20
1539.9998
 11
1302.5539
 21
1534.8021
  0
LINE
  8
0_00
  6
CONTINUOUS
 62
6
 10
1278.1001
 20
1539.9998
 11
1302.5539
 21
1545.1978
  0
LINE
  8
0_00
  6
CONTINUOUS
 62
6
 10
1367.7818
 20
1539.9998
 11
1343.3282
 21
1545.1978
  0
LINE
  8
0_00
  6
CONTINUOUS
 62
6
 10
1367.7818
 20
1539.9998
 11
1343.3282
 21
1534.8021
  0
LINE
  8
0_00
  6
CONTINUOUS
 62
6
 10
1817.7818
 20
1476.4941
 11
1817.7818
 21
1560.0000
  0
LINE
  8
0_00
  6
CONTINUOUS
 62
6
 10
1367.7818
 20
1539.9998
 11
1817.7818
 21
1539.9998
  0
LINE
  8
0_00
  6
CONTINUOUS
 62
6
 10
1367.7818
 20
1539.9998
 11
1392.2356
 21
1534.8021
  0
LINE
  8
0_00
  6
CONTINUOUS
 62
6
 10
1367.7818
 20
1539.9998
 11
1392.2356
 21
1545.1978
  0
LINE
  8
0_00
  6
CONTINUOUS
 62
6
 10
1817.7818
 20
1539.9998
 11
1793.3282
 21
1545.1978
  0
LINE
  8
0_00
  6
CONTINUOUS
 62
6
 10
1817.7818
 20
1539.9998
 11
1793.3282
 21
1534.8021
  0
LINE
  8
0_00
  6
CONTINUOUS
 62
6
 10
638.0745
 20
497.7165
 11
708.0746
 21
497.7165
  0
LINE
  8
0_00
  6
CONTINUOUS
 62
6
 10
835.9841
 20
497.7165
 11
708.0746
 21
497.7165
  0
LINE
  8
0_00
  6
CONTINUOUS
 62
6
 10
708.0746
 20
497.7165
 11
732.5283
 21
492.5188
  0
LINE
  8
0_00
  6
CONTINUOUS
 62
6
 10
708.0746
 20
497.7165
 11
732.5283
 21
502.9144
  0
LINE
  8
0_00
  6
CONTINUOUS
 62
6
 10
578.0745
 20
497.7165
 11
638.0745
 21
497.7165
  0
LINE
  8
0_00
  6
CONTINUOUS
 62
6
 10
638.0745
 20
497.7165
 11
613.6208
 21
502.9144
  0
LINE
  8
0_00
  6
CONTINUOUS
 62
6
 10
638.0745
 20
497.7165
 11
613.6208
 21
492.5188
  0
LINE
  8
0_00
  6
CONTINUOUS
 62
4
 10
1972.2476
 20
857.2684
 11
1972.2476
 21
795.2714
  0
LINE
  8
0_00
  6
CONTINUOUS
 62
4
 10
1972.2476
 20
857.6685
 11
1972.2476
 21
919.6655
  0
LINE
  8
0_00
  6
CONTINUOUS
 62
4
 10
1970.7477
 20
919.6655
 11
1970.7477
 21
795.2714
  0
LINE
  8
0_00
  6
CONTINUOUS
 62
4
 10
1972.2476
 20
857.2684
 11
1972.0477
 21
857.4684
  0
LINE
  8
0_00
  6
CONTINUOUS
 62
4
 10
1972.0477
 20
857.4684
 11
1972.2476
 21
857.6685
  0
LINE
  8
14_0E
  6
CONTINUOUS
 62
4
 10
1978.9369
 20
774.9686
 11
2010.2701
 21
775.1873
  0
LINE
  8
0_00
  6
CONTINUOUS
 62
4
 10
2024.2567
 20
776.9849
 11
2014.2343
 21
776.9151
  0
LINE
  8
0_00
  6
CONTINUOUS
 62
4
 10
2024.4476
 20
778.2864
 11
2013.7036
 21
778.2114
  0
LINE
  8
0_00
  6
CONTINUOUS
 62
4
 10
1989.4608
 20
776.4421
 11
1989.7586
 21
776.7442
  0
LINE
  8
0_00
  6
CONTINUOUS
 62
4
 10
1990.0606
 20
776.4462
 11
1989.7586
 21
776.7442
  0
LINE
  8
0_00
  6
CONTINUOUS
 62
4
 10
2009.2412
 20
780.1203
 11
2008.8771
 21
780.3272
  0
LINE
  8
0_00
  6
CONTINUOUS
 62
4
 10
2008.8771
 20
780.3272
 11
2008.1361
 21
779.0230
  0
LINE
  8
0_00
  6
CONTINUOUS
 62
4
 10
2008.1361
 20
779.0230
 11
2008.5002
 21
778.8161
  0
LINE
  8
0_00
  6
CONTINUOUS
 62
4
 10
2008.8124
 20
777.6829
 11
2008.6057
 21
777.3186
  0
LINE
  8
0_00
  6
CONTINUOUS
 62
4
 10
2008.6057
 20
777.3186
 11
2009.9097
 21
776.5778
  0
LINE
  8
0_00
  6
CONTINUOUS
 62
4
 10
2009.9097
 20
776.5778
 11
2010.1167
 21
776.9420
  0
LINE
  8
0_00
  6
CONTINUOUS
 62
4
 10
2011.2498
 20
777.2541
 11
2011.6141
 21
777.0473
  0
LINE
  8
0_00
  6
CONTINUOUS
 62
4
 10
2011.6141
 20
777.0473
 11
2012.3549
 21
778.3514
  0
LINE
  8
0_00
  6
CONTINUOUS
 62
4
 10
2012.3549
 20
778.3514
 11
2011.9908
 21
778.5583
  0
LINE
  8
0_00
  6
CONTINUOUS
 62
4
 10
2009.4199
 20
781.4565
 11
2010.0407
 21
781.1038
  0
LINE
  8
0_00
  6
CONTINUOUS
 62
4
 10
2013.0469
 20
779.3961
 11
2012.4261
 21
779.7487
  0
LINE
  8
0_00
  6
CONTINUOUS
 62
4
 10
1972.9649
 20
780.0561
 11
1970.8698
 21
793.6748
  0
LINE
  8
0_00
  6
CONTINUOUS
 62
4
 10
1978.9420
 20
776.3686
 11
1989.4608
 21
776.4421
  0
LINE
  8
0_00
  6
CONTINUOUS
 62
4
 10
1990.0606
 20
776.4462
 11
1997.7605
 21
776.5000
  0
LINE
  8
0_00
  6
CONTINUOUS
 62
4
 10
2001.1604
 20
776.5237
 11
2005.8969
 21
776.5569
  0
LINE
  8
0_00
  6
CONTINUOUS
 62
4
 10
1974.4629
 20
780.1842
 11
1972.3523
 21
793.9030
  0
LINE
  8
0_00
  6
CONTINUOUS
 62
4
 10
1972.9649
 20
934.8808
 11
1970.8698
 21
921.2620
  0
LINE
  8
0_00
  6
CONTINUOUS
 62
4
 10
1974.4629
 20
934.7526
 11
1972.3523
 21
921.0339
  0
LINE
  8
14_0E
  6
CONTINUOUS
 62
4
 10
1978.9369
 20
939.9683
 11
2010.2701
 21
939.7495
  0
LINE
  8
0_00
  6
CONTINUOUS
 62
4
 10
1978.9420
 20
938.5682
 11
1989.4608
 21
938.4948
  0
LINE
  8
0_00
  6
CONTINUOUS
 62
4
 10
1990.0606
 20
938.4906
 11
1997.7605
 21
938.4369
  0
LINE
  8
0_00
  6
CONTINUOUS
 62
4
 10
2001.1604
 20
938.4131
 11
2005.8969
 21
938.3800
  0
LINE
  8
0_00
  6
CONTINUOUS
 62
4
 10
1989.4608
 20
938.4948
 11
1989.7586
 21
938.1927
  0
LINE
  8
0_00
  6
CONTINUOUS
 62
4
 10
1990.0606
 20
938.4906
 11
1989.7586
 21
938.1927
  0
LINE
  8
0_00
  6
CONTINUOUS
 62
4
 10
2025.7396
 20
779.4454
 11
2025.7463
 21
778.4954
  0
LINE
  8
0_00
  6
CONTINUOUS
 62
4
 10
2024.4476
 20
778.2864
 11
2024.4397
 21
779.4363
  0
LINE
  8
0_00
  6
CONTINUOUS
 62
4
 10
2024.2567
 20
937.9519
 11
2014.2343
 21
938.0218
  0
LINE
  8
0_00
  6
CONTINUOUS
 62
4
 10
2024.4476
 20
936.6505
 11
2013.7036
 21
936.7255
  0
LINE
  8
0_00
  6
CONTINUOUS
 62
4
 10
2009.2412
 20
934.8164
 11
2008.8771
 21
934.6097
  0
LINE
  8
0_00
  6
CONTINUOUS
 62
4
 10
2008.8771
 20
934.6097
 11
2008.1361
 21
935.9138
  0
LINE
  8
0_00
  6
CONTINUOUS
 62
4
 10
2008.1361
 20
935.9138
 11
2008.5002
 21
936.1208
  0
LINE
  8
0_00
  6
CONTINUOUS
 62
4
 10
2008.8124
 20
937.2540
 11
2008.6057
 21
937.6182
  0
LINE
  8
0_00
  6
CONTINUOUS
 62
4
 10
2008.6057
 20
937.6182
 11
2009.9097
 21
938.3591
  0
LINE
  8
0_00
  6
CONTINUOUS
 62
4
 10
2009.9097
 20
938.3591
 11
2010.1167
 21
937.9948
  0
LINE
  8
0_00
  6
CONTINUOUS
 62
4
 10
2011.2498
 20
937.6827
 11
2011.6141
 21
937.8896
  0
LINE
  8
0_00
  6
CONTINUOUS
 62
4
 10
2011.6141
 20
937.8896
 11
2012.3549
 21
936.5854
  0
LINE
  8
0_00
  6
CONTINUOUS
 62
4
 10
2012.3549
 20
936.5854
 11
2011.9908
 21
936.3785
  0
LINE
  8
0_00
  6
CONTINUOUS
 62
4
 10
2009.4199
 20
933.4804
 11
2010.0407
 21
933.8331
  0
LINE
  8
0_00
  6
CONTINUOUS
 62
4
 10
2013.0469
 20
935.5408
 11
2012.4261
 21
935.1881
  0
LINE
  8
0_00
  6
CONTINUOUS
 62
4
 10
2025.7396
 20
935.4914
 11
2025.7463
 21
936.4413
  0
LINE
  8
0_00
  6
CONTINUOUS
 62
4
 10
2024.4476
 20
936.6505
 11
2024.4397
 21
935.5005
  0
LINE
  8
0_00
  6
CONTINUOUS
 62
4
 10
1998.7535
 20
777.5069
 11
1998.7444
 21
778.8069
  0
LINE
  8
0_00
  6
CONTINUOUS
 62
4
 10
2000.1535
 20
777.5167
 11
2000.1443
 21
778.8167
  0
LINE
  8
0_00
  6
CONTINUOUS
 62
4
 10
1998.7535
 20
937.4299
 11
1998.7444
 21
936.1299
  0
LINE
  8
0_00
  6
CONTINUOUS
 62
4
 10
2000.1535
 20
937.4201
 11
2000.1443
 21
936.1201
  0
LINE
  8
0_00
  6
CONTINUOUS
 62
4
 10
1972.2476
 20
2082.2684
 11
1972.2476
 21
2020.2715
  0
LINE
  8
0_00
  6
CONTINUOUS
 62
4
 10
1972.2476
 20
2082.6683
 11
1972.2476
 21
2144.6654
  0
LINE
  8
0_00
  6
CONTINUOUS
 62
4
 10
1970.7477
 20
2144.6654
 11
1970.7477
 21
2020.2715
  0
LINE
  8
0_00
  6
CONTINUOUS
 62
4
 10
1972.2476
 20
2082.2684
 11
1972.0477
 21
2082.4684
  0
LINE
  8
0_00
  6
CONTINUOUS
 62
4
 10
1972.0477
 20
2082.4684
 11
1972.2476
 21
2082.6683
  0
LINE
  8
14_0E
  6
CONTINUOUS
 62
4
 10
1978.9369
 20
1999.9684
 11
2010.2701
 21
2000.1872
  0
LINE
  8
0_00
  6
CONTINUOUS
 62
4
 10
2024.2567
 20
2001.9850
 11
2014.2343
 21
2001.9150
  0
LINE
  8
0_00
  6
CONTINUOUS
 62
4
 10
2024.4476
 20
2003.2863
 11
2013.7036
 21
2003.2114
  0
LINE
  8
0_00
  6
CONTINUOUS
 62
4
 10
1989.4608
 20
2001.4420
 11
1989.7586
 21
2001.7439
  0
LINE
  8
0_00
  6
CONTINUOUS
 62
4
 10
1990.0606
 20
2001.4462
 11
1989.7586
 21
2001.7439
  0
LINE
  8
0_00
  6
CONTINUOUS
 62
4
 10
2009.2412
 20
2005.1202
 11
2008.8771
 21
2005.3271
  0
LINE
  8
0_00
  6
CONTINUOUS
 62
4
 10
2008.8771
 20
2005.3271
 11
2008.1361
 21
2004.0228
  0
LINE
  8
0_00
  6
CONTINUOUS
 62
4
 10
2008.1361
 20
2004.0228
 11
2008.5002
 21
2003.8161
  0
LINE
  8
0_00
  6
CONTINUOUS
 62
4
 10
2008.8124
 20
2002.6828
 11
2008.6057
 21
2002.3187
  0
LINE
  8
0_00
  6
CONTINUOUS
 62
4
 10
2008.6057
 20
2002.3187
 11
2009.9097
 21
2001.5778
  0
LINE
  8
0_00
  6
CONTINUOUS
 62
4
 10
2009.9097
 20
2001.5778
 11
2010.1167
 21
2001.9420
  0
LINE
  8
0_00
  6
CONTINUOUS
 62
4
 10
2011.2498
 20
2002.2540
 11
2011.6141
 21
2002.0473
  0
LINE
  8
0_00
  6
CONTINUOUS
 62
4
 10
2011.6141
 20
2002.0473
 11
2012.3549
 21
2003.3514
  0
LINE
  8
0_00
  6
CONTINUOUS
 62
4
 10
2012.3549
 20
2003.3514
 11
2011.9908
 21
2003.5582
  0
LINE
  8
0_00
  6
CONTINUOUS
 62
4
 10
2009.4199
 20
2006.4565
 11
2010.0407
 21
2006.1037
  0
LINE
  8
0_00
  6
CONTINUOUS
 62
4
 10
2013.0469
 20
2004.3959
 11
2012.4261
 21
2004.7487
  0
LINE
  8
0_00
  6
CONTINUOUS
 62
4
 10
1972.9649
 20
2005.0562
 11
1970.8698
 21
2018.6746
  0
LINE
  8
0_00
  6
CONTINUOUS
 62
4
 10
1978.9420
 20
2001.3686
 11
1989.4608
 21
2001.4420
  0
LINE
  8
0_00
  6
CONTINUOUS
 62
4
 10
1990.0606
 20
2001.4462
 11
1997.7605
 21
2001.4999
  0
LINE
  8
0_00
  6
CONTINUOUS
 62
4
 10
2001.1604
 20
2001.5236
 11
2005.8969
 21
2001.5569
  0
LINE
  8
0_00
  6
CONTINUOUS
 62
4
 10
1974.4629
 20
2005.1843
 11
1972.3523
 21
2018.9029
  0
LINE
  8
0_00
  6
CONTINUOUS
 62
4
 10
1972.9649
 20
2159.8807
 11
1970.8698
 21
2146.2621
  0
LINE
  8
0_00
  6
CONTINUOUS
 62
4
 10
1974.4629
 20
2159.7525
 11
1972.3523
 21
2146.0336
  0
LINE
  8
14_0E
  6
CONTINUOUS
 62
4
 10
1978.9369
 20
2164.9680
 11
2010.2701
 21
2164.7493
  0
LINE
  8
0_00
  6
CONTINUOUS
 62
4
 10
1978.9420
 20
2163.5683
 11
1989.4608
 21
2163.4947
  0
LINE
  8
0_00
  6
CONTINUOUS
 62
4
 10
1990.0606
 20
2163.4906
 11
1997.7605
 21
2163.4369
  0
LINE
  8
0_00
  6
CONTINUOUS
 62
4
 10
2001.1604
 20
2163.4129
 11
2005.8969
 21
2163.3800
  0
LINE
  8
0_00
  6
CONTINUOUS
 62
4
 10
1989.4608
 20
2163.4947
 11
1989.7586
 21
2163.1926
  0
LINE
  8
0_00
  6
CONTINUOUS
 62
4
 10
1990.0606
 20
2163.4906
 11
1989.7586
 21
2163.1926
  0
LINE
  8
0_00
  6
CONTINUOUS
 62
4
 10
2025.7396
 20
2004.4453
 11
2025.7463
 21
2003.4953
  0
LINE
  8
0_00
  6
CONTINUOUS
 62
4
 10
2024.4476
 20
2003.2863
 11
2024.4397
 21
2004.4362
  0
LINE
  8
0_00
  6
CONTINUOUS
 62
4
 10
2024.2567
 20
2162.9520
 11
2014.2343
 21
2163.0219
  0
LINE
  8
0_00
  6
CONTINUOUS
 62
4
 10
2024.4476
 20
2161.6504
 11
2013.7036
 21
2161.7256
  0
LINE
  8
0_00
  6
CONTINUOUS
 62
4
 10
2009.2412
 20
2159.8163
 11
2008.8771
 21
2159.6095
  0
LINE
  8
0_00
  6
CONTINUOUS
 62
4
 10
2008.8771
 20
2159.6095
 11
2008.1361
 21
2160.9137
  0
LINE
  8
0_00
  6
CONTINUOUS
 62
4
 10
2008.1361
 20
2160.9137
 11
2008.5002
 21
2161.1209
  0
LINE
  8
0_00
  6
CONTINUOUS
 62
4
 10
2008.8124
 20
2162.2539
 11
2008.6057
 21
2162.6181
  0
LINE
  8
0_00
  6
CONTINUOUS
 62
4
 10
2008.6057
 20
2162.6181
 11
2009.9097
 21
2163.3589
  0
LINE
  8
0_00
  6
CONTINUOUS
 62
4
 10
2009.9097
 20
2163.3589
 11
2010.1167
 21
2162.9947
  0
LINE
  8
0_00
  6
CONTINUOUS
 62
4
 10
2011.2498
 20
2162.6826
 11
2011.6141
 21
2162.8896
  0
LINE
  8
0_00
  6
CONTINUOUS
 62
4
 10
2011.6141
 20
2162.8896
 11
2012.3549
 21
2161.5852
  0
LINE
  8
0_00
  6
CONTINUOUS
 62
4
 10
2012.3549
 20
2161.5852
 11
2011.9908
 21
2161.3782
  0
LINE
  8
0_00
  6
CONTINUOUS
 62
4
 10
2009.4199
 20
2158.4804
 11
2010.0407
 21
2158.8327
  0
LINE
  8
0_00
  6
CONTINUOUS
 62
4
 10
2013.0469
 20
2160.5408
 11
2012.4261
 21
2160.1880
  0
LINE
  8
0_00
  6
CONTINUOUS
 62
4
 10
2025.7396
 20
2160.4913
 11
2025.7463
 21
2161.4413
  0
LINE
  8
0_00
  6
CONTINUOUS
 62
4
 10
2024.4476
 20
2161.6504
 11
2024.4397
 21
2160.5002
  0
LINE
  8
0_00
  6
CONTINUOUS
 62
4
 10
1998.7535
 20
2002.5070
 11
1998.7444
 21
2003.8069
  0
LINE
  8
0_00
  6
CONTINUOUS
 62
4
 10
2000.1535
 20
2002.5168
 11
2000.1443
 21
2003.8167
  0
LINE
  8
0_00
  6
CONTINUOUS
 62
4
 10
1998.7535
 20
2162.4298
 11
1998.7444
 21
2161.1298
  0
LINE
  8
0_00
  6
CONTINUOUS
 62
4
 10
2000.1535
 20
2162.4202
 11
2000.1443
 21
2161.1201
  0
LINE
  8
13_0D
  6
CONTINUOUS
 62
6
 10
566.2817
 20
954.0100
 11
507.9699
 21
1012.3217
  0
LINE
  8
13_0D
  6
CONTINUOUS
 62
6
 10
541.5329
 20
929.2613
 11
483.2213
 21
987.5729
  0
LINE
  8
13_0D
  6
CONTINUOUS
 62
6
 10
493.8278
 20
976.9664
 11
518.5767
 21
1001.7152
  0
LINE
  8
13_0D
  6
CONTINUOUS
 62
6
 10
562.5118
 20
1045.6504
 11
518.5767
 21
1001.7152
  0
LINE
  8
13_0D
  6
CONTINUOUS
 62
6
 10
518.5767
 20
1001.7152
 11
539.5433
 21
1015.3311
  0
LINE
  8
13_0D
  6
CONTINUOUS
 62
6
 10
518.5767
 20
1001.7152
 11
532.1926
 21
1022.6819
  0
LINE
  8
13_0D
  6
CONTINUOUS
 62
6
 10
447.1698
 20
930.3083
 11
493.8278
 21
976.9664
  0
LINE
  8
13_0D
  6
CONTINUOUS
 62
6
 10
493.8278
 20
976.9664
 11
472.8611
 21
963.3504
  0
LINE
  8
13_0D
  6
CONTINUOUS
 62
6
 10
493.8278
 20
976.9664
 11
480.2119
 21
955.9997
  0
LINE
  8
0_00
  6
CONTINUOUS
 62
6
 10
585.2132
 20
935.0785
 11
512.0010
 21
1061.8858
  0
LINE
  8
0_00
  6
CONTINUOUS
 62
6
 10
585.2132
 20
935.0785
 11
577.4877
 21
958.8548
  0
LINE
  8
0_00
  6
CONTINUOUS
 62
6
 10
585.2132
 20
935.0785
 11
568.4850
 21
953.6572
  0
LINE
  8
0_00
  6
CONTINUOUS
 62
6
 10
512.0010
 20
1061.8858
 11
204.0010
 21
1061.8858
  0
LINE
  8
0_00
  6
CONTINUOUS
 62
6
 10
1275.3101
 20
1999.9684
 11
1320.7712
 21
1921.2274
  0
LINE
  8
0_00
  6
CONTINUOUS
 62
6
 10
1275.3101
 20
1999.9684
 11
1283.0356
 21
1976.1920
  0
LINE
  8
0_00
  6
CONTINUOUS
 62
6
 10
1275.3101
 20
1999.9684
 11
1292.0383
 21
1981.3898
  0
LINE
  8
0_00
  6
CONTINUOUS
 62
6
 10
1320.7712
 20
1921.2274
 11
1556.7711
 21
1921.2274
  0
LINE
  8
0_00
  6
CONTINUOUS
 62
6
 10
713.9845
 20
1997.0198
 11
782.9340
 21
1849.1571
  0
LINE
  8
0_00
  6
CONTINUOUS
 62
6
 10
713.9845
 20
1997.0198
 11
719.6082
 21
1972.6607
  0
LINE
  8
0_00
  6
CONTINUOUS
 62
6
 10
713.9845
 20
1997.0198
 11
729.0298
 21
1977.0541
  0
LINE
  8
0_00
  6
CONTINUOUS
 62
6
 10
782.9340
 20
1849.1571
 11
1090.9340
 21
1849.1571
  0
LINE
  8
0_00
  6
CONTINUOUS
 62
6
 10
2816.2750
 20
1123.9684
 11
2827.4756
 21
1123.9684
  0
LINE
  8
0_00
  6
CONTINUOUS
 62
6
 10
2813.7753
 20
1121.4684
 11
2813.7753
 21
1102.7684
  0
LINE
  8
0_00
  6
DASHED
 62
6
 10
2827.7753
 20
1123.6684
 11
2827.4756
 21
1123.9684
  0
LINE
  8
0_00
  6
CONTINUOUS
 62
6
 10
2824.4754
 20
1122.7683
 11
2820.5649
 21
1122.7683
  0
LINE
  8
0_00
  6
DASHED
 62
6
 10
2814.0753
 20
1102.4685
 11
2813.7753
 21
1102.7684
  0
LINE
  8
0_00
  6
CONTINUOUS
 62
6
 10
2827.7753
 20
1121.9685
 11
2825.2753
 21
1121.9685
  0
LINE
  8
0_00
  6
CONTINUOUS
 62
6
 10
2824.4754
 20
1122.7683
 11
2825.2753
 21
1121.9685
  0
LINE
  8
0_00
  6
DASHED
 62
6
 10
2814.0753
 20
1102.4685
 11
2813.7753
 21
1102.1684
  0
LINE
  8
0_00
  6
DASHED
 62
6
 10
2814.0753
 20
1102.4685
 11
2813.7753
 21
1102.7684
  0
LINE
  8
0_00
  6
CONTINUOUS
 62
6
 10
2839.2752
 20
1123.9684
 11
2828.0753
 21
1123.9684
  0
LINE
  8
0_00
  6
CONTINUOUS
 62
6
 10
2841.7752
 20
1121.4684
 11
2841.7752
 21
1102.7684
  0
LINE
  8
0_00
  6
DASHED
 62
6
 10
2827.7753
 20
1123.6684
 11
2828.0753
 21
1123.9684
  0
LINE
  8
0_00
  6
CONTINUOUS
 62
6
 10
2831.0751
 20
1122.7683
 11
2834.9857
 21
1122.7683
  0
LINE
  8
0_00
  6
DASHED
 62
6
 10
2841.4755
 20
1102.4685
 11
2841.7752
 21
1102.7684
  0
LINE
  8
0_00
  6
CONTINUOUS
 62
6
 10
2827.7753
 20
1121.9685
 11
2830.2753
 21
1121.9685
  0
LINE
  8
0_00
  6
CONTINUOUS
 62
6
 10
2831.0751
 20
1122.7683
 11
2830.2753
 21
1121.9685
  0
LINE
  8
0_00
  6
DASHED
 62
6
 10
2841.4755
 20
1102.4685
 11
2841.7752
 21
1102.1684
  0
LINE
  8
0_00
  6
DASHED
 62
6
 10
2841.4755
 20
1102.4685
 11
2841.7752
 21
1102.7684
  0
LINE
  8
0_00
  6
CONTINUOUS
 62
6
 10
2816.2750
 20
1080.9685
 11
2827.4756
 21
1080.9685
  0
LINE
  8
0_00
  6
CONTINUOUS
 62
6
 10
2813.7753
 20
1083.4685
 11
2813.7753
 21
1102.1684
  0
LINE
  8
0_00
  6
DASHED
 62
6
 10
2827.7753
 20
1081.2683
 11
2827.4756
 21
1080.9685
  0
LINE
  8
0_00
  6
CONTINUOUS
 62
6
 10
2824.4754
 20
1082.1684
 11
2820.5649
 21
1082.1684
  0
LINE
  8
0_00
  6
DASHED
 62
6
 10
2814.0753
 20
1102.4685
 11
2813.7753
 21
1102.1684
  0
LINE
  8
0_00
  6
CONTINUOUS
 62
6
 10
2814.9753
 20
1117.1786
 11
2814.9753
 21
1087.7582
  0
LINE
  8
0_00
  6
CONTINUOUS
 62
6
 10
2827.7753
 20
1082.9685
 11
2825.2753
 21
1082.9685
  0
LINE
  8
0_00
  6
CONTINUOUS
 62
6
 10
2824.4754
 20
1082.1684
 11
2825.2753
 21
1082.9685
  0
LINE
  8
0_00
  6
DASHED
 62
6
 10
2814.0753
 20
1102.4685
 11
2813.7753
 21
1102.7684
  0
LINE
  8
0_00
  6
DASHED
 62
6
 10
2814.0753
 20
1102.4685
 11
2813.7753
 21
1102.1684
  0
LINE
  8
0_00
  6
CONTINUOUS
 62
6
 10
2839.2752
 20
1080.9685
 11
2828.0753
 21
1080.9685
  0
LINE
  8
0_00
  6
CONTINUOUS
 62
6
 10
2841.7752
 20
1083.4685
 11
2841.7752
 21
1102.1684
  0
LINE
  8
0_00
  6
DASHED
 62
6
 10
2827.7753
 20
1081.2683
 11
2828.0753
 21
1080.9685
  0
LINE
  8
0_00
  6
CONTINUOUS
 62
6
 10
2831.0751
 20
1082.1684
 11
2834.9857
 21
1082.1684
  0
LINE
  8
0_00
  6
DASHED
 62
6
 10
2841.4755
 20
1102.4685
 11
2841.7752
 21
1102.1684
  0
LINE
  8
0_00
  6
CONTINUOUS
 62
6
 10
2840.5753
 20
1117.1786
 11
2840.5753
 21
1087.7582
  0
LINE
  8
0_00
  6
CONTINUOUS
 62
6
 10
2827.7753
 20
1082.9685
 11
2830.2753
 21
1082.9685
  0
LINE
  8
0_00
  6
CONTINUOUS
 62
6
 10
2831.0751
 20
1082.1684
 11
2830.2753
 21
1082.9685
  0
LINE
  8
0_00
  6
DASHED
 62
6
 10
2841.4755
 20
1102.4685
 11
2841.7752
 21
1102.7684
  0
LINE
  8
0_00
  6
DASHED
 62
6
 10
2841.4755
 20
1102.4685
 11
2841.7752
 21
1102.1684
  0
LINE
  8
0_00
  6
CONTINUOUS
 62
6
 10
2839.8843
 20
1121.0168
 11
2840.2200
 21
1121.3522
  0
LINE
  8
0_00
  6
CONTINUOUS
 62
6
 10
2840.2200
 20
1121.3522
 11
2839.1592
 21
1122.4130
  0
LINE
  8
0_00
  6
CONTINUOUS
 62
6
 10
2839.1592
 20
1122.4130
 11
2838.8239
 21
1122.0776
  0
LINE
  8
0_00
  6
CONTINUOUS
 62
6
 10
2837.7271
 20
1122.0776
 11
2837.3914
 21
1122.4130
  0
LINE
  8
0_00
  6
CONTINUOUS
 62
6
 10
2837.3914
 20
1122.4130
 11
2836.3309
 21
1121.3522
  0
LINE
  8
0_00
  6
CONTINUOUS
 62
6
 10
2836.3309
 20
1121.3522
 11
2836.6666
 21
1121.0168
  0
LINE
  8
0_00
  6
CONTINUOUS
 62
6
 10
2838.8239
 20
1118.8593
 11
2839.1592
 21
1118.5239
  0
LINE
  8
0_00
  6
CONTINUOUS
 62
6
 10
2839.1592
 20
1118.5239
 11
2840.2200
 21
1119.5845
  0
LINE
  8
0_00
  6
CONTINUOUS
 62
6
 10
2840.2200
 20
1119.5845
 11
2839.8843
 21
1119.9199
  0
LINE
  8
0_00
  6
CONTINUOUS
 62
6
 10
2815.6662
 20
1121.0168
 11
2815.3308
 21
1121.3522
  0
LINE
  8
0_00
  6
CONTINUOUS
 62
6
 10
2815.3308
 20
1121.3522
 11
2816.3916
 21
1122.4130
  0
LINE
  8
0_00
  6
CONTINUOUS
 62
6
 10
2816.3916
 20
1122.4130
 11
2816.7270
 21
1122.0776
  0
LINE
  8
0_00
  6
CONTINUOUS
 62
6
 10
2817.8238
 20
1122.0776
 11
2818.1592
 21
1122.4130
  0
LINE
  8
0_00
  6
CONTINUOUS
 62
6
 10
2818.1592
 20
1122.4130
 11
2819.2197
 21
1121.3522
  0
LINE
  8
0_00
  6
CONTINUOUS
 62
6
 10
2819.2197
 20
1121.3522
 11
2818.8843
 21
1121.0168
  0
LINE
  8
0_00
  6
CONTINUOUS
 62
6
 10
2816.7270
 20
1118.8593
 11
2816.3916
 21
1118.5239
  0
LINE
  8
0_00
  6
CONTINUOUS
 62
6
 10
2816.3916
 20
1118.5239
 11
2815.3308
 21
1119.5845
  0
LINE
  8
0_00
  6
CONTINUOUS
 62
6
 10
2815.3308
 20
1119.5845
 11
2815.6662
 21
1119.9199
  0
LINE
  8
0_00
  6
CONTINUOUS
 62
6
 10
2839.8843
 20
1083.9201
 11
2840.2200
 21
1083.5845
  0
LINE
  8
0_00
  6
CONTINUOUS
 62
6
 10
2840.2200
 20
1083.5845
 11
2839.1592
 21
1082.5239
  0
LINE
  8
0_00
  6
CONTINUOUS
 62
6
 10
2839.1592
 20
1082.5239
 11
2838.8239
 21
1082.8593
  0
LINE
  8
0_00
  6
CONTINUOUS
 62
6
 10
2837.7271
 20
1082.8593
 11
2837.3914
 21
1082.5239
  0
LINE
  8
0_00
  6
CONTINUOUS
 62
6
 10
2837.3914
 20
1082.5239
 11
2836.3309
 21
1083.5845
  0
LINE
  8
0_00
  6
CONTINUOUS
 62
6
 10
2836.3309
 20
1083.5845
 11
2836.6666
 21
1083.9201
  0
LINE
  8
0_00
  6
CONTINUOUS
 62
6
 10
2838.8239
 20
1086.0776
 11
2839.1592
 21
1086.4130
  0
LINE
  8
0_00
  6
CONTINUOUS
 62
6
 10
2839.1592
 20
1086.4130
 11
2840.2200
 21
1085.3522
  0
LINE
  8
0_00
  6
CONTINUOUS
 62
6
 10
2840.2200
 20
1085.3522
 11
2839.8843
 21
1085.0168
  0
LINE
  8
0_00
  6
CONTINUOUS
 62
6
 10
2815.6662
 20
1083.9201
 11
2815.3308
 21
1083.5845
  0
LINE
  8
0_00
  6
CONTINUOUS
 62
6
 10
2815.3308
 20
1083.5845
 11
2816.3916
 21
1082.5239
  0
LINE
  8
0_00
  6
CONTINUOUS
 62
6
 10
2816.3916
 20
1082.5239
 11
2816.7270
 21
1082.8593
  0
LINE
  8
0_00
  6
CONTINUOUS
 62
6
 10
2817.8238
 20
1082.8593
 11
2818.1592
 21
1082.5239
  0
LINE
  8
0_00
  6
CONTINUOUS
 62
6
 10
2818.1592
 20
1082.5239
 11
2819.2197
 21
1083.5845
  0
LINE
  8
0_00
  6
CONTINUOUS
 62
6
 10
2819.2197
 20
1083.5845
 11
2818.8843
 21
1083.9201
  0
LINE
  8
0_00
  6
CONTINUOUS
 62
6
 10
2816.7270
 20
1086.0776
 11
2816.3916
 21
1086.4130
  0
LINE
  8
0_00
  6
CONTINUOUS
 62
6
 10
2816.3916
 20
1086.4130
 11
2815.3308
 21
1085.3522
  0
LINE
  8
0_00
  6
CONTINUOUS
 62
6
 10
2815.3308
 20
1085.3522
 11
2815.6662
 21
1085.0168
  0
LINE
  8
0_00
  6
CONTINUOUS
 62
6
 10
3716.2750
 20
1123.9684
 11
3727.4753
 21
1123.9684
  0
LINE
  8
0_00
  6
CONTINUOUS
 62
6
 10
3713.7753
 20
1121.4684
 11
3713.7753
 21
1102.7684
  0
LINE
  8
0_00
  6
DASHED
 62
6
 10
3727.7753
 20
1123.6684
 11
3727.4753
 21
1123.9684
  0
LINE
  8
0_00
  6
CONTINUOUS
 62
6
 10
3724.4754
 20
1122.7683
 11
3720.5652
 21
1122.7683
  0
LINE
  8
0_00
  6
DASHED
 62
6
 10
3714.0753
 20
1102.4685
 11
3713.7753
 21
1102.7684
  0
LINE
  8
0_00
  6
CONTINUOUS
 62
6
 10
3727.7753
 20
1121.9685
 11
3725.2753
 21
1121.9685
  0
LINE
  8
0_00
  6
CONTINUOUS
 62
6
 10
3724.4754
 20
1122.7683
 11
3725.2753
 21
1121.9685
  0
LINE
  8
0_00
  6
DASHED
 62
6
 10
3714.0753
 20
1102.4685
 11
3713.7753
 21
1102.1684
  0
LINE
  8
0_00
  6
DASHED
 62
6
 10
3714.0753
 20
1102.4685
 11
3713.7753
 21
1102.7684
  0
LINE
  8
0_00
  6
CONTINUOUS
 62
6
 10
3739.2752
 20
1123.9684
 11
3728.0756
 21
1123.9684
  0
LINE
  8
0_00
  6
CONTINUOUS
 62
6
 10
3741.7752
 20
1121.4684
 11
3741.7752
 21
1102.7684
  0
LINE
  8
0_00
  6
DASHED
 62
6
 10
3727.7753
 20
1123.6684
 11
3728.0756
 21
1123.9684
  0
LINE
  8
0_00
  6
CONTINUOUS
 62
6
 10
3731.0754
 20
1122.7683
 11
3734.9857
 21
1122.7683
  0
LINE
  8
0_00
  6
DASHED
 62
6
 10
3741.4755
 20
1102.4685
 11
3741.7752
 21
1102.7684
  0
LINE
  8
0_00
  6
CONTINUOUS
 62
6
 10
3727.7753
 20
1121.9685
 11
3730.2750
 21
1121.9685
  0
LINE
  8
0_00
  6
CONTINUOUS
 62
6
 10
3731.0754
 20
1122.7683
 11
3730.2750
 21
1121.9685
  0
LINE
  8
0_00
  6
DASHED
 62
6
 10
3741.4755
 20
1102.4685
 11
3741.7752
 21
1102.1684
  0
LINE
  8
0_00
  6
DASHED
 62
6
 10
3741.4755
 20
1102.4685
 11
3741.7752
 21
1102.7684
  0
LINE
  8
0_00
  6
CONTINUOUS
 62
6
 10
3716.2750
 20
1080.9685
 11
3727.4753
 21
1080.9685
  0
LINE
  8
0_00
  6
CONTINUOUS
 62
6
 10
3713.7753
 20
1083.4685
 11
3713.7753
 21
1102.1684
  0
LINE
  8
0_00
  6
DASHED
 62
6
 10
3727.7753
 20
1081.2683
 11
3727.4753
 21
1080.9685
  0
LINE
  8
0_00
  6
CONTINUOUS
 62
6
 10
3724.4754
 20
1082.1684
 11
3720.5652
 21
1082.1684
  0
LINE
  8
0_00
  6
DASHED
 62
6
 10
3714.0753
 20
1102.4685
 11
3713.7753
 21
1102.1684
  0
LINE
  8
0_00
  6
CONTINUOUS
 62
6
 10
3714.9753
 20
1117.1786
 11
3714.9753
 21
1087.7582
  0
LINE
  8
0_00
  6
CONTINUOUS
 62
6
 10
3727.7753
 20
1082.9685
 11
3725.2753
 21
1082.9685
  0
LINE
  8
0_00
  6
CONTINUOUS
 62
6
 10
3724.4754
 20
1082.1684
 11
3725.2753
 21
1082.9685
  0
LINE
  8
0_00
  6
DASHED
 62
6
 10
3714.0753
 20
1102.4685
 11
3713.7753
 21
1102.7684
  0
LINE
  8
0_00
  6
DASHED
 62
6
 10
3714.0753
 20
1102.4685
 11
3713.7753
 21
1102.1684
  0
LINE
  8
0_00
  6
CONTINUOUS
 62
6
 10
3739.2752
 20
1080.9685
 11
3728.0756
 21
1080.9685
  0
LINE
  8
0_00
  6
CONTINUOUS
 62
6
 10
3741.7752
 20
1083.4685
 11
3741.7752
 21
1102.1684
  0
LINE
  8
0_00
  6
DASHED
 62
6
 10
3727.7753
 20
1081.2683
 11
3728.0756
 21
1080.9685
  0
LINE
  8
0_00
  6
CONTINUOUS
 62
6
 10
3731.0754
 20
1082.1684
 11
3734.9857
 21
1082.1684
  0
LINE
  8
0_00
  6
DASHED
 62
6
 10
3741.4755
 20
1102.4685
 11
3741.7752
 21
1102.1684
  0
LINE
  8
0_00
  6
CONTINUOUS
 62
6
 10
3740.5756
 20
1117.1786
 11
3740.5756
 21
1087.7582
  0
LINE
  8
0_00
  6
CONTINUOUS
 62
6
 10
3727.7753
 20
1082.9685
 11
3730.2750
 21
1082.9685
  0
LINE
  8
0_00
  6
CONTINUOUS
 62
6
 10
3731.0754
 20
1082.1684
 11
3730.2750
 21
1082.9685
  0
LINE
  8
0_00
  6
DASHED
 62
6
 10
3741.4755
 20
1102.4685
 11
3741.7752
 21
1102.7684
  0
LINE
  8
0_00
  6
DASHED
 62
6
 10
3741.4755
 20
1102.4685
 11
3741.7752
 21
1102.1684
  0
LINE
  8
0_00
  6
CONTINUOUS
 62
6
 10
3739.8846
 20
1121.0168
 11
3740.2200
 21
1121.3522
  0
LINE
  8
0_00
  6
CONTINUOUS
 62
6
 10
3740.2200
 20
1121.3522
 11
3739.1592
 21
1122.4130
  0
LINE
  8
0_00
  6
CONTINUOUS
 62
6
 10
3739.1592
 20
1122.4130
 11
3738.8239
 21
1122.0776
  0
LINE
  8
0_00
  6
CONTINUOUS
 62
6
 10
3737.7267
 20
1122.0776
 11
3737.3914
 21
1122.4130
  0
LINE
  8
0_00
  6
CONTINUOUS
 62
6
 10
3737.3914
 20
1122.4130
 11
3736.3309
 21
1121.3522
  0
LINE
  8
0_00
  6
CONTINUOUS
 62
6
 10
3736.3309
 20
1121.3522
 11
3736.6663
 21
1121.0168
  0
LINE
  8
0_00
  6
CONTINUOUS
 62
6
 10
3738.8239
 20
1118.8593
 11
3739.1592
 21
1118.5239
  0
LINE
  8
0_00
  6
CONTINUOUS
 62
6
 10
3739.1592
 20
1118.5239
 11
3740.2200
 21
1119.5845
  0
LINE
  8
0_00
  6
CONTINUOUS
 62
6
 10
3740.2200
 20
1119.5845
 11
3739.8846
 21
1119.9199
  0
LINE
  8
0_00
  6
CONTINUOUS
 62
6
 10
3715.6662
 20
1121.0168
 11
3715.3308
 21
1121.3522
  0
LINE
  8
0_00
  6
CONTINUOUS
 62
6
 10
3715.3308
 20
1121.3522
 11
3716.3916
 21
1122.4130
  0
LINE
  8
0_00
  6
CONTINUOUS
 62
6
 10
3716.3916
 20
1122.4130
 11
3716.7267
 21
1122.0776
  0
LINE
  8
0_00
  6
CONTINUOUS
 62
6
 10
3717.8235
 20
1122.0776
 11
3718.1592
 21
1122.4130
  0
LINE
  8
0_00
  6
CONTINUOUS
 62
6
 10
3718.1592
 20
1122.4130
 11
3719.2200
 21
1121.3522
  0
LINE
  8
0_00
  6
CONTINUOUS
 62
6
 10
3719.2200
 20
1121.3522
 11
3718.8846
 21
1121.0168
  0
LINE
  8
0_00
  6
CONTINUOUS
 62
6
 10
3716.7267
 20
1118.8593
 11
3716.3916
 21
1118.5239
  0
LINE
  8
0_00
  6
CONTINUOUS
 62
6
 10
3716.3916
 20
1118.5239
 11
3715.3308
 21
1119.5845
  0
LINE
  8
0_00
  6
CONTINUOUS
 62
6
 10
3715.3308
 20
1119.5845
 11
3715.6662
 21
1119.9199
  0
LINE
  8
0_00
  6
CONTINUOUS
 62
6
 10
3739.8846
 20
1083.9201
 11
3740.2200
 21
1083.5845
  0
LINE
  8
0_00
  6
CONTINUOUS
 62
6
 10
3740.2200
 20
1083.5845
 11
3739.1592
 21
1082.5239
  0
LINE
  8
0_00
  6
CONTINUOUS
 62
6
 10
3739.1592
 20
1082.5239
 11
3738.8239
 21
1082.8593
  0
LINE
  8
0_00
  6
CONTINUOUS
 62
6
 10
3737.7267
 20
1082.8593
 11
3737.3914
 21
1082.5239
  0
LINE
  8
0_00
  6
CONTINUOUS
 62
6
 10
3737.3914
 20
1082.5239
 11
3736.3309
 21
1083.5845
  0
LINE
  8
0_00
  6
CONTINUOUS
 62
6
 10
3736.3309
 20
1083.5845
 11
3736.6663
 21
1083.9201
  0
LINE
  8
0_00
  6
CONTINUOUS
 62
6
 10
3738.8239
 20
1086.0776
 11
3739.1592
 21
1086.4130
  0
LINE
  8
0_00
  6
CONTINUOUS
 62
6
 10
3739.1592
 20
1086.4130
 11
3740.2200
 21
1085.3522
  0
LINE
  8
0_00
  6
CONTINUOUS
 62
6
 10
3740.2200
 20
1085.3522
 11
3739.8846
 21
1085.0168
  0
LINE
  8
0_00
  6
CONTINUOUS
 62
6
 10
3715.6662
 20
1083.9201
 11
3715.3308
 21
1083.5845
  0
LINE
  8
0_00
  6
CONTINUOUS
 62
6
 10
3715.3308
 20
1083.5845
 11
3716.3916
 21
1082.5239
  0
LINE
  8
0_00
  6
CONTINUOUS
 62
6
 10
3716.3916
 20
1082.5239
 11
3716.7267
 21
1082.8593
  0
LINE
  8
0_00
  6
CONTINUOUS
 62
6
 10
3717.8235
 20
1082.8593
 11
3718.1592
 21
1082.5239
  0
LINE
  8
0_00
  6
CONTINUOUS
 62
6
 10
3718.1592
 20
1082.5239
 11
3719.2200
 21
1083.5845
  0
LINE
  8
0_00
  6
CONTINUOUS
 62
6
 10
3719.2200
 20
1083.5845
 11
3718.8846
 21
1083.9201
  0
LINE
  8
0_00
  6
CONTINUOUS
 62
6
 10
3716.7267
 20
1086.0776
 11
3716.3916
 21
1086.4130
  0
LINE
  8
0_00
  6
CONTINUOUS
 62
6
 10
3716.3916
 20
1086.4130
 11
3715.3308
 21
1085.3522
  0
LINE
  8
0_00
  6
CONTINUOUS
 62
6
 10
3715.3308
 20
1085.3522
 11
3715.6662
 21
1085.0168
  0
LINE
  8
0_00
  6
CONTINUOUS
 62
6
 10
2556.2753
 20
863.9684
 11
2556.2753
 21
852.7684
  0
LINE
  8
0_00
  6
CONTINUOUS
 62
6
 10
2558.7752
 20
866.4684
 11
2577.4756
 21
866.4684
  0
LINE
  8
0_00
  6
DASHED
 62
6
 10
2556.5752
 20
852.4685
 11
2556.2753
 21
852.7684
  0
LINE
  8
0_00
  6
CONTINUOUS
 62
6
 10
2557.4754
 20
855.7684
 11
2557.4754
 21
859.6786
  0
LINE
  8
0_00
  6
DASHED
 62
6
 10
2577.7753
 20
866.1684
 11
2577.4756
 21
866.4684
  0
LINE
  8
0_00
  6
CONTINUOUS
 62
6
 10
2558.2753
 20
852.4685
 11
2558.2753
 21
854.9685
  0
LINE
  8
0_00
  6
CONTINUOUS
 62
6
 10
2557.4754
 20
855.7684
 11
2558.2753
 21
854.9685
  0
LINE
  8
0_00
  6
DASHED
 62
6
 10
2577.7753
 20
866.1684
 11
2578.0753
 21
866.4684
  0
LINE
  8
0_00
  6
DASHED
 62
6
 10
2577.7753
 20
866.1684
 11
2577.4756
 21
866.4684
  0
LINE
  8
0_00
  6
CONTINUOUS
 62
6
 10
2556.2753
 20
840.9685
 11
2556.2753
 21
852.1684
  0
LINE
  8
0_00
  6
CONTINUOUS
 62
6
 10
2558.7752
 20
838.4685
 11
2577.4756
 21
838.4685
  0
LINE
  8
0_00
  6
DASHED
 62
6
 10
2556.5752
 20
852.4685
 11
2556.2753
 21
852.1684
  0
LINE
  8
0_00
  6
CONTINUOUS
 62
6
 10
2557.4754
 20
849.1684
 11
2557.4754
 21
845.2582
  0
LINE
  8
0_00
  6
DASHED
 62
6
 10
2577.7753
 20
838.7685
 11
2577.4756
 21
838.4685
  0
LINE
  8
0_00
  6
CONTINUOUS
 62
6
 10
2558.2753
 20
852.4685
 11
2558.2753
 21
849.9685
  0
LINE
  8
0_00
  6
CONTINUOUS
 62
6
 10
2557.4754
 20
849.1684
 11
2558.2753
 21
849.9685
  0
LINE
  8
0_00
  6
DASHED
 62
6
 10
2577.7753
 20
838.7685
 11
2578.0753
 21
838.4685
  0
LINE
  8
0_00
  6
DASHED
 62
6
 10
2577.7753
 20
838.7685
 11
2577.4756
 21
838.4685
  0
LINE
  8
0_00
  6
CONTINUOUS
 62
6
 10
2599.2752
 20
863.9684
 11
2599.2752
 21
852.7684
  0
LINE
  8
0_00
  6
CONTINUOUS
 62
6
 10
2596.7752
 20
866.4684
 11
2578.0753
 21
866.4684
  0
LINE
  8
0_00
  6
DASHED
 62
6
 10
2598.9755
 20
852.4685
 11
2599.2752
 21
852.7684
  0
LINE
  8
0_00
  6
CONTINUOUS
 62
6
 10
2598.0753
 20
855.7684
 11
2598.0753
 21
859.6786
  0
LINE
  8
0_00
  6
DASHED
 62
6
 10
2577.7753
 20
866.1684
 11
2578.0753
 21
866.4684
  0
LINE
  8
0_00
  6
CONTINUOUS
 62
6
 10
2563.0652
 20
865.2685
 11
2592.4857
 21
865.2685
  0
LINE
  8
0_00
  6
CONTINUOUS
 62
6
 10
2597.2754
 20
852.4685
 11
2597.2754
 21
854.9685
  0
LINE
  8
0_00
  6
CONTINUOUS
 62
6
 10
2598.0753
 20
855.7684
 11
2597.2754
 21
854.9685
  0
LINE
  8
0_00
  6
DASHED
 62
6
 10
2577.7753
 20
866.1684
 11
2577.4756
 21
866.4684
  0
LINE
  8
0_00
  6
DASHED
 62
6
 10
2577.7753
 20
866.1684
 11
2578.0753
 21
866.4684
  0
LINE
  8
0_00
  6
CONTINUOUS
 62
6
 10
2599.2752
 20
840.9685
 11
2599.2752
 21
852.1684
  0
LINE
  8
0_00
  6
CONTINUOUS
 62
6
 10
2596.7752
 20
838.4685
 11
2578.0753
 21
838.4685
  0
LINE
  8
0_00
  6
DASHED
 62
6
 10
2598.9755
 20
852.4685
 11
2599.2752
 21
852.1684
  0
LINE
  8
0_00
  6
CONTINUOUS
 62
6
 10
2598.0753
 20
849.1684
 11
2598.0753
 21
845.2582
  0
LINE
  8
0_00
  6
DASHED
 62
6
 10
2577.7753
 20
838.7685
 11
2578.0753
 21
838.4685
  0
LINE
  8
0_00
  6
CONTINUOUS
 62
6
 10
2563.0652
 20
839.6684
 11
2592.4857
 21
839.6684
  0
LINE
  8
0_00
  6
CONTINUOUS
 62
6
 10
2597.2754
 20
852.4685
 11
2597.2754
 21
849.9685
  0
LINE
  8
0_00
  6
CONTINUOUS
 62
6
 10
2598.0753
 20
849.1684
 11
2597.2754
 21
849.9685
  0
LINE
  8
0_00
  6
DASHED
 62
6
 10
2577.7753
 20
838.7685
 11
2577.4756
 21
838.4685
  0
LINE
  8
0_00
  6
DASHED
 62
6
 10
2577.7753
 20
838.7685
 11
2578.0753
 21
838.4685
  0
LINE
  8
0_00
  6
CONTINUOUS
 62
6
 10
2559.2270
 20
840.3593
 11
2558.8914
 21
840.0239
  0
LINE
  8
0_00
  6
CONTINUOUS
 62
6
 10
2558.8914
 20
840.0239
 11
2557.8310
 21
841.0846
  0
LINE
  8
0_00
  6
CONTINUOUS
 62
6
 10
2557.8310
 20
841.0846
 11
2558.1662
 21
841.4200
  0
LINE
  8
0_00
  6
CONTINUOUS
 62
6
 10
2558.1662
 20
842.5169
 11
2557.8310
 21
842.8522
  0
LINE
  8
0_00
  6
CONTINUOUS
 62
6
 10
2557.8310
 20
842.8522
 11
2558.8914
 21
843.9130
  0
LINE
  8
0_00
  6
CONTINUOUS
 62
6
 10
2558.8914
 20
843.9130
 11
2559.2270
 21
843.5775
  0
LINE
  8
0_00
  6
CONTINUOUS
 62
6
 10
2561.3846
 20
841.4200
 11
2561.7197
 21
841.0846
  0
LINE
  8
0_00
  6
CONTINUOUS
 62
6
 10
2561.7197
 20
841.0846
 11
2560.6592
 21
840.0239
  0
LINE
  8
0_00
  6
CONTINUOUS
 62
6
 10
2560.6592
 20
840.0239
 11
2560.3238
 21
840.3593
  0
LINE
  8
0_00
  6
CONTINUOUS
 62
6
 10
2559.2270
 20
864.5775
 11
2558.8914
 21
864.9129
  0
LINE
  8
0_00
  6
CONTINUOUS
 62
6
 10
2558.8914
 20
864.9129
 11
2557.8310
 21
863.8523
  0
LINE
  8
0_00
  6
CONTINUOUS
 62
6
 10
2557.8310
 20
863.8523
 11
2558.1662
 21
863.5168
  0
LINE
  8
0_00
  6
CONTINUOUS
 62
6
 10
2558.1662
 20
862.4200
 11
2557.8310
 21
862.0846
  0
LINE
  8
0_00
  6
CONTINUOUS
 62
6
 10
2557.8310
 20
862.0846
 11
2558.8914
 21
861.0239
  0
LINE
  8
0_00
  6
CONTINUOUS
 62
6
 10
2558.8914
 20
861.0239
 11
2559.2270
 21
861.3593
  0
LINE
  8
0_00
  6
CONTINUOUS
 62
6
 10
2561.3846
 20
863.5168
 11
2561.7197
 21
863.8523
  0
LINE
  8
0_00
  6
CONTINUOUS
 62
6
 10
2561.7197
 20
863.8523
 11
2560.6592
 21
864.9129
  0
LINE
  8
0_00
  6
CONTINUOUS
 62
6
 10
2560.6592
 20
864.9129
 11
2560.3238
 21
864.5775
  0
LINE
  8
0_00
  6
CONTINUOUS
 62
6
 10
2596.3239
 20
840.3593
 11
2596.6592
 21
840.0239
  0
LINE
  8
0_00
  6
CONTINUOUS
 62
6
 10
2596.6592
 20
840.0239
 11
2597.7197
 21
841.0846
  0
LINE
  8
0_00
  6
CONTINUOUS
 62
6
 10
2597.7197
 20
841.0846
 11
2597.3843
 21
841.4200
  0
LINE
  8
0_00
  6
CONTINUOUS
 62
6
 10
2597.3843
 20
842.5169
 11
2597.7197
 21
842.8522
  0
LINE
  8
0_00
  6
CONTINUOUS
 62
6
 10
2597.7197
 20
842.8522
 11
2596.6592
 21
843.9130
  0
LINE
  8
0_00
  6
CONTINUOUS
 62
6
 10
2596.6592
 20
843.9130
 11
2596.3239
 21
843.5775
  0
LINE
  8
0_00
  6
CONTINUOUS
 62
6
 10
2594.1663
 20
841.4200
 11
2593.8309
 21
841.0846
  0
LINE
  8
0_00
  6
CONTINUOUS
 62
6
 10
2593.8309
 20
841.0846
 11
2594.8914
 21
840.0239
  0
LINE
  8
0_00
  6
CONTINUOUS
 62
6
 10
2594.8914
 20
840.0239
 11
2595.2267
 21
840.3593
  0
LINE
  8
0_00
  6
CONTINUOUS
 62
6
 10
2596.3239
 20
864.5775
 11
2596.6592
 21
864.9129
  0
LINE
  8
0_00
  6
CONTINUOUS
 62
6
 10
2596.6592
 20
864.9129
 11
2597.7197
 21
863.8523
  0
LINE
  8
0_00
  6
CONTINUOUS
 62
6
 10
2597.7197
 20
863.8523
 11
2597.3843
 21
863.5168
  0
LINE
  8
0_00
  6
CONTINUOUS
 62
6
 10
2597.3843
 20
862.4200
 11
2597.7197
 21
862.0846
  0
LINE
  8
0_00
  6
CONTINUOUS
 62
6
 10
2597.7197
 20
862.0846
 11
2596.6592
 21
861.0239
  0
LINE
  8
0_00
  6
CONTINUOUS
 62
6
 10
2596.6592
 20
861.0239
 11
2596.3239
 21
861.3593
  0
LINE
  8
0_00
  6
CONTINUOUS
 62
6
 10
2594.1663
 20
863.5168
 11
2593.8309
 21
863.8523
  0
LINE
  8
0_00
  6
CONTINUOUS
 62
6
 10
2593.8309
 20
863.8523
 11
2594.8914
 21
864.9129
  0
LINE
  8
0_00
  6
CONTINUOUS
 62
6
 10
2594.8914
 20
864.9129
 11
2595.2267
 21
864.5775
  0
LINE
  8
0_00
  6
CONTINUOUS
 62
6
 10
2577.7753
 20
1272.4684
 11
2577.7753
 21
1420.0000
  0
LINE
  8
0_00
  6
CONTINUOUS
 62
6
 10
2627.7753
 20
1222.4684
 11
2627.7753
 21
1420.0000
  0
LINE
  8
0_00
  6
CONTINUOUS
 62
6
 10
2577.7753
 20
1399.9998
 11
2627.7753
 21
1399.9998
  0
LINE
  8
0_00
  6
CONTINUOUS
 62
6
 10
2879.7751
 20
1399.9998
 11
2627.7753
 21
1399.9998
  0
LINE
  8
0_00
  6
CONTINUOUS
 62
6
 10
2627.7753
 20
1399.9998
 11
2652.2290
 21
1394.8022
  0
LINE
  8
0_00
  6
CONTINUOUS
 62
6
 10
2627.7753
 20
1399.9998
 11
2652.2290
 21
1405.1976
  0
LINE
  8
0_00
  6
CONTINUOUS
 62
6
 10
2527.7751
 20
1399.9998
 11
2577.7753
 21
1399.9998
  0
LINE
  8
0_00
  6
CONTINUOUS
 62
6
 10
2577.7753
 20
1399.9998
 11
2553.3217
 21
1405.1976
  0
LINE
  8
0_00
  6
CONTINUOUS
 62
6
 10
2577.7753
 20
1399.9998
 11
2553.3217
 21
1394.8022
  0
LINE
  8
0_00
  6
CONTINUOUS
 62
4
 10
3309.6255
 20
494.4051
 11
3531.6254
 21
494.4051
  0
LINE
  8
0_00
  6
CONTINUOUS
 62
4
 10
3663.2608
 20
1606.1703
 11
3909.2609
 21
1606.1703
  0
LINE
  8
0_00
  6
CONTINUOUS
 62
6
 10
3014.4745
 20
1805.6387
 11
2869.7006
 21
1805.6387
  0
LINE
  8
0_00
  6
CONTINUOUS
 62
6
 10
3047.9828
 20
1955.6387
 11
2869.7006
 21
1955.6387
  0
LINE
  8
0_00
  6
CONTINUOUS
 62
6
 10
2889.7006
 20
1955.6387
 11
2889.7006
 21
1805.6387
  0
LINE
  8
0_00
  6
CONTINUOUS
 62
6
 10
2889.7006
 20
1955.6387
 11
2884.5029
 21
1931.1850
  0
LINE
  8
0_00
  6
CONTINUOUS
 62
6
 10
2889.7006
 20
1955.6387
 11
2894.8984
 21
1931.1850
  0
LINE
  8
0_00
  6
CONTINUOUS
 62
6
 10
2889.7006
 20
1805.6387
 11
2894.8984
 21
1830.0923
  0
LINE
  8
0_00
  6
CONTINUOUS
 62
6
 10
2889.7006
 20
1805.6387
 11
2884.5029
 21
1830.0923
  0
LINE
  8
0_00
  6
CONTINUOUS
 62
6
 10
3014.4745
 20
2330.2667
 11
2869.7006
 21
2330.2667
  0
LINE
  8
0_00
  6
CONTINUOUS
 62
6
 10
3052.8827
 20
2480.2667
 11
2869.7006
 21
2480.2667
  0
LINE
  8
0_00
  6
CONTINUOUS
 62
6
 10
2889.7006
 20
2480.2667
 11
2889.7006
 21
2330.2667
  0
LINE
  8
0_00
  6
CONTINUOUS
 62
6
 10
2889.7006
 20
2480.2667
 11
2884.5029
 21
2455.8130
  0
LINE
  8
0_00
  6
CONTINUOUS
 62
6
 10
2889.7006
 20
2480.2667
 11
2894.8984
 21
2455.8130
  0
LINE
  8
0_00
  6
CONTINUOUS
 62
6
 10
2889.7006
 20
2330.2667
 11
2894.8984
 21
2354.7205
  0
LINE
  8
0_00
  6
CONTINUOUS
 62
6
 10
2889.7006
 20
2330.2667
 11
2884.5029
 21
2354.7205
  0
LINE
  8
0_00
  6
CONTINUOUS
 62
4
 10
3911.9485
 20
1102.2683
 11
3911.9485
 21
1040.2714
  0
LINE
  8
0_00
  6
CONTINUOUS
 62
4
 10
3911.9485
 20
1102.6685
 11
3911.9485
 21
1164.6655
  0
LINE
  8
0_00
  6
CONTINUOUS
 62
4
 10
3910.4486
 20
1164.6655
 11
3910.4486
 21
1040.2714
  0
LINE
  8
0_00
  6
CONTINUOUS
 62
4
 10
3911.9485
 20
1102.2683
 11
3911.7484
 21
1102.4685
  0
LINE
  8
0_00
  6
CONTINUOUS
 62
4
 10
3911.7484
 20
1102.4685
 11
3911.9485
 21
1102.6685
  0
LINE
  8
14_0E
  6
CONTINUOUS
 62
4
 10
3918.6380
 20
1019.9686
 11
3949.9710
 21
1020.1873
  0
LINE
  8
0_00
  6
CONTINUOUS
 62
4
 10
3963.9578
 20
1021.9850
 11
3953.9352
 21
1021.9150
  0
LINE
  8
0_00
  6
CONTINUOUS
 62
4
 10
3964.1489
 20
1023.2864
 11
3953.4045
 21
1023.2114
  0
LINE
  8
0_00
  6
CONTINUOUS
 62
4
 10
3929.1614
 20
1021.4421
 11
3929.4595
 21
1021.7442
  0
LINE
  8
0_00
  6
CONTINUOUS
 62
4
 10
3929.7617
 20
1021.4462
 11
3929.4595
 21
1021.7442
  0
LINE
  8
0_00
  6
CONTINUOUS
 62
4
 10
3948.9420
 20
1025.1203
 11
3948.5779
 21
1025.3272
  0
LINE
  8
0_00
  6
CONTINUOUS
 62
4
 10
3948.5779
 20
1025.3272
 11
3947.8369
 21
1024.0230
  0
LINE
  8
0_00
  6
CONTINUOUS
 62
4
 10
3947.8369
 20
1024.0230
 11
3948.2010
 21
1023.8161
  0
LINE
  8
0_00
  6
CONTINUOUS
 62
4
 10
3948.5132
 20
1022.6830
 11
3948.3063
 21
1022.3186
  0
LINE
  8
0_00
  6
CONTINUOUS
 62
4
 10
3948.3063
 20
1022.3186
 11
3949.6106
 21
1021.5778
  0
LINE
  8
0_00
  6
CONTINUOUS
 62
4
 10
3949.6106
 20
1021.5778
 11
3949.8175
 21
1021.9420
  0
LINE
  8
0_00
  6
CONTINUOUS
 62
4
 10
3950.9509
 20
1022.2541
 11
3951.3150
 21
1022.0472
  0
LINE
  8
0_00
  6
CONTINUOUS
 62
4
 10
3951.3150
 20
1022.0472
 11
3952.0560
 21
1023.3515
  0
LINE
  8
0_00
  6
CONTINUOUS
 62
4
 10
3952.0560
 20
1023.3515
 11
3951.6916
 21
1023.5583
  0
LINE
  8
0_00
  6
CONTINUOUS
 62
4
 10
3949.1211
 20
1026.4565
 11
3949.7415
 21
1026.1037
  0
LINE
  8
0_00
  6
CONTINUOUS
 62
4
 10
3952.7478
 20
1024.3961
 11
3952.1268
 21
1024.7487
  0
LINE
  8
0_00
  6
CONTINUOUS
 62
4
 10
3912.6657
 20
1025.0561
 11
3910.5707
 21
1038.6748
  0
LINE
  8
0_00
  6
CONTINUOUS
 62
4
 10
3918.6429
 20
1021.3686
 11
3929.1614
 21
1021.4421
  0
LINE
  8
0_00
  6
CONTINUOUS
 62
4
 10
3929.7617
 20
1021.4462
 11
3937.4612
 21
1021.5000
  0
LINE
  8
0_00
  6
CONTINUOUS
 62
4
 10
3940.8612
 20
1021.5237
 11
3945.5975
 21
1021.5569
  0
LINE
  8
0_00
  6
CONTINUOUS
 62
4
 10
3914.1638
 20
1025.1842
 11
3912.0529
 21
1038.9030
  0
LINE
  8
0_00
  6
CONTINUOUS
 62
4
 10
3912.6657
 20
1179.8808
 11
3910.5707
 21
1166.2621
  0
LINE
  8
0_00
  6
CONTINUOUS
 62
4
 10
3914.1638
 20
1179.7526
 11
3912.0529
 21
1166.0341
  0
LINE
  8
14_0E
  6
CONTINUOUS
 62
4
 10
3918.6380
 20
1184.9681
 11
3949.9710
 21
1184.7494
  0
LINE
  8
0_00
  6
CONTINUOUS
 62
4
 10
3918.6429
 20
1183.5681
 11
3929.1614
 21
1183.4948
  0
LINE
  8
0_00
  6
CONTINUOUS
 62
4
 10
3929.7617
 20
1183.4905
 11
3937.4612
 21
1183.4369
  0
LINE
  8
0_00
  6
CONTINUOUS
 62
4
 10
3940.8612
 20
1183.4130
 11
3945.5975
 21
1183.3801
  0
LINE
  8
0_00
  6
CONTINUOUS
 62
4
 10
3929.1614
 20
1183.4948
 11
3929.4595
 21
1183.1927
  0
LINE
  8
0_00
  6
CONTINUOUS
 62
4
 10
3929.7617
 20
1183.4905
 11
3929.4595
 21
1183.1927
  0
LINE
  8
0_00
  6
CONTINUOUS
 62
4
 10
3965.4404
 20
1024.4454
 11
3965.4471
 21
1023.4954
  0
LINE
  8
0_00
  6
CONTINUOUS
 62
4
 10
3964.1489
 20
1023.2864
 11
3964.1403
 21
1024.4363
  0
LINE
  8
0_00
  6
CONTINUOUS
 62
4
 10
3963.9578
 20
1182.9519
 11
3953.9352
 21
1183.0218
  0
LINE
  8
0_00
  6
CONTINUOUS
 62
4
 10
3964.1489
 20
1181.6505
 11
3953.4045
 21
1181.7255
  0
LINE
  8
0_00
  6
CONTINUOUS
 62
4
 10
3948.9420
 20
1179.8164
 11
3948.5779
 21
1179.6096
  0
LINE
  8
0_00
  6
CONTINUOUS
 62
4
 10
3948.5779
 20
1179.6096
 11
3947.8369
 21
1180.9138
  0
LINE
  8
0_00
  6
CONTINUOUS
 62
4
 10
3947.8369
 20
1180.9138
 11
3948.2010
 21
1181.1208
  0
LINE
  8
0_00
  6
CONTINUOUS
 62
4
 10
3948.5132
 20
1182.2540
 11
3948.3063
 21
1182.6181
  0
LINE
  8
0_00
  6
CONTINUOUS
 62
4
 10
3948.3063
 20
1182.6181
 11
3949.6106
 21
1183.3591
  0
LINE
  8
0_00
  6
CONTINUOUS
 62
4
 10
3949.6106
 20
1183.3591
 11
3949.8175
 21
1182.9948
  0
LINE
  8
0_00
  6
CONTINUOUS
 62
4
 10
3950.9509
 20
1182.6826
 11
3951.3150
 21
1182.8896
  0
LINE
  8
0_00
  6
CONTINUOUS
 62
4
 10
3951.3150
 20
1182.8896
 11
3952.0560
 21
1181.5854
  0
LINE
  8
0_00
  6
CONTINUOUS
 62
4
 10
3952.0560
 20
1181.5854
 11
3951.6916
 21
1181.3784
  0
LINE
  8
0_00
  6
CONTINUOUS
 62
4
 10
3949.1211
 20
1178.4804
 11
3949.7415
 21
1178.8331
  0
LINE
  8
0_00
  6
CONTINUOUS
 62
4
 10
3952.7478
 20
1180.5408
 11
3952.1268
 21
1180.1881
  0
LINE
  8
0_00
  6
CONTINUOUS
 62
4
 10
3965.4404
 20
1180.4913
 11
3965.4471
 21
1181.4414
  0
LINE
  8
0_00
  6
CONTINUOUS
 62
4
 10
3964.1489
 20
1181.6505
 11
3964.1403
 21
1180.5003
  0
LINE
  8
0_00
  6
CONTINUOUS
 62
4
 10
3938.4543
 20
1022.5069
 11
3938.4451
 21
1023.8069
  0
LINE
  8
0_00
  6
CONTINUOUS
 62
4
 10
3939.8544
 20
1022.5168
 11
3939.8453
 21
1023.8167
  0
LINE
  8
0_00
  6
CONTINUOUS
 62
4
 10
3938.4543
 20
1182.4299
 11
3938.4451
 21
1181.1298
  0
LINE
  8
0_00
  6
CONTINUOUS
 62
4
 10
3939.8544
 20
1182.4201
 11
3939.8453
 21
1181.1201
  0
LINE
  8
13_0D
  6
CONTINUOUS
 62
6
 10
2551.2753
 20
1201.6154
 11
2551.2753
 21
1345.0000
  0
LINE
  8
13_0D
  6
CONTINUOUS
 62
6
 10
2526.2752
 20
1329.9998
 11
2551.2753
 21
1329.9998
  0
LINE
  8
13_0D
  6
CONTINUOUS
 62
6
 10
2418.2751
 20
1329.9998
 11
2526.2752
 21
1329.9998
  0
LINE
  8
13_0D
  6
CONTINUOUS
 62
6
 10
2526.2752
 20
1329.9998
 11
2501.8217
 21
1335.1976
  0
LINE
  8
13_0D
  6
CONTINUOUS
 62
6
 10
2526.2752
 20
1329.9998
 11
2501.8217
 21
1324.8022
  0
LINE
  8
13_0D
  6
CONTINUOUS
 62
6
 10
2601.2753
 20
1329.9998
 11
2551.2753
 21
1329.9998
  0
LINE
  8
13_0D
  6
CONTINUOUS
 62
6
 10
2551.2753
 20
1329.9998
 11
2575.7291
 21
1324.8022
  0
LINE
  8
13_0D
  6
CONTINUOUS
 62
6
 10
2551.2753
 20
1329.9998
 11
2575.7291
 21
1335.1976
  0
LINE
  8
0_00
  6
CONTINUOUS
 62
6
 10
2526.2752
 20
996.6595
 11
2478.6903
 21
914.2397
  0
LINE
  8
0_00
  6
CONTINUOUS
 62
6
 10
2526.2752
 20
996.6595
 11
2509.5473
 21
978.0809
  0
LINE
  8
0_00
  6
CONTINUOUS
 62
6
 10
2526.2752
 20
996.6595
 11
2518.5500
 21
972.8831
  0
LINE
  8
0_00
  6
CONTINUOUS
 62
6
 10
2478.6903
 20
914.2397
 11
2362.6903
 21
914.2397
  0
LINE
  8
0_00
  6
CONTINUOUS
 62
6
 10
2653.3002
 20
1018.7404
 11
2729.9741
 21
854.3122
  0
LINE
  8
0_00
  6
CONTINUOUS
 62
6
 10
2653.3002
 20
1018.7404
 11
2658.9236
 21
994.3812
  0
LINE
  8
0_00
  6
CONTINUOUS
 62
6
 10
2653.3002
 20
1018.7404
 11
2668.3456
 21
998.7746
  0
LINE
  8
0_00
  6
CONTINUOUS
 62
6
 10
2729.9741
 20
854.3122
 11
3037.9739
 21
854.3122
  0
LINE
  8
0_00
  6
CONTINUOUS
 62
6
 10
3068.5483
 20
1950.2060
 11
3010.9372
 21
2007.8169
  0
LINE
  8
0_00
  6
CONTINUOUS
 62
6
 10
3068.5483
 20
1950.2060
 11
3054.9323
 21
1971.1728
  0
LINE
  8
0_00
  6
CONTINUOUS
 62
6
 10
3068.5483
 20
1950.2060
 11
3047.5815
 21
1963.8219
  0
LINE
  8
0_00
  6
CONTINUOUS
 62
6
 10
3010.9372
 20
2007.8169
 11
2678.9374
 21
2007.8169
  0
LINE
  8
0_00
  6
CONTINUOUS
 62
6
 10
3056.7328
 20
2373.1480
 11
2996.4041
 21
2268.6560
  0
LINE
  8
0_00
  6
CONTINUOUS
 62
6
 10
3056.7328
 20
2373.1480
 11
3040.0046
 21
2354.5695
  0
LINE
  8
0_00
  6
CONTINUOUS
 62
6
 10
3056.7328
 20
2373.1480
 11
3049.0073
 21
2349.3715
  0
LINE
  8
0_00
  6
CONTINUOUS
 62
6
 10
2996.4041
 20
2268.6560
 11
2736.4041
 21
2268.6560
  0
LINE
  8
0_00
  6
CONTINUOUS
 62
6
 10
3056.7328
 20
1846.8755
 11
2996.4041
 21
1742.3833
  0
LINE
  8
0_00
  6
CONTINUOUS
 62
6
 10
3056.7328
 20
1846.8755
 11
3040.0046
 21
1828.2968
  0
LINE
  8
0_00
  6
CONTINUOUS
 62
6
 10
3056.7328
 20
1846.8755
 11
3049.0073
 21
1823.0991
  0
LINE
  8
0_00
  6
CONTINUOUS
 62
6
 10
2996.4041
 20
1742.3833
 11
2736.4041
 21
1742.3833
  0
LINE
  8
0_00
  6
CONTINUOUS
 62
6
 10
638.0745
 20
2122.4683
 11
638.0745
 21
2400.0000
  0
LINE
  8
0_00
  6
CONTINUOUS
 62
6
 10
888.0745
 20
2360.0949
 11
888.0745
 21
2400.0000
  0
LINE
  8
0_00
  6
CONTINUOUS
 62
6
 10
638.0745
 20
2379.9998
 11
888.0745
 21
2379.9998
  0
LINE
  8
0_00
  6
CONTINUOUS
 62
6
 10
638.0745
 20
2379.9998
 11
662.5283
 21
2374.8022
  0
LINE
  8
0_00
  6
CONTINUOUS
 62
6
 10
638.0745
 20
2379.9998
 11
662.5283
 21
2385.1976
  0
LINE
  8
0_00
  6
CONTINUOUS
 62
6
 10
888.0745
 20
2379.9998
 11
863.6208
 21
2385.1976
  0
LINE
  8
0_00
  6
CONTINUOUS
 62
6
 10
888.0745
 20
2379.9998
 11
863.6208
 21
2374.8022
  0
LINE
  8
0_00
  6
CONTINUOUS
 62
6
 10
1788.0745
 20
2229.5531
 11
1788.0745
 21
2400.0000
  0
LINE
  8
0_00
  6
CONTINUOUS
 62
6
 10
888.0745
 20
2379.9998
 11
1788.0745
 21
2379.9998
  0
LINE
  8
0_00
  6
CONTINUOUS
 62
6
 10
888.0745
 20
2379.9998
 11
912.5282
 21
2374.8022
  0
LINE
  8
0_00
  6
CONTINUOUS
 62
6
 10
888.0745
 20
2379.9998
 11
912.5282
 21
2385.1976
  0
LINE
  8
0_00
  6
CONTINUOUS
 62
6
 10
1788.0745
 20
2379.9998
 11
1763.6208
 21
2385.1976
  0
LINE
  8
0_00
  6
CONTINUOUS
 62
6
 10
1788.0745
 20
2379.9998
 11
1763.6208
 21
2374.8022
  0
LINE
  8
0_00
  6
CONTINUOUS
 62
6
 10
638.0745
 20
897.4684
 11
638.0745
 21
1174.9999
  0
LINE
  8
0_00
  6
CONTINUOUS
 62
6
 10
888.0745
 20
1129.3259
 11
888.0745
 21
1174.9999
  0
LINE
  8
0_00
  6
CONTINUOUS
 62
6
 10
638.0745
 20
1155.0000
 11
888.0745
 21
1155.0000
  0
LINE
  8
0_00
  6
CONTINUOUS
 62
6
 10
638.0745
 20
1155.0000
 11
662.5283
 21
1149.8021
  0
LINE
  8
0_00
  6
CONTINUOUS
 62
6
 10
638.0745
 20
1155.0000
 11
662.5283
 21
1160.1977
  0
LINE
  8
0_00
  6
CONTINUOUS
 62
6
 10
888.0745
 20
1155.0000
 11
863.6208
 21
1160.1977
  0
LINE
  8
0_00
  6
CONTINUOUS
 62
6
 10
888.0745
 20
1155.0000
 11
863.6208
 21
1149.8021
  0
LINE
  8
0_00
  6
CONTINUOUS
 62
6
 10
1788.0745
 20
1004.5531
 11
1788.0745
 21
1174.9999
  0
LINE
  8
0_00
  6
CONTINUOUS
 62
6
 10
888.0745
 20
1155.0000
 11
1788.0745
 21
1155.0000
  0
LINE
  8
0_00
  6
CONTINUOUS
 62
6
 10
888.0745
 20
1155.0000
 11
912.5282
 21
1149.8021
  0
LINE
  8
0_00
  6
CONTINUOUS
 62
6
 10
888.0745
 20
1155.0000
 11
912.5282
 21
1160.1977
  0
LINE
  8
0_00
  6
CONTINUOUS
 62
6
 10
1788.0745
 20
1155.0000
 11
1763.6208
 21
1160.1977
  0
LINE
  8
0_00
  6
CONTINUOUS
 62
6
 10
1788.0745
 20
1155.0000
 11
1763.6208
 21
1149.8021
  0
LINE
  8
0_00
  6
CONTINUOUS
 62
6
 10
1188.7318
 20
1361.6383
 11
1029.9999
 21
1361.6383
  0
LINE
  8
0_00
  6
CONTINUOUS
 62
6
 10
1243.2819
 20
1441.6383
 11
1029.9999
 21
1441.6383
  0
LINE
  8
0_00
  6
CONTINUOUS
 62
6
 10
1050.0000
 20
1441.6383
 11
1050.0000
 21
1361.6383
  0
LINE
  8
0_00
  6
CONTINUOUS
 62
6
 10
1050.0000
 20
1501.6383
 11
1050.0000
 21
1441.6383
  0
LINE
  8
0_00
  6
CONTINUOUS
 62
6
 10
1050.0000
 20
1441.6383
 11
1055.1977
 21
1466.0921
  0
LINE
  8
0_00
  6
CONTINUOUS
 62
6
 10
1050.0000
 20
1441.6383
 11
1044.8022
 21
1466.0921
  0
LINE
  8
0_00
  6
CONTINUOUS
 62
6
 10
1050.0000
 20
1301.6383
 11
1050.0000
 21
1361.6383
  0
LINE
  8
0_00
  6
CONTINUOUS
 62
6
 10
1050.0000
 20
1361.6383
 11
1044.8022
 21
1337.1848
  0
LINE
  8
0_00
  6
CONTINUOUS
 62
6
 10
1050.0000
 20
1361.6383
 11
1055.1977
 21
1337.1848
  0
LINE
  8
0_00
  6
CONTINUOUS
 62
4
 10
1715.5600
 20
2456.1703
 11
1961.5601
 21
2456.1703
  0
LINE
  8
0_00
  6
CONTINUOUS
 62
4
 10
2989.3744
 20
554.3084
 11
3523.3743
 21
554.3084
  0
LINE
  8
13_0D
  6
CONTINUOUS
 62
6
 10
3056.7328
 20
1911.2221
 11
3056.7328
 21
2100.5553
  0
LINE
  8
13_0D
  6
CONTINUOUS
 62
6
 10
3082.4829
 20
1987.9597
 11
3082.4829
 21
2100.5553
  0
LINE
  8
13_0D
  6
CONTINUOUS
 62
6
 10
3056.7328
 20
2085.5551
 11
3082.4829
 21
2085.5551
  0
LINE
  8
13_0D
  6
CONTINUOUS
 62
6
 10
2900.7327
 20
2085.5551
 11
3056.7328
 21
2085.5551
  0
LINE
  8
13_0D
  6
CONTINUOUS
 62
6
 10
3056.7328
 20
2085.5551
 11
3032.2791
 21
2090.7535
  0
LINE
  8
13_0D
  6
CONTINUOUS
 62
6
 10
3056.7328
 20
2085.5551
 11
3032.2791
 21
2080.3575
  0
LINE
  8
13_0D
  6
CONTINUOUS
 62
6
 10
3207.4826
 20
1987.9597
 11
3207.4826
 21
2100.5553
  0
LINE
  8
13_0D
  6
CONTINUOUS
 62
6
 10
3082.4829
 20
2085.5551
 11
3207.4826
 21
2085.5551
  0
LINE
  8
13_0D
  6
CONTINUOUS
 62
6
 10
3082.4829
 20
2085.5551
 11
3106.9363
 21
2080.3575
  0
LINE
  8
13_0D
  6
CONTINUOUS
 62
6
 10
3082.4829
 20
2085.5551
 11
3106.9363
 21
2090.7535
  0
LINE
  8
13_0D
  6
CONTINUOUS
 62
6
 10
3207.4826
 20
2085.5551
 11
3183.0292
 21
2090.7535
  0
LINE
  8
13_0D
  6
CONTINUOUS
 62
6
 10
3207.4826
 20
2085.5551
 11
3183.0292
 21
2080.3575
  0
LINE
  8
13_0D
  6
CONTINUOUS
 62
6
 10
3657.4826
 20
1987.9597
 11
3657.4826
 21
2100.5553
  0
LINE
  8
13_0D
  6
CONTINUOUS
 62
6
 10
3207.4826
 20
2085.5551
 11
3657.4826
 21
2085.5551
  0
LINE
  8
13_0D
  6
CONTINUOUS
 62
6
 10
3207.4826
 20
2085.5551
 11
3231.9363
 21
2080.3575
  0
LINE
  8
13_0D
  6
CONTINUOUS
 62
6
 10
3207.4826
 20
2085.5551
 11
3231.9363
 21
2090.7535
  0
LINE
  8
13_0D
  6
CONTINUOUS
 62
6
 10
3657.4826
 20
2085.5551
 11
3633.0289
 21
2090.7535
  0
LINE
  8
13_0D
  6
CONTINUOUS
 62
6
 10
3657.4826
 20
2085.5551
 11
3633.0289
 21
2080.3575
  0
LINE
  8
13_0D
  6
CONTINUOUS
 62
6
 10
3056.7328
 20
2435.8501
 11
3056.7328
 21
2625.1834
  0
LINE
  8
13_0D
  6
CONTINUOUS
 62
6
 10
3082.4829
 20
2512.5879
 11
3082.4829
 21
2625.1834
  0
LINE
  8
13_0D
  6
CONTINUOUS
 62
6
 10
3056.7328
 20
2610.1834
 11
3082.4829
 21
2610.1834
  0
LINE
  8
13_0D
  6
CONTINUOUS
 62
6
 10
2900.7327
 20
2610.1834
 11
3056.7328
 21
2610.1834
  0
LINE
  8
13_0D
  6
CONTINUOUS
 62
6
 10
3056.7328
 20
2610.1834
 11
3032.2791
 21
2615.3812
  0
LINE
  8
13_0D
  6
CONTINUOUS
 62
6
 10
3056.7328
 20
2610.1834
 11
3032.2791
 21
2604.9857
  0
LINE
  8
13_0D
  6
CONTINUOUS
 62
6
 10
3207.4826
 20
2512.5879
 11
3207.4826
 21
2625.1834
  0
LINE
  8
13_0D
  6
CONTINUOUS
 62
6
 10
3082.4829
 20
2610.1834
 11
3207.4826
 21
2610.1834
  0
LINE
  8
13_0D
  6
CONTINUOUS
 62
6
 10
3082.4829
 20
2610.1834
 11
3106.9363
 21
2604.9857
  0
LINE
  8
13_0D
  6
CONTINUOUS
 62
6
 10
3082.4829
 20
2610.1834
 11
3106.9363
 21
2615.3812
  0
LINE
  8
13_0D
  6
CONTINUOUS
 62
6
 10
3207.4826
 20
2610.1834
 11
3183.0292
 21
2615.3812
  0
LINE
  8
13_0D
  6
CONTINUOUS
 62
6
 10
3207.4826
 20
2610.1834
 11
3183.0292
 21
2604.9857
  0
LINE
  8
13_0D
  6
CONTINUOUS
 62
6
 10
3657.4826
 20
2512.5879
 11
3657.4826
 21
2625.1834
  0
LINE
  8
13_0D
  6
CONTINUOUS
 62
6
 10
3207.4826
 20
2610.1834
 11
3657.4826
 21
2610.1834
  0
LINE
  8
13_0D
  6
CONTINUOUS
 62
6
 10
3207.4826
 20
2610.1834
 11
3231.9363
 21
2604.9857
  0
LINE
  8
13_0D
  6
CONTINUOUS
 62
6
 10
3207.4826
 20
2610.1834
 11
3231.9363
 21
2615.3812
  0
LINE
  8
13_0D
  6
CONTINUOUS
 62
6
 10
3657.4826
 20
2610.1834
 11
3633.0289
 21
2615.3812
  0
LINE
  8
13_0D
  6
CONTINUOUS
 62
6
 10
3657.4826
 20
2610.1834
 11
3633.0289
 21
2604.9857
  0
LINE
  8
0_00
  6
CONTINUOUS
 62
6
 10
3063.7802
 20
2473.8016
 11
3006.1694
 21
2531.4125
  0
LINE
  8
0_00
  6
CONTINUOUS
 62
6
 10
3063.7802
 20
2473.8016
 11
3050.1645
 21
2494.7684
  0
LINE
  8
0_00
  6
CONTINUOUS
 62
6
 10
3063.7802
 20
2473.8016
 11
3042.8134
 21
2487.4174
  0
LINE
  8
0_00
  6
CONTINUOUS
 62
6
 10
3006.1694
 20
2531.4125
 11
2674.1696
 21
2531.4125
  0
ARC
  8
2_02
  6
CONTINUOUS
 62
4
 10
1207.7820
 20
2565.8380
 40
101.1500
 50
89.8197
 51
97.0407
  0
ARC
  8
2_02
  6
CONTINUOUS
 62
4
 10
1195.7819
 20
2663.0002
 40
3.2500
 50
97.0407
 51
180.0000
  0
ARC
  8
2_02
  6
CONTINUOUS
 62
4
 10
1223.0319
 20
2666.7380
 40
0.2500
 50
0.0000
 51
90.0000
  0
ARC
  8
2_02
  6
CONTINUOUS
 62
4
 10
1223.0319
 20
2643.2382
 40
0.2500
 50
270.0000
 51
360.0000
  0
ARC
  8
2_02
  6
CONTINUOUS
 62
4
 10
1192.7819
 20
2643.2382
 40
0.2500
 50
180.0000
 51
270.0000
  0
ARC
  8
2_02
  6
CONTINUOUS
 62
4
 10
538.0745
 20
2121.9684
 40
0.5000
 50
180.0000
 51
270.0000
  0
ARC
  8
2_02
  6
CONTINUOUS
 62
4
 10
598.5744
 20
2182.4684
 40
0.5000
 50
0.0000
 51
90.0000
  0
ARC
  8
2_02
  6
CONTINUOUS
 62
4
 10
544.0746
 20
2176.4684
 40
6.5000
 50
90.0000
 51
180.0000
  0
ARC
  8
0_00
  6
PHANTOM1
 62
6
 10
1055.4893
 20
2445.3000
 40
250.0000
 50
37.6262
 51
49.0337
  0
ARC
  8
0_00
  6
PHANTOM1
 62
6
 10
1249.5319
 20
2594.8746
 40
5.0000
 50
0.0000
 51
37.6262
  0
ARC
  8
0_00
  6
PHANTOM1
 62
6
 10
1221.0319
 20
2635.9619
 40
2.5000
 50
180.0000
 51
229.0338
  0
ARC
  8
0_00
  6
PHANTOM1
 62
6
 10
1065.5670
 20
2503.6273
 40
187.5000
 50
28.4468
 51
45.4810
  0
ARC
  8
0_00
  6
PHANTOM1
 62
6
 10
1226.0319
 20
2590.5597
 40
5.0000
 50
0.0000
 51
28.4468
  0
ARC
  8
0_00
  6
CONTINUOUS
 62
2
 10
888.0745
 20
2095.9685
 40
2.4500
 50
45.0000
 51
58.5444
  0
ARC
  8
0_00
  6
CONTINUOUS
 62
2
 10
888.0745
 20
2095.9685
 40
2.4500
 50
121.3667
 51
135.0000
  0
ARC
  8
0_00
  6
CONTINUOUS
 62
2
 10
888.0745
 20
2095.9685
 40
2.4500
 50
211.4556
 51
225.0000
  0
ARC
  8
0_00
  6
CONTINUOUS
 62
2
 10
888.0745
 20
2095.9685
 40
2.4500
 50
135.0000
 51
148.6333
  0
ARC
  8
0_00
  6
CONTINUOUS
 62
2
 10
888.0745
 20
2095.9685
 40
2.4500
 50
31.4556
 51
45.0000
  0
ARC
  8
0_00
  6
CONTINUOUS
 62
2
 10
888.0745
 20
2095.9685
 40
2.4500
 50
315.0000
 51
328.6334
  0
ARC
  8
0_00
  6
CONTINUOUS
 62
2
 10
888.0745
 20
2095.9685
 40
2.4500
 50
225.0000
 51
238.5444
  0
ARC
  8
0_00
  6
CONTINUOUS
 62
2
 10
888.0745
 20
2095.9685
 40
2.4500
 50
301.3667
 51
315.0000
  0
CIRCLE
  8
0_00
  6
CONTINUOUS
 62
2
 10
888.0745
 20
2095.9685
 40
5.9000
  0
ARC
  8
0_00
  6
CONTINUOUS
 62
2
 10
888.0745
 20
2068.9685
 40
2.4500
 50
45.0000
 51
58.5444
  0
ARC
  8
0_00
  6
CONTINUOUS
 62
2
 10
888.0745
 20
2068.9685
 40
2.4500
 50
121.3667
 51
135.0000
  0
ARC
  8
0_00
  6
CONTINUOUS
 62
2
 10
888.0745
 20
2068.9685
 40
2.4500
 50
211.4556
 51
225.0000
  0
ARC
  8
0_00
  6
CONTINUOUS
 62
2
 10
888.0745
 20
2068.9685
 40
2.4500
 50
135.0000
 51
148.6333
  0
ARC
  8
0_00
  6
CONTINUOUS
 62
2
 10
888.0745
 20
2068.9685
 40
2.4500
 50
31.4556
 51
45.0000
  0
ARC
  8
0_00
  6
CONTINUOUS
 62
2
 10
888.0745
 20
2068.9685
 40
2.4500
 50
315.0000
 51
328.6334
  0
ARC
  8
0_00
  6
CONTINUOUS
 62
2
 10
888.0745
 20
2068.9685
 40
2.4500
 50
225.0000
 51
238.5444
  0
ARC
  8
0_00
  6
CONTINUOUS
 62
2
 10
888.0745
 20
2068.9685
 40
2.4500
 50
301.3667
 51
315.0000
  0
CIRCLE
  8
0_00
  6
CONTINUOUS
 62
2
 10
888.0745
 20
2068.9685
 40
5.9000
  0
ARC
  8
0_00
  6
CONTINUOUS
 62
4
 10
876.5746
 20
2061.4684
 40
2.5000
 50
180.0000
 51
270.0000
  0
ARC
  8
0_00
  6
CONTINUOUS
 62
4
 10
876.5746
 20
2061.4684
 40
2.5000
 50
270.0000
 51
360.0000
  0
ARC
  8
0_00
  6
CONTINUOUS
 62
4
 10
874.5746
 20
2061.4684
 40
2.5000
 50
180.0000
 51
270.0000
  0
ARC
  8
0_00
  6
CONTINUOUS
 62
4
 10
899.5745
 20
2061.4684
 40
2.5000
 50
270.0000
 51
360.0000
  0
ARC
  8
0_00
  6
CONTINUOUS
 62
4
 10
899.5745
 20
2061.4684
 40
2.5000
 50
180.0000
 51
270.0000
  0
ARC
  8
0_00
  6
CONTINUOUS
 62
4
 10
901.5745
 20
2061.4684
 40
2.5000
 50
270.0000
 51
360.0000
  0
ARC
  8
0_00
  6
CONTINUOUS
 62
4
 10
901.5745
 20
2103.4683
 40
2.5000
 50
0.0000
 51
78.4630
  0
ARC
  8
0_00
  6
CONTINUOUS
 62
4
 10
874.5746
 20
2103.4683
 40
2.5000
 50
101.5370
 51
180.0000
  0
ARC
  8
0_00
  6
CONTINUOUS
 62
2
 10
1788.0745
 20
2095.9685
 40
2.4500
 50
45.0000
 51
58.5444
  0
ARC
  8
0_00
  6
CONTINUOUS
 62
2
 10
1788.0745
 20
2095.9685
 40
2.4500
 50
121.3667
 51
135.0000
  0
ARC
  8
0_00
  6
CONTINUOUS
 62
2
 10
1788.0745
 20
2095.9685
 40
2.4500
 50
211.4556
 51
225.0000
  0
ARC
  8
0_00
  6
CONTINUOUS
 62
2
 10
1788.0745
 20
2095.9685
 40
2.4500
 50
135.0000
 51
148.6333
  0
ARC
  8
0_00
  6
CONTINUOUS
 62
2
 10
1788.0745
 20
2095.9685
 40
2.4500
 50
31.4556
 51
45.0000
  0
ARC
  8
0_00
  6
CONTINUOUS
 62
2
 10
1788.0745
 20
2095.9685
 40
2.4500
 50
315.0000
 51
328.6334
  0
ARC
  8
0_00
  6
CONTINUOUS
 62
2
 10
1788.0745
 20
2095.9685
 40
2.4500
 50
225.0000
 51
238.5444
  0
ARC
  8
0_00
  6
CONTINUOUS
 62
2
 10
1788.0745
 20
2095.9685
 40
2.4500
 50
301.3667
 51
315.0000
  0
CIRCLE
  8
0_00
  6
CONTINUOUS
 62
2
 10
1788.0745
 20
2095.9685
 40
5.9000
  0
ARC
  8
0_00
  6
CONTINUOUS
 62
2
 10
1788.0745
 20
2068.9685
 40
2.4500
 50
45.0000
 51
58.5444
  0
ARC
  8
0_00
  6
CONTINUOUS
 62
2
 10
1788.0745
 20
2068.9685
 40
2.4500
 50
121.3667
 51
135.0000
  0
ARC
  8
0_00
  6
CONTINUOUS
 62
2
 10
1788.0745
 20
2068.9685
 40
2.4500
 50
211.4556
 51
225.0000
  0
ARC
  8
0_00
  6
CONTINUOUS
 62
2
 10
1788.0745
 20
2068.9685
 40
2.4500
 50
135.0000
 51
148.6333
  0
ARC
  8
0_00
  6
CONTINUOUS
 62
2
 10
1788.0745
 20
2068.9685
 40
2.4500
 50
31.4556
 51
45.0000
  0
ARC
  8
0_00
  6
CONTINUOUS
 62
2
 10
1788.0745
 20
2068.9685
 40
2.4500
 50
315.0000
 51
328.6334
  0
ARC
  8
0_00
  6
CONTINUOUS
 62
2
 10
1788.0745
 20
2068.9685
 40
2.4500
 50
225.0000
 51
238.5444
  0
ARC
  8
0_00
  6
CONTINUOUS
 62
2
 10
1788.0745
 20
2068.9685
 40
2.4500
 50
301.3667
 51
315.0000
  0
CIRCLE
  8
0_00
  6
CONTINUOUS
 62
2
 10
1788.0745
 20
2068.9685
 40
5.9000
  0
ARC
  8
0_00
  6
CONTINUOUS
 62
4
 10
1776.5746
 20
2061.4684
 40
2.5000
 50
180.0000
 51
270.0000
  0
ARC
  8
0_00
  6
CONTINUOUS
 62
4
 10
1776.5746
 20
2061.4684
 40
2.5000
 50
270.0000
 51
360.0000
  0
ARC
  8
0_00
  6
CONTINUOUS
 62
4
 10
1774.5744
 20
2061.4684
 40
2.5000
 50
180.0000
 51
270.0000
  0
ARC
  8
0_00
  6
CONTINUOUS
 62
4
 10
1799.5746
 20
2061.4684
 40
2.5000
 50
270.0000
 51
360.0000
  0
ARC
  8
0_00
  6
CONTINUOUS
 62
4
 10
1799.5746
 20
2061.4684
 40
2.5000
 50
180.0000
 51
270.0000
  0
ARC
  8
0_00
  6
CONTINUOUS
 62
4
 10
1801.5744
 20
2061.4684
 40
2.5000
 50
270.0000
 51
360.0000
  0
ARC
  8
0_00
  6
CONTINUOUS
 62
4
 10
1801.5744
 20
2103.4683
 40
2.5000
 50
0.0000
 51
78.4630
  0
ARC
  8
0_00
  6
CONTINUOUS
 62
4
 10
1774.5744
 20
2103.4683
 40
2.5000
 50
101.5370
 51
180.0000
  0
ARC
  8
0_00
  6
CONTINUOUS
 62
2
 10
624.5745
 20
1832.4684
 40
2.4500
 50
135.0000
 51
148.5444
  0
ARC
  8
0_00
  6
CONTINUOUS
 62
2
 10
624.5745
 20
1832.4684
 40
2.4500
 50
211.3667
 51
225.0000
  0
ARC
  8
0_00
  6
CONTINUOUS
 62
2
 10
624.5745
 20
1832.4684
 40
2.4500
 50
301.4556
 51
315.0000
  0
ARC
  8
0_00
  6
CONTINUOUS
 62
2
 10
624.5745
 20
1832.4684
 40
2.4500
 50
225.0000
 51
238.6333
  0
ARC
  8
0_00
  6
CONTINUOUS
 62
2
 10
624.5745
 20
1832.4684
 40
2.4500
 50
121.4556
 51
135.0000
  0
ARC
  8
0_00
  6
CONTINUOUS
 62
2
 10
624.5745
 20
1832.4684
 40
2.4500
 50
45.0000
 51
58.6333
  0
ARC
  8
0_00
  6
CONTINUOUS
 62
2
 10
624.5745
 20
1832.4684
 40
2.4500
 50
315.0000
 51
328.5444
  0
ARC
  8
0_00
  6
CONTINUOUS
 62
2
 10
624.5745
 20
1832.4684
 40
2.4500
 50
31.3667
 51
45.0000
  0
CIRCLE
  8
0_00
  6
CONTINUOUS
 62
2
 10
624.5745
 20
1832.4684
 40
5.9000
  0
ARC
  8
0_00
  6
CONTINUOUS
 62
2
 10
651.5746
 20
1832.4684
 40
2.4500
 50
135.0000
 51
148.5444
  0
ARC
  8
0_00
  6
CONTINUOUS
 62
2
 10
651.5746
 20
1832.4684
 40
2.4500
 50
211.3667
 51
225.0000
  0
ARC
  8
0_00
  6
CONTINUOUS
 62
2
 10
651.5746
 20
1832.4684
 40
2.4500
 50
301.4556
 51
315.0000
  0
ARC
  8
0_00
  6
CONTINUOUS
 62
2
 10
651.5746
 20
1832.4684
 40
2.4500
 50
225.0000
 51
238.6333
  0
ARC
  8
0_00
  6
CONTINUOUS
 62
2
 10
651.5746
 20
1832.4684
 40
2.4500
 50
121.4556
 51
135.0000
  0
ARC
  8
0_00
  6
CONTINUOUS
 62
2
 10
651.5746
 20
1832.4684
 40
2.4500
 50
45.0000
 51
58.6333
  0
ARC
  8
0_00
  6
CONTINUOUS
 62
2
 10
651.5746
 20
1832.4684
 40
2.4500
 50
315.0000
 51
328.5444
  0
ARC
  8
0_00
  6
CONTINUOUS
 62
2
 10
651.5746
 20
1832.4684
 40
2.4500
 50
31.3667
 51
45.0000
  0
CIRCLE
  8
0_00
  6
CONTINUOUS
 62
2
 10
651.5746
 20
1832.4684
 40
5.9000
  0
ARC
  8
0_00
  6
CONTINUOUS
 62
4
 10
659.0746
 20
1820.9685
 40
2.5000
 50
270.0000
 51
360.0000
  0
ARC
  8
0_00
  6
CONTINUOUS
 62
4
 10
659.0746
 20
1820.9685
 40
2.5000
 50
0.0000
 51
90.0000
  0
ARC
  8
0_00
  6
CONTINUOUS
 62
4
 10
659.0746
 20
1818.9684
 40
2.5000
 50
270.0000
 51
360.0000
  0
ARC
  8
0_00
  6
CONTINUOUS
 62
4
 10
659.0746
 20
1843.9685
 40
2.5000
 50
0.0000
 51
90.0000
  0
ARC
  8
0_00
  6
CONTINUOUS
 62
4
 10
659.0746
 20
1843.9685
 40
2.5000
 50
270.0000
 51
360.0000
  0
ARC
  8
0_00
  6
CONTINUOUS
 62
4
 10
659.0746
 20
1845.9683
 40
2.5000
 50
0.0000
 51
90.0000
  0
ARC
  8
0_00
  6
CONTINUOUS
 62
4
 10
617.0745
 20
1845.9683
 40
2.5000
 50
90.0000
 51
168.4630
  0
ARC
  8
0_00
  6
CONTINUOUS
 62
4
 10
617.0745
 20
1818.9684
 40
2.5000
 50
191.5370
 51
270.0000
  0
ARC
  8
2_02
  6
CONTINUOUS
 62
4
 10
1277.7820
 20
1340.8385
 40
101.1500
 50
89.8197
 51
97.0407
  0
ARC
  8
2_02
  6
CONTINUOUS
 62
4
 10
1265.7819
 20
1438.0000
 40
3.2500
 50
97.0407
 51
180.0000
  0
ARC
  8
2_02
  6
CONTINUOUS
 62
4
 10
1293.0319
 20
1441.7380
 40
0.2500
 50
0.0000
 51
90.0000
  0
ARC
  8
2_02
  6
CONTINUOUS
 62
4
 10
1293.0319
 20
1418.2384
 40
0.2500
 50
270.0000
 51
360.0000
  0
ARC
  8
2_02
  6
CONTINUOUS
 62
4
 10
1262.7819
 20
1418.2384
 40
0.2500
 50
180.0000
 51
270.0000
  0
ARC
  8
2_02
  6
CONTINUOUS
 62
4
 10
678.0746
 20
756.9685
 40
0.5000
 50
180.0000
 51
270.0000
  0
ARC
  8
2_02
  6
CONTINUOUS
 62
4
 10
738.5744
 20
817.4685
 40
0.5000
 50
0.0000
 51
90.0000
  0
ARC
  8
2_02
  6
CONTINUOUS
 62
4
 10
684.0746
 20
811.4684
 40
6.5000
 50
90.0000
 51
180.0000
  0
ARC
  8
0_00
  6
PHANTOM1
 62
6
 10
1430.0746
 20
1220.3001
 40
250.0000
 50
130.9662
 51
142.3738
  0
ARC
  8
0_00
  6
PHANTOM1
 62
6
 10
1236.0320
 20
1369.8744
 40
5.0000
 50
142.3738
 51
180.0000
  0
ARC
  8
0_00
  6
PHANTOM1
 62
6
 10
1264.5319
 20
1410.9619
 40
2.5000
 50
310.9662
 51
360.0000
  0
ARC
  8
0_00
  6
PHANTOM1
 62
6
 10
1419.9968
 20
1278.6273
 40
187.5000
 50
134.5190
 51
151.5532
  0
ARC
  8
0_00
  6
PHANTOM1
 62
6
 10
1259.5319
 20
1365.5600
 40
5.0000
 50
151.5532
 51
180.0000
  0
ARC
  8
0_00
  6
CONTINUOUS
 62
4
 10
1364.5319
 20
1367.3695
 40
1.2500
 50
180.0000
 51
270.0000
  0
ARC
  8
0_00
  6
CONTINUOUS
 62
4
 10
1371.0320
 20
1367.3695
 40
1.2500
 50
270.0000
 51
360.0000
  0
ARC
  8
0_00
  6
CONTINUOUS
 62
4
 10
1371.0320
 20
1411.0681
 40
1.2500
 50
0.0000
 51
90.0000
  0
ARC
  8
0_00
  6
CONTINUOUS
 62
4
 10
1364.5319
 20
1411.0681
 40
1.2500
 50
90.0000
 51
180.0000
  0
ARC
  8
0_00
  6
CONTINUOUS
 62
2
 10
888.0745
 20
843.9685
 40
2.4500
 50
225.0000
 51
238.5444
  0
ARC
  8
0_00
  6
CONTINUOUS
 62
2
 10
888.0745
 20
843.9685
 40
2.4500
 50
301.3667
 51
315.0000
  0
ARC
  8
0_00
  6
CONTINUOUS
 62
2
 10
888.0745
 20
843.9685
 40
2.4500
 50
31.4556
 51
45.0000
  0
ARC
  8
0_00
  6
CONTINUOUS
 62
2
 10
888.0745
 20
843.9685
 40
2.4500
 50
315.0000
 51
328.6334
  0
ARC
  8
0_00
  6
CONTINUOUS
 62
2
 10
888.0745
 20
843.9685
 40
2.4500
 50
211.4556
 51
225.0000
  0
ARC
  8
0_00
  6
CONTINUOUS
 62
2
 10
888.0745
 20
843.9685
 40
2.4500
 50
135.0000
 51
148.6333
  0
ARC
  8
0_00
  6
CONTINUOUS
 62
2
 10
888.0745
 20
843.9685
 40
2.4500
 50
45.0000
 51
58.5444
  0
ARC
  8
0_00
  6
CONTINUOUS
 62
2
 10
888.0745
 20
843.9685
 40
2.4500
 50
121.3667
 51
135.0000
  0
CIRCLE
  8
0_00
  6
CONTINUOUS
 62
2
 10
888.0745
 20
843.9685
 40
5.9000
  0
ARC
  8
0_00
  6
CONTINUOUS
 62
2
 10
888.0745
 20
870.9684
 40
2.4500
 50
225.0000
 51
238.5444
  0
ARC
  8
0_00
  6
CONTINUOUS
 62
2
 10
888.0745
 20
870.9684
 40
2.4500
 50
301.3667
 51
315.0000
  0
ARC
  8
0_00
  6
CONTINUOUS
 62
2
 10
888.0745
 20
870.9684
 40
2.4500
 50
31.4556
 51
45.0000
  0
ARC
  8
0_00
  6
CONTINUOUS
 62
2
 10
888.0745
 20
870.9684
 40
2.4500
 50
315.0000
 51
328.6334
  0
ARC
  8
0_00
  6
CONTINUOUS
 62
2
 10
888.0745
 20
870.9684
 40
2.4500
 50
211.4556
 51
225.0000
  0
ARC
  8
0_00
  6
CONTINUOUS
 62
2
 10
888.0745
 20
870.9684
 40
2.4500
 50
135.0000
 51
148.6333
  0
ARC
  8
0_00
  6
CONTINUOUS
 62
2
 10
888.0745
 20
870.9684
 40
2.4500
 50
45.0000
 51
58.5444
  0
ARC
  8
0_00
  6
CONTINUOUS
 62
2
 10
888.0745
 20
870.9684
 40
2.4500
 50
121.3667
 51
135.0000
  0
CIRCLE
  8
0_00
  6
CONTINUOUS
 62
2
 10
888.0745
 20
870.9684
 40
5.9000
  0
ARC
  8
0_00
  6
CONTINUOUS
 62
4
 10
899.5745
 20
878.4685
 40
2.5000
 50
0.0000
 51
90.0000
  0
ARC
  8
0_00
  6
CONTINUOUS
 62
4
 10
899.5745
 20
878.4685
 40
2.5000
 50
90.0000
 51
180.0000
  0
ARC
  8
0_00
  6
CONTINUOUS
 62
4
 10
901.5745
 20
878.4685
 40
2.5000
 50
0.0000
 51
90.0000
  0
ARC
  8
0_00
  6
CONTINUOUS
 62
4
 10
876.5746
 20
878.4685
 40
2.5000
 50
90.0000
 51
180.0000
  0
ARC
  8
0_00
  6
CONTINUOUS
 62
4
 10
876.5746
 20
878.4685
 40
2.5000
 50
0.0000
 51
90.0000
  0
ARC
  8
0_00
  6
CONTINUOUS
 62
4
 10
874.5746
 20
878.4685
 40
2.5000
 50
90.0000
 51
180.0000
  0
ARC
  8
0_00
  6
CONTINUOUS
 62
4
 10
874.5746
 20
836.4684
 40
2.5000
 50
180.0000
 51
258.4630
  0
ARC
  8
0_00
  6
CONTINUOUS
 62
4
 10
901.5745
 20
836.4684
 40
2.5000
 50
281.5370
 51
360.0000
  0
ARC
  8
0_00
  6
CONTINUOUS
 62
2
 10
1788.0745
 20
843.9685
 40
2.4500
 50
225.0000
 51
238.5444
  0
ARC
  8
0_00
  6
CONTINUOUS
 62
2
 10
1788.0745
 20
843.9685
 40
2.4500
 50
301.3667
 51
315.0000
  0
ARC
  8
0_00
  6
CONTINUOUS
 62
2
 10
1788.0745
 20
843.9685
 40
2.4500
 50
31.4556
 51
45.0000
  0
ARC
  8
0_00
  6
CONTINUOUS
 62
2
 10
1788.0745
 20
843.9685
 40
2.4500
 50
315.0000
 51
328.6334
  0
ARC
  8
0_00
  6
CONTINUOUS
 62
2
 10
1788.0745
 20
843.9685
 40
2.4500
 50
211.4556
 51
225.0000
  0
ARC
  8
0_00
  6
CONTINUOUS
 62
2
 10
1788.0745
 20
843.9685
 40
2.4500
 50
135.0000
 51
148.6333
  0
ARC
  8
0_00
  6
CONTINUOUS
 62
2
 10
1788.0745
 20
843.9685
 40
2.4500
 50
45.0000
 51
58.5444
  0
ARC
  8
0_00
  6
CONTINUOUS
 62
2
 10
1788.0745
 20
843.9685
 40
2.4500
 50
121.3667
 51
135.0000
  0
CIRCLE
  8
0_00
  6
CONTINUOUS
 62
2
 10
1788.0745
 20
843.9685
 40
5.9000
  0
ARC
  8
0_00
  6
CONTINUOUS
 62
2
 10
1788.0745
 20
870.9684
 40
2.4500
 50
225.0000
 51
238.5444
  0
ARC
  8
0_00
  6
CONTINUOUS
 62
2
 10
1788.0745
 20
870.9684
 40
2.4500
 50
301.3667
 51
315.0000
  0
ARC
  8
0_00
  6
CONTINUOUS
 62
2
 10
1788.0745
 20
870.9684
 40
2.4500
 50
31.4556
 51
45.0000
  0
ARC
  8
0_00
  6
CONTINUOUS
 62
2
 10
1788.0745
 20
870.9684
 40
2.4500
 50
315.0000
 51
328.6334
  0
ARC
  8
0_00
  6
CONTINUOUS
 62
2
 10
1788.0745
 20
870.9684
 40
2.4500
 50
211.4556
 51
225.0000
  0
ARC
  8
0_00
  6
CONTINUOUS
 62
2
 10
1788.0745
 20
870.9684
 40
2.4500
 50
135.0000
 51
148.6333
  0
ARC
  8
0_00
  6
CONTINUOUS
 62
2
 10
1788.0745
 20
870.9684
 40
2.4500
 50
45.0000
 51
58.5444
  0
ARC
  8
0_00
  6
CONTINUOUS
 62
2
 10
1788.0745
 20
870.9684
 40
2.4500
 50
121.3667
 51
135.0000
  0
CIRCLE
  8
0_00
  6
CONTINUOUS
 62
2
 10
1788.0745
 20
870.9684
 40
5.9000
  0
ARC
  8
0_00
  6
CONTINUOUS
 62
4
 10
1799.5746
 20
878.4685
 40
2.5000
 50
0.0000
 51
90.0000
  0
ARC
  8
0_00
  6
CONTINUOUS
 62
4
 10
1799.5746
 20
878.4685
 40
2.5000
 50
90.0000
 51
180.0000
  0
ARC
  8
0_00
  6
CONTINUOUS
 62
4
 10
1801.5744
 20
878.4685
 40
2.5000
 50
0.0000
 51
90.0000
  0
ARC
  8
0_00
  6
CONTINUOUS
 62
4
 10
1776.5746
 20
878.4685
 40
2.5000
 50
90.0000
 51
180.0000
  0
ARC
  8
0_00
  6
CONTINUOUS
 62
4
 10
1776.5746
 20
878.4685
 40
2.5000
 50
0.0000
 51
90.0000
  0
ARC
  8
0_00
  6
CONTINUOUS
 62
4
 10
1774.5744
 20
878.4685
 40
2.5000
 50
90.0000
 51
180.0000
  0
ARC
  8
0_00
  6
CONTINUOUS
 62
4
 10
1774.5744
 20
836.4684
 40
2.5000
 50
180.0000
 51
258.4630
  0
ARC
  8
0_00
  6
CONTINUOUS
 62
4
 10
1801.5744
 20
836.4684
 40
2.5000
 50
281.5370
 51
360.0000
  0
ARC
  8
0_00
  6
CONTINUOUS
 62
2
 10
651.5746
 20
607.4685
 40
2.4500
 50
315.0000
 51
328.5444
  0
ARC
  8
0_00
  6
CONTINUOUS
 62
2
 10
651.5746
 20
607.4685
 40
2.4500
 50
31.3667
 51
45.0000
  0
ARC
  8
0_00
  6
CONTINUOUS
 62
2
 10
651.5746
 20
607.4685
 40
2.4500
 50
121.4556
 51
135.0000
  0
ARC
  8
0_00
  6
CONTINUOUS
 62
2
 10
651.5746
 20
607.4685
 40
2.4500
 50
45.0000
 51
58.6333
  0
ARC
  8
0_00
  6
CONTINUOUS
 62
2
 10
651.5746
 20
607.4685
 40
2.4500
 50
301.4556
 51
315.0000
  0
ARC
  8
0_00
  6
CONTINUOUS
 62
2
 10
651.5746
 20
607.4685
 40
2.4500
 50
225.0000
 51
238.6333
  0
ARC
  8
0_00
  6
CONTINUOUS
 62
2
 10
651.5746
 20
607.4685
 40
2.4500
 50
135.0000
 51
148.5444
  0
ARC
  8
0_00
  6
CONTINUOUS
 62
2
 10
651.5746
 20
607.4685
 40
2.4500
 50
211.3667
 51
225.0000
  0
CIRCLE
  8
0_00
  6
CONTINUOUS
 62
2
 10
651.5746
 20
607.4685
 40
5.9000
  0
ARC
  8
0_00
  6
CONTINUOUS
 62
2
 10
624.5745
 20
607.4685
 40
2.4500
 50
315.0000
 51
328.5444
  0
ARC
  8
0_00
  6
CONTINUOUS
 62
2
 10
624.5745
 20
607.4685
 40
2.4500
 50
31.3667
 51
45.0000
  0
ARC
  8
0_00
  6
CONTINUOUS
 62
2
 10
624.5745
 20
607.4685
 40
2.4500
 50
121.4556
 51
135.0000
  0
ARC
  8
0_00
  6
CONTINUOUS
 62
2
 10
624.5745
 20
607.4685
 40
2.4500
 50
45.0000
 51
58.6333
  0
ARC
  8
0_00
  6
CONTINUOUS
 62
2
 10
624.5745
 20
607.4685
 40
2.4500
 50
301.4556
 51
315.0000
  0
ARC
  8
0_00
  6
CONTINUOUS
 62
2
 10
624.5745
 20
607.4685
 40
2.4500
 50
225.0000
 51
238.6333
  0
ARC
  8
0_00
  6
CONTINUOUS
 62
2
 10
624.5745
 20
607.4685
 40
2.4500
 50
135.0000
 51
148.5444
  0
ARC
  8
0_00
  6
CONTINUOUS
 62
2
 10
624.5745
 20
607.4685
 40
2.4500
 50
211.3667
 51
225.0000
  0
CIRCLE
  8
0_00
  6
CONTINUOUS
 62
2
 10
624.5745
 20
607.4685
 40
5.9000
  0
ARC
  8
0_00
  6
CONTINUOUS
 62
4
 10
617.0745
 20
618.9685
 40
2.5000
 50
90.0000
 51
180.0000
  0
ARC
  8
0_00
  6
CONTINUOUS
 62
4
 10
617.0745
 20
618.9685
 40
2.5000
 50
180.0000
 51
270.0000
  0
ARC
  8
0_00
  6
CONTINUOUS
 62
4
 10
617.0745
 20
620.9685
 40
2.5000
 50
90.0000
 51
180.0000
  0
ARC
  8
0_00
  6
CONTINUOUS
 62
4
 10
617.0745
 20
595.9685
 40
2.5000
 50
180.0000
 51
270.0000
  0
ARC
  8
0_00
  6
CONTINUOUS
 62
4
 10
617.0745
 20
595.9685
 40
2.5000
 50
90.0000
 51
180.0000
  0
ARC
  8
0_00
  6
CONTINUOUS
 62
4
 10
617.0745
 20
593.9685
 40
2.5000
 50
180.0000
 51
270.0000
  0
ARC
  8
0_00
  6
CONTINUOUS
 62
4
 10
659.0746
 20
593.9685
 40
2.5000
 50
270.0000
 51
348.4630
  0
ARC
  8
0_00
  6
CONTINUOUS
 62
4
 10
659.0746
 20
620.9685
 40
2.5000
 50
11.5370
 51
90.0000
  0
ARC
  8
0_00
  6
CONTINUOUS
 62
4
 10
1814.5319
 20
1367.3695
 40
1.2500
 50
180.0000
 51
270.0000
  0
ARC
  8
0_00
  6
CONTINUOUS
 62
4
 10
1821.0318
 20
1367.3695
 40
1.2500
 50
270.0000
 51
360.0000
  0
ARC
  8
0_00
  6
CONTINUOUS
 62
4
 10
1821.0318
 20
1411.0681
 40
1.2500
 50
0.0000
 51
90.0000
  0
ARC
  8
0_00
  6
CONTINUOUS
 62
4
 10
1814.5319
 20
1411.0681
 40
1.2500
 50
90.0000
 51
180.0000
  0
ARC
  8
144_90
  6
CONTINUOUS
 62
4
 10
552.4932
 20
919.0083
 40
0.5000
 50
181.8481
 51
225.0000
  0
ARC
  8
144_90
  6
CONTINUOUS
 62
4
 10
576.5348
 20
943.0499
 40
0.5000
 50
45.0000
 51
88.1519
  0
ARC
  8
16_10
  6
CONTINUOUS
 62
4
 10
1204.1476
 20
1358.6154
 40
4.2000
 50
98.4358
 51
181.8837
  0
ARC
  8
16_10
  6
CONTINUOUS
 62
4
 10
1203.6476
 20
1342.4382
 40
3.3000
 50
181.8837
 51
223.9454
  0
ARC
  8
16_10
  6
CONTINUOUS
 62
4
 10
1203.2740
 20
1335.0883
 40
1.9500
 50
181.8837
 51
271.8837
  0
ARC
  8
16_10
  6
CONTINUOUS
 62
4
 10
1294.2601
 20
1358.3267
 40
4.2000
 50
52.0455
 51
85.6846
  0
ARC
  8
16_10
  6
CONTINUOUS
 62
4
 10
1216.8102
 20
1358.2350
 40
3.2500
 50
98.4358
 51
181.8837
  0
ARC
  8
16_10
  6
CONTINUOUS
 62
4
 10
1213.9691
 20
1340.2328
 40
0.9000
 50
1.8837
 51
45.3477
  0
ARC
  8
16_10
  6
CONTINUOUS
 62
4
 10
1216.1477
 20
1342.4382
 40
2.2000
 50
181.8837
 51
225.3477
  0
ARC
  8
16_10
  6
CONTINUOUS
 62
4
 10
1215.7773
 20
1334.9883
 40
0.8500
 50
181.8837
 51
270.0000
  0
ARC
  8
16_10
  6
CONTINUOUS
 62
4
 10
1217.5863
 20
1334.7476
 40
1.1500
 50
271.8837
 51
328.0094
  0
ARC
  8
0_00
  6
CONTINUOUS
 62
4
 10
1364.5319
 20
2592.3697
 40
1.2500
 50
180.0000
 51
270.0000
  0
ARC
  8
0_00
  6
CONTINUOUS
 62
4
 10
1371.0320
 20
2592.3697
 40
1.2500
 50
270.0000
 51
360.0000
  0
ARC
  8
0_00
  6
CONTINUOUS
 62
4
 10
1814.5319
 20
2592.3697
 40
1.2500
 50
180.0000
 51
270.0000
  0
ARC
  8
0_00
  6
CONTINUOUS
 62
4
 10
1821.0318
 20
2592.3697
 40
1.2500
 50
270.0000
 51
360.0000
  0
ARC
  8
16_10
  6
CONTINUOUS
 62
4
 10
1204.1476
 20
2583.6151
 40
4.2000
 50
98.4358
 51
181.8837
  0
ARC
  8
16_10
  6
CONTINUOUS
 62
4
 10
1203.6476
 20
2567.4384
 40
3.3000
 50
181.8837
 51
223.9454
  0
ARC
  8
16_10
  6
CONTINUOUS
 62
4
 10
1203.2740
 20
2560.0885
 40
1.9500
 50
181.8837
 51
271.8837
  0
ARC
  8
16_10
  6
CONTINUOUS
 62
4
 10
1294.2601
 20
2583.3264
 40
4.2000
 50
52.0455
 51
85.6846
  0
ARC
  8
16_10
  6
CONTINUOUS
 62
4
 10
1216.8102
 20
2583.2349
 40
3.2500
 50
98.4358
 51
181.8837
  0
ARC
  8
16_10
  6
CONTINUOUS
 62
4
 10
1213.9691
 20
2565.2328
 40
0.9000
 50
1.8837
 51
45.3477
  0
ARC
  8
16_10
  6
CONTINUOUS
 62
4
 10
1216.1477
 20
2567.4384
 40
2.2000
 50
181.8837
 51
225.3477
  0
ARC
  8
16_10
  6
CONTINUOUS
 62
4
 10
1215.7773
 20
2559.9881
 40
0.8500
 50
181.8837
 51
270.0000
  0
ARC
  8
16_10
  6
CONTINUOUS
 62
4
 10
1217.5863
 20
2559.7473
 40
1.1500
 50
271.8837
 51
328.0094
  0
ARC
  8
0_00
  6
CONTINUOUS
 62
4
 10
1371.0320
 20
2636.0681
 40
1.2500
 50
0.0000
 51
90.0000
  0
ARC
  8
0_00
  6
CONTINUOUS
 62
4
 10
1364.5319
 20
2636.0681
 40
1.2500
 50
90.0000
 51
180.0000
  0
ARC
  8
0_00
  6
CONTINUOUS
 62
4
 10
1821.0318
 20
2636.0681
 40
1.2500
 50
0.0000
 51
90.0000
  0
ARC
  8
0_00
  6
CONTINUOUS
 62
4
 10
1814.5319
 20
2636.0681
 40
1.2500
 50
90.0000
 51
180.0000
  0
ARC
  8
144_90
  6
CONTINUOUS
 62
4
 10
723.6893
 20
1972.8119
 40
0.5000
 50
225.0000
 51
358.0245
  0
ARC
  8
144_90
  6
CONTINUOUS
 62
4
 10
747.7309
 20
1996.8536
 40
0.5000
 50
271.9755
 51
405.0000
  0
ARC
  8
2_02
  6
CONTINUOUS
 62
4
 10
3082.4829
 20
1854.8387
 40
101.1500
 50
89.8197
 51
97.0407
  0
ARC
  8
2_02
  6
CONTINUOUS
 62
4
 10
3070.4828
 20
1952.0007
 40
3.2500
 50
97.0407
 51
180.0000
  0
ARC
  8
2_02
  6
CONTINUOUS
 62
4
 10
3097.7328
 20
1955.7382
 40
0.2500
 50
0.0000
 51
90.0000
  0
ARC
  8
2_02
  6
CONTINUOUS
 62
4
 10
3097.7328
 20
1932.2388
 40
0.2500
 50
270.0000
 51
360.0000
  0
ARC
  8
2_02
  6
CONTINUOUS
 62
4
 10
3067.4826
 20
1932.2388
 40
0.2500
 50
180.0000
 51
270.0000
  0
ARC
  8
32_20
  6
CONTINUOUS
 62
4
 10
3070.1825
 20
2468.8397
 40
8.1000
 50
123.4747
 51
248.0903
  0
ARC
  8
32_20
  6
CONTINUOUS
 62
4
 10
3067.3468
 20
2461.7886
 40
0.5000
 50
248.0903
 51
270.0000
  0
ARC
  8
32_20
  6
CONTINUOUS
 62
4
 10
3097.6187
 20
2461.7886
 40
0.5000
 50
270.0000
 51
291.9097
  0
ARC
  8
32_20
  6
CONTINUOUS
 62
4
 10
3082.4829
 20
2450.2386
 40
30.4000
 50
90.0000
 51
123.4747
  0
ARC
  8
16_10
  6
CONTINUOUS
 62
4
 10
3043.2120
 20
1802.6157
 40
4.2000
 50
98.4358
 51
181.8837
  0
ARC
  8
16_10
  6
CONTINUOUS
 62
4
 10
3042.7124
 20
1786.4388
 40
3.3000
 50
181.8837
 51
223.9454
  0
ARC
  8
16_10
  6
CONTINUOUS
 62
4
 10
3042.3386
 20
1779.0886
 40
1.9500
 50
181.8837
 51
271.8837
  0
ARC
  8
16_10
  6
CONTINUOUS
 62
4
 10
3133.3246
 20
1802.3270
 40
4.2000
 50
52.0455
 51
85.6846
  0
ARC
  8
16_10
  6
CONTINUOUS
 62
4
 10
3055.8749
 20
1802.2354
 40
3.2500
 50
98.4358
 51
181.8837
  0
ARC
  8
16_10
  6
CONTINUOUS
 62
4
 10
3053.0334
 20
1784.2332
 40
0.9000
 50
1.8837
 51
45.3477
  0
ARC
  8
16_10
  6
CONTINUOUS
 62
4
 10
3055.2121
 20
1786.4388
 40
2.2000
 50
181.8837
 51
225.3477
  0
ARC
  8
16_10
  6
CONTINUOUS
 62
4
 10
3054.8419
 20
1778.9886
 40
0.8500
 50
181.8837
 51
270.0000
  0
ARC
  8
16_10
  6
CONTINUOUS
 62
4
 10
3056.6507
 20
1778.7480
 40
1.1500
 50
271.8837
 51
328.0094
  0
ARC
  8
16_10
  6
CONTINUOUS
 62
4
 10
3043.2120
 20
2327.2438
 40
4.2000
 50
98.4358
 51
181.8837
  0
ARC
  8
16_10
  6
CONTINUOUS
 62
4
 10
3042.7124
 20
2311.0666
 40
3.3000
 50
181.8837
 51
223.9454
  0
ARC
  8
16_10
  6
CONTINUOUS
 62
4
 10
3042.3386
 20
2303.7167
 40
1.9500
 50
181.8837
 51
271.8837
  0
ARC
  8
16_10
  6
CONTINUOUS
 62
4
 10
3133.3246
 20
2326.9550
 40
4.2000
 50
52.0455
 51
85.6846
  0
ARC
  8
16_10
  6
CONTINUOUS
 62
4
 10
3055.8749
 20
2326.8634
 40
3.2500
 50
98.4358
 51
181.8837
  0
ARC
  8
16_10
  6
CONTINUOUS
 62
4
 10
3053.0334
 20
2308.8614
 40
0.9000
 50
1.8837
 51
45.3477
  0
ARC
  8
16_10
  6
CONTINUOUS
 62
4
 10
3055.2121
 20
2311.0666
 40
2.2000
 50
181.8837
 51
225.3477
  0
ARC
  8
16_10
  6
CONTINUOUS
 62
4
 10
3054.8419
 20
2303.6165
 40
0.8500
 50
181.8837
 51
270.0000
  0
ARC
  8
16_10
  6
CONTINUOUS
 62
4
 10
3056.6507
 20
2303.3760
 40
1.1500
 50
271.8837
 51
328.0094
  0
ARC
  8
144_90
  6
CONTINUOUS
 62
4
 10
2492.1938
 20
1164.0083
 40
0.5000
 50
181.8481
 51
225.0000
  0
ARC
  8
144_90
  6
CONTINUOUS
 62
4
 10
2663.3899
 20
992.8120
 40
0.5000
 50
225.0000
 51
358.0245
  0
ARC
  8
144_90
  6
CONTINUOUS
 62
4
 10
2516.2354
 20
1188.0499
 40
0.5000
 50
45.0000
 51
88.1519
  0
CIRCLE
  8
144_90
  6
CONTINUOUS
 62
4
 10
2687.4316
 20
1016.8536
 40
0.5000
  0
ARC
  8
0_00
  6
CONTINUOUS
 62
4
 10
2528.7753
 20
1151.4684
 40
3.0000
 50
90.0000
 51
180.0000
  0
ARC
  8
0_00
  6
CONTINUOUS
 62
3
 10
3632.2531
 20
240.7876
 40
1.7875
 50
270.0000
 51
450.0000
  0
ARC
  8
0_00
  6
CONTINUOUS
 62
3
 10
3627.2806
 20
256.8752
 40
2.1775
 50
0.0000
 51
180.0000
  0
ARC
  8
0_00
  6
CONTINUOUS
 62
3
 10
3630.6284
 20
278.0002
 40
6.5001
 50
333.9999
 51
450.0000
  0
CIRCLE
  8
0_00
  6
CONTINUOUS
 62
3
 10
3633.5532
 20
291.0001
 40
5.2000
  0
ARC
  8
0_00
  6
CONTINUOUS
 62
3
 10
3627.6035
 20
256.8752
 40
1.5000
 50
0.0000
 51
180.0000
  0
ARC
  8
0_00
  6
CONTINUOUS
 62
3
 10
3627.6035
 20
256.8752
 40
0.5000
 50
0.0000
 51
180.0000
  0
ARC
  8
0_00
  6
CONTINUOUS
 62
3
 10
3632.2531
 20
240.5752
 40
1.0000
 50
270.0000
 51
450.0000
  0
CIRCLE
  8
0_00
  6
CONTINUOUS
 62
3
 10
3633.5532
 20
291.0001
 40
4.4148
  0
CIRCLE
  8
0_00
  6
CONTINUOUS
 62
3
 10
3633.5532
 20
291.0001
 40
3.4185
  0
CIRCLE
  8
0_00
  6
CONTINUOUS
 62
3
 10
3633.5532
 20
291.0001
 40
2.3422
  0
CIRCLE
  8
0_00
  6
CONTINUOUS
 62
3
 10
3633.5532
 20
291.0001
 40
1.1467
  0
CIRCLE
  8
0_00
  6
CONTINUOUS
 62
3
 10
3633.5532
 20
291.0001
 40
0.5665
  0
CIRCLE
  8
0_00
  6
CONTINUOUS
 62
4
 10
2936.8030
 20
274.0002
 40
12.5000
  0
CIRCLE
  8
0_00
  6
CONTINUOUS
 62
4
 10
2936.8030
 20
274.0002
 40
20.0000
  0
ARC
  8
0_00
  6
CONTINUOUS
 62
4
 10
2014.2482
 20
774.9152
 40
2.0000
 50
90.4000
 51
136.6979
  0
ARC
  8
0_00
  6
CONTINUOUS
 62
4
 10
2010.2455
 20
778.6872
 40
3.5000
 50
270.4000
 51
316.6979
  0
ARC
  8
0_00
  6
CONTINUOUS
 62
4
 10
2010.2455
 20
778.6872
 40
3.5000
 50
131.8470
 51
194.5490
  0
ARC
  8
0_00
  6
CONTINUOUS
 62
4
 10
2005.8899
 20
777.5568
 40
1.0000
 50
270.4000
 51
374.5490
  0
ARC
  8
0_00
  6
CONTINUOUS
 62
4
 10
2008.7778
 20
780.3261
 40
1.3000
 50
60.4000
 51
131.8470
  0
ARC
  8
0_00
  6
CONTINUOUS
 62
4
 10
2010.2455
 20
778.6872
 40
1.7500
 50
100.5841
 51
125.0231
  0
ARC
  8
0_00
  6
CONTINUOUS
 62
4
 10
2010.2455
 20
778.6872
 40
1.7500
 50
265.7769
 51
305.0231
  0
ARC
  8
0_00
  6
CONTINUOUS
 62
4
 10
2010.2455
 20
778.6872
 40
1.7500
 50
175.7769
 51
215.0231
  0
ARC
  8
0_00
  6
CONTINUOUS
 62
4
 10
2009.8550
 20
780.7769
 40
0.3759
 50
280.5841
 51
420.4000
  0
ARC
  8
0_00
  6
CONTINUOUS
 62
4
 10
2012.4048
 20
778.2658
 40
1.3000
 50
357.6053
 51
420.4000
  0
ARC
  8
0_00
  6
CONTINUOUS
 62
4
 10
2010.2455
 20
778.6872
 40
1.7500
 50
355.7769
 51
380.2159
  0
ARC
  8
0_00
  6
CONTINUOUS
 62
4
 10
2012.2404
 20
779.4218
 40
0.3759
 50
60.4000
 51
200.2159
  0
ARC
  8
0_00
  6
CONTINUOUS
 62
4
 10
1981.2477
 20
795.2714
 40
10.5000
 50
180.0000
 51
188.7462
  0
ARC
  8
0_00
  6
CONTINUOUS
 62
4
 10
1978.8951
 20
780.9685
 40
6.0000
 50
188.7462
 51
270.4000
  0
ARC
  8
0_00
  6
CONTINUOUS
 62
4
 10
1981.2477
 20
795.2714
 40
9.0000
 50
180.0000
 51
188.7462
  0
ARC
  8
0_00
  6
CONTINUOUS
 62
4
 10
1978.9105
 20
780.8685
 40
4.5000
 50
188.7462
 51
270.4000
  0
ARC
  8
0_00
  6
CONTINUOUS
 62
4
 10
1981.2477
 20
919.6655
 40
10.5000
 50
171.2538
 51
180.0000
  0
ARC
  8
0_00
  6
CONTINUOUS
 62
4
 10
1981.2477
 20
919.6655
 40
9.0000
 50
171.2538
 51
180.0000
  0
ARC
  8
0_00
  6
CONTINUOUS
 62
4
 10
1978.8951
 20
933.9685
 40
6.0000
 50
89.6000
 51
171.2538
  0
ARC
  8
0_00
  6
CONTINUOUS
 62
4
 10
1978.9105
 20
934.0683
 40
4.5000
 50
89.6000
 51
171.2538
  0
ARC
  8
0_00
  6
CONTINUOUS
 62
4
 10
2025.0896
 20
779.4408
 40
0.6500
 50
0.4000
 51
180.4000
  0
ARC
  8
14_0E
  6
CONTINUOUS
 62
4
 10
2024.2462
 20
778.4850
 40
1.5000
 50
270.4000
 51
360.4000
  0
ARC
  8
0_00
  6
CONTINUOUS
 62
4
 10
2014.2482
 20
940.0217
 40
2.0000
 50
223.3021
 51
269.6000
  0
ARC
  8
0_00
  6
CONTINUOUS
 62
4
 10
2010.2455
 20
936.2496
 40
3.5000
 50
43.3021
 51
89.6000
  0
ARC
  8
0_00
  6
CONTINUOUS
 62
4
 10
2010.2455
 20
936.2496
 40
3.5000
 50
165.4510
 51
228.1530
  0
ARC
  8
0_00
  6
CONTINUOUS
 62
4
 10
2005.8899
 20
937.3801
 40
1.0000
 50
345.4510
 51
449.6000
  0
ARC
  8
0_00
  6
CONTINUOUS
 62
4
 10
2008.7778
 20
934.6107
 40
1.3000
 50
228.1530
 51
299.6000
  0
ARC
  8
0_00
  6
CONTINUOUS
 62
4
 10
2010.2455
 20
936.2496
 40
1.7500
 50
234.9769
 51
259.4159
  0
ARC
  8
0_00
  6
CONTINUOUS
 62
4
 10
2010.2455
 20
936.2496
 40
1.7500
 50
54.9769
 51
94.2231
  0
ARC
  8
0_00
  6
CONTINUOUS
 62
4
 10
2010.2455
 20
936.2496
 40
1.7500
 50
144.9769
 51
184.2231
  0
ARC
  8
0_00
  6
CONTINUOUS
 62
4
 10
2009.8550
 20
934.1599
 40
0.3759
 50
299.6000
 51
439.4159
  0
ARC
  8
0_00
  6
CONTINUOUS
 62
4
 10
2012.4048
 20
936.6711
 40
1.3000
 50
299.6000
 51
362.3947
  0
ARC
  8
0_00
  6
CONTINUOUS
 62
4
 10
2010.2455
 20
936.2496
 40
1.7500
 50
339.7841
 51
364.2231
  0
ARC
  8
0_00
  6
CONTINUOUS
 62
4
 10
2012.2404
 20
935.5151
 40
0.3759
 50
159.7841
 51
299.6000
  0
ARC
  8
0_00
  6
CONTINUOUS
 62
4
 10
2025.0896
 20
935.4960
 40
0.6500
 50
179.6000
 51
359.6000
  0
ARC
  8
14_0E
  6
CONTINUOUS
 62
4
 10
2024.2462
 20
936.4519
 40
1.5000
 50
359.6000
 51
449.6000
  0
ARC
  8
0_00
  6
CONTINUOUS
 62
4
 10
1997.7534
 20
777.5000
 40
1.0000
 50
270.4000
 51
360.4000
  0
ARC
  8
0_00
  6
CONTINUOUS
 62
4
 10
2001.1534
 20
777.5238
 40
1.0000
 50
180.4000
 51
270.4000
  0
ARC
  8
0_00
  6
CONTINUOUS
 62
4
 10
1999.4446
 20
778.8118
 40
0.7000
 50
0.4000
 51
180.4000
  0
ARC
  8
0_00
  6
CONTINUOUS
 62
4
 10
1997.7534
 20
937.4368
 40
1.0000
 50
359.6000
 51
449.6000
  0
ARC
  8
0_00
  6
CONTINUOUS
 62
4
 10
2001.1534
 20
937.4131
 40
1.0000
 50
89.6000
 51
179.6000
  0
ARC
  8
0_00
  6
CONTINUOUS
 62
4
 10
1999.4446
 20
936.1250
 40
0.7000
 50
179.6000
 51
359.6000
  0
ARC
  8
0_00
  6
CONTINUOUS
 62
4
 10
2014.2482
 20
1999.9150
 40
2.0000
 50
90.4000
 51
136.6979
  0
ARC
  8
0_00
  6
CONTINUOUS
 62
4
 10
2010.2455
 20
2003.6871
 40
3.5000
 50
270.4000
 51
316.6979
  0
ARC
  8
0_00
  6
CONTINUOUS
 62
4
 10
2010.2455
 20
2003.6871
 40
3.5000
 50
131.8470
 51
194.5490
  0
ARC
  8
0_00
  6
CONTINUOUS
 62
4
 10
2005.8899
 20
2002.5568
 40
1.0000
 50
270.4000
 51
374.5490
  0
ARC
  8
0_00
  6
CONTINUOUS
 62
4
 10
2008.7778
 20
2005.3261
 40
1.3000
 50
60.4000
 51
131.8470
  0
ARC
  8
0_00
  6
CONTINUOUS
 62
4
 10
2010.2455
 20
2003.6871
 40
1.7500
 50
100.5841
 51
125.0231
  0
ARC
  8
0_00
  6
CONTINUOUS
 62
4
 10
2010.2455
 20
2003.6871
 40
1.7500
 50
265.7769
 51
305.0231
  0
ARC
  8
0_00
  6
CONTINUOUS
 62
4
 10
2010.2455
 20
2003.6871
 40
1.7500
 50
175.7769
 51
215.0231
  0
ARC
  8
0_00
  6
CONTINUOUS
 62
4
 10
2009.8550
 20
2005.7768
 40
0.3759
 50
280.5841
 51
420.4000
  0
ARC
  8
0_00
  6
CONTINUOUS
 62
4
 10
2012.4048
 20
2003.2657
 40
1.3000
 50
357.6053
 51
420.4000
  0
ARC
  8
0_00
  6
CONTINUOUS
 62
4
 10
2010.2455
 20
2003.6871
 40
1.7500
 50
355.7769
 51
380.2159
  0
ARC
  8
0_00
  6
CONTINUOUS
 62
4
 10
2012.2404
 20
2004.4218
 40
0.3759
 50
60.4000
 51
200.2159
  0
ARC
  8
0_00
  6
CONTINUOUS
 62
4
 10
1981.2477
 20
2020.2715
 40
10.5000
 50
180.0000
 51
188.7462
  0
ARC
  8
0_00
  6
CONTINUOUS
 62
4
 10
1978.8951
 20
2005.9683
 40
6.0000
 50
188.7462
 51
270.4000
  0
ARC
  8
0_00
  6
CONTINUOUS
 62
4
 10
1981.2477
 20
2020.2715
 40
9.0000
 50
180.0000
 51
188.7462
  0
ARC
  8
0_00
  6
CONTINUOUS
 62
4
 10
1978.9105
 20
2005.8685
 40
4.5000
 50
188.7462
 51
270.4000
  0
ARC
  8
0_00
  6
CONTINUOUS
 62
4
 10
1981.2477
 20
2144.6654
 40
10.5000
 50
171.2538
 51
180.0000
  0
ARC
  8
0_00
  6
CONTINUOUS
 62
4
 10
1981.2477
 20
2144.6654
 40
9.0000
 50
171.2538
 51
180.0000
  0
ARC
  8
0_00
  6
CONTINUOUS
 62
4
 10
1978.8951
 20
2158.9684
 40
6.0000
 50
89.6000
 51
171.2538
  0
ARC
  8
0_00
  6
CONTINUOUS
 62
4
 10
1978.9105
 20
2159.0683
 40
4.5000
 50
89.6000
 51
171.2538
  0
ARC
  8
0_00
  6
CONTINUOUS
 62
4
 10
2025.0896
 20
2004.4408
 40
0.6500
 50
0.4000
 51
180.4000
  0
ARC
  8
14_0E
  6
CONTINUOUS
 62
4
 10
2024.2462
 20
2003.4850
 40
1.5000
 50
270.4000
 51
360.4000
  0
ARC
  8
0_00
  6
CONTINUOUS
 62
4
 10
2014.2482
 20
2165.0217
 40
2.0000
 50
223.3021
 51
269.6000
  0
ARC
  8
0_00
  6
CONTINUOUS
 62
4
 10
2010.2455
 20
2161.2497
 40
3.5000
 50
43.3021
 51
89.6000
  0
ARC
  8
0_00
  6
CONTINUOUS
 62
4
 10
2010.2455
 20
2161.2497
 40
3.5000
 50
165.4510
 51
228.1530
  0
ARC
  8
0_00
  6
CONTINUOUS
 62
4
 10
2005.8899
 20
2162.3801
 40
1.0000
 50
345.4510
 51
449.6000
  0
ARC
  8
0_00
  6
CONTINUOUS
 62
4
 10
2008.7778
 20
2159.6107
 40
1.3000
 50
228.1530
 51
299.6000
  0
ARC
  8
0_00
  6
CONTINUOUS
 62
4
 10
2010.2455
 20
2161.2497
 40
1.7500
 50
234.9769
 51
259.4159
  0
ARC
  8
0_00
  6
CONTINUOUS
 62
4
 10
2010.2455
 20
2161.2497
 40
1.7500
 50
54.9769
 51
94.2231
  0
ARC
  8
0_00
  6
CONTINUOUS
 62
4
 10
2010.2455
 20
2161.2497
 40
1.7500
 50
144.9769
 51
184.2231
  0
ARC
  8
0_00
  6
CONTINUOUS
 62
4
 10
2009.8550
 20
2159.1599
 40
0.3759
 50
299.6000
 51
439.4159
  0
ARC
  8
0_00
  6
CONTINUOUS
 62
4
 10
2012.4048
 20
2161.6708
 40
1.3000
 50
299.6000
 51
362.3947
  0
ARC
  8
0_00
  6
CONTINUOUS
 62
4
 10
2010.2455
 20
2161.2497
 40
1.7500
 50
339.7841
 51
364.2231
  0
ARC
  8
0_00
  6
CONTINUOUS
 62
4
 10
2012.2404
 20
2160.5151
 40
0.3759
 50
159.7841
 51
299.6000
  0
ARC
  8
0_00
  6
CONTINUOUS
 62
4
 10
2025.0896
 20
2160.4961
 40
0.6500
 50
179.6000
 51
359.6000
  0
ARC
  8
14_0E
  6
CONTINUOUS
 62
4
 10
2024.2462
 20
2161.4517
 40
1.5000
 50
359.6000
 51
449.6000
  0
ARC
  8
0_00
  6
CONTINUOUS
 62
4
 10
1997.7534
 20
2002.4998
 40
1.0000
 50
270.4000
 51
360.4000
  0
ARC
  8
0_00
  6
CONTINUOUS
 62
4
 10
2001.1534
 20
2002.5237
 40
1.0000
 50
180.4000
 51
270.4000
  0
ARC
  8
0_00
  6
CONTINUOUS
 62
4
 10
1999.4446
 20
2003.8116
 40
0.7000
 50
0.4000
 51
180.4000
  0
ARC
  8
0_00
  6
CONTINUOUS
 62
4
 10
1997.7534
 20
2162.4370
 40
1.0000
 50
359.6000
 51
449.6000
  0
ARC
  8
0_00
  6
CONTINUOUS
 62
4
 10
2001.1534
 20
2162.4130
 40
1.0000
 50
89.6000
 51
179.6000
  0
ARC
  8
0_00
  6
CONTINUOUS
 62
4
 10
1999.4446
 20
2161.1247
 40
0.7000
 50
179.6000
 51
359.6000
  0
ARC
  8
0_00
  6
CONTINUOUS
 62
6
 10
2839.2752
 20
1121.4684
 40
2.5000
 50
0.0000
 51
90.0000
  0
ARC
  8
0_00
  6
CONTINUOUS
 62
6
 10
2834.9857
 20
1122.2684
 40
0.5000
 50
331.3146
 51
450.0000
  0
ARC
  8
0_00
  6
CONTINUOUS
 62
6
 10
2840.0751
 20
1117.1786
 40
0.5000
 50
0.0000
 51
118.6854
  0
ARC
  8
0_00
  6
CONTINUOUS
 62
6
 10
2838.2751
 20
1120.4684
 40
1.7000
 50
161.1790
 51
176.7520
  0
ARC
  8
0_00
  6
CONTINUOUS
 62
6
 10
2838.2751
 20
1120.4684
 40
3.2500
 50
273.2480
 51
298.6854
  0
ARC
  8
0_00
  6
CONTINUOUS
 62
6
 10
2838.2751
 20
1120.4684
 40
3.2500
 50
151.3146
 51
176.7520
  0
ARC
  8
0_00
  6
CONTINUOUS
 62
6
 10
2838.2751
 20
1120.4684
 40
1.7000
 50
341.1790
 51
378.8210
  0
ARC
  8
0_00
  6
CONTINUOUS
 62
6
 10
2838.2751
 20
1120.4684
 40
1.7000
 50
71.1790
 51
108.8210
  0
ARC
  8
0_00
  6
CONTINUOUS
 62
6
 10
2838.2751
 20
1120.4684
 40
1.7000
 50
273.2480
 51
288.8210
  0
ARC
  8
0_00
  6
CONTINUOUS
 62
6
 10
2835.8044
 20
1120.6085
 40
0.7750
 50
176.7520
 51
356.7520
  0
ARC
  8
0_00
  6
CONTINUOUS
 62
6
 10
2838.4155
 20
1117.9973
 40
0.7750
 50
93.2480
 51
273.2480
  0
ARC
  8
0_00
  6
CONTINUOUS
 62
6
 10
2816.2750
 20
1121.4684
 40
2.5000
 50
90.0000
 51
180.0000
  0
ARC
  8
0_00
  6
CONTINUOUS
 62
6
 10
2820.5649
 20
1122.2684
 40
0.5000
 50
90.0000
 51
208.6854
  0
ARC
  8
0_00
  6
CONTINUOUS
 62
6
 10
2815.4755
 20
1117.1786
 40
0.5000
 50
61.3146
 51
180.0000
  0
ARC
  8
0_00
  6
CONTINUOUS
 62
6
 10
2817.2754
 20
1120.4684
 40
1.7000
 50
3.2480
 51
18.8210
  0
ARC
  8
0_00
  6
CONTINUOUS
 62
6
 10
2817.2754
 20
1120.4684
 40
3.2500
 50
241.3146
 51
266.7520
  0
ARC
  8
0_00
  6
CONTINUOUS
 62
6
 10
2817.2754
 20
1120.4684
 40
3.2500
 50
3.2480
 51
28.6854
  0
ARC
  8
0_00
  6
CONTINUOUS
 62
6
 10
2817.2754
 20
1120.4684
 40
1.7000
 50
161.1790
 51
198.8210
  0
ARC
  8
0_00
  6
CONTINUOUS
 62
6
 10
2817.2754
 20
1120.4684
 40
1.7000
 50
71.1790
 51
108.8210
  0
ARC
  8
0_00
  6
CONTINUOUS
 62
6
 10
2817.2754
 20
1120.4684
 40
1.7000
 50
251.1790
 51
266.7520
  0
ARC
  8
0_00
  6
CONTINUOUS
 62
6
 10
2819.7464
 20
1120.6085
 40
0.7750
 50
183.2480
 51
363.2480
  0
ARC
  8
0_00
  6
CONTINUOUS
 62
6
 10
2817.1350
 20
1117.9973
 40
0.7750
 50
266.7520
 51
446.7520
  0
ARC
  8
0_00
  6
CONTINUOUS
 62
6
 10
2839.2752
 20
1083.4685
 40
2.5000
 50
270.0000
 51
360.0000
  0
ARC
  8
0_00
  6
CONTINUOUS
 62
6
 10
2834.9857
 20
1082.6684
 40
0.5000
 50
270.0000
 51
388.6854
  0
ARC
  8
0_00
  6
CONTINUOUS
 62
6
 10
2840.0751
 20
1087.7582
 40
0.5000
 50
241.3146
 51
360.0000
  0
ARC
  8
0_00
  6
CONTINUOUS
 62
6
 10
2838.2751
 20
1084.4685
 40
1.7000
 50
183.2480
 51
198.8210
  0
ARC
  8
0_00
  6
CONTINUOUS
 62
6
 10
2838.2751
 20
1084.4685
 40
3.2500
 50
61.3146
 51
86.7520
  0
ARC
  8
0_00
  6
CONTINUOUS
 62
6
 10
2838.2751
 20
1084.4685
 40
3.2500
 50
183.2480
 51
208.6854
  0
ARC
  8
0_00
  6
CONTINUOUS
 62
6
 10
2838.2751
 20
1084.4685
 40
1.7000
 50
341.1790
 51
378.8210
  0
ARC
  8
0_00
  6
CONTINUOUS
 62
6
 10
2838.2751
 20
1084.4685
 40
1.7000
 50
251.1790
 51
288.8210
  0
ARC
  8
0_00
  6
CONTINUOUS
 62
6
 10
2838.2751
 20
1084.4685
 40
1.7000
 50
71.1790
 51
86.7520
  0
ARC
  8
0_00
  6
CONTINUOUS
 62
6
 10
2835.8044
 20
1084.3282
 40
0.7750
 50
3.2480
 51
183.2480
  0
ARC
  8
0_00
  6
CONTINUOUS
 62
6
 10
2838.4155
 20
1086.9394
 40
0.7750
 50
86.7520
 51
266.7520
  0
ARC
  8
0_00
  6
CONTINUOUS
 62
6
 10
2816.2750
 20
1083.4685
 40
2.5000
 50
180.0000
 51
270.0000
  0
ARC
  8
0_00
  6
CONTINUOUS
 62
6
 10
2820.5649
 20
1082.6684
 40
0.5000
 50
151.3146
 51
270.0000
  0
ARC
  8
0_00
  6
CONTINUOUS
 62
6
 10
2815.4755
 20
1087.7582
 40
0.5000
 50
180.0000
 51
298.6854
  0
ARC
  8
0_00
  6
CONTINUOUS
 62
6
 10
2817.2754
 20
1084.4685
 40
1.7000
 50
341.1790
 51
356.7520
  0
ARC
  8
0_00
  6
CONTINUOUS
 62
6
 10
2817.2754
 20
1084.4685
 40
3.2500
 50
93.2480
 51
118.6854
  0
ARC
  8
0_00
  6
CONTINUOUS
 62
6
 10
2817.2754
 20
1084.4685
 40
3.2500
 50
331.3146
 51
356.7520
  0
ARC
  8
0_00
  6
CONTINUOUS
 62
6
 10
2817.2754
 20
1084.4685
 40
1.7000
 50
161.1790
 51
198.8210
  0
ARC
  8
0_00
  6
CONTINUOUS
 62
6
 10
2817.2754
 20
1084.4685
 40
1.7000
 50
251.1790
 51
288.8210
  0
ARC
  8
0_00
  6
CONTINUOUS
 62
6
 10
2817.2754
 20
1084.4685
 40
1.7000
 50
93.2480
 51
108.8210
  0
ARC
  8
0_00
  6
CONTINUOUS
 62
6
 10
2819.7464
 20
1084.3282
 40
0.7750
 50
356.7520
 51
536.7520
  0
ARC
  8
0_00
  6
CONTINUOUS
 62
6
 10
2817.1350
 20
1086.9394
 40
0.7750
 50
273.2480
 51
453.2480
  0
ARC
  8
0_00
  6
CONTINUOUS
 62
6
 10
3739.2752
 20
1121.4684
 40
2.5000
 50
0.0000
 51
90.0000
  0
ARC
  8
0_00
  6
CONTINUOUS
 62
6
 10
3734.9857
 20
1122.2684
 40
0.5000
 50
331.3146
 51
450.0000
  0
ARC
  8
0_00
  6
CONTINUOUS
 62
6
 10
3740.0754
 20
1117.1786
 40
0.5000
 50
0.0000
 51
118.6854
  0
ARC
  8
0_00
  6
CONTINUOUS
 62
6
 10
3738.2751
 20
1120.4684
 40
1.7000
 50
161.1790
 51
176.7520
  0
ARC
  8
0_00
  6
CONTINUOUS
 62
6
 10
3738.2751
 20
1120.4684
 40
3.2500
 50
273.2480
 51
298.6854
  0
ARC
  8
0_00
  6
CONTINUOUS
 62
6
 10
3738.2751
 20
1120.4684
 40
3.2500
 50
151.3146
 51
176.7520
  0
ARC
  8
0_00
  6
CONTINUOUS
 62
6
 10
3738.2751
 20
1120.4684
 40
1.7000
 50
341.1790
 51
378.8210
  0
ARC
  8
0_00
  6
CONTINUOUS
 62
6
 10
3738.2751
 20
1120.4684
 40
1.7000
 50
71.1790
 51
108.8210
  0
ARC
  8
0_00
  6
CONTINUOUS
 62
6
 10
3738.2751
 20
1120.4684
 40
1.7000
 50
273.2480
 51
288.8210
  0
ARC
  8
0_00
  6
CONTINUOUS
 62
6
 10
3735.8041
 20
1120.6085
 40
0.7750
 50
176.7520
 51
356.7520
  0
ARC
  8
0_00
  6
CONTINUOUS
 62
6
 10
3738.4155
 20
1117.9973
 40
0.7750
 50
93.2480
 51
273.2480
  0
ARC
  8
0_00
  6
CONTINUOUS
 62
6
 10
3716.2750
 20
1121.4684
 40
2.5000
 50
90.0000
 51
180.0000
  0
ARC
  8
0_00
  6
CONTINUOUS
 62
6
 10
3720.5652
 20
1122.2684
 40
0.5000
 50
90.0000
 51
208.6854
  0
ARC
  8
0_00
  6
CONTINUOUS
 62
6
 10
3715.4755
 20
1117.1786
 40
0.5000
 50
61.3146
 51
180.0000
  0
ARC
  8
0_00
  6
CONTINUOUS
 62
6
 10
3717.2751
 20
1120.4684
 40
1.7000
 50
3.2480
 51
18.8210
  0
ARC
  8
0_00
  6
CONTINUOUS
 62
6
 10
3717.2751
 20
1120.4684
 40
3.2500
 50
241.3146
 51
266.7520
  0
ARC
  8
0_00
  6
CONTINUOUS
 62
6
 10
3717.2751
 20
1120.4684
 40
3.2500
 50
3.2480
 51
28.6854
  0
ARC
  8
0_00
  6
CONTINUOUS
 62
6
 10
3717.2751
 20
1120.4684
 40
1.7000
 50
161.1790
 51
198.8210
  0
ARC
  8
0_00
  6
CONTINUOUS
 62
6
 10
3717.2751
 20
1120.4684
 40
1.7000
 50
71.1790
 51
108.8210
  0
ARC
  8
0_00
  6
CONTINUOUS
 62
6
 10
3717.2751
 20
1120.4684
 40
1.7000
 50
251.1790
 51
266.7520
  0
ARC
  8
0_00
  6
CONTINUOUS
 62
6
 10
3719.7461
 20
1120.6085
 40
0.7750
 50
183.2480
 51
363.2480
  0
ARC
  8
0_00
  6
CONTINUOUS
 62
6
 10
3717.1350
 20
1117.9973
 40
0.7750
 50
266.7520
 51
446.7520
  0
ARC
  8
0_00
  6
CONTINUOUS
 62
6
 10
3739.2752
 20
1083.4685
 40
2.5000
 50
270.0000
 51
360.0000
  0
ARC
  8
0_00
  6
CONTINUOUS
 62
6
 10
3734.9857
 20
1082.6684
 40
0.5000
 50
270.0000
 51
388.6854
  0
ARC
  8
0_00
  6
CONTINUOUS
 62
6
 10
3740.0754
 20
1087.7582
 40
0.5000
 50
241.3146
 51
360.0000
  0
ARC
  8
0_00
  6
CONTINUOUS
 62
6
 10
3738.2751
 20
1084.4685
 40
1.7000
 50
183.2480
 51
198.8210
  0
ARC
  8
0_00
  6
CONTINUOUS
 62
6
 10
3738.2751
 20
1084.4685
 40
3.2500
 50
61.3146
 51
86.7520
  0
ARC
  8
0_00
  6
CONTINUOUS
 62
6
 10
3738.2751
 20
1084.4685
 40
3.2500
 50
183.2480
 51
208.6854
  0
ARC
  8
0_00
  6
CONTINUOUS
 62
6
 10
3738.2751
 20
1084.4685
 40
1.7000
 50
341.1790
 51
378.8210
  0
ARC
  8
0_00
  6
CONTINUOUS
 62
6
 10
3738.2751
 20
1084.4685
 40
1.7000
 50
251.1790
 51
288.8210
  0
ARC
  8
0_00
  6
CONTINUOUS
 62
6
 10
3738.2751
 20
1084.4685
 40
1.7000
 50
71.1790
 51
86.7520
  0
ARC
  8
0_00
  6
CONTINUOUS
 62
6
 10
3735.8041
 20
1084.3282
 40
0.7750
 50
3.2480
 51
183.2480
  0
ARC
  8
0_00
  6
CONTINUOUS
 62
6
 10
3738.4155
 20
1086.9394
 40
0.7750
 50
86.7520
 51
266.7520
  0
ARC
  8
0_00
  6
CONTINUOUS
 62
6
 10
3716.2750
 20
1083.4685
 40
2.5000
 50
180.0000
 51
270.0000
  0
ARC
  8
0_00
  6
CONTINUOUS
 62
6
 10
3720.5652
 20
1082.6684
 40
0.5000
 50
151.3146
 51
270.0000
  0
ARC
  8
0_00
  6
CONTINUOUS
 62
6
 10
3715.4755
 20
1087.7582
 40
0.5000
 50
180.0000
 51
298.6854
  0
ARC
  8
0_00
  6
CONTINUOUS
 62
6
 10
3717.2751
 20
1084.4685
 40
1.7000
 50
341.1790
 51
356.7520
  0
ARC
  8
0_00
  6
CONTINUOUS
 62
6
 10
3717.2751
 20
1084.4685
 40
3.2500
 50
93.2480
 51
118.6854
  0
ARC
  8
0_00
  6
CONTINUOUS
 62
6
 10
3717.2751
 20
1084.4685
 40
3.2500
 50
331.3146
 51
356.7520
  0
ARC
  8
0_00
  6
CONTINUOUS
 62
6
 10
3717.2751
 20
1084.4685
 40
1.7000
 50
161.1790
 51
198.8210
  0
ARC
  8
0_00
  6
CONTINUOUS
 62
6
 10
3717.2751
 20
1084.4685
 40
1.7000
 50
251.1790
 51
288.8210
  0
ARC
  8
0_00
  6
CONTINUOUS
 62
6
 10
3717.2751
 20
1084.4685
 40
1.7000
 50
93.2480
 51
108.8210
  0
ARC
  8
0_00
  6
CONTINUOUS
 62
6
 10
3719.7461
 20
1084.3282
 40
0.7750
 50
356.7520
 51
536.7520
  0
ARC
  8
0_00
  6
CONTINUOUS
 62
6
 10
3717.1350
 20
1086.9394
 40
0.7750
 50
273.2480
 51
453.2480
  0
ARC
  8
0_00
  6
CONTINUOUS
 62
6
 10
2558.7752
 20
840.9685
 40
2.5000
 50
180.0000
 51
270.0000
  0
ARC
  8
0_00
  6
CONTINUOUS
 62
6
 10
2557.9755
 20
845.2582
 40
0.5000
 50
180.0000
 51
298.6854
  0
ARC
  8
0_00
  6
CONTINUOUS
 62
6
 10
2563.0652
 20
840.1685
 40
0.5000
 50
151.3146
 51
270.0000
  0
ARC
  8
0_00
  6
CONTINUOUS
 62
6
 10
2559.7754
 20
841.9685
 40
1.7000
 50
93.2480
 51
108.8210
  0
ARC
  8
0_00
  6
CONTINUOUS
 62
6
 10
2559.7754
 20
841.9685
 40
3.2500
 50
331.3146
 51
356.7520
  0
ARC
  8
0_00
  6
CONTINUOUS
 62
6
 10
2559.7754
 20
841.9685
 40
3.2500
 50
93.2480
 51
118.6854
  0
ARC
  8
0_00
  6
CONTINUOUS
 62
6
 10
2559.7754
 20
841.9685
 40
1.7000
 50
251.1790
 51
288.8210
  0
ARC
  8
0_00
  6
CONTINUOUS
 62
6
 10
2559.7754
 20
841.9685
 40
1.7000
 50
161.1790
 51
198.8210
  0
ARC
  8
0_00
  6
CONTINUOUS
 62
6
 10
2559.7754
 20
841.9685
 40
1.7000
 50
341.1790
 51
356.7520
  0
ARC
  8
0_00
  6
CONTINUOUS
 62
6
 10
2559.6350
 20
844.4395
 40
0.7750
 50
273.2480
 51
453.2480
  0
ARC
  8
0_00
  6
CONTINUOUS
 62
6
 10
2562.2464
 20
841.8282
 40
0.7750
 50
356.7520
 51
536.7520
  0
ARC
  8
0_00
  6
CONTINUOUS
 62
6
 10
2558.7752
 20
863.9684
 40
2.5000
 50
90.0000
 51
180.0000
  0
ARC
  8
0_00
  6
CONTINUOUS
 62
6
 10
2557.9755
 20
859.6786
 40
0.5000
 50
61.3146
 51
180.0000
  0
ARC
  8
0_00
  6
CONTINUOUS
 62
6
 10
2563.0652
 20
864.7684
 40
0.5000
 50
90.0000
 51
208.6854
  0
ARC
  8
0_00
  6
CONTINUOUS
 62
6
 10
2559.7754
 20
862.9684
 40
1.7000
 50
251.1790
 51
266.7520
  0
ARC
  8
0_00
  6
CONTINUOUS
 62
6
 10
2559.7754
 20
862.9684
 40
3.2500
 50
3.2480
 51
28.6854
  0
ARC
  8
0_00
  6
CONTINUOUS
 62
6
 10
2559.7754
 20
862.9684
 40
3.2500
 50
241.3146
 51
266.7520
  0
ARC
  8
0_00
  6
CONTINUOUS
 62
6
 10
2559.7754
 20
862.9684
 40
1.7000
 50
71.1790
 51
108.8210
  0
ARC
  8
0_00
  6
CONTINUOUS
 62
6
 10
2559.7754
 20
862.9684
 40
1.7000
 50
161.1790
 51
198.8210
  0
ARC
  8
0_00
  6
CONTINUOUS
 62
6
 10
2559.7754
 20
862.9684
 40
1.7000
 50
3.2480
 51
18.8210
  0
ARC
  8
0_00
  6
CONTINUOUS
 62
6
 10
2559.6350
 20
860.4974
 40
0.7750
 50
266.7520
 51
446.7520
  0
ARC
  8
0_00
  6
CONTINUOUS
 62
6
 10
2562.2464
 20
863.1086
 40
0.7750
 50
183.2480
 51
363.2480
  0
ARC
  8
0_00
  6
CONTINUOUS
 62
6
 10
2596.7752
 20
840.9685
 40
2.5000
 50
270.0000
 51
360.0000
  0
ARC
  8
0_00
  6
CONTINUOUS
 62
6
 10
2597.5754
 20
845.2582
 40
0.5000
 50
241.3146
 51
360.0000
  0
ARC
  8
0_00
  6
CONTINUOUS
 62
6
 10
2592.4857
 20
840.1685
 40
0.5000
 50
270.0000
 51
388.6854
  0
ARC
  8
0_00
  6
CONTINUOUS
 62
6
 10
2595.7755
 20
841.9685
 40
1.7000
 50
71.1790
 51
86.7520
  0
ARC
  8
0_00
  6
CONTINUOUS
 62
6
 10
2595.7755
 20
841.9685
 40
3.2500
 50
183.2480
 51
208.6854
  0
ARC
  8
0_00
  6
CONTINUOUS
 62
6
 10
2595.7755
 20
841.9685
 40
3.2500
 50
61.3146
 51
86.7520
  0
ARC
  8
0_00
  6
CONTINUOUS
 62
6
 10
2595.7755
 20
841.9685
 40
1.7000
 50
251.1790
 51
288.8210
  0
ARC
  8
0_00
  6
CONTINUOUS
 62
6
 10
2595.7755
 20
841.9685
 40
1.7000
 50
341.1790
 51
378.8210
  0
ARC
  8
0_00
  6
CONTINUOUS
 62
6
 10
2595.7755
 20
841.9685
 40
1.7000
 50
183.2480
 51
198.8210
  0
ARC
  8
0_00
  6
CONTINUOUS
 62
6
 10
2595.9155
 20
844.4395
 40
0.7750
 50
86.7520
 51
266.7520
  0
ARC
  8
0_00
  6
CONTINUOUS
 62
6
 10
2593.3041
 20
841.8282
 40
0.7750
 50
3.2480
 51
183.2480
  0
ARC
  8
0_00
  6
CONTINUOUS
 62
6
 10
2596.7752
 20
863.9684
 40
2.5000
 50
0.0000
 51
90.0000
  0
ARC
  8
0_00
  6
CONTINUOUS
 62
6
 10
2597.5754
 20
859.6786
 40
0.5000
 50
0.0000
 51
118.6854
  0
ARC
  8
0_00
  6
CONTINUOUS
 62
6
 10
2592.4857
 20
864.7684
 40
0.5000
 50
331.3146
 51
450.0000
  0
ARC
  8
0_00
  6
CONTINUOUS
 62
6
 10
2595.7755
 20
862.9684
 40
1.7000
 50
273.2480
 51
288.8210
  0
ARC
  8
0_00
  6
CONTINUOUS
 62
6
 10
2595.7755
 20
862.9684
 40
3.2500
 50
151.3146
 51
176.7520
  0
ARC
  8
0_00
  6
CONTINUOUS
 62
6
 10
2595.7755
 20
862.9684
 40
3.2500
 50
273.2480
 51
298.6854
  0
ARC
  8
0_00
  6
CONTINUOUS
 62
6
 10
2595.7755
 20
862.9684
 40
1.7000
 50
71.1790
 51
108.8210
  0
ARC
  8
0_00
  6
CONTINUOUS
 62
6
 10
2595.7755
 20
862.9684
 40
1.7000
 50
341.1790
 51
378.8210
  0
ARC
  8
0_00
  6
CONTINUOUS
 62
6
 10
2595.7755
 20
862.9684
 40
1.7000
 50
161.1790
 51
176.7520
  0
ARC
  8
0_00
  6
CONTINUOUS
 62
6
 10
2595.9155
 20
860.4974
 40
0.7750
 50
93.2480
 51
273.2480
  0
ARC
  8
0_00
  6
CONTINUOUS
 62
6
 10
2593.3041
 20
863.1086
 40
0.7750
 50
176.7520
 51
356.7520
  0
ARC
  8
0_00
  6
CONTINUOUS
 62
4
 10
3953.9490
 20
1019.9151
 40
2.0000
 50
90.4000
 51
136.6979
  0
ARC
  8
0_00
  6
CONTINUOUS
 62
4
 10
3949.9463
 20
1023.6872
 40
3.5000
 50
270.4000
 51
316.6979
  0
ARC
  8
0_00
  6
CONTINUOUS
 62
4
 10
3949.9463
 20
1023.6872
 40
3.5000
 50
131.8470
 51
194.5490
  0
ARC
  8
0_00
  6
CONTINUOUS
 62
4
 10
3945.5905
 20
1022.5568
 40
1.0000
 50
270.4000
 51
374.5490
  0
ARC
  8
0_00
  6
CONTINUOUS
 62
4
 10
3948.4790
 20
1025.3261
 40
1.3000
 50
60.4000
 51
131.8470
  0
ARC
  8
0_00
  6
CONTINUOUS
 62
4
 10
3949.9463
 20
1023.6872
 40
1.7500
 50
100.5841
 51
125.0231
  0
ARC
  8
0_00
  6
CONTINUOUS
 62
4
 10
3949.9463
 20
1023.6872
 40
1.7500
 50
265.7769
 51
305.0231
  0
ARC
  8
0_00
  6
CONTINUOUS
 62
4
 10
3949.9463
 20
1023.6872
 40
1.7500
 50
175.7769
 51
215.0231
  0
ARC
  8
0_00
  6
CONTINUOUS
 62
4
 10
3949.5560
 20
1025.7769
 40
0.3759
 50
280.5841
 51
420.4000
  0
ARC
  8
0_00
  6
CONTINUOUS
 62
4
 10
3952.1057
 20
1023.2657
 40
1.3000
 50
357.6053
 51
420.4000
  0
ARC
  8
0_00
  6
CONTINUOUS
 62
4
 10
3949.9463
 20
1023.6872
 40
1.7500
 50
355.7769
 51
380.2159
  0
ARC
  8
0_00
  6
CONTINUOUS
 62
4
 10
3951.9409
 20
1024.4218
 40
0.3759
 50
60.4000
 51
200.2159
  0
ARC
  8
0_00
  6
CONTINUOUS
 62
4
 10
3920.9485
 20
1040.2714
 40
10.5000
 50
180.0000
 51
188.7462
  0
ARC
  8
0_00
  6
CONTINUOUS
 62
4
 10
3918.5962
 20
1025.9685
 40
6.0000
 50
188.7462
 51
270.4000
  0
ARC
  8
0_00
  6
CONTINUOUS
 62
4
 10
3920.9485
 20
1040.2714
 40
9.0000
 50
180.0000
 51
188.7462
  0
ARC
  8
0_00
  6
CONTINUOUS
 62
4
 10
3918.6115
 20
1025.8686
 40
4.5000
 50
188.7462
 51
270.4000
  0
ARC
  8
0_00
  6
CONTINUOUS
 62
4
 10
3920.9485
 20
1164.6655
 40
10.5000
 50
171.2538
 51
180.0000
  0
ARC
  8
0_00
  6
CONTINUOUS
 62
4
 10
3920.9485
 20
1164.6655
 40
9.0000
 50
171.2538
 51
180.0000
  0
ARC
  8
0_00
  6
CONTINUOUS
 62
4
 10
3918.5962
 20
1178.9685
 40
6.0000
 50
89.6000
 51
171.2538
  0
ARC
  8
0_00
  6
CONTINUOUS
 62
4
 10
3918.6115
 20
1179.0683
 40
4.5000
 50
89.6000
 51
171.2538
  0
ARC
  8
0_00
  6
CONTINUOUS
 62
4
 10
3964.7903
 20
1024.4409
 40
0.6500
 50
0.4000
 51
180.4000
  0
ARC
  8
14_0E
  6
CONTINUOUS
 62
4
 10
3963.9471
 20
1023.4849
 40
1.5000
 50
270.4000
 51
360.4000
  0
ARC
  8
0_00
  6
CONTINUOUS
 62
4
 10
3953.9490
 20
1185.0218
 40
2.0000
 50
223.3021
 51
269.6000
  0
ARC
  8
0_00
  6
CONTINUOUS
 62
4
 10
3949.9463
 20
1181.2496
 40
3.5000
 50
43.3021
 51
89.6000
  0
ARC
  8
0_00
  6
CONTINUOUS
 62
4
 10
3949.9463
 20
1181.2496
 40
3.5000
 50
165.4510
 51
228.1530
  0
ARC
  8
0_00
  6
CONTINUOUS
 62
4
 10
3945.5905
 20
1182.3801
 40
1.0000
 50
345.4510
 51
449.6000
  0
ARC
  8
0_00
  6
CONTINUOUS
 62
4
 10
3948.4790
 20
1179.6108
 40
1.3000
 50
228.1530
 51
299.6000
  0
ARC
  8
0_00
  6
CONTINUOUS
 62
4
 10
3949.9463
 20
1181.2496
 40
1.7500
 50
234.9769
 51
259.4159
  0
ARC
  8
0_00
  6
CONTINUOUS
 62
4
 10
3949.9463
 20
1181.2496
 40
1.7500
 50
54.9769
 51
94.2231
  0
ARC
  8
0_00
  6
CONTINUOUS
 62
4
 10
3949.9463
 20
1181.2496
 40
1.7500
 50
144.9769
 51
184.2231
  0
ARC
  8
0_00
  6
CONTINUOUS
 62
4
 10
3949.5560
 20
1179.1599
 40
0.3759
 50
299.6000
 51
439.4159
  0
ARC
  8
0_00
  6
CONTINUOUS
 62
4
 10
3952.1057
 20
1181.6711
 40
1.3000
 50
299.6000
 51
362.3947
  0
ARC
  8
0_00
  6
CONTINUOUS
 62
4
 10
3949.9463
 20
1181.2496
 40
1.7500
 50
339.7841
 51
364.2231
  0
ARC
  8
0_00
  6
CONTINUOUS
 62
4
 10
3951.9409
 20
1180.5150
 40
0.3759
 50
159.7841
 51
299.6000
  0
ARC
  8
0_00
  6
CONTINUOUS
 62
4
 10
3964.7903
 20
1180.4959
 40
0.6500
 50
179.6000
 51
359.6000
  0
ARC
  8
14_0E
  6
CONTINUOUS
 62
4
 10
3963.9471
 20
1181.4518
 40
1.5000
 50
359.6000
 51
449.6000
  0
ARC
  8
0_00
  6
CONTINUOUS
 62
4
 10
3937.4545
 20
1022.5000
 40
1.0000
 50
270.4000
 51
360.4000
  0
ARC
  8
0_00
  6
CONTINUOUS
 62
4
 10
3940.8542
 20
1022.5237
 40
1.0000
 50
180.4000
 51
270.4000
  0
ARC
  8
0_00
  6
CONTINUOUS
 62
4
 10
3939.1452
 20
1023.8118
 40
0.7000
 50
0.4000
 51
180.4000
  0
ARC
  8
0_00
  6
CONTINUOUS
 62
4
 10
3937.4545
 20
1182.4368
 40
1.0000
 50
359.6000
 51
449.6000
  0
ARC
  8
0_00
  6
CONTINUOUS
 62
4
 10
3940.8542
 20
1182.4131
 40
1.0000
 50
89.6000
 51
179.6000
  0
ARC
  8
0_00
  6
CONTINUOUS
 62
4
 10
3939.1452
 20
1181.1249
 40
0.7000
 50
179.6000
 51
359.6000
  0
TEXT
  8
15_0F
 62
7
 10
2747.2034
 20
234.0001
 40
25.00
 41
1.00
 50
0.0000
  1
１
  0
TEXT
  8
15_0F
 62
7
 10
2830.2036
 20
234.0001
 40
25.00
 41
1.00
 50
0.0000
  1
１０
  0
TEXT
  8
15_0F
 62
7
 10
2347.7034
 20
249.0001
 40
25.00
 41
1.00
 50
0.0000
  1
納まり図
  0
TEXT
  8
15_0F
 62
7
 10
1706.5067
 20
141.1987
 40
25.00
 41
1.00
 50
0.0000
  1
木造
  0
TEXT
  8
15_0F
 62
7
 10
1705.7033
 20
239.0001
 40
25.00
 41
1.00
 50
0.0000
  1
低層
  0
TEXT
  8
15_0F
 62
7
 10
1920.2032
 20
239.0001
 40
25.00
 41
1.00
 50
0.0000
  1
手すり付笠木
  0
TEXT
  8
15_0F
 62
7
 10
1840.5367
 20
141.5001
 40
20.00
 41
1.00
 50
0.0000
  1
ＫＡＭ、ＤＡＭ、ＭＡＭ型
  0
TEXT
  8
15_0F
 62
7
 10
2131.7032
 20
149.0001
 40
25.00
 41
1.00
 50
0.0000
  1
トップレール手すり［コーナー部］納まり図－２
  0
TEXT
  8
15_0F
 62
7
 10
670.3016
 20
334.0002
 40
25.00
 41
1.00
 50
0.0000
  1
1）Ｈ、Ｌ、ＬＣは発注寸法とする。
  0
TEXT
  8
15_0F
 62
7
 10
668.4573
 20
281.5089
 40
25.00
 41
1.00
 50
0.0000
  1
　（躯体寸法発注の場合、Ｌは標準割付寸法、ＬＣは標準寸法とする。）
  0
TEXT
  8
15_0F
 62
7
 10
668.3452
 20
229.5669
 40
25.00
 41
1.00
 50
0.0000
  1
２）［　］内寸法は標準寸法とする。
  0
TEXT
  8
0_00
 62
7
 10
740.4117
 20
2251.6026
 40
25.00
 41
1.00
 50
0.0000
  1
コーナーブラケット
  0
TEXT
  8
0_00
 62
7
 10
195.2562
 20
2238.4354
 40
25.00
 41
1.00
 50
0.0000
  1
Ｋ型笠木９０度コーナー金具
  0
TEXT
  8
0_00
 62
7
 10
743.5384
 20
1776.9017
 40
25.00
 41
1.00
 50
0.0000
  1
デザイン柱
  0
TEXT
  8
0_00
 62
7
 10
740.4117
 20
1026.6029
 40
25.00
 41
1.00
 50
0.0000
  1
コーナーブラケット
  0
TEXT
  8
0_00
 62
7
 10
758.6518
 20
654.6985
 40
25.00
 41
1.00
 50
0.0000
  1
Ｋ型笠木９０度コーナー金具
  0
TEXT
  8
0_00
 62
7
 10
405.8471
 20
514.4882
 40
25.00
 41
1.00
 50
0.0000
  1
デザイン柱
  0
TEXT
  8
0_00
 62
7
 10
1076.6740
 20
1023.6028
 40
25.00
 41
1.00
 50
0.0000
  1
９０度コーナー笠木
  0
TEXT
  8
0_00
 62
7
 10
752.5349
 20
984.9022
 40
25.00
 41
1.00
 50
0.0000
  1
片側、現場切断品
  0
TEXT
  8
0_00
 62
7
 10
752.5349
 20
2209.9020
 40
25.00
 41
1.00
 50
0.0000
  1
片側、現場切断品
  0
TEXT
  8
13_0D
 62
7
 10
828.1142
 20
1891.9623
 40
22.50
 41
0.75
 50
45.0001
  1
35
  0
TEXT
  8
0_00
 62
7
 10
2680.1126
 20
1251.6029
 40
25.00
 41
1.00
 50
0.0000
  1
コーナーブラケット
  0
TEXT
  8
15_0F
 62
7
 10
2395.0708
 20
1872.7760
 40
25.00
 41
1.00
 50
0.0000
  1
［ＫＡＭ型］
  0
TEXT
  8
15_0F
 62
7
 10
2395.0708
 20
2402.2375
 40
25.00
 41
1.00
 50
0.0000
  1
［ＤＡＭ型］
  0
TEXT
  8
0_00
 62
7
 10
2692.2354
 20
1209.9023
 40
25.00
 41
1.00
 50
0.0000
  1
片側、現場切断品
  0
TEXT
  8
0_00
 62
7
 10
3161.2723
 20
1251.6029
 40
25.00
 41
1.00
 50
0.0000
  1
９０度コーナー笠木
  0
TEXT
  8
13_0D
 62
7
 10
2742.0145
 20
900.6077
 40
22.50
 41
0.75
 50
45.0001
  1
35
  0
TEXT
  8
13_0D
 62
7
 10
2295.3493
 20
752.4685
 40
25.00
 41
1.00
 50
90.0000
  1
２２０≦ＬＣ［２５０］≦４５５
  0
TEXT
  8
13_0D
 62
7
 10
2295.3493
 20
1198.9684
 40
25.00
 41
1.00
 50
90.0000
  1
５１．５
  0
TEXT
  8
13_0D
 62
7
 10
2385.2753
 20
1474.9998
 40
22.50
 41
0.75
 50
0.0000
  1
51.5
  0
TEXT
  8
13_0D
 62
7
 10
2567.7753
 20
1474.9998
 40
25.00
 41
1.00
 50
0.0000
  1
２２０≦ＬＣ［２５０］≦４５５
  0
TEXT
  8
13_0D
 62
7
 10
3157.7753
 20
1474.9998
 40
25.00
 41
1.00
 50
0.0000
  1
１７５≦Ｌ≦１３６５
  0
TEXT
  8
0_00
 62
2
 10
326.0179
 20
2428.4979
 40
40.00
 41
1.00
 50
0.0000
  1
屋外側
  0
TEXT
  8
0_00
 62
2
 10
960.1762
 20
1738.5034
 40
40.00
 41
1.00
 50
0.0000
  1
建物側
  0
TEXT
  8
0_00
 62
2
 10
960.1762
 20
513.5035
 40
40.00
 41
1.00
 50
0.0000
  1
建物側
  0
TEXT
  8
0_00
 62
2
 10
326.0179
 20
1203.4978
 40
40.00
 41
1.00
 50
0.0000
  1
屋外側
  0
TEXT
  8
0_00
 62
7
 10
234.3016
 20
134.0002
 40
25.00
 41
1.00
 50
0.0000
  1
適用製品
  0
TEXT
  8
0_00
 62
7
 10
434.3016
 20
134.0002
 40
25.00
 41
1.00
 50
0.0000
  1
適用日付
  0
TEXT
  8
0_00
 62
7
 10
595.3016
 20
334.0002
 40
25.00
 41
1.00
 50
0.0000
  1
記事
  0
TEXT
  8
0_00
 62
7
 10
1575.2032
 20
284.0002
 40
25.00
 41
1.00
 50
0.0000
  1
階層仕様
  0
TEXT
  8
0_00
 62
7
 10
1575.2032
 20
184.0001
 40
25.00
 41
1.00
 50
0.0000
  1
適用躯体
  0
TEXT
  8
0_00
 62
7
 10
2100.2031
 20
284.0002
 40
25.00
 41
1.00
 50
0.0000
  1
名　称
  0
TEXT
  8
0_00
 62
7
 10
2100.2031
 20
184.0001
 40
25.00
 41
1.00
 50
0.0000
  1
図　名
  0
TEXT
  8
0_00
 62
7
 10
2716.4557
 20
334.1526
 40
25.00
 41
1.00
 50
0.0000
  1
Ｎｏ．
  0
TEXT
  8
0_00
 62
7
 10
3745.2032
 20
334.0002
 40
25.00
 41
1.00
 50
0.0000
  1
適　　　　　　　　用
  0
TEXT
  8
0_00
 62
7
 10
3594.7037
 20
334.0002
 40
25.00
 41
1.00
 50
0.0000
  1
個数
  0
TEXT
  8
0_00
 62
7
 10
3410.7034
 20
334.0002
 40
25.00
 41
1.00
 50
0.0000
  1
材　　質
  0
TEXT
  8
0_00
 62
7
 10
3087.2034
 20
334.0002
 40
25.00
 41
1.00
 50
0.0000
  1
部　　　品　　　名
  0
TEXT
  8
0_00
 62
7
 10
2986.4532
 20
334.0002
 40
25.00
 41
1.00
 50
0.0000
  1
品番
  0
TEXT
  8
0_00
 62
7
 10
2836.2036
 20
334.0002
 40
25.00
 41
1.00
 50
0.0000
  1
図　　番
  0
TEXT
  8
0_00
 62
7
 10
2722.2034
 20
284.0002
 40
25.00
 41
1.00
 50
0.0000
  1
尺度
  0
TEXT
  8
0_00
 62
7
 10
2722.2034
 20
184.0001
 40
25.00
 41
1.00
 50
0.0000
  1
日付
  0
TEXT
  8
0_00
 62
7
 10
3094.6469
 20
284.0002
 40
25.00
 41
1.00
 50
0.0000
  1
承認
  0
TEXT
  8
0_00
 62
7
 10
3235.2032
 20
284.0002
 40
25.00
 41
1.00
 50
0.0000
  1
検図
  0
TEXT
  8
0_00
 62
7
 10
3356.2033
 20
284.0002
 40
25.00
 41
1.00
 50
0.0000
  1
設計
  0
TEXT
  8
0_00
 62
7
 10
3480.7034
 20
284.0002
 40
25.00
 41
1.00
 50
0.0000
  1
製図
  0
TEXT
  8
0_00
 62
7
 10
3581.7032
 20
184.0001
 40
25.00
 41
1.00
 50
0.0000
  1
図番
  0
TEXT
  8
0_00
 62
2
 10
3679.7394
 20
247.4502
 40
40.00
 41
1.00
 50
0.0000
  1
文化シヤッター株式会社
  0
TEXT
  8
0_00
 62
7
 10
669.3016
 20
2876.4999
 40
25.00
 41
1.00
 50
180.0000
  1
図番
  0
TEXT
  8
0_00
 62
7
 10
2663.5034
 20
2846.7230
 40
20.00
 41
1.00
 50
0.0000
  1
ＮＯ
  0
TEXT
  8
0_00
 62
7
 10
2750.7034
 20
2846.5002
 40
25.00
 41
1.00
 50
0.0000
  1
個　数
  0
TEXT
  8
0_00
 62
7
 10
2901.2033
 20
2846.5002
 40
25.00
 41
1.00
 50
0.0000
  1
日　　付
  0
TEXT
  8
0_00
 62
7
 10
3280.7034
 20
2846.5002
 40
25.00
 41
1.00
 50
0.0000
  1
訂　　　正　　　記　　　事
  0
TEXT
  8
0_00
 62
7
 10
2794.7034
 20
234.0001
 40
22.50
 41
0.75
 50
0.0000
  1
:
  0
TEXT
  8
0_00
 62
7
 10
3792.9041
 20
89.0001
 40
20.00
 41
1.00
 50
0.0000
  1
ＪＩＳ　Ａ－３
  0
TEXT
  8
0_00
 62
7
 10
3931.6614
 20
88.9943
 40
20.00
 41
1.00
 50
0.0000
  1
（２９７×４２０）
  0
TEXT
  8
0_00
 62
7
 10
3843.7033
 20
2846.5002
 40
25.00
 41
1.00
 50
0.0000
  1
担　当
  0
TEXT
  8
0_00
 62
7
 10
3963.7033
 20
2846.5002
 40
25.00
 41
1.00
 50
0.0000
  1
承　認
  0
TEXT
  8
0_00
 62
7
 10
1837.7032
 20
284.0002
 40
25.00
 41
1.00
 50
0.0000
  1
機種名
  0
TEXT
  8
0_00
 62
7
 10
1837.7032
 20
184.0001
 40
25.00
 41
1.00
 50
0.0000
  1
型　式
  0
TEXT
  8
0_00
 62
7
 10
718.0746
 20
2320.0000
 40
22.50
 41
0.75
 50
0.0000
  1
(50～100)
  0
TEXT
  8
0_00
 62
7
 10
1507.1608
 20
1674.9205
 40
25.00
 41
1.00
 50
0.0000
  1
「外向デザイン柱」平面図（１：１０）
  0
TEXT
  8
0_00
 62
7
 10
1294.9097
 20
1734.8239
 40
25.00
 41
1.00
 50
0.0000
  1
※Ｌ：柱スパン寸法、ＬＣ：コーナースパン寸法
  0
TEXT
  8
0_00
 62
7
 10
410.0000
 20
1777.4684
 40
25.00
 41
1.00
 50
90.0000
  1
２２０≦ＬＣ［２５０］≦４５５
  0
TEXT
  8
0_00
 62
7
 10
490.0745
 20
2390.0000
 40
22.50
 41
0.75
 50
0.0000
  1
70
  0
TEXT
  8
0_00
 62
7
 10
1075.9293
 20
2212.4683
 40
22.50
 41
0.75
 50
90.0000
  1
60
  0
TEXT
  8
0_00
 62
7
 10
733.0746
 20
1089.9998
 40
22.50
 41
0.75
 50
0.0000
  1
(50～100)
  0
TEXT
  8
0_00
 62
7
 10
1507.1608
 20
449.9206
 40
25.00
 41
1.00
 50
0.0000
  1
「内向デザイン柱」平面図（１：１０）
  0
TEXT
  8
0_00
 62
7
 10
1294.9097
 20
509.8240
 40
25.00
 41
1.00
 50
0.0000
  1
※Ｌ：柱スパン寸法、ＬＣ：コーナースパン寸法
  0
TEXT
  8
0_00
 62
7
 10
410.0000
 20
552.4685
 40
25.00
 41
1.00
 50
90.0000
  1
２２０≦ＬＣ［２５０］≦４５５
  0
TEXT
  8
0_00
 62
7
 10
1718.5602
 20
1234.1703
 40
25.00
 41
1.00
 50
0.0000
  1
外観姿図（１：２０）
  0
TEXT
  8
0_00
 62
7
 10
1142.3515
 20
679.4685
 40
22.50
 41
0.75
 50
90.0000
  1
60
  0
TEXT
  8
0_00
 62
7
 10
1130.1001
 20
2774.9997
 40
22.50
 41
0.75
 50
0.0000
  1
70
  0
TEXT
  8
0_00
 62
7
 10
1281.2819
 20
2774.9997
 40
22.50
 41
0.75
 50
0.0000
  1
LC
  0
TEXT
  8
0_00
 62
7
 10
1580.7819
 20
2774.9997
 40
25.00
 41
1.00
 50
0.0000
  1
Ｌ
  0
TEXT
  8
0_00
 62
7
 10
1039.9999
 20
2614.4995
 40
22.50
 41
0.75
 50
90.0000
  1
H
  0
TEXT
  8
0_00
 62
7
 10
1165.4184
 20
1549.9998
 40
22.50
 41
0.75
 50
0.0000
  1
70
  0
TEXT
  8
0_00
 62
7
 10
1298.9410
 20
1549.9998
 40
22.50
 41
0.75
 50
0.0000
  1
LC
  0
TEXT
  8
0_00
 62
7
 10
1580.7819
 20
1549.9998
 40
25.00
 41
1.00
 50
0.0000
  1
Ｌ
  0
TEXT
  8
0_00
 62
7
 10
767.9841
 20
507.7165
 40
22.50
 41
0.75
 50
0.0000
  1
70
  0
TEXT
  8
13_0D
 62
7
 10
485.6961
 20
975.9057
 40
22.50
 41
0.75
 50
45.0000
  1
35
  0
TEXT
  8
0_00
 62
7
 10
214.0009
 20
1066.8858
 40
25.00
 41
1.00
 50
0.0000
  1
コーナージョイントカバー
  0
TEXT
  8
0_00
 62
7
 10
1330.7712
 20
1926.2274
 40
25.00
 41
1.00
 50
0.0000
  1
９０度コーナー笠木
  0
TEXT
  8
0_00
 62
7
 10
792.9340
 20
1854.1571
 40
25.00
 41
1.00
 50
0.0000
  1
コーナージョイントカバー
  0
TEXT
  8
0_00
 62
7
 10
2672.7753
 20
1404.9998
 40
22.50
 41
0.75
 50
0.0000
  1
(50～100)
  0
TEXT
  8
0_00
 62
7
 10
3312.6257
 20
497.4051
 40
25.00
 41
1.00
 50
0.0000
  1
平面図（１：１０）
  0
TEXT
  8
0_00
 62
7
 10
3666.2610
 20
1609.1704
 40
25.00
 41
1.00
 50
0.0000
  1
外観姿図（１：２０）
  0
TEXT
  8
0_00
 62
7
 10
2884.7006
 20
1868.6388
 40
22.50
 41
0.75
 50
90.0000
  1
H
  0
TEXT
  8
0_00
 62
7
 10
2884.7006
 20
2393.2666
 40
22.50
 41
0.75
 50
90.0000
  1
H
  0
TEXT
  8
13_0D
 62
7
 10
2433.2751
 20
1335.0000
 40
22.50
 41
0.75
 50
0.0000
  1
25
  0
TEXT
  8
0_00
 62
7
 10
2372.6903
 20
919.2396
 40
25.00
 41
1.00
 50
0.0000
  1
細横格子
  0
TEXT
  8
0_00
 62
7
 10
2739.9741
 20
859.3122
 40
25.00
 41
1.00
 50
0.0000
  1
コーナージョイントカバー
  0
TEXT
  8
0_00
 62
7
 10
2688.9374
 20
2012.8169
 40
25.00
 41
1.00
 50
0.0000
  1
Ｋ型笠木９０度コーナー金具
  0
TEXT
  8
0_00
 62
7
 10
2746.4041
 20
2273.6560
 40
25.00
 41
1.00
 50
0.0000
  1
細横格子コーナー金具
  0
TEXT
  8
0_00
 62
7
 10
2746.4041
 20
1747.3831
 40
25.00
 41
1.00
 50
0.0000
  1
細横格子コーナー金具
  0
TEXT
  8
0_00
 62
7
 10
639.5997
 20
2390.0000
 40
25.00
 41
1.00
 50
0.0000
  1
２２０≦ＬＣ［２５０］≦４５５
  0
TEXT
  8
0_00
 62
7
 10
1218.0745
 20
2390.0000
 40
25.00
 41
1.00
 50
0.0000
  1
１７５≦Ｌ≦１３６５
  0
TEXT
  8
0_00
 62
7
 10
639.5997
 20
1164.9998
 40
25.00
 41
1.00
 50
0.0000
  1
22０≦ＬＣ［２５０］≦４５５
  0
TEXT
  8
0_00
 62
7
 10
1218.0745
 20
1164.9998
 40
25.00
 41
1.00
 50
0.0000
  1
１７５≦Ｌ≦１３６５
  0
TEXT
  8
0_00
 62
7
 10
1039.9999
 20
1389.4141
 40
22.50
 41
0.75
 50
90.0000
  1
H
  0
TEXT
  8
0_00
 62
7
 10
1718.5602
 20
2459.1702
 40
25.00
 41
1.00
 50
0.0000
  1
外観姿図（１：２０）
  0
TEXT
  8
0_00
 62
7
 10
2992.3743
 20
557.3085
 40
25.00
 41
1.00
 50
0.0000
  1
※Ｌ：柱スパン寸法、ＬＣ：コーナースパン寸法
  0
TEXT
  8
13_0D
 62
7
 10
2915.7327
 20
2090.5553
 40
22.50
 41
0.75
 50
0.0000
  1
51.5
  0
TEXT
  8
13_0D
 62
7
 10
3120.9827
 20
2090.5553
 40
22.50
 41
0.75
 50
0.0000
  1
LC
  0
TEXT
  8
13_0D
 62
7
 10
3420.4825
 20
2090.5553
 40
22.50
 41
0.75
 50
0.0000
  1
L
  0
TEXT
  8
13_0D
 62
7
 10
2915.7327
 20
2615.1834
 40
22.50
 41
0.75
 50
0.0000
  1
51.5
  0
TEXT
  8
13_0D
 62
7
 10
3120.9827
 20
2615.1834
 40
22.50
 41
0.75
 50
0.0000
  1
LC
  0
TEXT
  8
13_0D
 62
7
 10
3420.4825
 20
2615.1834
 40
22.50
 41
0.75
 50
0.0000
  1
L
  0
TEXT
  8
0_00
 62
7
 10
2684.1696
 20
2536.4125
 40
25.00
 41
1.00
 50
0.0000
  1
Ｄ型笠木９０度コーナー金具
  0
POINT
  8
2_02
 62
5
 10
1207.7820
 20
2666.9879
  0
POINT
  8
0_00
 62
6
 10
1231.0319
 20
2591.8182
  0
POINT
  8
2_02
 62
5
 10
1277.7820
 20
1441.9879
  0
POINT
  8
0_00
 62
6
 10
1254.5319
 20
1366.8181
  0
POINT
  8
0_00
 62
5
 10
0.0000
 20
0.0000
  0
POINT
  8
2_02
 62
5
 10
3082.4829
 20
1955.9883
  0
POINT
  8
0_00
 62
2
 10
80.3016
 20
49.9968
  0
POINT
  8
0_00
 62
2
 10
80.3016
 20
49.9968
  0
POINT
  8
0_00
 62
2
 10
282.3016
 20
199.0002
  0
POINT
  8
0_00
 62
2
 10
282.3016
 20
249.0002
  0
POINT
  8
0_00
 62
2
 10
282.3016
 20
299.0002
  0
POINT
  8
0_00
 62
2
 10
282.3016
 20
349.0002
  0
POINT
  8
0_00
 62
2
 10
1729.7034
 20
254.0001
  0
POINT
  8
0_00
 62
2
 10
1729.7034
 20
154.0001
  0
POINT
  8
0_00
 62
2
 10
2395.7031
 20
264.0001
  0
POINT
  8
0_00
 62
2
 10
2395.7031
 20
164.0001
  0
POINT
  8
0_00
 62
2
 10
3659.2035
 20
174.0001
  0
POINT
  8
0_00
 62
2
 10
3380.2032
 20
199.0002
  0
POINT
  8
0_00
 62
2
 10
482.3016
 20
199.0002
  0
POINT
  8
0_00
 62
2
 10
482.3016
 20
249.0002
  0
POINT
  8
0_00
 62
2
 10
482.3016
 20
299.0002
  0
POINT
  8
0_00
 62
2
 10
482.3016
 20
349.0002
  0
POINT
  8
0_00
 62
2
 10
2854.2035
 20
249.0001
  0
POINT
  8
0_00
 62
2
 10
2759.2035
 20
249.0001
  0
POINT
  8
0_00
 62
2
 10
682.3016
 20
349.0002
  0
POINT
  8
0_00
 62
2
 10
682.3016
 20
299.0002
  0
POINT
  8
0_00
 62
2
 10
682.3016
 20
249.0002
  0
POINT
  8
0_00
 62
2
 10
682.3016
 20
199.0002
  0
POINT
  8
0_00
 62
2
 10
682.3016
 20
149.0002
  0
POINT
  8
0_00
 62
2
 10
3504.7034
 20
199.0002
  0
POINT
  8
0_00
 62
2
 10
282.3016
 20
149.0002
  0
POINT
  8
0_00
 62
2
 10
482.3016
 20
149.0002
  0
POINT
  8
0_00
 62
2
 10
582.3016
 20
2861.4996
  0
POINT
  8
0_00
 62
2
 10
2875.4535
 20
164.0001
  0
POINT
  8
0_00
 62
2
 10
1992.2032
 20
254.0001
  0
POINT
  8
0_00
 62
2
 10
1992.2032
 20
154.0001
  0
POINT
  8
0_00
 62
5
 10
1985.7477
 20
857.4684
  0
POINT
  8
0_00
 62
5
 10
1985.7477
 20
2082.4684
  0
POINT
  8
0_00
 62
5
 10
3925.4483
 20
1102.4685
  0
ENDSEC
  0
EOF
