999
  
  0
SECTION
  2
HEADER
  9
$EXTMIN
 10
0
 20
0
  9
$EXTMAX
 10
1260
 20
888
  9
$LTSCALE
 40
3.00
  9
$PDMODE
 70
33
  9
$PDSIZE
 40
1.80
  0
ENDSEC
  0
SECTION
  2
TABLES
  0
TABLE
  2
LTYPE
 70
9
  0
LTYPE
  2
CONTINUOUS
 70
64
  3
実線
 72
65
 73
0
 40
0.00
  0
LTYPE
  2
DASHED
 70
64
  3
__  __  __  __  __  __  __ 
 72
65
 73
2
 40
1.00
 49
0.50
 49
-0.50
  0
LTYPE
  2
HIDDEN1
 70
64
  3
____    ____    ____    ___
 72
65
 73
2
 40
2.20
 49
1.20
 49
-1.00
  0
LTYPE
  2
HIDDEN2
 70
64
  3
______  ______  ______  ___
 72
65
 73
2
 40
4.50
 49
3.50
 49
-1.00
  0
LTYPE
  2
CENTER1
 70
64
  3
_______ _ _______ _ _______
 72
65
 73
4
 40
20.00
 49
17.00
 49
-1.00
 49
1.00
 49
-1.00
  0
LTYPE
  2
CENTER2
 70
64
  3
___________  __  __________
 72
65
 73
4
 40
40.00
 49
34.00
 49
-2.00
 49
2.00
 49
-2.00
  0
LTYPE
  2
PHANTOM1
 70
64
  3
______ _ _ ______ _ _ _____
 72
65
 73
6
 40
20.00
 49
15.00
 49
-1.00
 49
1.00
 49
-1.00
 49
1.00
 49
-1.00
  0
LTYPE
  2
PHANTOM2
 70
64
  3
__________  _  _  _________
 72
65
 73
6
 40
40.00
 49
30.00
 49
-2.00
 49
2.00
 49
-2.00
 49
2.00
 49
-2.00
  0
LTYPE
  2
DOT
 70
64
  3
 .  .  .  .  .  .  .  .  . 
 72
65
 73
2
 40
1.00
 49
0.00
 49
-1.00
  0
ENDTAB
  0
TABLE
  2
STYLE
 70
1
  0
STYLE
  2
STANDARD
 70
64
 40
0.0
 41
1.0
 42
0.0
 50
0.0
 71
0
  3
ROMANS
  4
BIGFONT
  0
ENDTAB
  0
TABLE
  2
LAYER
 70
6
  0
LAYER
  2
0_00
 70
64
 62
7
  6
CONTINUOUS
  0
LAYER
  2
12_0C
 70
64
 62
7
  6
CONTINUOUS
  0
LAYER
  2
13_0D
 70
64
 62
7
  6
CONTINUOUS
  0
LAYER
  2
14_0E
 70
64
 62
7
  6
CONTINUOUS
  0
LAYER
  2
15_0F
 70
64
 62
7
  6
CONTINUOUS
  0
LAYER
  2
16_10
 70
64
 62
7
  6
CONTINUOUS
  0
ENDTAB
  0
ENDSEC
  0
SECTION
  2
ENTITIES
  0
LINE
  8
0_00
  6
CENTER1
 62
6
 10
295.2000
 20
678.9420
 11
295.2000
 21
359.6791
  0
LINE
  8
0_00
  6
CENTER1
 62
6
 10
586.5419
 20
729.9201
 11
586.5419
 21
689.0071
  0
LINE
  8
0_00
  6
CONTINUOUS
 62
2
 10
796.1018
 20
740.9033
 11
796.1018
 21
676.4073
  0
LINE
  8
0_00
  6
CONTINUOUS
 62
2
 10
796.1018
 20
740.9033
 11
780.3124
 21
740.9033
  0
LINE
  8
0_00
  6
CONTINUOUS
 62
2
 10
780.3124
 20
740.9033
 11
787.6485
 21
739.3439
  0
LINE
  8
0_00
  6
CONTINUOUS
 62
2
 10
780.3124
 20
740.9033
 11
787.6485
 21
742.4626
  0
LINE
  8
0_00
  6
CONTINUOUS
 62
2
 10
796.1018
 20
676.4073
 11
780.3124
 21
676.4073
  0
LINE
  8
0_00
  6
CONTINUOUS
 62
2
 10
780.3124
 20
676.4073
 11
787.6485
 21
674.8479
  0
LINE
  8
0_00
  6
CONTINUOUS
 62
2
 10
780.3124
 20
676.4073
 11
787.6485
 21
677.9666
  0
LINE
  8
0_00
  6
CONTINUOUS
 62
2
 10
743.5124
 20
693.6364
 11
856.4156
 21
693.6364
  0
LINE
  8
0_00
  6
CONTINUOUS
 62
2
 10
856.4156
 20
693.6364
 11
856.4156
 21
705.2478
  0
LINE
  8
0_00
  6
CONTINUOUS
 62
2
 10
856.4156
 20
705.2478
 11
972.8442
 21
705.2478
  0
LINE
  8
0_00
  6
CONTINUOUS
 62
2
 10
972.8442
 20
705.2478
 11
972.8442
 21
669.8553
  0
LINE
  8
0_00
  6
CONTINUOUS
 62
2
 10
972.8442
 20
669.8553
 11
974.4036
 21
677.1914
  0
LINE
  8
0_00
  6
CONTINUOUS
 62
2
 10
972.8442
 20
669.8553
 11
971.2850
 21
677.1914
  0
LINE
  8
0_00
  6
CONTINUOUS
 62
2
 10
743.5124
 20
693.6364
 11
743.5124
 21
669.8553
  0
LINE
  8
0_00
  6
CONTINUOUS
 62
2
 10
743.5124
 20
669.8553
 11
745.0718
 21
677.1914
  0
LINE
  8
0_00
  6
CONTINUOUS
 62
2
 10
743.5124
 20
669.8553
 11
741.9531
 21
677.1914
  0
LINE
  8
0_00
  6
CENTER1
 62
6
 10
624.0419
 20
729.9201
 11
624.0419
 21
689.0071
  0
LINE
  8
0_00
  6
CENTER1
 62
6
 10
1089.0419
 20
729.9201
 11
1089.0419
 21
689.0071
  0
LINE
  8
0_00
  6
CENTER1
 62
6
 10
934.0421
 20
729.9201
 11
934.0421
 21
689.0071
  0
LINE
  8
0_00
  6
CENTER1
 62
6
 10
779.0419
 20
729.9201
 11
779.0419
 21
689.0071
  0
LINE
  8
0_00
  6
CENTER1
 62
6
 10
554.2717
 20
296.0623
 11
1141.3225
 21
296.0623
  0
LINE
  8
0_00
  6
CENTER1
 62
6
 10
668.5040
 20
393.4236
 11
668.5040
 21
196.5612
  0
LINE
  8
0_00
  6
CONTINUOUS
 62
2
 10
873.1285
 20
396.5777
 11
847.3913
 21
300.5252
  0
LINE
  8
0_00
  6
CONTINUOUS
 62
2
 10
868.4698
 20
396.5777
 11
841.8800
 21
297.3432
  0
LINE
  8
0_00
  6
CONTINUOUS
 62
2
 10
865.7682
 20
290.9424
 11
837.7908
 21
186.5296
  0
LINE
  8
0_00
  6
CONTINUOUS
 62
2
 10
842.4496
 20
186.5296
 11
871.2795
 21
294.1244
  0
LINE
  8
0_00
  6
CONTINUOUS
 62
2
 10
847.3913
 20
300.5252
 11
871.2795
 21
294.1244
  0
LINE
  8
0_00
  6
CONTINUOUS
 62
2
 10
865.7682
 20
290.9424
 11
841.8800
 21
297.3432
  0
LINE
  8
0_00
  6
CENTER1
 62
6
 10
1053.9841
 20
331.7816
 11
1053.9841
 21
259.7602
  0
LINE
  8
0_00
  6
CONTINUOUS
 62
4
 10
591.1919
 20
725.1192
 11
1121.8920
 21
725.1192
  0
LINE
  8
0_00
  6
CONTINUOUS
 62
4
 10
199.0000
 20
741.4345
 11
230.2000
 21
741.4345
  0
LINE
  8
0_00
  6
CONTINUOUS
 62
4
 10
230.2000
 20
741.4345
 11
230.2000
 21
755.8345
  0
LINE
  8
0_00
  6
CONTINUOUS
 62
4
 10
199.0000
 20
755.8345
 11
230.2000
 21
755.8345
  0
LINE
  8
0_00
  6
CONTINUOUS
 62
4
 10
199.0000
 20
741.4345
 11
199.0000
 21
755.8345
  0
LINE
  8
0_00
  6
CONTINUOUS
 62
4
 10
360.2000
 20
741.4345
 11
391.4000
 21
741.4345
  0
LINE
  8
0_00
  6
CONTINUOUS
 62
4
 10
391.4000
 20
741.4345
 11
391.4000
 21
755.8345
  0
LINE
  8
0_00
  6
CONTINUOUS
 62
4
 10
360.2000
 20
755.8345
 11
391.4000
 21
755.8345
  0
LINE
  8
0_00
  6
CONTINUOUS
 62
4
 10
360.2000
 20
741.4345
 11
360.2000
 21
755.8345
  0
LINE
  8
15_0F
  6
CONTINUOUS
 62
6
 10
221.2594
 20
451.3066
 11
115.3665
 21
451.3066
  0
LINE
  8
15_0F
  6
CONTINUOUS
 62
6
 10
121.3665
 20
451.3066
 11
121.3665
 21
466.3065
  0
LINE
  8
15_0F
  6
CONTINUOUS
 62
6
 10
257.7000
 20
666.3066
 11
115.3665
 21
666.3066
  0
LINE
  8
15_0F
  6
CONTINUOUS
 62
6
 10
121.3665
 20
466.3065
 11
121.3665
 21
666.3066
  0
LINE
  8
15_0F
  6
CONTINUOUS
 62
6
 10
121.3665
 20
466.3065
 11
122.9258
 21
473.6427
  0
LINE
  8
15_0F
  6
CONTINUOUS
 62
6
 10
121.3665
 20
466.3065
 11
119.8071
 21
473.6427
  0
LINE
  8
15_0F
  6
CONTINUOUS
 62
6
 10
121.3665
 20
666.3066
 11
119.8071
 21
658.9704
  0
LINE
  8
15_0F
  6
CONTINUOUS
 62
6
 10
121.3665
 20
666.3066
 11
122.9258
 21
658.9704
  0
LINE
  8
15_0F
  6
CONTINUOUS
 62
6
 10
121.3665
 20
413.9066
 11
121.3665
 21
451.3066
  0
LINE
  8
15_0F
  6
CONTINUOUS
 62
6
 10
121.3665
 20
451.3066
 11
119.8071
 21
443.9705
  0
LINE
  8
15_0F
  6
CONTINUOUS
 62
6
 10
121.3665
 20
451.3066
 11
122.9258
 21
443.9705
  0
LINE
  8
15_0F
  6
CONTINUOUS
 62
6
 10
220.1170
 20
466.3065
 11
115.3665
 21
466.3065
  0
LINE
  8
15_0F
  6
CONTINUOUS
 62
6
 10
247.7000
 20
666.3066
 11
159.0000
 21
666.3066
  0
LINE
  8
15_0F
  6
CONTINUOUS
 62
6
 10
283.0075
 20
457.3066
 11
258.6511
 21
481.6630
  0
LINE
  8
15_0F
  6
CONTINUOUS
 62
6
 10
283.0075
 20
457.3066
 11
278.9227
 21
463.5966
  0
LINE
  8
15_0F
  6
CONTINUOUS
 62
6
 10
283.0075
 20
457.3066
 11
276.7175
 21
461.3914
  0
LINE
  8
15_0F
  6
CONTINUOUS
 62
6
 10
258.6511
 20
481.6630
 11
184.8511
 21
481.6630
  0
LINE
  8
15_0F
  6
CONTINUOUS
 62
6
 10
668.5040
 20
460.0000
 11
1053.9841
 21
460.0000
  0
LINE
  8
15_0F
  6
CONTINUOUS
 62
6
 10
668.5040
 20
460.0000
 11
675.8401
 21
458.4407
  0
LINE
  8
15_0F
  6
CONTINUOUS
 62
6
 10
668.5040
 20
460.0000
 11
675.8401
 21
461.5593
  0
LINE
  8
15_0F
  6
CONTINUOUS
 62
6
 10
1053.9841
 20
460.0000
 11
1046.6480
 21
461.5593
  0
LINE
  8
15_0F
  6
CONTINUOUS
 62
6
 10
1053.9841
 20
460.0000
 11
1046.6480
 21
458.4407
  0
LINE
  8
15_0F
  6
CONTINUOUS
 62
6
 10
668.5040
 20
397.4276
 11
668.5040
 21
414.8467
  0
LINE
  8
15_0F
  6
CONTINUOUS
 62
6
 10
668.5040
 20
454.2884
 11
668.5040
 21
466.0000
  0
LINE
  8
15_0F
  6
CONTINUOUS
 62
6
 10
277.2000
 20
531.6467
 11
254.5166
 21
554.3301
  0
LINE
  8
15_0F
  6
CONTINUOUS
 62
6
 10
277.2000
 20
531.6467
 11
273.1152
 21
537.9368
  0
LINE
  8
15_0F
  6
CONTINUOUS
 62
6
 10
277.2000
 20
531.6467
 11
270.9100
 21
535.7316
  0
LINE
  8
15_0F
  6
CONTINUOUS
 62
6
 10
254.5166
 20
554.3301
 11
137.5166
 21
554.3301
  0
LINE
  8
0_00
  6
CONTINUOUS
 62
6
 10
372.0004
 20
449.6417
 11
386.7381
 21
464.3793
  0
LINE
  8
0_00
  6
CONTINUOUS
 62
6
 10
372.0004
 20
449.6417
 11
378.2905
 21
453.7265
  0
LINE
  8
0_00
  6
CONTINUOUS
 62
6
 10
372.0004
 20
449.6417
 11
376.0852
 21
455.9317
  0
LINE
  8
0_00
  6
CONTINUOUS
 62
6
 10
386.7381
 20
464.3793
 11
431.7381
 21
464.3793
  0
LINE
  8
0_00
  6
CONTINUOUS
 62
4
 10
225.2000
 20
436.3066
 11
365.2000
 21
436.3066
  0
LINE
  8
0_00
  6
CONTINUOUS
 62
4
 10
347.7000
 20
436.3066
 11
347.7000
 21
339.0274
  0
LINE
  8
0_00
  6
CONTINUOUS
 62
4
 10
242.7000
 20
436.3066
 11
242.7000
 21
339.0274
  0
LINE
  8
0_00
  6
CONTINUOUS
 62
4
 10
347.7000
 20
386.3066
 11
242.7000
 21
386.3066
  0
LINE
  8
0_00
  6
CONTINUOUS
 62
4
 10
242.7000
 20
386.3066
 11
347.7000
 21
436.3066
  0
LINE
  8
0_00
  6
CONTINUOUS
 62
4
 10
353.2000
 20
436.3066
 11
353.2000
 21
339.0274
  0
LINE
  8
0_00
  6
CONTINUOUS
 62
2
 10
349.5333
 20
436.3066
 11
349.5333
 21
339.0274
  0
LINE
  8
0_00
  6
CONTINUOUS
 62
2
 10
351.3667
 20
436.3066
 11
351.3667
 21
339.0274
  0
LINE
  8
0_00
  6
CONTINUOUS
 62
4
 10
237.2000
 20
436.3066
 11
237.2000
 21
339.0274
  0
LINE
  8
0_00
  6
CONTINUOUS
 62
2
 10
240.8667
 20
436.3066
 11
240.8667
 21
339.0274
  0
LINE
  8
0_00
  6
CONTINUOUS
 62
2
 10
239.0333
 20
436.3066
 11
239.0333
 21
339.0274
  0
LINE
  8
0_00
  6
CONTINUOUS
 62
4
 10
365.2000
 20
451.3066
 11
365.2000
 21
436.3066
  0
LINE
  8
0_00
  6
CONTINUOUS
 62
4
 10
365.2000
 20
424.3066
 11
365.2000
 21
339.0274
  0
LINE
  8
0_00
  6
CONTINUOUS
 62
4
 10
225.2000
 20
424.3066
 11
237.2000
 21
424.3066
  0
LINE
  8
0_00
  6
CONTINUOUS
 62
4
 10
353.2000
 20
424.3066
 11
365.2000
 21
424.3066
  0
LINE
  8
0_00
  6
CONTINUOUS
 62
4
 10
225.2000
 20
451.3066
 11
225.2000
 21
436.3066
  0
LINE
  8
0_00
  6
CONTINUOUS
 62
4
 10
225.2000
 20
424.3066
 11
225.2000
 21
339.0274
  0
LINE
  8
0_00
  6
CONTINUOUS
 62
6
 10
226.3654
 20
436.3066
 11
225.7566
 21
435.6979
  0
LINE
  8
0_00
  6
CONTINUOUS
 62
6
 10
229.1938
 20
436.3066
 11
226.8622
 21
433.9749
  0
LINE
  8
0_00
  6
CONTINUOUS
 62
6
 10
232.0223
 20
436.3066
 11
227.5591
 21
431.8434
  0
LINE
  8
0_00
  6
CONTINUOUS
 62
6
 10
234.8507
 20
436.3066
 11
227.6082
 21
429.0640
  0
LINE
  8
0_00
  6
CONTINUOUS
 62
6
 10
237.2000
 20
435.8275
 11
225.6791
 21
424.3066
  0
LINE
  8
0_00
  6
CONTINUOUS
 62
6
 10
237.2000
 20
432.9991
 11
228.5075
 21
424.3066
  0
LINE
  8
0_00
  6
CONTINUOUS
 62
6
 10
237.2000
 20
430.1706
 11
231.3359
 21
424.3066
  0
LINE
  8
0_00
  6
CONTINUOUS
 62
6
 10
237.2000
 20
427.3422
 11
234.1644
 21
424.3066
  0
LINE
  8
0_00
  6
CONTINUOUS
 62
6
 10
237.2000
 20
424.5138
 11
236.9928
 21
424.3066
  0
LINE
  8
0_00
  6
CONTINUOUS
 62
6
 10
354.1330
 20
436.3066
 11
353.2000
 21
435.3735
  0
LINE
  8
0_00
  6
CONTINUOUS
 62
6
 10
356.9615
 20
436.3066
 11
353.2000
 21
432.5451
  0
LINE
  8
0_00
  6
CONTINUOUS
 62
6
 10
359.7899
 20
436.3066
 11
353.2000
 21
429.7167
  0
LINE
  8
0_00
  6
CONTINUOUS
 62
6
 10
362.6183
 20
436.3066
 11
353.2000
 21
426.8882
  0
LINE
  8
0_00
  6
CONTINUOUS
 62
6
 10
364.0902
 20
434.9500
 11
353.4468
 21
424.3066
  0
LINE
  8
0_00
  6
CONTINUOUS
 62
6
 10
362.7113
 20
430.7427
 11
356.2752
 21
424.3066
  0
LINE
  8
0_00
  6
CONTINUOUS
 62
6
 10
362.9730
 20
428.1760
 11
359.1036
 21
424.3066
  0
LINE
  8
0_00
  6
CONTINUOUS
 62
6
 10
363.7867
 20
426.1612
 11
361.9320
 21
424.3066
  0
LINE
  8
0_00
  6
CONTINUOUS
 62
6
 10
364.9833
 20
424.5295
 11
364.7604
 21
424.3066
  0
LINE
  8
0_00
  6
CONTINUOUS
 62
4
 10
225.2000
 20
451.3066
 11
365.2000
 21
451.3066
  0
LINE
  8
0_00
  6
CONTINUOUS
 62
2
 10
231.3359
 20
424.3066
 11
225.2000
 21
418.1706
  0
LINE
  8
0_00
  6
CONTINUOUS
 62
2
 10
234.1644
 20
424.3066
 11
225.2000
 21
415.3422
  0
LINE
  8
0_00
  6
CONTINUOUS
 62
2
 10
237.2000
 20
394.8153
 11
225.2000
 21
382.8153
  0
LINE
  8
0_00
  6
CONTINUOUS
 62
2
 10
237.2000
 20
391.9869
 11
225.2000
 21
379.9869
  0
LINE
  8
0_00
  6
CONTINUOUS
 62
2
 10
237.2000
 20
359.4600
 11
225.2000
 21
347.4600
  0
LINE
  8
0_00
  6
CONTINUOUS
 62
2
 10
237.2000
 20
356.6315
 11
225.2000
 21
344.6315
  0
LINE
  8
0_00
  6
CONTINUOUS
 62
2
 10
359.3359
 20
424.3066
 11
353.2000
 21
418.1706
  0
LINE
  8
0_00
  6
CONTINUOUS
 62
2
 10
362.1644
 20
424.3066
 11
353.2000
 21
415.3422
  0
LINE
  8
0_00
  6
CONTINUOUS
 62
2
 10
365.2000
 20
394.8153
 11
353.2000
 21
382.8153
  0
LINE
  8
0_00
  6
CONTINUOUS
 62
2
 10
365.2000
 20
391.9869
 11
353.2000
 21
379.9869
  0
LINE
  8
0_00
  6
CONTINUOUS
 62
2
 10
365.2000
 20
359.4600
 11
353.2000
 21
347.4600
  0
LINE
  8
0_00
  6
CONTINUOUS
 62
2
 10
365.2000
 20
356.6315
 11
353.2000
 21
344.6315
  0
LINE
  8
0_00
  6
PHANTOM1
 62
2
 10
367.7000
 20
451.3066
 11
367.7000
 21
339.0274
  0
LINE
  8
0_00
  6
PHANTOM1
 62
2
 10
222.7000
 20
451.3066
 11
222.7000
 21
339.0274
  0
LINE
  8
0_00
  6
CONTINUOUS
 62
4
 10
365.2000
 20
451.3066
 11
225.2000
 21
436.3066
  0
LINE
  8
0_00
  6
CONTINUOUS
 62
4
 10
339.5000
 20
462.2066
 11
339.5000
 21
461.1066
  0
LINE
  8
0_00
  6
CONTINUOUS
 62
4
 10
341.0000
 20
462.7066
 11
340.0000
 21
462.7066
  0
LINE
  8
0_00
  6
CONTINUOUS
 62
4
 10
341.0000
 20
462.7066
 11
341.0000
 21
462.5066
  0
LINE
  8
0_00
  6
CONTINUOUS
 62
4
 10
339.5000
 20
461.1066
 11
336.5000
 21
461.1066
  0
LINE
  8
0_00
  6
CONTINUOUS
 62
4
 10
336.2000
 20
460.8066
 11
336.2000
 21
458.9066
  0
LINE
  8
0_00
  6
CONTINUOUS
 62
4
 10
336.5000
 20
458.6066
 11
339.0000
 21
458.6066
  0
LINE
  8
0_00
  6
CONTINUOUS
 62
4
 10
233.4000
 20
462.5066
 11
249.4000
 21
462.5066
  0
LINE
  8
0_00
  6
CONTINUOUS
 62
4
 10
250.9000
 20
462.2066
 11
250.9000
 21
461.1066
  0
LINE
  8
0_00
  6
CONTINUOUS
 62
4
 10
249.4000
 20
462.7066
 11
250.4000
 21
462.7066
  0
LINE
  8
0_00
  6
CONTINUOUS
 62
4
 10
249.4000
 20
462.7066
 11
249.4000
 21
462.5066
  0
LINE
  8
0_00
  6
CONTINUOUS
 62
4
 10
233.4000
 20
462.7066
 11
233.4000
 21
462.5066
  0
LINE
  8
0_00
  6
CONTINUOUS
 62
4
 10
231.9000
 20
462.2066
 11
231.9000
 21
460.2066
  0
LINE
  8
0_00
  6
CONTINUOUS
 62
4
 10
232.4000
 20
462.7066
 11
233.4000
 21
462.7066
  0
LINE
  8
0_00
  6
CONTINUOUS
 62
4
 10
235.9000
 20
459.5066
 11
246.9000
 21
459.5066
  0
LINE
  8
0_00
  6
CONTINUOUS
 62
4
 10
250.9000
 20
461.1066
 11
253.9000
 21
461.1066
  0
LINE
  8
0_00
  6
CONTINUOUS
 62
4
 10
254.2000
 20
460.8066
 11
254.2000
 21
458.9066
  0
LINE
  8
0_00
  6
CONTINUOUS
 62
4
 10
253.9000
 20
458.6066
 11
251.4000
 21
458.6066
  0
LINE
  8
0_00
  6
CONTINUOUS
 62
4
 10
317.7000
 20
466.8066
 11
317.7000
 21
466.3065
  0
LINE
  8
0_00
  6
CONTINUOUS
 62
4
 10
272.7000
 20
466.8066
 11
272.7000
 21
466.3065
  0
LINE
  8
0_00
  6
CONTINUOUS
 62
4
 10
316.7000
 20
466.3065
 11
317.2000
 21
466.8066
  0
LINE
  8
0_00
  6
CONTINUOUS
 62
4
 10
313.8716
 20
466.3065
 11
314.3716
 21
466.8066
  0
LINE
  8
0_00
  6
CONTINUOUS
 62
4
 10
311.0432
 20
466.3065
 11
311.5432
 21
466.8066
  0
LINE
  8
0_00
  6
CONTINUOUS
 62
4
 10
308.2147
 20
466.3065
 11
308.7147
 21
466.8066
  0
LINE
  8
0_00
  6
CONTINUOUS
 62
4
 10
305.3863
 20
466.3065
 11
305.8863
 21
466.8066
  0
LINE
  8
0_00
  6
CONTINUOUS
 62
4
 10
302.5579
 20
466.3065
 11
303.0579
 21
466.8066
  0
LINE
  8
0_00
  6
CONTINUOUS
 62
4
 10
299.7294
 20
466.3065
 11
300.2294
 21
466.8066
  0
LINE
  8
0_00
  6
CONTINUOUS
 62
4
 10
296.9010
 20
466.3065
 11
297.4010
 21
466.8066
  0
LINE
  8
0_00
  6
CONTINUOUS
 62
4
 10
294.0726
 20
466.3065
 11
294.5726
 21
466.8066
  0
LINE
  8
0_00
  6
CONTINUOUS
 62
4
 10
291.2441
 20
466.3065
 11
291.7441
 21
466.8066
  0
LINE
  8
0_00
  6
CONTINUOUS
 62
4
 10
288.4157
 20
466.3065
 11
288.9158
 21
466.8066
  0
LINE
  8
0_00
  6
CONTINUOUS
 62
4
 10
285.5873
 20
466.3065
 11
286.0873
 21
466.8066
  0
LINE
  8
0_00
  6
CONTINUOUS
 62
4
 10
282.7589
 20
466.3065
 11
283.2589
 21
466.8066
  0
LINE
  8
0_00
  6
CONTINUOUS
 62
4
 10
279.9305
 20
466.3065
 11
280.4305
 21
466.8066
  0
LINE
  8
0_00
  6
CONTINUOUS
 62
4
 10
277.1020
 20
466.3065
 11
277.6020
 21
466.8066
  0
LINE
  8
0_00
  6
CONTINUOUS
 62
4
 10
274.2736
 20
466.3065
 11
274.7736
 21
466.8066
  0
LINE
  8
0_00
  6
CONTINUOUS
 62
4
 10
272.7000
 20
466.8066
 11
317.7000
 21
466.8066
  0
LINE
  8
0_00
  6
CONTINUOUS
 62
4
 10
306.4252
 20
461.1066
 11
283.9747
 21
461.1066
  0
LINE
  8
0_00
  6
CONTINUOUS
 62
4
 10
306.4252
 20
458.8066
 11
283.9747
 21
458.8066
  0
LINE
  8
0_00
  6
CONTINUOUS
 62
4
 10
297.2000
 20
458.8066
 11
297.2000
 21
461.1066
  0
LINE
  8
0_00
  6
CONTINUOUS
 62
4
 10
293.2000
 20
461.1066
 11
293.2000
 21
458.8066
  0
LINE
  8
0_00
  6
CONTINUOUS
 62
4
 10
295.2000
 20
458.8066
 11
295.2000
 21
461.1066
  0
LINE
  8
0_00
  6
CONTINUOUS
 62
2
 10
233.4000
 20
462.5066
 11
233.4000
 21
464.8066
  0
LINE
  8
0_00
  6
CONTINUOUS
 62
2
 10
235.7000
 20
462.5066
 11
233.4000
 21
464.8066
  0
LINE
  8
0_00
  6
CONTINUOUS
 62
2
 10
237.9627
 20
462.5066
 11
235.6628
 21
464.8066
  0
LINE
  8
0_00
  6
CONTINUOUS
 62
2
 10
240.2255
 20
462.5066
 11
237.9255
 21
464.8066
  0
LINE
  8
0_00
  6
CONTINUOUS
 62
2
 10
242.4882
 20
462.5066
 11
240.1882
 21
464.8066
  0
LINE
  8
0_00
  6
CONTINUOUS
 62
2
 10
243.4000
 20
463.8576
 11
242.4510
 21
464.8066
  0
LINE
  8
0_00
  6
CONTINUOUS
 62
2
 10
233.4372
 20
462.5066
 11
233.4000
 21
462.5438
  0
LINE
  8
0_00
  6
CONTINUOUS
 62
2
 10
235.7372
 20
464.8066
 11
233.4372
 21
462.5066
  0
LINE
  8
0_00
  6
CONTINUOUS
 62
2
 10
237.9999
 20
464.8066
 11
235.7000
 21
462.5066
  0
LINE
  8
0_00
  6
CONTINUOUS
 62
2
 10
240.2627
 20
464.8066
 11
237.9627
 21
462.5066
  0
LINE
  8
0_00
  6
CONTINUOUS
 62
2
 10
242.5254
 20
464.8066
 11
240.2255
 21
462.5066
  0
LINE
  8
0_00
  6
CONTINUOUS
 62
2
 10
243.4000
 20
463.4184
 11
242.4882
 21
462.5066
  0
LINE
  8
0_00
  6
CONTINUOUS
 62
2
 10
233.4745
 20
464.8066
 11
233.4000
 21
464.7321
  0
LINE
  8
0_00
  6
CONTINUOUS
 62
2
 10
243.4000
 20
462.5066
 11
243.4000
 21
464.8066
  0
LINE
  8
0_00
  6
CONTINUOUS
 62
4
 10
306.4252
 20
461.1066
 11
283.9747
 21
461.1066
  0
LINE
  8
0_00
  6
CONTINUOUS
 62
4
 10
251.9500
 20
464.3066
 11
251.9500
 21
461.1066
  0
LINE
  8
0_00
  6
CONTINUOUS
 62
4
 10
338.4500
 20
464.3066
 11
338.4500
 21
461.1066
  0
LINE
  8
0_00
  6
CONTINUOUS
 62
4
 10
338.4500
 20
461.1066
 11
251.9500
 21
461.1066
  0
LINE
  8
0_00
  6
CONTINUOUS
 62
4
 10
297.2000
 20
461.1066
 11
297.2000
 21
464.3066
  0
LINE
  8
0_00
  6
CONTINUOUS
 62
4
 10
293.2000
 20
461.1066
 11
293.2000
 21
464.3066
  0
LINE
  8
0_00
  6
CONTINUOUS
 62
4
 10
338.4500
 20
464.3066
 11
251.9500
 21
464.3066
  0
LINE
  8
0_00
  6
CONTINUOUS
 62
2
 10
251.9500
 20
464.3066
 11
251.9500
 21
464.6066
  0
LINE
  8
0_00
  6
CONTINUOUS
 62
2
 10
338.4500
 20
464.3066
 11
338.4500
 21
464.6066
  0
LINE
  8
0_00
  6
CONTINUOUS
 62
2
 10
338.4500
 20
464.6066
 11
251.9500
 21
464.6066
  0
LINE
  8
0_00
  6
CONTINUOUS
 62
4
 10
249.9000
 20
451.3066
 11
340.5000
 21
451.3066
  0
LINE
  8
0_00
  6
CONTINUOUS
 62
4
 10
339.0000
 20
454.8066
 11
295.5000
 21
454.8066
  0
LINE
  8
0_00
  6
CONTINUOUS
 62
4
 10
294.9000
 20
454.8066
 11
279.9000
 21
454.8066
  0
LINE
  8
0_00
  6
CONTINUOUS
 62
4
 10
279.9000
 20
454.8066
 11
251.4000
 21
454.8066
  0
LINE
  8
0_00
  6
CONTINUOUS
 62
4
 10
295.2000
 20
454.5065
 11
294.9000
 21
454.8066
  0
LINE
  8
0_00
  6
CONTINUOUS
 62
4
 10
295.2000
 20
454.5065
 11
295.5000
 21
454.8066
  0
LINE
  8
0_00
  6
CONTINUOUS
 62
4
 10
357.0000
 20
462.5066
 11
341.0000
 21
462.5066
  0
LINE
  8
0_00
  6
CONTINUOUS
 62
4
 10
339.0000
 20
458.6066
 11
339.0000
 21
454.8066
  0
LINE
  8
0_00
  6
CONTINUOUS
 62
4
 10
357.0000
 20
462.7066
 11
357.0000
 21
462.5066
  0
LINE
  8
0_00
  6
CONTINUOUS
 62
4
 10
358.5000
 20
462.2066
 11
358.5000
 21
460.2066
  0
LINE
  8
0_00
  6
CONTINUOUS
 62
4
 10
358.0000
 20
462.7066
 11
357.0000
 21
462.7066
  0
LINE
  8
0_00
  6
CONTINUOUS
 62
4
 10
342.5000
 20
458.5066
 11
342.5000
 21
453.3066
  0
LINE
  8
0_00
  6
CONTINUOUS
 62
4
 10
354.5000
 20
459.5066
 11
343.5000
 21
459.5066
  0
LINE
  8
0_00
  6
CONTINUOUS
 62
4
 10
355.5000
 20
458.5066
 11
355.5000
 21
457.7066
  0
LINE
  8
0_00
  6
CONTINUOUS
 62
4
 10
375.0000
 20
438.4065
 11
374.4000
 21
438.4065
  0
LINE
  8
0_00
  6
CONTINUOUS
 62
4
 10
367.9841
 20
460.2066
 11
358.5000
 21
460.2066
  0
LINE
  8
0_00
  6
CONTINUOUS
 62
4
 10
367.6695
 20
457.2066
 11
356.0000
 21
457.2066
  0
LINE
  8
0_00
  6
CONTINUOUS
 62
4
 10
371.3744
 20
457.5758
 11
375.9687
 21
439.6549
  0
LINE
  8
0_00
  6
CONTINUOUS
 62
4
 10
368.6221
 20
456.5106
 11
372.7886
 21
443.4557
  0
LINE
  8
0_00
  6
CONTINUOUS
 62
4
 10
372.9710
 20
442.8841
 11
374.4000
 21
438.4065
  0
LINE
  8
0_00
  6
CONTINUOUS
 62
4
 10
251.4000
 20
458.6066
 11
251.4000
 21
454.8066
  0
LINE
  8
0_00
  6
CONTINUOUS
 62
4
 10
247.9000
 20
458.5066
 11
247.9000
 21
453.3066
  0
LINE
  8
0_00
  6
CONTINUOUS
 62
4
 10
234.9000
 20
458.5066
 11
234.9000
 21
457.7066
  0
LINE
  8
0_00
  6
CONTINUOUS
 62
4
 10
215.4000
 20
438.4065
 11
216.0000
 21
438.4065
  0
LINE
  8
0_00
  6
CONTINUOUS
 62
4
 10
222.4159
 20
460.2066
 11
231.9000
 21
460.2066
  0
LINE
  8
0_00
  6
CONTINUOUS
 62
4
 10
222.7305
 20
457.2066
 11
234.4000
 21
457.2066
  0
LINE
  8
0_00
  6
CONTINUOUS
 62
4
 10
219.0255
 20
457.5758
 11
214.4313
 21
439.6549
  0
LINE
  8
0_00
  6
CONTINUOUS
 62
4
 10
221.7779
 20
456.5106
 11
216.0000
 21
438.4065
  0
LINE
  8
0_00
  6
CONTINUOUS
 62
4
 10
372.7886
 20
443.4557
 11
372.5940
 21
443.0787
  0
LINE
  8
0_00
  6
CONTINUOUS
 62
4
 10
372.5940
 20
443.0787
 11
372.9710
 21
442.8841
  0
LINE
  8
0_00
  6
CENTER1
 62
3
 10
323.2000
 20
464.9115
 11
323.2000
 21
402.7020
  0
LINE
  8
0_00
  6
CENTER1
 62
3
 10
267.2000
 20
463.2906
 11
267.2000
 21
402.7020
  0
LINE
  8
0_00
  6
DASHED
 62
2
 10
325.7000
 20
457.1066
 11
325.7000
 21
411.4367
  0
LINE
  8
0_00
  6
CONTINUOUS
 62
2
 10
317.3000
 20
457.1066
 11
329.1000
 21
457.1066
  0
LINE
  8
0_00
  6
CONTINUOUS
 62
2
 10
329.1000
 20
457.4543
 11
329.1000
 21
457.1066
  0
LINE
  8
0_00
  6
DASHED
 62
2
 10
324.9500
 20
457.1066
 11
324.9500
 21
410.1377
  0
LINE
  8
0_00
  6
DASHED
 62
2
 10
323.2000
 20
407.1065
 11
325.7000
 21
411.4367
  0
LINE
  8
0_00
  6
DASHED
 62
2
 10
320.7000
 20
457.1066
 11
320.7000
 21
411.4367
  0
LINE
  8
0_00
  6
CONTINUOUS
 62
2
 10
317.3000
 20
457.4543
 11
317.3000
 21
457.1066
  0
LINE
  8
0_00
  6
DASHED
 62
2
 10
321.4500
 20
457.1066
 11
321.4500
 21
410.1377
  0
LINE
  8
0_00
  6
DASHED
 62
2
 10
323.2000
 20
407.1065
 11
320.7000
 21
411.4367
  0
LINE
  8
0_00
  6
CONTINUOUS
 62
2
 10
317.3000
 20
457.4543
 11
329.1000
 21
457.4543
  0
LINE
  8
0_00
  6
DASHED
 62
2
 10
264.7000
 20
457.1066
 11
264.7000
 21
411.4367
  0
LINE
  8
0_00
  6
CONTINUOUS
 62
2
 10
273.1000
 20
457.1066
 11
261.3000
 21
457.1066
  0
LINE
  8
0_00
  6
CONTINUOUS
 62
2
 10
261.3000
 20
457.4543
 11
261.3000
 21
457.1066
  0
LINE
  8
0_00
  6
DASHED
 62
2
 10
265.4500
 20
457.1066
 11
265.4500
 21
410.1377
  0
LINE
  8
0_00
  6
DASHED
 62
2
 10
267.2000
 20
407.1065
 11
264.7000
 21
411.4367
  0
LINE
  8
0_00
  6
DASHED
 62
2
 10
269.7000
 20
457.1066
 11
269.7000
 21
411.4367
  0
LINE
  8
0_00
  6
CONTINUOUS
 62
2
 10
273.1000
 20
457.4543
 11
273.1000
 21
457.1066
  0
LINE
  8
0_00
  6
DASHED
 62
2
 10
268.9500
 20
457.1066
 11
268.9500
 21
410.1377
  0
LINE
  8
0_00
  6
DASHED
 62
2
 10
267.2000
 20
407.1065
 11
269.7000
 21
411.4367
  0
LINE
  8
0_00
  6
CONTINUOUS
 62
2
 10
273.1000
 20
457.4543
 11
261.3000
 21
457.4543
  0
LINE
  8
0_00
  6
CONTINUOUS
 62
4
 10
337.2000
 20
454.8066
 11
310.2000
 21
454.8066
  0
LINE
  8
0_00
  6
CONTINUOUS
 62
4
 10
280.2000
 20
454.8066
 11
253.2000
 21
454.8066
  0
LINE
  8
0_00
  6
CONTINUOUS
 62
4
 10
337.2000
 20
457.1066
 11
310.2000
 21
457.1066
  0
LINE
  8
0_00
  6
CONTINUOUS
 62
4
 10
280.2000
 20
457.1066
 11
253.2000
 21
457.1066
  0
LINE
  8
0_00
  6
CONTINUOUS
 62
4
 10
337.2000
 20
457.1066
 11
337.2000
 21
454.8066
  0
LINE
  8
0_00
  6
CONTINUOUS
 62
4
 10
253.2000
 20
457.1066
 11
253.2000
 21
454.8066
  0
LINE
  8
0_00
  6
CONTINUOUS
 62
4
 10
310.2000
 20
457.1066
 11
308.3757
 21
460.0256
  0
LINE
  8
0_00
  6
CONTINUOUS
 62
4
 10
282.0244
 20
460.0256
 11
280.2000
 21
457.1066
  0
LINE
  8
0_00
  6
CONTINUOUS
 62
4
 10
308.2496
 20
455.8876
 11
306.4252
 21
458.8066
  0
LINE
  8
0_00
  6
CONTINUOUS
 62
4
 10
283.9747
 20
458.8066
 11
282.1504
 21
455.8876
  0
LINE
  8
0_00
  6
CONTINUOUS
 62
2
 10
357.0000
 20
462.5066
 11
357.0000
 21
464.8066
  0
LINE
  8
0_00
  6
CONTINUOUS
 62
2
 10
353.5686
 20
462.5066
 11
355.8686
 21
464.8066
  0
LINE
  8
0_00
  6
CONTINUOUS
 62
2
 10
351.3059
 20
462.5066
 11
353.6059
 21
464.8066
  0
LINE
  8
0_00
  6
CONTINUOUS
 62
2
 10
349.0432
 20
462.5066
 11
351.3431
 21
464.8066
  0
LINE
  8
0_00
  6
CONTINUOUS
 62
2
 10
347.0000
 20
462.7262
 11
349.0804
 21
464.8066
  0
LINE
  8
0_00
  6
CONTINUOUS
 62
2
 10
355.8314
 20
462.5066
 11
357.0000
 21
463.6752
  0
LINE
  8
0_00
  6
CONTINUOUS
 62
2
 10
356.9628
 20
462.5066
 11
357.0000
 21
462.5438
  0
LINE
  8
0_00
  6
CONTINUOUS
 62
2
 10
354.6628
 20
464.8066
 11
356.9628
 21
462.5066
  0
LINE
  8
0_00
  6
CONTINUOUS
 62
2
 10
352.4000
 20
464.8066
 11
354.7000
 21
462.5066
  0
LINE
  8
0_00
  6
CONTINUOUS
 62
2
 10
350.1373
 20
464.8066
 11
352.4373
 21
462.5066
  0
LINE
  8
0_00
  6
CONTINUOUS
 62
2
 10
347.8746
 20
464.8066
 11
350.1745
 21
462.5066
  0
LINE
  8
0_00
  6
CONTINUOUS
 62
2
 10
347.0000
 20
463.4184
 11
347.9118
 21
462.5066
  0
LINE
  8
0_00
  6
CONTINUOUS
 62
2
 10
356.9255
 20
464.8066
 11
357.0000
 21
464.7321
  0
LINE
  8
0_00
  6
CONTINUOUS
 62
2
 10
347.0000
 20
462.5066
 11
347.0000
 21
464.8066
  0
LINE
  8
15_0F
  6
CONTINUOUS
 62
6
 10
215.4136
 20
379.6882
 11
123.7727
 21
379.6882
  0
LINE
  8
13_0D
  6
CONTINUOUS
 62
6
 10
222.7000
 20
332.4031
 11
222.7000
 21
313.9193
  0
LINE
  8
13_0D
  6
CONTINUOUS
 62
6
 10
212.7000
 20
318.4192
 11
222.7000
 21
318.4192
  0
LINE
  8
13_0D
  6
CONTINUOUS
 62
6
 10
180.3000
 20
318.4192
 11
212.7000
 21
318.4192
  0
LINE
  8
13_0D
  6
CONTINUOUS
 62
6
 10
212.7000
 20
318.4192
 11
205.3639
 21
319.9786
  0
LINE
  8
13_0D
  6
CONTINUOUS
 62
6
 10
212.7000
 20
318.4192
 11
205.3639
 21
316.8599
  0
LINE
  8
13_0D
  6
CONTINUOUS
 62
6
 10
225.2000
 20
332.4031
 11
225.2000
 21
313.9193
  0
LINE
  8
13_0D
  6
CONTINUOUS
 62
6
 10
222.7000
 20
318.4192
 11
225.2000
 21
318.4192
  0
LINE
  8
13_0D
  6
CONTINUOUS
 62
6
 10
365.2000
 20
332.4031
 11
365.2000
 21
313.9193
  0
LINE
  8
13_0D
  6
CONTINUOUS
 62
6
 10
225.2000
 20
318.4192
 11
365.2000
 21
318.4192
  0
LINE
  8
13_0D
  6
CONTINUOUS
 62
6
 10
225.2000
 20
318.4192
 11
232.5361
 21
316.8599
  0
LINE
  8
13_0D
  6
CONTINUOUS
 62
6
 10
225.2000
 20
318.4192
 11
232.5361
 21
319.9786
  0
LINE
  8
13_0D
  6
CONTINUOUS
 62
6
 10
365.2000
 20
318.4192
 11
357.8639
 21
319.9786
  0
LINE
  8
13_0D
  6
CONTINUOUS
 62
6
 10
365.2000
 20
318.4192
 11
357.8639
 21
316.8599
  0
LINE
  8
13_0D
  6
CONTINUOUS
 62
6
 10
367.7000
 20
332.4031
 11
367.7000
 21
313.9193
  0
LINE
  8
13_0D
  6
CONTINUOUS
 62
6
 10
365.2000
 20
318.4192
 11
367.7000
 21
318.4192
  0
LINE
  8
13_0D
  6
CONTINUOUS
 62
6
 10
367.7000
 20
318.4192
 11
377.7000
 21
318.4192
  0
LINE
  8
13_0D
  6
CONTINUOUS
 62
6
 10
410.1000
 20
318.4192
 11
377.7000
 21
318.4192
  0
LINE
  8
13_0D
  6
CONTINUOUS
 62
6
 10
377.7000
 20
318.4192
 11
385.0361
 21
316.8599
  0
LINE
  8
13_0D
  6
CONTINUOUS
 62
6
 10
377.7000
 20
318.4192
 11
385.0361
 21
319.9786
  0
LINE
  8
13_0D
  6
CONTINUOUS
 62
6
 10
212.7000
 20
411.8801
 11
212.7000
 21
273.9193
  0
LINE
  8
13_0D
  6
CONTINUOUS
 62
6
 10
377.7000
 20
411.8801
 11
377.7000
 21
273.9193
  0
LINE
  8
13_0D
  6
CONTINUOUS
 62
6
 10
212.7000
 20
278.4193
 11
377.7000
 21
278.4193
  0
LINE
  8
13_0D
  6
CONTINUOUS
 62
6
 10
212.7000
 20
278.4193
 11
220.0361
 21
276.8599
  0
LINE
  8
13_0D
  6
CONTINUOUS
 62
6
 10
212.7000
 20
278.4193
 11
220.0361
 21
279.9786
  0
LINE
  8
13_0D
  6
CONTINUOUS
 62
6
 10
377.7000
 20
278.4193
 11
370.3639
 21
279.9786
  0
LINE
  8
13_0D
  6
CONTINUOUS
 62
6
 10
377.7000
 20
278.4193
 11
370.3639
 21
276.8599
  0
LINE
  8
0_00
  6
CONTINUOUS
 62
4
 10
576.0419
 20
560.1194
 11
1136.6670
 21
560.1194
  0
LINE
  8
0_00
  6
CONTINUOUS
 62
4
 10
578.8040
 20
695.1192
 11
1134.2799
 21
695.1192
  0
LINE
  8
15_0F
  6
CONTINUOUS
 62
4
 10
1128.3645
 20
213.5623
 11
849.6930
 21
213.5623
  0
LINE
  8
15_0F
  6
CONTINUOUS
 62
4
 10
868.3013
 20
378.5623
 11
1128.3645
 21
378.5623
  0
LINE
  8
15_0F
  6
CONTINUOUS
 62
4
 10
863.6426
 20
378.5623
 11
564.6749
 21
378.5623
  0
LINE
  8
0_00
  6
CONTINUOUS
 62
4
 10
698.5040
 20
376.8623
 11
638.5039
 21
376.8623
  0
LINE
  8
0_00
  6
CONTINUOUS
 62
4
 10
638.5039
 20
371.5623
 11
698.5040
 21
371.5623
  0
LINE
  8
0_00
  6
CONTINUOUS
 62
4
 10
638.5039
 20
359.3623
 11
698.5040
 21
359.3623
  0
LINE
  8
0_00
  6
CONTINUOUS
 62
4
 10
638.5039
 20
357.8623
 11
698.5040
 21
357.8623
  0
LINE
  8
0_00
  6
CONTINUOUS
 62
2
 10
638.5039
 20
347.8623
 11
698.5040
 21
347.8623
  0
LINE
  8
0_00
  6
CONTINUOUS
 62
2
 10
688.5040
 20
357.8623
 11
698.5040
 21
347.8623
  0
LINE
  8
0_00
  6
CONTINUOUS
 62
2
 10
691.3324
 20
357.8623
 11
698.5040
 21
350.6908
  0
LINE
  8
0_00
  6
CONTINUOUS
 62
2
 10
694.1608
 20
357.8623
 11
698.5040
 21
353.5192
  0
LINE
  8
0_00
  6
CONTINUOUS
 62
2
 10
696.9893
 20
357.8623
 11
698.5040
 21
356.3476
  0
LINE
  8
0_00
  6
CONTINUOUS
 62
2
 10
685.6755
 20
357.8623
 11
695.6755
 21
347.8623
  0
LINE
  8
0_00
  6
CONTINUOUS
 62
2
 10
682.8471
 20
357.8623
 11
692.8472
 21
347.8623
  0
LINE
  8
0_00
  6
CONTINUOUS
 62
2
 10
680.0186
 20
357.8623
 11
690.0187
 21
347.8623
  0
LINE
  8
0_00
  6
CONTINUOUS
 62
2
 10
677.1903
 20
357.8623
 11
687.1902
 21
347.8623
  0
LINE
  8
0_00
  6
CONTINUOUS
 62
2
 10
674.3618
 20
357.8623
 11
684.3618
 21
347.8623
  0
LINE
  8
0_00
  6
CONTINUOUS
 62
2
 10
671.5334
 20
357.8623
 11
681.5334
 21
347.8623
  0
LINE
  8
0_00
  6
CONTINUOUS
 62
2
 10
668.7051
 20
357.8623
 11
678.7050
 21
347.8623
  0
LINE
  8
0_00
  6
CONTINUOUS
 62
2
 10
665.8766
 20
357.8623
 11
675.8766
 21
347.8623
  0
LINE
  8
0_00
  6
CONTINUOUS
 62
2
 10
663.0481
 20
357.8623
 11
673.0481
 21
347.8623
  0
LINE
  8
0_00
  6
CONTINUOUS
 62
2
 10
660.2197
 20
357.8623
 11
670.2198
 21
347.8623
  0
LINE
  8
0_00
  6
CONTINUOUS
 62
2
 10
657.3913
 20
357.8623
 11
667.3913
 21
347.8623
  0
LINE
  8
0_00
  6
CONTINUOUS
 62
2
 10
654.5629
 20
357.8623
 11
664.5629
 21
347.8623
  0
LINE
  8
0_00
  6
CONTINUOUS
 62
2
 10
651.7344
 20
357.8623
 11
661.7345
 21
347.8623
  0
LINE
  8
0_00
  6
CONTINUOUS
 62
2
 10
648.9060
 20
357.8623
 11
658.9060
 21
347.8623
  0
LINE
  8
0_00
  6
CONTINUOUS
 62
2
 10
646.0776
 20
357.8623
 11
656.0776
 21
347.8623
  0
LINE
  8
0_00
  6
CONTINUOUS
 62
2
 10
643.2491
 20
357.8623
 11
653.2491
 21
347.8623
  0
LINE
  8
0_00
  6
CONTINUOUS
 62
2
 10
640.4208
 20
357.8623
 11
650.4207
 21
347.8623
  0
LINE
  8
0_00
  6
CONTINUOUS
 62
2
 10
638.5039
 20
356.9507
 11
647.5923
 21
347.8623
  0
LINE
  8
0_00
  6
CONTINUOUS
 62
2
 10
638.5039
 20
354.1222
 11
644.7638
 21
347.8623
  0
LINE
  8
0_00
  6
CONTINUOUS
 62
2
 10
638.5039
 20
351.2938
 11
641.9355
 21
347.8623
  0
LINE
  8
0_00
  6
CONTINUOUS
 62
2
 10
638.5039
 20
348.4654
 11
639.1070
 21
347.8623
  0
LINE
  8
0_00
  6
CONTINUOUS
 62
4
 10
564.6749
 20
377.1623
 11
863.2674
 21
377.1623
  0
LINE
  8
15_0F
  6
CONTINUOUS
 62
4
 10
860.2932
 20
366.0623
 11
698.5040
 21
366.0623
  0
LINE
  8
15_0F
  6
CONTINUOUS
 62
4
 10
638.5039
 20
366.0623
 11
564.6749
 21
366.0623
  0
LINE
  8
0_00
  6
CONTINUOUS
 62
2
 10
649.7280
 20
326.1522
 11
650.5970
 21
325.3135
  0
LINE
  8
0_00
  6
CONTINUOUS
 62
2
 10
650.5970
 20
325.3135
 11
651.0040
 21
325.1650
  0
LINE
  8
0_00
  6
CONTINUOUS
 62
2
 10
651.0040
 20
325.1650
 11
651.3890
 21
325.3053
  0
LINE
  8
0_00
  6
CONTINUOUS
 62
2
 10
651.3890
 20
325.3053
 11
652.2854
 21
326.1495
  0
LINE
  8
0_00
  6
CONTINUOUS
 62
2
 10
648.9141
 20
325.3382
 11
649.7528
 21
324.4693
  0
LINE
  8
0_00
  6
CONTINUOUS
 62
2
 10
649.7528
 20
324.4693
 11
649.9013
 21
324.0623
  0
LINE
  8
0_00
  6
CONTINUOUS
 62
2
 10
649.9013
 20
324.0623
 11
649.7611
 21
323.6774
  0
LINE
  8
0_00
  6
CONTINUOUS
 62
2
 10
649.7611
 20
323.6774
 11
648.9169
 21
322.7809
  0
LINE
  8
0_00
  6
CONTINUOUS
 62
2
 10
653.0939
 20
322.7864
 11
652.2552
 21
323.6554
  0
LINE
  8
0_00
  6
CONTINUOUS
 62
2
 10
652.2552
 20
323.6554
 11
652.1067
 21
324.0623
  0
LINE
  8
0_00
  6
CONTINUOUS
 62
2
 10
652.1067
 20
324.0623
 11
652.2469
 21
324.4473
  0
LINE
  8
0_00
  6
CONTINUOUS
 62
2
 10
652.2469
 20
324.4473
 11
653.0911
 21
325.3437
  0
LINE
  8
0_00
  6
CONTINUOUS
 62
2
 10
652.2799
 20
321.9725
 11
651.4109
 21
322.8112
  0
LINE
  8
0_00
  6
CONTINUOUS
 62
2
 10
651.4109
 20
322.8112
 11
651.0040
 21
322.9597
  0
LINE
  8
0_00
  6
CONTINUOUS
 62
2
 10
651.0040
 20
322.9597
 11
650.6190
 21
322.8194
  0
LINE
  8
0_00
  6
CONTINUOUS
 62
2
 10
650.6190
 20
322.8194
 11
649.7225
 21
321.9752
  0
LINE
  8
0_00
  6
CONTINUOUS
 62
4
 10
698.5040
 20
376.8623
 11
698.5040
 21
215.2623
  0
LINE
  8
0_00
  6
CONTINUOUS
 62
4
 10
638.5039
 20
376.8623
 11
638.5039
 21
215.2623
  0
LINE
  8
0_00
  6
CONTINUOUS
 62
4
 10
698.5040
 20
215.2623
 11
638.5039
 21
215.2623
  0
LINE
  8
0_00
  6
CONTINUOUS
 62
4
 10
638.5039
 20
220.5623
 11
698.5040
 21
220.5623
  0
LINE
  8
0_00
  6
CONTINUOUS
 62
4
 10
638.5039
 20
232.7623
 11
698.5040
 21
232.7623
  0
LINE
  8
0_00
  6
CONTINUOUS
 62
4
 10
638.5039
 20
234.2623
 11
698.5040
 21
234.2623
  0
LINE
  8
0_00
  6
CONTINUOUS
 62
4
 10
638.5039
 20
250.2623
 11
698.5040
 21
250.2623
  0
LINE
  8
0_00
  6
CONTINUOUS
 62
4
 10
638.5039
 20
251.7623
 11
698.5040
 21
251.7623
  0
LINE
  8
0_00
  6
CONTINUOUS
 62
4
 10
638.5039
 20
255.0623
 11
698.5040
 21
255.0623
  0
LINE
  8
0_00
  6
CONTINUOUS
 62
4
 10
638.5039
 20
341.8624
 11
698.5040
 21
341.8624
  0
LINE
  8
0_00
  6
CONTINUOUS
 62
4
 10
638.5039
 20
340.3624
 11
698.5040
 21
340.3624
  0
LINE
  8
0_00
  6
CONTINUOUS
 62
4
 10
638.5039
 20
337.0623
 11
698.5040
 21
337.0623
  0
LINE
  8
0_00
  6
CONTINUOUS
 62
4
 10
669.0040
 20
336.5623
 11
668.0040
 21
336.5623
  0
LINE
  8
0_00
  6
CONTINUOUS
 62
4
 10
669.0040
 20
336.5623
 11
669.0040
 21
335.3662
  0
LINE
  8
0_00
  6
CONTINUOUS
 62
4
 10
668.0040
 20
336.5623
 11
668.0040
 21
335.3662
  0
LINE
  8
0_00
  6
CONTINUOUS
 62
4
 10
668.5040
 20
336.5623
 11
668.5040
 21
335.0623
  0
LINE
  8
0_00
  6
CONTINUOUS
 62
4
 10
669.0040
 20
255.5623
 11
668.0040
 21
255.5623
  0
LINE
  8
0_00
  6
CONTINUOUS
 62
4
 10
669.0040
 20
255.5623
 11
669.0040
 21
256.7585
  0
LINE
  8
0_00
  6
CONTINUOUS
 62
4
 10
668.0040
 20
255.5623
 11
668.0040
 21
256.7585
  0
LINE
  8
0_00
  6
CONTINUOUS
 62
4
 10
668.5040
 20
255.5623
 11
668.5040
 21
257.0623
  0
LINE
  8
0_00
  6
CONTINUOUS
 62
4
 10
638.5039
 20
335.0623
 11
638.5039
 21
298.0623
  0
LINE
  8
0_00
  6
CONTINUOUS
 62
4
 10
638.5039
 20
294.0623
 11
638.5039
 21
257.0623
  0
LINE
  8
0_00
  6
CONTINUOUS
 62
4
 10
698.5040
 20
335.0623
 11
698.5040
 21
298.0623
  0
LINE
  8
0_00
  6
CONTINUOUS
 62
4
 10
698.5040
 20
294.0623
 11
698.5040
 21
257.0623
  0
LINE
  8
0_00
  6
CONTINUOUS
 62
4
 10
698.5040
 20
298.0623
 11
696.6721
 21
296.4363
  0
LINE
  8
0_00
  6
CONTINUOUS
 62
4
 10
698.5040
 20
294.0623
 11
696.6721
 21
295.6884
  0
LINE
  8
0_00
  6
CONTINUOUS
 62
4
 10
638.5039
 20
298.0623
 11
640.3359
 21
296.4363
  0
LINE
  8
0_00
  6
CONTINUOUS
 62
4
 10
638.5039
 20
294.0623
 11
640.3359
 21
295.6884
  0
LINE
  8
0_00
  6
CONTINUOUS
 62
4
 10
670.5767
 20
337.0623
 11
668.8706
 21
335.2223
  0
LINE
  8
0_00
  6
CONTINUOUS
 62
4
 10
666.4312
 20
337.0623
 11
668.1373
 21
335.2223
  0
LINE
  8
0_00
  6
CONTINUOUS
 62
4
 10
670.5767
 20
255.0623
 11
668.8706
 21
256.9023
  0
LINE
  8
0_00
  6
CONTINUOUS
 62
4
 10
666.4312
 20
255.0623
 11
668.1373
 21
256.9023
  0
LINE
  8
0_00
  6
CONTINUOUS
 62
2
 10
687.2799
 20
265.9725
 11
686.4109
 21
266.8111
  0
LINE
  8
0_00
  6
CONTINUOUS
 62
2
 10
686.4109
 20
266.8111
 11
686.0040
 21
266.9597
  0
LINE
  8
0_00
  6
CONTINUOUS
 62
2
 10
686.0040
 20
266.9597
 11
685.6190
 21
266.8194
  0
LINE
  8
0_00
  6
CONTINUOUS
 62
2
 10
685.6190
 20
266.8194
 11
684.7225
 21
265.9752
  0
LINE
  8
0_00
  6
CONTINUOUS
 62
2
 10
688.0938
 20
266.7864
 11
687.2552
 21
267.6553
  0
LINE
  8
0_00
  6
CONTINUOUS
 62
2
 10
687.2552
 20
267.6553
 11
687.1067
 21
268.0623
  0
LINE
  8
0_00
  6
CONTINUOUS
 62
2
 10
687.1067
 20
268.0623
 11
687.2469
 21
268.4473
  0
LINE
  8
0_00
  6
CONTINUOUS
 62
2
 10
687.2469
 20
268.4473
 11
688.0911
 21
269.3438
  0
LINE
  8
0_00
  6
CONTINUOUS
 62
2
 10
683.9141
 20
269.3383
 11
684.7528
 21
268.4693
  0
LINE
  8
0_00
  6
CONTINUOUS
 62
2
 10
684.7528
 20
268.4693
 11
684.9013
 21
268.0623
  0
LINE
  8
0_00
  6
CONTINUOUS
 62
2
 10
684.9013
 20
268.0623
 11
684.7610
 21
267.6774
  0
LINE
  8
0_00
  6
CONTINUOUS
 62
2
 10
684.7610
 20
267.6774
 11
683.9169
 21
266.7809
  0
LINE
  8
0_00
  6
CONTINUOUS
 62
2
 10
684.7280
 20
270.1522
 11
685.5970
 21
269.3135
  0
LINE
  8
0_00
  6
CONTINUOUS
 62
2
 10
685.5970
 20
269.3135
 11
686.0040
 21
269.1650
  0
LINE
  8
0_00
  6
CONTINUOUS
 62
2
 10
686.0040
 20
269.1650
 11
686.3890
 21
269.3053
  0
LINE
  8
0_00
  6
CONTINUOUS
 62
2
 10
686.3890
 20
269.3053
 11
687.2854
 21
270.1495
  0
LINE
  8
0_00
  6
CONTINUOUS
 62
4
 10
638.5039
 20
308.5623
 11
698.5040
 21
308.5623
  0
LINE
  8
0_00
  6
CONTINUOUS
 62
4
 10
698.5040
 20
311.0623
 11
638.5039
 21
311.0623
  0
LINE
  8
0_00
  6
CONTINUOUS
 62
4
 10
638.5039
 20
283.5623
 11
698.5040
 21
283.5623
  0
LINE
  8
0_00
  6
CONTINUOUS
 62
4
 10
698.5040
 20
281.0623
 11
638.5039
 21
281.0623
  0
LINE
  8
0_00
  6
CONTINUOUS
 62
4
 10
668.2040
 20
284.0623
 11
668.8039
 21
284.0623
  0
LINE
  8
0_00
  6
CONTINUOUS
 62
4
 10
668.2040
 20
287.0623
 11
668.8039
 21
287.0623
  0
LINE
  8
0_00
  6
CONTINUOUS
 62
4
 10
668.8039
 20
287.0623
 11
668.8039
 21
284.0623
  0
LINE
  8
0_00
  6
CONTINUOUS
 62
4
 10
668.2040
 20
287.0623
 11
668.2040
 21
284.0623
  0
LINE
  8
0_00
  6
CONTINUOUS
 62
4
 10
668.5040
 20
284.0623
 11
668.5040
 21
287.0623
  0
LINE
  8
0_00
  6
CONTINUOUS
 62
4
 10
668.2040
 20
308.0623
 11
668.8039
 21
308.0623
  0
LINE
  8
0_00
  6
CONTINUOUS
 62
4
 10
668.2040
 20
305.0623
 11
668.8039
 21
305.0623
  0
LINE
  8
0_00
  6
CONTINUOUS
 62
4
 10
668.8039
 20
305.0623
 11
668.8039
 21
308.0623
  0
LINE
  8
0_00
  6
CONTINUOUS
 62
4
 10
668.2040
 20
305.0623
 11
668.2040
 21
308.0623
  0
LINE
  8
0_00
  6
CONTINUOUS
 62
4
 10
668.5040
 20
308.0623
 11
668.5040
 21
305.0623
  0
LINE
  8
0_00
  6
CONTINUOUS
 62
4
 10
690.2540
 20
327.3123
 11
681.7540
 21
327.3123
  0
LINE
  8
0_00
  6
CONTINUOUS
 62
4
 10
690.2540
 20
320.8123
 11
681.7540
 21
320.8123
  0
LINE
  8
0_00
  6
CONTINUOUS
 62
4
 10
646.7540
 20
264.8123
 11
655.2540
 21
264.8123
  0
LINE
  8
0_00
  6
CONTINUOUS
 62
4
 10
646.7540
 20
271.3123
 11
655.2540
 21
271.3123
  0
LINE
  8
0_00
  6
CONTINUOUS
 62
2
 10
638.5039
 20
244.2623
 11
698.5040
 21
244.2623
  0
LINE
  8
0_00
  6
CONTINUOUS
 62
2
 10
683.5039
 20
244.2623
 11
693.5040
 21
234.2623
  0
LINE
  8
0_00
  6
CONTINUOUS
 62
2
 10
686.3324
 20
244.2623
 11
696.3324
 21
234.2623
  0
LINE
  8
0_00
  6
CONTINUOUS
 62
2
 10
689.1609
 20
244.2623
 11
698.5040
 21
234.9192
  0
LINE
  8
0_00
  6
CONTINUOUS
 62
2
 10
691.9893
 20
244.2623
 11
698.5040
 21
237.7476
  0
LINE
  8
0_00
  6
CONTINUOUS
 62
2
 10
694.8177
 20
244.2623
 11
698.5040
 21
240.5760
  0
LINE
  8
0_00
  6
CONTINUOUS
 62
2
 10
697.6461
 20
244.2623
 11
698.5040
 21
243.4045
  0
LINE
  8
0_00
  6
CONTINUOUS
 62
2
 10
680.6755
 20
244.2623
 11
690.6756
 21
234.2623
  0
LINE
  8
0_00
  6
CONTINUOUS
 62
2
 10
677.8471
 20
244.2623
 11
687.8471
 21
234.2623
  0
LINE
  8
0_00
  6
CONTINUOUS
 62
2
 10
675.0187
 20
244.2623
 11
685.0187
 21
234.2623
  0
LINE
  8
0_00
  6
CONTINUOUS
 62
2
 10
672.1902
 20
244.2623
 11
682.1902
 21
234.2623
  0
LINE
  8
0_00
  6
CONTINUOUS
 62
2
 10
669.3618
 20
244.2623
 11
679.3618
 21
234.2623
  0
LINE
  8
0_00
  6
CONTINUOUS
 62
2
 10
666.5335
 20
244.2623
 11
676.5335
 21
234.2623
  0
LINE
  8
0_00
  6
CONTINUOUS
 62
2
 10
663.7050
 20
244.2623
 11
673.7050
 21
234.2623
  0
LINE
  8
0_00
  6
CONTINUOUS
 62
2
 10
660.8766
 20
244.2623
 11
670.8766
 21
234.2623
  0
LINE
  8
0_00
  6
CONTINUOUS
 62
2
 10
658.0482
 20
244.2623
 11
668.0482
 21
234.2623
  0
LINE
  8
0_00
  6
CONTINUOUS
 62
2
 10
655.2197
 20
244.2623
 11
665.2197
 21
234.2623
  0
LINE
  8
0_00
  6
CONTINUOUS
 62
2
 10
652.3913
 20
244.2623
 11
662.3913
 21
234.2623
  0
LINE
  8
0_00
  6
CONTINUOUS
 62
2
 10
649.5629
 20
244.2623
 11
659.5629
 21
234.2623
  0
LINE
  8
0_00
  6
CONTINUOUS
 62
2
 10
646.7344
 20
244.2623
 11
656.7344
 21
234.2623
  0
LINE
  8
0_00
  6
CONTINUOUS
 62
2
 10
643.9060
 20
244.2623
 11
653.9060
 21
234.2623
  0
LINE
  8
0_00
  6
CONTINUOUS
 62
2
 10
641.0776
 20
244.2623
 11
651.0775
 21
234.2623
  0
LINE
  8
0_00
  6
CONTINUOUS
 62
2
 10
638.5039
 20
244.0075
 11
648.2492
 21
234.2623
  0
LINE
  8
0_00
  6
CONTINUOUS
 62
2
 10
638.5039
 20
241.1791
 11
645.4207
 21
234.2623
  0
LINE
  8
0_00
  6
CONTINUOUS
 62
2
 10
638.5039
 20
238.3507
 11
642.5923
 21
234.2623
  0
LINE
  8
0_00
  6
CONTINUOUS
 62
2
 10
638.5039
 20
235.5222
 11
639.7639
 21
234.2623
  0
LINE
  8
15_0F
  6
CENTER1
 62
6
 10
670.9599
 20
268.0623
 11
702.6391
 21
268.0623
  0
LINE
  8
15_0F
  6
CENTER1
 62
6
 10
686.0040
 20
280.2748
 11
686.0040
 21
254.9918
  0
LINE
  8
15_0F
  6
CENTER1
 62
6
 10
651.0040
 20
336.2748
 11
651.0040
 21
310.9918
  0
LINE
  8
15_0F
  6
CENTER1
 62
6
 10
635.9599
 20
324.0623
 11
667.6390
 21
324.0623
  0
LINE
  8
0_00
  6
CONTINUOUS
 62
4
 10
666.8269
 20
293.5623
 11
667.1114
 21
293.5623
  0
LINE
  8
0_00
  6
CONTINUOUS
 62
4
 10
666.9784
 20
292.3123
 11
666.5040
 21
292.3123
  0
LINE
  8
0_00
  6
CONTINUOUS
 62
4
 10
666.5040
 20
290.8123
 11
666.9784
 21
290.8123
  0
LINE
  8
0_00
  6
CONTINUOUS
 62
4
 10
667.7540
 20
290.0367
 11
667.7540
 21
289.5623
  0
LINE
  8
0_00
  6
CONTINUOUS
 62
4
 10
670.1810
 20
293.5623
 11
669.8966
 21
293.5623
  0
LINE
  8
0_00
  6
CONTINUOUS
 62
4
 10
670.0296
 20
292.3123
 11
670.5040
 21
292.3123
  0
LINE
  8
0_00
  6
CONTINUOUS
 62
4
 10
670.5040
 20
290.8123
 11
670.0296
 21
290.8123
  0
LINE
  8
0_00
  6
CONTINUOUS
 62
4
 10
669.2540
 20
290.0367
 11
669.2540
 21
289.5623
  0
LINE
  8
0_00
  6
CONTINUOUS
 62
4
 10
666.5040
 20
292.3123
 11
666.5040
 21
290.8123
  0
LINE
  8
0_00
  6
CONTINUOUS
 62
4
 10
670.5040
 20
290.8123
 11
670.5040
 21
292.3123
  0
LINE
  8
0_00
  6
CONTINUOUS
 62
4
 10
668.3040
 20
288.3123
 11
668.5040
 21
288.5123
  0
LINE
  8
0_00
  6
CONTINUOUS
 62
4
 10
668.7040
 20
288.3123
 11
668.5040
 21
288.5123
  0
LINE
  8
0_00
  6
CONTINUOUS
 62
4
 10
667.7540
 20
289.5623
 11
669.2540
 21
289.5623
  0
LINE
  8
0_00
  6
CONTINUOUS
 62
4
 10
661.7040
 20
296.0623
 11
661.5039
 21
295.8623
  0
LINE
  8
0_00
  6
CONTINUOUS
 62
4
 10
661.7040
 20
296.0623
 11
661.5039
 21
296.2623
  0
LINE
  8
0_00
  6
CONTINUOUS
 62
4
 10
661.5039
 20
294.5623
 11
661.5039
 21
295.8623
  0
LINE
  8
0_00
  6
CONTINUOUS
 62
4
 10
661.5039
 20
296.2623
 11
661.5039
 21
297.5623
  0
LINE
  8
0_00
  6
CONTINUOUS
 62
4
 10
662.6040
 20
294.5623
 11
662.6040
 21
297.5623
  0
LINE
  8
0_00
  6
CONTINUOUS
 62
4
 10
675.3040
 20
296.0623
 11
675.5040
 21
295.8623
  0
LINE
  8
0_00
  6
CONTINUOUS
 62
4
 10
675.3040
 20
296.0623
 11
675.5040
 21
296.2623
  0
LINE
  8
0_00
  6
CONTINUOUS
 62
4
 10
675.5040
 20
294.5623
 11
675.5040
 21
295.8623
  0
LINE
  8
0_00
  6
CONTINUOUS
 62
4
 10
675.5040
 20
296.2623
 11
675.5040
 21
297.5623
  0
LINE
  8
0_00
  6
CONTINUOUS
 62
4
 10
674.4040
 20
294.5623
 11
674.4040
 21
297.5623
  0
LINE
  8
0_00
  6
CONTINUOUS
 62
4
 10
664.2041
 20
288.3123
 11
668.3040
 21
288.3123
  0
LINE
  8
0_00
  6
CONTINUOUS
 62
4
 10
665.5053
 20
289.3624
 11
664.1722
 21
289.3624
  0
LINE
  8
0_00
  6
CONTINUOUS
 62
4
 10
672.8038
 20
288.3123
 11
668.7040
 21
288.3123
  0
LINE
  8
0_00
  6
CONTINUOUS
 62
4
 10
671.5028
 20
289.3624
 11
672.8358
 21
289.3624
  0
LINE
  8
0_00
  6
CONTINUOUS
 62
4
 10
666.8269
 20
298.5623
 11
667.1114
 21
298.5623
  0
LINE
  8
0_00
  6
CONTINUOUS
 62
4
 10
666.9784
 20
299.8123
 11
666.5040
 21
299.8123
  0
LINE
  8
0_00
  6
CONTINUOUS
 62
4
 10
666.5040
 20
301.3123
 11
666.9784
 21
301.3123
  0
LINE
  8
0_00
  6
CONTINUOUS
 62
4
 10
667.7540
 20
302.0880
 11
667.7540
 21
302.5623
  0
LINE
  8
0_00
  6
CONTINUOUS
 62
4
 10
670.1810
 20
298.5623
 11
669.8966
 21
298.5623
  0
LINE
  8
0_00
  6
CONTINUOUS
 62
4
 10
670.0296
 20
299.8123
 11
670.5040
 21
299.8123
  0
LINE
  8
0_00
  6
CONTINUOUS
 62
4
 10
670.5040
 20
301.3123
 11
670.0296
 21
301.3123
  0
LINE
  8
0_00
  6
CONTINUOUS
 62
4
 10
669.2540
 20
302.0880
 11
669.2540
 21
302.5623
  0
LINE
  8
0_00
  6
CONTINUOUS
 62
4
 10
666.5040
 20
299.8123
 11
666.5040
 21
301.3123
  0
LINE
  8
0_00
  6
CONTINUOUS
 62
4
 10
670.5040
 20
301.3123
 11
670.5040
 21
299.8123
  0
LINE
  8
0_00
  6
CONTINUOUS
 62
4
 10
668.3040
 20
303.8123
 11
668.5040
 21
303.6123
  0
LINE
  8
0_00
  6
CONTINUOUS
 62
4
 10
668.7040
 20
303.8123
 11
668.5040
 21
303.6123
  0
LINE
  8
0_00
  6
CONTINUOUS
 62
4
 10
667.7540
 20
302.5623
 11
669.2540
 21
302.5623
  0
LINE
  8
0_00
  6
CONTINUOUS
 62
4
 10
664.2041
 20
303.8123
 11
668.3040
 21
303.8123
  0
LINE
  8
0_00
  6
CONTINUOUS
 62
4
 10
665.5053
 20
302.7623
 11
664.1722
 21
302.7623
  0
LINE
  8
0_00
  6
CONTINUOUS
 62
4
 10
672.8038
 20
303.8123
 11
668.7040
 21
303.8123
  0
LINE
  8
0_00
  6
CONTINUOUS
 62
4
 10
671.5028
 20
302.7623
 11
672.8358
 21
302.7623
  0
LINE
  8
15_0F
  6
CONTINUOUS
 62
4
 10
845.0342
 20
213.5623
 11
564.6749
 21
213.5623
  0
LINE
  8
0_00
  6
CONTINUOUS
 62
4
 10
564.6749
 20
214.9623
 11
845.4094
 21
214.9623
  0
LINE
  8
15_0F
  6
CONTINUOUS
 62
4
 10
564.6749
 20
226.0623
 11
638.5039
 21
226.0623
  0
LINE
  8
15_0F
  6
CONTINUOUS
 62
4
 10
698.5040
 20
226.0623
 11
848.3837
 21
226.0623
  0
LINE
  8
0_00
  6
CONTINUOUS
 62
4
 10
313.2000
 20
626.2065
 11
313.2000
 21
615.9897
  0
LINE
  8
0_00
  6
CENTER1
 62
6
 10
290.6983
 20
650.7186
 11
290.6983
 21
611.1916
  0
LINE
  8
0_00
  6
CENTER1
 62
6
 10
299.6983
 20
650.7186
 11
299.6983
 21
611.1916
  0
LINE
  8
0_00
  6
CONTINUOUS
 62
2
 10
302.9483
 20
639.3066
 11
287.4483
 21
639.3066
  0
LINE
  8
0_00
  6
CENTER1
 62
6
 10
313.2000
 20
626.2065
 11
313.2000
 21
645.5898
  0
LINE
  8
0_00
  6
CENTER1
 62
6
 10
277.2000
 20
626.2065
 11
277.2000
 21
645.5898
  0
LINE
  8
0_00
  6
CONTINUOUS
 62
2
 10
287.4500
 20
631.9066
 11
287.4500
 21
639.3066
  0
LINE
  8
0_00
  6
CONTINUOUS
 62
2
 10
302.9500
 20
631.9066
 11
302.9500
 21
639.3066
  0
LINE
  8
0_00
  6
CONTINUOUS
 62
4
 10
277.2000
 20
626.2065
 11
277.2000
 21
615.9897
  0
LINE
  8
0_00
  6
CONTINUOUS
 62
4
 10
313.2000
 20
614.7891
 11
313.2000
 21
466.8066
  0
LINE
  8
0_00
  6
DASHED
 62
2
 10
302.9500
 20
631.9066
 11
302.9500
 21
461.1066
  0
LINE
  8
0_00
  6
DASHED
 62
2
 10
287.4500
 20
461.1066
 11
287.4500
 21
631.9066
  0
LINE
  8
0_00
  6
CONTINUOUS
 62
4
 10
277.2000
 20
614.5209
 11
277.2000
 21
466.8066
  0
LINE
  8
0_00
  6
CONTINUOUS
 62
4
 10
1054.2840
 20
306.0623
 11
1053.6841
 21
306.0623
  0
LINE
  8
0_00
  6
CONTINUOUS
 62
4
 10
1053.9841
 20
306.0623
 11
1053.9841
 21
306.3123
  0
LINE
  8
0_00
  6
CONTINUOUS
 62
4
 10
1054.2840
 20
306.0623
 11
1054.2840
 21
306.3123
  0
LINE
  8
0_00
  6
CONTINUOUS
 62
4
 10
1053.6841
 20
306.0623
 11
1053.6841
 21
306.3123
  0
LINE
  8
0_00
  6
CONTINUOUS
 62
4
 10
1054.2840
 20
286.0623
 11
1053.6841
 21
286.0623
  0
LINE
  8
0_00
  6
CONTINUOUS
 62
4
 10
1053.9841
 20
286.0623
 11
1053.9841
 21
285.8123
  0
LINE
  8
0_00
  6
CONTINUOUS
 62
4
 10
1054.2840
 20
286.0623
 11
1054.2840
 21
285.8123
  0
LINE
  8
0_00
  6
CONTINUOUS
 62
4
 10
1053.6841
 20
286.0623
 11
1053.6841
 21
285.8123
  0
LINE
  8
0_00
  6
CONTINUOUS
 62
4
 10
1063.9217
 20
286.0457
 11
1063.9217
 21
306.0790
  0
LINE
  8
0_00
  6
CONTINUOUS
 62
4
 10
1044.0465
 20
286.0457
 11
1044.0465
 21
306.0790
  0
LINE
  8
15_0F
  6
CONTINUOUS
 62
6
 10
1053.9841
 20
346.7816
 11
1053.9841
 21
433.6418
  0
LINE
  8
15_0F
  6
CONTINUOUS
 62
6
 10
1053.9841
 20
455.5880
 11
1053.9841
 21
466.0000
  0
LINE
  8
0_00
  6
CONTINUOUS
 62
4
 10
591.1919
 20
725.2392
 11
591.1919
 21
716.2992
  0
LINE
  8
0_00
  6
CONTINUOUS
 62
4
 10
586.5419
 20
725.2392
 11
591.1919
 21
725.2392
  0
LINE
  8
0_00
  6
CONTINUOUS
 62
4
 10
586.5419
 20
716.2992
 11
591.1919
 21
716.2992
  0
LINE
  8
0_00
  6
CONTINUOUS
 62
4
 10
583.8419
 20
717.2068
 11
583.8419
 21
695.8242
  0
LINE
  8
0_00
  6
CONTINUOUS
 62
4
 10
589.2420
 20
716.2992
 11
589.2420
 21
695.8242
  0
LINE
  8
0_00
  6
CONTINUOUS
 62
4
 10
626.7420
 20
716.7859
 11
626.7420
 21
695.1192
  0
LINE
  8
0_00
  6
CONTINUOUS
 62
4
 10
621.3420
 20
716.7859
 11
621.3420
 21
695.1192
  0
LINE
  8
0_00
  6
CONTINUOUS
 62
6
 10
591.1919
 20
719.4229
 11
1121.8920
 21
719.4229
  0
LINE
  8
0_00
  6
CONTINUOUS
 62
4
 10
591.1919
 20
716.4192
 11
621.1920
 21
716.4192
  0
LINE
  8
0_00
  6
CONTINUOUS
 62
4
 10
626.8920
 20
716.4192
 11
776.1920
 21
716.4192
  0
LINE
  8
0_00
  6
CONTINUOUS
 62
4
 10
781.7420
 20
716.7859
 11
781.7420
 21
695.1192
  0
LINE
  8
0_00
  6
CONTINUOUS
 62
4
 10
776.3419
 20
716.7859
 11
776.3419
 21
695.1192
  0
LINE
  8
0_00
  6
CONTINUOUS
 62
4
 10
936.7419
 20
716.7859
 11
936.7419
 21
695.1192
  0
LINE
  8
0_00
  6
CONTINUOUS
 62
4
 10
931.3419
 20
716.7859
 11
931.3419
 21
695.1192
  0
LINE
  8
0_00
  6
CONTINUOUS
 62
4
 10
1086.3419
 20
716.7859
 11
1086.3419
 21
695.1192
  0
LINE
  8
0_00
  6
CONTINUOUS
 62
4
 10
1091.7419
 20
716.7859
 11
1091.7419
 21
695.1192
  0
LINE
  8
0_00
  6
CONTINUOUS
 62
4
 10
1086.1919
 20
716.4192
 11
936.8919
 21
716.4192
  0
LINE
  8
0_00
  6
CONTINUOUS
 62
4
 10
1121.8920
 20
716.4192
 11
1091.8920
 21
716.4192
  0
LINE
  8
15_0F
  6
CONTINUOUS
 62
4
 10
931.1919
 20
716.4192
 11
781.8920
 21
716.4192
  0
LINE
  8
16_10
  6
CONTINUOUS
 62
4
 10
601.4039
 20
695.4192
 11
580.8268
 21
695.4192
  0
LINE
  8
16_10
  6
CONTINUOUS
 62
4
 10
596.0369
 20
695.8242
 11
577.0470
 21
695.8242
  0
LINE
  8
16_10
  6
CONTINUOUS
 62
4
 10
577.0470
 20
695.8242
 11
574.5821
 21
695.4586
  0
LINE
  8
16_10
  6
CONTINUOUS
 62
4
 10
573.6275
 20
689.3267
 11
573.5076
 21
694.1708
  0
LINE
  8
16_10
  6
CONTINUOUS
 62
4
 10
573.9042
 20
688.6721
 11
573.9202
 21
687.1349
  0
LINE
  8
16_10
  6
CONTINUOUS
 62
4
 10
601.8953
 20
695.3821
 11
596.0369
 21
695.8242
  0
LINE
  8
16_10
  6
CONTINUOUS
 62
4
 10
578.2701
 20
686.6895
 11
578.8098
 21
686.7072
  0
LINE
  8
16_10
  6
CONTINUOUS
 62
4
 10
578.4227
 20
695.0626
 11
580.8268
 21
695.4192
  0
LINE
  8
16_10
  6
CONTINUOUS
 62
4
 10
577.5912
 20
694.0662
 11
577.7073
 21
689.3375
  0
LINE
  8
16_10
  6
CONTINUOUS
 62
4
 10
578.0010
 20
687.1158
 11
577.9832
 21
688.7065
  0
LINE
  8
16_10
  6
CONTINUOUS
 62
4
 10
578.2697
 20
686.6895
 11
574.5236
 21
686.5695
  0
LINE
  8
0_00
  6
CONTINUOUS
 62
6
 10
574.2021
 20
688.6721
 11
577.8040
 21
688.6721
  0
LINE
  8
16_10
  6
CONTINUOUS
 62
4
 10
578.2642
 20
686.8692
 11
1134.8197
 21
686.8692
  0
LINE
  8
16_10
  6
CONTINUOUS
 62
2
 10
577.9577
 20
688.8124
 11
1135.1262
 21
688.8124
  0
LINE
  8
16_10
  6
CONTINUOUS
 62
4
 10
578.8040
 20
695.1192
 11
1008.9170
 21
695.1192
  0
LINE
  8
15_0F
  6
CONTINUOUS
 62
4
 10
576.0419
 20
686.6181
 11
576.0419
 21
560.1194
  0
LINE
  8
0_00
  6
CENTER1
 62
6
 10
1126.5420
 20
729.9201
 11
1126.5420
 21
689.0071
  0
LINE
  8
0_00
  6
CONTINUOUS
 62
4
 10
1121.8920
 20
725.2392
 11
1121.8920
 21
716.2992
  0
LINE
  8
0_00
  6
CONTINUOUS
 62
4
 10
1126.5420
 20
725.2392
 11
1121.8920
 21
725.2392
  0
LINE
  8
0_00
  6
CONTINUOUS
 62
4
 10
1126.5420
 20
716.2992
 11
1121.8920
 21
716.2992
  0
LINE
  8
0_00
  6
CONTINUOUS
 62
4
 10
1129.2420
 20
717.2068
 11
1129.2420
 21
695.8242
  0
LINE
  8
0_00
  6
CONTINUOUS
 62
4
 10
1123.8419
 20
716.2992
 11
1123.8419
 21
695.8242
  0
LINE
  8
16_10
  6
CONTINUOUS
 62
4
 10
1111.6800
 20
695.4192
 11
1132.2570
 21
695.4192
  0
LINE
  8
16_10
  6
CONTINUOUS
 62
4
 10
1117.0468
 20
695.8242
 11
1136.0370
 21
695.8242
  0
LINE
  8
16_10
  6
CONTINUOUS
 62
4
 10
1136.0370
 20
695.8242
 11
1138.5018
 21
695.4586
  0
LINE
  8
16_10
  6
CONTINUOUS
 62
4
 10
1139.4565
 20
689.3267
 11
1139.5763
 21
694.1708
  0
LINE
  8
16_10
  6
CONTINUOUS
 62
4
 10
1139.1797
 20
688.6721
 11
1139.1637
 21
687.1349
  0
LINE
  8
16_10
  6
CONTINUOUS
 62
4
 10
1111.1886
 20
695.3821
 11
1117.0468
 21
695.8242
  0
LINE
  8
16_10
  6
CONTINUOUS
 62
4
 10
1134.8137
 20
686.6895
 11
1134.2740
 21
686.7072
  0
LINE
  8
16_10
  6
CONTINUOUS
 62
4
 10
1134.6611
 20
695.0626
 11
1132.2570
 21
695.4192
  0
LINE
  8
16_10
  6
CONTINUOUS
 62
4
 10
1135.4927
 20
694.0662
 11
1135.3766
 21
689.3375
  0
LINE
  8
16_10
  6
CONTINUOUS
 62
4
 10
1135.0829
 20
687.1158
 11
1135.1007
 21
688.7065
  0
LINE
  8
16_10
  6
CONTINUOUS
 62
4
 10
1134.8142
 20
686.6895
 11
1138.5603
 21
686.5695
  0
LINE
  8
0_00
  6
CONTINUOUS
 62
6
 10
1138.8818
 20
688.6721
 11
1135.2799
 21
688.6721
  0
LINE
  8
15_0F
  6
CONTINUOUS
 62
4
 10
1137.0419
 20
686.6181
 11
1137.0419
 21
560.1194
  0
LINE
  8
0_00
  6
CONTINUOUS
 62
2
 10
1128.3645
 20
359.0623
 11
863.0763
 21
359.0623
  0
LINE
  8
0_00
  6
CONTINUOUS
 62
2
 10
854.9180
 20
233.0623
 11
1128.3645
 21
233.0623
  0
LINE
  8
15_0F
  6
CONTINUOUS
 62
6
 10
265.4002
 20
429.6748
 11
188.0021
 21
352.2767
  0
LINE
  8
15_0F
  6
CONTINUOUS
 62
6
 10
265.4002
 20
429.6748
 11
259.1101
 21
425.5900
  0
LINE
  8
15_0F
  6
CONTINUOUS
 62
6
 10
265.4002
 20
429.6748
 11
261.3154
 21
423.3847
  0
LINE
  8
15_0F
  6
CONTINUOUS
 62
6
 10
188.0021
 20
352.2767
 11
110.0021
 21
352.2767
  0
LINE
  8
15_0F
  6
CONTINUOUS
 62
2
 10
577.7748
 20
694.6684
 11
1135.3091
 21
694.6684
  0
LINE
  8
0_00
  6
CONTINUOUS
 62
3
 10
547.4110
 20
97.2001
 11
547.4110
 21
37.2000
  0
LINE
  8
0_00
  6
CONTINUOUS
 62
7
 10
54.6905
 20
112.2001
 11
1218.5110
 21
112.2001
  0
LINE
  8
0_00
  6
CONTINUOUS
 62
3
 10
1218.5110
 20
851.7001
 11
1218.5110
 21
865.2001
  0
LINE
  8
0_00
  6
CONTINUOUS
 62
7
 10
1218.5110
 20
37.2000
 11
1218.5110
 21
851.7001
  0
LINE
  8
0_00
  6
CONTINUOUS
 62
3
 10
54.6905
 20
851.7001
 11
54.6905
 21
865.2001
  0
LINE
  8
0_00
  6
CONTINUOUS
 62
7
 10
54.6905
 20
37.2000
 11
54.6905
 21
851.7001
  0
LINE
  8
0_00
  6
CONTINUOUS
 62
7
 10
54.6905
 20
851.7001
 11
1218.5110
 21
851.7001
  0
LINE
  8
0_00
  6
CONTINUOUS
 62
7
 10
54.6905
 20
37.2000
 11
1218.5110
 21
37.2000
  0
LINE
  8
0_00
  6
CONTINUOUS
 62
3
 10
39.6905
 20
22.2000
 11
39.6905
 21
865.2001
  0
LINE
  8
0_00
  6
CONTINUOUS
 62
3
 10
1233.5110
 20
22.2000
 11
1233.5110
 21
865.2001
  0
LINE
  8
0_00
  6
CONTINUOUS
 62
3
 10
39.6905
 20
865.2001
 11
1233.5110
 21
865.2001
  0
LINE
  8
0_00
  6
CONTINUOUS
 62
3
 10
1070.6111
 20
37.2000
 11
1070.6111
 21
112.2001
  0
LINE
  8
0_00
  6
CONTINUOUS
 62
3
 10
54.6905
 20
97.2001
 11
812.7610
 21
97.2001
  0
LINE
  8
0_00
  6
CONTINUOUS
 62
7
 10
812.7610
 20
97.2001
 11
1218.5110
 21
97.2001
  0
LINE
  8
0_00
  6
CONTINUOUS
 62
3
 10
1070.6111
 20
67.2000
 11
1218.5110
 21
67.2000
  0
LINE
  8
0_00
  6
CONTINUOUS
 62
3
 10
1100.6111
 20
112.2001
 11
1100.6111
 21
97.2001
  0
LINE
  8
0_00
  6
CONTINUOUS
 62
3
 10
812.7610
 20
37.2000
 11
812.7610
 21
97.2001
  0
LINE
  8
0_00
  6
CONTINUOUS
 62
7
 10
812.7610
 20
97.2001
 11
812.7610
 21
112.2001
  0
LINE
  8
0_00
  6
CONTINUOUS
 62
3
 10
836.7610
 20
97.2001
 11
836.7610
 21
112.2001
  0
LINE
  8
0_00
  6
CONTINUOUS
 62
3
 10
912.5110
 20
37.2000
 11
912.5110
 21
112.2001
  0
LINE
  8
0_00
  6
CONTINUOUS
 62
3
 10
1004.6111
 20
97.2001
 11
1004.6111
 21
112.2001
  0
LINE
  8
0_00
  6
CONTINUOUS
 62
3
 10
1032.2110
 20
37.2000
 11
1032.2110
 21
97.2001
  0
LINE
  8
0_00
  6
CONTINUOUS
 62
3
 10
995.9110
 20
37.2000
 11
995.9110
 21
97.2001
  0
LINE
  8
0_00
  6
CONTINUOUS
 62
3
 10
959.6110
 20
37.2000
 11
959.6110
 21
97.2001
  0
LINE
  8
0_00
  6
CONTINUOUS
 62
3
 10
468.6610
 20
37.2000
 11
468.6610
 21
112.2001
  0
LINE
  8
0_00
  6
CONTINUOUS
 62
3
 10
626.1610
 20
37.2000
 11
626.1610
 21
97.2001
  0
LINE
  8
0_00
  6
CONTINUOUS
 62
3
 10
54.6905
 20
82.2001
 11
468.6610
 21
82.2001
  0
LINE
  8
0_00
  6
CONTINUOUS
 62
3
 10
54.6905
 20
67.2000
 11
912.5110
 21
67.2000
  0
LINE
  8
0_00
  6
CONTINUOUS
 62
3
 10
174.6905
 20
52.2000
 11
468.6610
 21
52.2000
  0
LINE
  8
0_00
  6
CONTINUOUS
 62
7
 10
54.6905
 20
52.2000
 11
174.6905
 21
52.2000
  0
LINE
  8
0_00
  6
CONTINUOUS
 62
3
 10
818.0110
 20
851.7001
 11
818.0110
 21
865.2001
  0
LINE
  8
0_00
  6
CONTINUOUS
 62
3
 10
788.0110
 20
851.7001
 11
788.0110
 21
865.2001
  0
LINE
  8
0_00
  6
CONTINUOUS
 62
3
 10
204.6905
 20
851.7001
 11
204.6905
 21
865.2001
  0
LINE
  8
0_00
  6
CONTINUOUS
 62
3
 10
854.0110
 20
851.7001
 11
854.0110
 21
865.2001
  0
LINE
  8
0_00
  6
CONTINUOUS
 62
3
 10
915.5110
 20
851.7001
 11
915.5110
 21
865.2001
  0
LINE
  8
0_00
  6
CONTINUOUS
 62
3
 10
1146.5110
 20
851.7001
 11
1146.5110
 21
865.2001
  0
LINE
  8
0_00
  6
CONTINUOUS
 62
3
 10
114.6905
 20
112.2001
 11
114.6905
 21
37.2000
  0
LINE
  8
0_00
  6
CONTINUOUS
 62
7
 10
174.6905
 20
112.2001
 11
174.6905
 21
37.2000
  0
LINE
  8
0_00
  6
CONTINUOUS
 62
3
 10
869.7610
 20
67.2000
 11
869.7610
 21
97.2001
  0
LINE
  8
0_00
  6
CONTINUOUS
 62
3
 10
893.7610
 20
112.2001
 11
893.7610
 21
97.2001
  0
LINE
  8
0_00
  6
CONTINUOUS
 62
3
 10
912.5110
 20
82.2001
 11
1070.6111
 21
82.2001
  0
LINE
  8
0_00
  6
CONTINUOUS
 62
3
 10
1076.6111
 20
71.7000
 11
1078.5610
 21
71.7000
  0
LINE
  8
0_00
  6
CONTINUOUS
 62
3
 10
1078.5610
 20
71.7000
 11
1078.5610
 21
91.2000
  0
LINE
  8
0_00
  6
CONTINUOUS
 62
3
 10
1078.5610
 20
91.2000
 11
1076.6111
 21
91.2000
  0
LINE
  8
0_00
  6
CONTINUOUS
 62
3
 10
1076.6111
 20
71.7000
 11
1076.6111
 21
91.2000
  0
LINE
  8
0_00
  6
CONTINUOUS
 62
3
 10
1079.3410
 20
71.7000
 11
1081.2911
 21
71.7000
  0
LINE
  8
0_00
  6
CONTINUOUS
 62
3
 10
1081.2911
 20
71.7000
 11
1081.2911
 21
91.2000
  0
LINE
  8
0_00
  6
CONTINUOUS
 62
3
 10
1081.2911
 20
91.2000
 11
1079.3410
 21
91.2000
  0
LINE
  8
0_00
  6
CONTINUOUS
 62
3
 10
1079.3410
 20
71.7000
 11
1079.3410
 21
91.2000
  0
LINE
  8
0_00
  6
CONTINUOUS
 62
3
 10
1082.0711
 20
71.7000
 11
1084.0210
 21
71.7000
  0
LINE
  8
0_00
  6
CONTINUOUS
 62
3
 10
1084.0210
 20
71.7000
 11
1084.0210
 21
91.2000
  0
LINE
  8
0_00
  6
CONTINUOUS
 62
3
 10
1084.0210
 20
91.2000
 11
1082.0711
 21
91.2000
  0
LINE
  8
0_00
  6
CONTINUOUS
 62
3
 10
1082.0711
 20
71.7000
 11
1082.0711
 21
91.2000
  0
LINE
  8
0_00
  6
CONTINUOUS
 62
3
 10
1084.8010
 20
71.7000
 11
1086.7511
 21
71.7000
  0
LINE
  8
0_00
  6
CONTINUOUS
 62
3
 10
1086.7511
 20
91.2000
 11
1084.8010
 21
91.2000
  0
LINE
  8
0_00
  6
CONTINUOUS
 62
3
 10
1084.8010
 20
71.7000
 11
1084.8010
 21
91.2000
  0
LINE
  8
0_00
  6
CONTINUOUS
 62
3
 10
1092.4061
 20
71.7000
 11
1100.0110
 21
71.7000
  0
LINE
  8
0_00
  6
CONTINUOUS
 62
3
 10
1100.0110
 20
71.7000
 11
1100.0110
 21
73.4550
  0
LINE
  8
0_00
  6
CONTINUOUS
 62
3
 10
1100.0110
 20
73.4550
 11
1092.4061
 21
73.4550
  0
LINE
  8
0_00
  6
CONTINUOUS
 62
3
 10
1092.4061
 20
73.4550
 11
1092.4061
 21
71.7000
  0
LINE
  8
0_00
  6
CONTINUOUS
 62
3
 10
1092.4061
 20
74.2350
 11
1100.0110
 21
74.2350
  0
LINE
  8
0_00
  6
CONTINUOUS
 62
3
 10
1100.0110
 20
74.2350
 11
1100.0110
 21
75.9900
  0
LINE
  8
0_00
  6
CONTINUOUS
 62
3
 10
1100.0110
 20
75.9900
 11
1092.4061
 21
75.9900
  0
LINE
  8
0_00
  6
CONTINUOUS
 62
3
 10
1092.4061
 20
75.9900
 11
1092.4061
 21
74.2350
  0
LINE
  8
0_00
  6
CONTINUOUS
 62
3
 10
1092.4061
 20
76.7700
 11
1100.0110
 21
76.7700
  0
LINE
  8
0_00
  6
CONTINUOUS
 62
3
 10
1100.0110
 20
76.7700
 11
1100.0110
 21
78.5250
  0
LINE
  8
0_00
  6
CONTINUOUS
 62
3
 10
1100.0110
 20
78.5250
 11
1092.4061
 21
78.5250
  0
LINE
  8
0_00
  6
CONTINUOUS
 62
3
 10
1092.4061
 20
78.5250
 11
1092.4061
 21
76.7700
  0
LINE
  8
0_00
  6
CONTINUOUS
 62
3
 10
1092.4061
 20
79.3050
 11
1100.0110
 21
79.3050
  0
LINE
  8
0_00
  6
CONTINUOUS
 62
3
 10
1100.0110
 20
79.3050
 11
1100.0110
 21
81.0600
  0
LINE
  8
0_00
  6
CONTINUOUS
 62
3
 10
1100.0110
 20
81.0600
 11
1092.4061
 21
81.0600
  0
LINE
  8
0_00
  6
CONTINUOUS
 62
3
 10
1092.4061
 20
81.0600
 11
1092.4061
 21
79.3050
  0
LINE
  8
0_00
  6
CONTINUOUS
 62
3
 10
1092.4061
 20
81.8401
 11
1100.0110
 21
81.8401
  0
LINE
  8
0_00
  6
CONTINUOUS
 62
3
 10
1100.0110
 20
81.8401
 11
1100.0110
 21
83.5950
  0
LINE
  8
0_00
  6
CONTINUOUS
 62
3
 10
1100.0110
 20
83.5950
 11
1092.4061
 21
83.5950
  0
LINE
  8
0_00
  6
CONTINUOUS
 62
3
 10
1092.4061
 20
83.5950
 11
1092.4061
 21
81.8401
  0
LINE
  8
0_00
  6
CONTINUOUS
 62
3
 10
1092.4061
 20
84.3751
 11
1100.0110
 21
84.3751
  0
LINE
  8
0_00
  6
CONTINUOUS
 62
3
 10
1100.0110
 20
84.3751
 11
1100.0110
 21
86.1300
  0
LINE
  8
0_00
  6
CONTINUOUS
 62
3
 10
1100.0110
 20
86.1300
 11
1092.4061
 21
86.1300
  0
LINE
  8
0_00
  6
CONTINUOUS
 62
3
 10
1092.4061
 20
86.1300
 11
1092.4061
 21
84.3751
  0
LINE
  8
0_00
  6
CONTINUOUS
 62
3
 10
1092.4061
 20
86.9101
 11
1100.0110
 21
86.9101
  0
LINE
  8
0_00
  6
CONTINUOUS
 62
3
 10
1100.0110
 20
86.9101
 11
1100.0110
 21
88.6650
  0
LINE
  8
0_00
  6
CONTINUOUS
 62
3
 10
1100.0110
 20
88.6650
 11
1092.4061
 21
88.6650
  0
LINE
  8
0_00
  6
CONTINUOUS
 62
3
 10
1092.4061
 20
88.6650
 11
1092.4061
 21
86.9101
  0
LINE
  8
0_00
  6
CONTINUOUS
 62
3
 10
1092.4061
 20
89.4451
 11
1100.0110
 21
89.4451
  0
LINE
  8
0_00
  6
CONTINUOUS
 62
3
 10
1100.0110
 20
89.4451
 11
1100.0110
 21
91.2000
  0
LINE
  8
0_00
  6
CONTINUOUS
 62
3
 10
1100.0110
 20
91.2000
 11
1092.4061
 21
91.2000
  0
LINE
  8
0_00
  6
CONTINUOUS
 62
3
 10
1092.4061
 20
91.2000
 11
1092.4061
 21
89.4451
  0
LINE
  8
0_00
  6
CONTINUOUS
 62
3
 10
1087.5311
 20
71.7000
 11
1087.5311
 21
77.0626
  0
LINE
  8
0_00
  6
CONTINUOUS
 62
3
 10
1088.8375
 20
72.7725
 11
1088.8375
 21
77.0626
  0
LINE
  8
0_00
  6
CONTINUOUS
 62
3
 10
1087.5311
 20
71.7000
 11
1089.6760
 21
71.7000
  0
LINE
  8
0_00
  6
CONTINUOUS
 62
3
 10
1088.8375
 20
72.7725
 11
1089.6760
 21
72.7725
  0
LINE
  8
0_00
  6
CONTINUOUS
 62
3
 10
1089.6050
 20
79.8056
 11
1090.4561
 21
78.1351
  0
LINE
  8
0_00
  6
CONTINUOUS
 62
3
 10
1090.9410
 20
82.5453
 11
1089.6047
 21
79.8055
  0
LINE
  8
0_00
  6
CONTINUOUS
 62
3
 10
1086.7511
 20
85.3501
 11
1086.7511
 21
91.2000
  0
LINE
  8
0_00
  6
CONTINUOUS
 62
3
 10
1086.7511
 20
85.3501
 11
1089.1886
 21
85.3501
  0
LINE
  8
0_00
  6
CONTINUOUS
 62
3
 10
1086.7511
 20
84.1801
 11
1087.8333
 21
84.1801
  0
LINE
  8
0_00
  6
CONTINUOUS
 62
3
 10
1086.7511
 20
78.1351
 11
1090.4561
 21
78.1351
  0
LINE
  8
0_00
  6
CONTINUOUS
 62
3
 10
1086.7511
 20
81.9611
 11
1087.8334
 21
84.1801
  0
LINE
  8
0_00
  6
CONTINUOUS
 62
3
 10
1086.7511
 20
81.9613
 11
1086.7511
 21
84.1801
  0
LINE
  8
0_00
  6
CONTINUOUS
 62
3
 10
1086.7511
 20
78.1351
 11
1086.7511
 21
71.7000
  0
LINE
  8
0_00
  6
CONTINUOUS
 62
3
 10
1076.9110
 20
91.2000
 11
1076.9110
 21
71.7000
  0
LINE
  8
0_00
  6
CONTINUOUS
 62
3
 10
1077.2110
 20
91.2000
 11
1077.2110
 21
71.7000
  0
LINE
  8
0_00
  6
CONTINUOUS
 62
3
 10
1077.5110
 20
91.2000
 11
1077.5110
 21
71.7000
  0
LINE
  8
0_00
  6
CONTINUOUS
 62
3
 10
1077.8109
 20
91.2000
 11
1077.8109
 21
71.7000
  0
LINE
  8
0_00
  6
CONTINUOUS
 62
3
 10
1078.1111
 20
91.2000
 11
1078.1111
 21
71.7000
  0
LINE
  8
0_00
  6
CONTINUOUS
 62
3
 10
1079.6411
 20
91.2000
 11
1079.6411
 21
71.7000
  0
LINE
  8
0_00
  6
CONTINUOUS
 62
3
 10
1079.9410
 20
91.2000
 11
1079.9410
 21
71.7000
  0
LINE
  8
0_00
  6
CONTINUOUS
 62
3
 10
1080.2410
 20
91.2000
 11
1080.2410
 21
71.7000
  0
LINE
  8
0_00
  6
CONTINUOUS
 62
3
 10
1080.5410
 20
91.2000
 11
1080.5410
 21
71.7000
  0
LINE
  8
0_00
  6
CONTINUOUS
 62
3
 10
1080.8410
 20
91.2000
 11
1080.8410
 21
71.7000
  0
LINE
  8
0_00
  6
CONTINUOUS
 62
3
 10
1081.1411
 20
91.2000
 11
1081.1411
 21
71.7000
  0
LINE
  8
0_00
  6
CONTINUOUS
 62
3
 10
1082.3709
 20
91.2000
 11
1082.3709
 21
71.7000
  0
LINE
  8
0_00
  6
CONTINUOUS
 62
3
 10
1082.6711
 20
91.2000
 11
1082.6711
 21
71.7000
  0
LINE
  8
0_00
  6
CONTINUOUS
 62
3
 10
1082.9711
 20
91.2000
 11
1082.9711
 21
71.7000
  0
LINE
  8
0_00
  6
CONTINUOUS
 62
3
 10
1083.2710
 20
91.2000
 11
1083.2710
 21
71.7000
  0
LINE
  8
0_00
  6
CONTINUOUS
 62
3
 10
1083.5711
 20
91.2000
 11
1083.5711
 21
71.7000
  0
LINE
  8
0_00
  6
CONTINUOUS
 62
3
 10
1083.8709
 20
91.2000
 11
1083.8709
 21
71.7000
  0
LINE
  8
0_00
  6
CONTINUOUS
 62
3
 10
1092.4061
 20
72.0001
 11
1100.0110
 21
72.0001
  0
LINE
  8
0_00
  6
CONTINUOUS
 62
3
 10
1092.4061
 20
72.3001
 11
1100.0110
 21
72.3001
  0
LINE
  8
0_00
  6
CONTINUOUS
 62
3
 10
1092.4061
 20
72.6000
 11
1100.0110
 21
72.6000
  0
LINE
  8
0_00
  6
CONTINUOUS
 62
3
 10
1092.4061
 20
72.9000
 11
1100.0110
 21
72.9000
  0
LINE
  8
0_00
  6
CONTINUOUS
 62
3
 10
1092.4061
 20
73.2000
 11
1100.0110
 21
73.2000
  0
LINE
  8
0_00
  6
CONTINUOUS
 62
3
 10
1092.4061
 20
74.5351
 11
1100.0110
 21
74.5351
  0
LINE
  8
0_00
  6
CONTINUOUS
 62
3
 10
1092.4061
 20
74.8351
 11
1100.0110
 21
74.8351
  0
LINE
  8
0_00
  6
CONTINUOUS
 62
3
 10
1092.4061
 20
75.1350
 11
1100.0110
 21
75.1350
  0
LINE
  8
0_00
  6
CONTINUOUS
 62
3
 10
1092.4061
 20
75.4350
 11
1100.0110
 21
75.4350
  0
LINE
  8
0_00
  6
CONTINUOUS
 62
3
 10
1092.4061
 20
75.7350
 11
1100.0110
 21
75.7350
  0
LINE
  8
0_00
  6
CONTINUOUS
 62
3
 10
1092.4061
 20
77.0701
 11
1100.0110
 21
77.0701
  0
LINE
  8
0_00
  6
CONTINUOUS
 62
3
 10
1092.4061
 20
77.3701
 11
1100.0110
 21
77.3701
  0
LINE
  8
0_00
  6
CONTINUOUS
 62
3
 10
1092.4061
 20
77.6700
 11
1100.0110
 21
77.6700
  0
LINE
  8
0_00
  6
CONTINUOUS
 62
3
 10
1092.4061
 20
77.9700
 11
1100.0110
 21
77.9700
  0
LINE
  8
0_00
  6
CONTINUOUS
 62
3
 10
1092.4061
 20
78.2701
 11
1100.0110
 21
78.2701
  0
LINE
  8
0_00
  6
CONTINUOUS
 62
3
 10
1092.4061
 20
79.6051
 11
1100.0110
 21
79.6051
  0
LINE
  8
0_00
  6
CONTINUOUS
 62
3
 10
1092.4061
 20
79.9051
 11
1100.0110
 21
79.9051
  0
LINE
  8
0_00
  6
CONTINUOUS
 62
3
 10
1092.4061
 20
80.2050
 11
1100.0110
 21
80.2050
  0
LINE
  8
0_00
  6
CONTINUOUS
 62
3
 10
1092.4061
 20
80.5050
 11
1100.0110
 21
80.5050
  0
LINE
  8
0_00
  6
CONTINUOUS
 62
3
 10
1092.4061
 20
80.8051
 11
1100.0110
 21
80.8051
  0
LINE
  8
0_00
  6
CONTINUOUS
 62
3
 10
1092.4061
 20
82.1401
 11
1100.0110
 21
82.1401
  0
LINE
  8
0_00
  6
CONTINUOUS
 62
3
 10
1092.4061
 20
82.4401
 11
1100.0110
 21
82.4401
  0
LINE
  8
0_00
  6
CONTINUOUS
 62
3
 10
1092.4061
 20
82.7400
 11
1100.0110
 21
82.7400
  0
LINE
  8
0_00
  6
CONTINUOUS
 62
3
 10
1092.4061
 20
83.0400
 11
1100.0110
 21
83.0400
  0
LINE
  8
0_00
  6
CONTINUOUS
 62
3
 10
1092.4061
 20
83.3401
 11
1100.0110
 21
83.3401
  0
LINE
  8
0_00
  6
CONTINUOUS
 62
3
 10
1100.0110
 20
84.6751
 11
1092.4061
 21
84.6751
  0
LINE
  8
0_00
  6
CONTINUOUS
 62
3
 10
1100.0110
 20
84.9751
 11
1092.4061
 21
84.9751
  0
LINE
  8
0_00
  6
CONTINUOUS
 62
3
 10
1100.0110
 20
85.2750
 11
1092.4061
 21
85.2750
  0
LINE
  8
0_00
  6
CONTINUOUS
 62
3
 10
1100.0110
 20
85.5750
 11
1092.4061
 21
85.5750
  0
LINE
  8
0_00
  6
CONTINUOUS
 62
3
 10
1100.0110
 20
85.8751
 11
1092.4061
 21
85.8751
  0
LINE
  8
0_00
  6
CONTINUOUS
 62
3
 10
1092.4061
 20
87.2101
 11
1100.0110
 21
87.2101
  0
LINE
  8
0_00
  6
CONTINUOUS
 62
3
 10
1092.4061
 20
87.5101
 11
1100.0110
 21
87.5101
  0
LINE
  8
0_00
  6
CONTINUOUS
 62
3
 10
1092.4061
 20
87.8100
 11
1100.0110
 21
87.8100
  0
LINE
  8
0_00
  6
CONTINUOUS
 62
3
 10
1092.4061
 20
88.1100
 11
1100.0110
 21
88.1100
  0
LINE
  8
0_00
  6
CONTINUOUS
 62
3
 10
1092.4061
 20
88.4101
 11
1100.0110
 21
88.4101
  0
LINE
  8
0_00
  6
CONTINUOUS
 62
3
 10
1092.4061
 20
89.7451
 11
1100.0110
 21
89.7451
  0
LINE
  8
0_00
  6
CONTINUOUS
 62
3
 10
1092.4061
 20
90.0451
 11
1100.0110
 21
90.0451
  0
LINE
  8
0_00
  6
CONTINUOUS
 62
3
 10
1092.4061
 20
90.3450
 11
1100.0110
 21
90.3450
  0
LINE
  8
0_00
  6
CONTINUOUS
 62
3
 10
1092.4061
 20
90.6450
 11
1100.0110
 21
90.6450
  0
LINE
  8
0_00
  6
CONTINUOUS
 62
3
 10
1092.4061
 20
90.9451
 11
1100.0110
 21
90.9451
  0
LINE
  8
0_00
  6
CONTINUOUS
 62
3
 10
1085.1010
 20
91.2000
 11
1085.1010
 21
71.7000
  0
LINE
  8
0_00
  6
CONTINUOUS
 62
3
 10
1085.4011
 20
91.2000
 11
1085.4011
 21
71.7000
  0
LINE
  8
0_00
  6
CONTINUOUS
 62
3
 10
1085.7009
 20
91.2000
 11
1085.7009
 21
71.7000
  0
LINE
  8
0_00
  6
CONTINUOUS
 62
3
 10
1086.0008
 20
91.2000
 11
1086.0008
 21
71.7000
  0
LINE
  8
0_00
  6
CONTINUOUS
 62
3
 10
1086.3010
 20
91.2000
 11
1086.3010
 21
71.7000
  0
LINE
  8
0_00
  6
CONTINUOUS
 62
3
 10
1086.6010
 20
91.2000
 11
1086.6010
 21
71.7000
  0
LINE
  8
0_00
  6
CONTINUOUS
 62
3
 10
1087.8311
 20
71.7000
 11
1087.8311
 21
77.0626
  0
LINE
  8
0_00
  6
CONTINUOUS
 62
3
 10
1088.1312
 20
71.7000
 11
1088.1312
 21
77.0626
  0
LINE
  8
0_00
  6
CONTINUOUS
 62
3
 10
1088.4310
 20
71.7000
 11
1088.4310
 21
77.0626
  0
LINE
  8
0_00
  6
CONTINUOUS
 62
3
 10
1088.7309
 20
71.7000
 11
1088.7309
 21
77.0626
  0
LINE
  8
0_00
  6
CONTINUOUS
 62
3
 10
1088.8375
 20
72.4725
 11
1089.6760
 21
72.4725
  0
LINE
  8
0_00
  6
CONTINUOUS
 62
3
 10
1088.8375
 20
72.1725
 11
1089.6760
 21
72.1725
  0
LINE
  8
0_00
  6
CONTINUOUS
 62
3
 10
1088.8375
 20
71.8725
 11
1089.6760
 21
71.8725
  0
LINE
  8
0_00
  6
CONTINUOUS
 62
3
 10
1090.2825
 20
78.4758
 11
1086.7853
 21
78.4758
  0
LINE
  8
0_00
  6
CONTINUOUS
 62
3
 10
1090.1032
 20
78.8278
 11
1086.7853
 21
78.8278
  0
LINE
  8
0_00
  6
CONTINUOUS
 62
3
 10
1089.8939
 20
79.2384
 11
1086.7779
 21
79.2384
  0
LINE
  8
0_00
  6
CONTINUOUS
 62
3
 10
1089.7204
 20
79.5787
 11
1086.7744
 21
79.5787
  0
LINE
  8
0_00
  6
CONTINUOUS
 62
3
 10
1091.0859
 20
83.5262
 11
1089.1502
 21
79.5579
  0
LINE
  8
0_00
  6
CONTINUOUS
 62
3
 10
1090.9896
 20
84.0133
 11
1088.8107
 21
79.5458
  0
LINE
  8
0_00
  6
CONTINUOUS
 62
3
 10
1090.8083
 20
84.3258
 11
1088.4914
 21
79.5758
  0
LINE
  8
0_00
  6
CONTINUOUS
 62
3
 10
1090.6029
 20
84.5893
 11
1088.1454
 21
79.5508
  0
LINE
  8
0_00
  6
CONTINUOUS
 62
3
 10
1090.4008
 20
84.8596
 11
1087.8790
 21
79.6887
  0
LINE
  8
0_00
  6
CONTINUOUS
 62
3
 10
1090.1371
 20
85.0026
 11
1087.4908
 21
79.5774
  0
LINE
  8
0_00
  6
CONTINUOUS
 62
3
 10
1089.8761
 20
85.1521
 11
1087.1534
 21
79.5697
  0
LINE
  8
0_00
  6
CONTINUOUS
 62
3
 10
1089.5665
 20
85.2017
 11
1086.8386
 21
79.6087
  0
LINE
  8
0_00
  6
CONTINUOUS
 62
3
 10
1089.2498
 20
85.2367
 11
1086.7053
 21
80.0197
  0
LINE
  8
0_00
  6
CONTINUOUS
 62
3
 10
1088.9374
 20
85.2802
 11
1086.7329
 21
80.7607
  0
LINE
  8
0_00
  6
CONTINUOUS
 62
3
 10
1088.5957
 20
85.2643
 11
1086.6388
 21
81.2521
  0
LINE
  8
0_00
  6
CONTINUOUS
 62
3
 10
1087.9926
 20
84.4801
 11
1086.7511
 21
84.4801
  0
LINE
  8
0_00
  6
CONTINUOUS
 62
3
 10
1088.2355
 20
84.7801
 11
1086.7511
 21
84.7801
  0
LINE
  8
0_00
  6
CONTINUOUS
 62
3
 10
1088.3496
 20
85.0800
 11
1086.7511
 21
85.0800
  0
LINE
  8
0_00
  6
CONTINUOUS
 62
3
 10
796.2610
 20
852.4893
 11
809.7610
 21
852.4893
  0
LINE
  8
0_00
  6
CONTINUOUS
 62
3
 10
797.1685
 20
854.0609
 11
796.2610
 21
852.4893
  0
LINE
  8
0_00
  6
CONTINUOUS
 62
3
 10
800.8929
 20
860.5119
 11
803.0110
 21
864.1806
  0
LINE
  8
0_00
  6
CONTINUOUS
 62
3
 10
808.8538
 20
854.0609
 11
809.7610
 21
852.4893
  0
LINE
  8
0_00
  6
CONTINUOUS
 62
3
 10
805.1292
 20
860.5119
 11
803.0110
 21
864.1806
  0
LINE
  8
0_00
  6
CONTINUOUS
 62
3
 10
1218.5110
 20
154.2001
 11
1221.5110
 21
154.2001
  0
LINE
  8
0_00
  6
CONTINUOUS
 62
3
 10
1218.5110
 20
175.2001
 11
1221.5110
 21
175.2001
  0
LINE
  8
0_00
  6
CONTINUOUS
 62
3
 10
1218.5110
 20
196.2001
 11
1221.5110
 21
196.2001
  0
LINE
  8
0_00
  6
CONTINUOUS
 62
3
 10
1218.5110
 20
217.2001
 11
1221.5110
 21
217.2001
  0
LINE
  8
0_00
  6
CONTINUOUS
 62
3
 10
1218.5110
 20
238.2001
 11
1221.5110
 21
238.2001
  0
LINE
  8
0_00
  6
CONTINUOUS
 62
3
 10
1218.5110
 20
259.2001
 11
1221.5110
 21
259.2001
  0
LINE
  8
0_00
  6
CONTINUOUS
 62
3
 10
1218.5110
 20
280.2001
 11
1221.5110
 21
280.2001
  0
LINE
  8
0_00
  6
CONTINUOUS
 62
3
 10
1218.5110
 20
301.2001
 11
1221.5110
 21
301.2001
  0
LINE
  8
0_00
  6
CONTINUOUS
 62
3
 10
1218.5110
 20
322.2001
 11
1221.5110
 21
322.2001
  0
LINE
  8
0_00
  6
CONTINUOUS
 62
3
 10
1218.5110
 20
343.2001
 11
1221.5110
 21
343.2001
  0
LINE
  8
0_00
  6
CONTINUOUS
 62
3
 10
1218.5110
 20
364.2001
 11
1221.5110
 21
364.2001
  0
LINE
  8
0_00
  6
CONTINUOUS
 62
3
 10
1218.5110
 20
385.2001
 11
1221.5110
 21
385.2001
  0
LINE
  8
0_00
  6
CONTINUOUS
 62
3
 10
1218.5110
 20
406.2001
 11
1221.5110
 21
406.2001
  0
LINE
  8
0_00
  6
CONTINUOUS
 62
3
 10
1218.5110
 20
427.2001
 11
1221.5110
 21
427.2001
  0
LINE
  8
0_00
  6
CONTINUOUS
 62
3
 10
1218.5110
 20
448.2001
 11
1221.5110
 21
448.2001
  0
LINE
  8
0_00
  6
CONTINUOUS
 62
3
 10
1218.5110
 20
469.2001
 11
1221.5110
 21
469.2001
  0
LINE
  8
0_00
  6
CONTINUOUS
 62
3
 10
1218.5110
 20
490.2001
 11
1221.5110
 21
490.2001
  0
LINE
  8
0_00
  6
CONTINUOUS
 62
3
 10
1218.5110
 20
833.7001
 11
1221.5110
 21
833.7001
  0
LINE
  8
0_00
  6
CONTINUOUS
 62
3
 10
1218.5110
 20
815.7001
 11
1221.5110
 21
815.7001
  0
LINE
  8
0_00
  6
CONTINUOUS
 62
3
 10
1218.5110
 20
797.7001
 11
1221.5110
 21
797.7001
  0
LINE
  8
0_00
  6
CONTINUOUS
 62
3
 10
1218.5110
 20
779.7001
 11
1221.5110
 21
779.7001
  0
LINE
  8
0_00
  6
CONTINUOUS
 62
3
 10
1218.5110
 20
761.7001
 11
1221.5110
 21
761.7001
  0
LINE
  8
0_00
  6
CONTINUOUS
 62
3
 10
1218.5110
 20
743.7001
 11
1221.5110
 21
743.7001
  0
LINE
  8
0_00
  6
CONTINUOUS
 62
3
 10
1218.5110
 20
511.2001
 11
1221.5110
 21
511.2001
  0
LINE
  8
0_00
  6
CONTINUOUS
 62
3
 10
1218.5110
 20
532.2001
 11
1221.5110
 21
532.2001
  0
LINE
  8
0_00
  6
CONTINUOUS
 62
3
 10
1218.5110
 20
553.2001
 11
1221.5110
 21
553.2001
  0
LINE
  8
0_00
  6
CONTINUOUS
 62
3
 10
1218.5110
 20
574.2001
 11
1221.5110
 21
574.2001
  0
LINE
  8
0_00
  6
CONTINUOUS
 62
3
 10
1218.5110
 20
595.2001
 11
1221.5110
 21
595.2001
  0
LINE
  8
0_00
  6
CONTINUOUS
 62
3
 10
1218.5110
 20
616.2001
 11
1221.5110
 21
616.2001
  0
LINE
  8
0_00
  6
CONTINUOUS
 62
3
 10
1218.5110
 20
637.2000
 11
1221.5110
 21
637.2000
  0
LINE
  8
0_00
  6
CONTINUOUS
 62
3
 10
1218.5110
 20
658.2000
 11
1221.5110
 21
658.2000
  0
LINE
  8
0_00
  6
CONTINUOUS
 62
3
 10
1218.5110
 20
679.2000
 11
1221.5110
 21
679.2000
  0
LINE
  8
0_00
  6
CONTINUOUS
 62
3
 10
1218.5110
 20
700.2001
 11
1221.5110
 21
700.2001
  0
LINE
  8
0_00
  6
CONTINUOUS
 62
3
 10
1218.5110
 20
721.2001
 11
1221.5110
 21
721.2001
  0
LINE
  8
0_00
  6
CENTER1
 62
3
 10
881.0410
 20
73.2001
 11
881.0410
 21
91.2001
  0
LINE
  8
0_00
  6
CONTINUOUS
 62
4
 10
891.5411
 20
78.4501
 11
891.5411
 21
85.9501
  0
LINE
  8
0_00
  6
CONTINUOUS
 62
4
 10
905.0410
 20
76.2001
 11
905.0410
 21
88.2001
  0
LINE
  8
0_00
  6
CONTINUOUS
 62
4
 10
891.5411
 20
85.9501
 11
905.0410
 21
88.2001
  0
LINE
  8
0_00
  6
CONTINUOUS
 62
4
 10
891.5411
 20
78.4501
 11
905.0410
 21
76.2001
  0
LINE
  8
0_00
  6
CENTER1
 62
3
 10
872.0411
 20
82.2001
 11
907.3555
 21
82.2001
  0
LINE
  8
0_00
  6
CONTINUOUS
 62
3
 10
1191.5110
 20
37.2000
 11
1191.5110
 21
67.2000
  0
LINE
  8
0_00
  6
CONTINUOUS
 62
3
 10
39.6905
 20
22.2000
 11
1233.5110
 21
22.2000
  0
LINE
  8
0_00
  6
CONTINUOUS
 62
3
 10
1182.5110
 20
865.2001
 11
1182.5110
 21
851.7001
  0
LINE
  8
0_00
  6
CONTINUOUS
 62
3
 10
0.0000
 20
443.7000
 11
39.6905
 21
443.7000
  0
LINE
  8
0_00
  6
CONTINUOUS
 62
3
 10
626.1610
 20
22.2000
 11
626.1610
 21
0.0000
  0
LINE
  8
0_00
  6
CONTINUOUS
 62
3
 10
626.1610
 20
865.2001
 11
626.1610
 21
891.0000
  0
LINE
  8
0_00
  6
CONTINUOUS
 62
3
 10
1233.5110
 20
443.7000
 11
1260.0000
 21
443.7000
  0
LINE
  8
0_00
  6
CONTINUOUS
 62
6
 10
267.2000
 20
391.3326
 11
267.2000
 21
343.7439
  0
LINE
  8
0_00
  6
CONTINUOUS
 62
6
 10
323.2000
 20
391.3326
 11
323.2000
 21
343.7439
  0
LINE
  8
0_00
  6
CONTINUOUS
 62
6
 10
267.2000
 20
349.7440
 11
323.2000
 21
349.7440
  0
LINE
  8
0_00
  6
CONTINUOUS
 62
6
 10
267.2000
 20
349.7440
 11
274.5361
 21
348.1846
  0
LINE
  8
0_00
  6
CONTINUOUS
 62
6
 10
267.2000
 20
349.7440
 11
274.5361
 21
351.3033
  0
LINE
  8
0_00
  6
CONTINUOUS
 62
6
 10
323.2000
 20
349.7440
 11
315.8639
 21
351.3033
  0
LINE
  8
0_00
  6
CONTINUOUS
 62
6
 10
323.2000
 20
349.7440
 11
315.8639
 21
348.1846
  0
LINE
  8
15_0F
  6
CONTINUOUS
 62
6
 10
624.0419
 20
744.9200
 11
624.0419
 21
792.7958
  0
LINE
  8
15_0F
  6
CONTINUOUS
 62
6
 10
586.5419
 20
744.9200
 11
586.5419
 21
792.7958
  0
LINE
  8
15_0F
  6
CONTINUOUS
 62
6
 10
586.5419
 20
786.7958
 11
624.0419
 21
786.7958
  0
LINE
  8
15_0F
  6
CONTINUOUS
 62
6
 10
779.0419
 20
744.9200
 11
779.0419
 21
792.7958
  0
LINE
  8
15_0F
  6
CONTINUOUS
 62
6
 10
624.0419
 20
786.7958
 11
779.0419
 21
786.7958
  0
LINE
  8
15_0F
  6
CONTINUOUS
 62
6
 10
624.0419
 20
786.7958
 11
631.3781
 21
785.2365
  0
LINE
  8
15_0F
  6
CONTINUOUS
 62
6
 10
624.0419
 20
786.7958
 11
631.3781
 21
788.3551
  0
LINE
  8
15_0F
  6
CONTINUOUS
 62
6
 10
779.0419
 20
786.7958
 11
771.7058
 21
788.3551
  0
LINE
  8
15_0F
  6
CONTINUOUS
 62
6
 10
779.0419
 20
786.7958
 11
771.7058
 21
785.2365
  0
LINE
  8
15_0F
  6
CONTINUOUS
 62
6
 10
934.0421
 20
744.9200
 11
934.0421
 21
792.7958
  0
LINE
  8
15_0F
  6
CONTINUOUS
 62
6
 10
779.0419
 20
786.7958
 11
934.0421
 21
786.7958
  0
LINE
  8
15_0F
  6
CONTINUOUS
 62
6
 10
779.0419
 20
786.7958
 11
786.3780
 21
785.2365
  0
LINE
  8
15_0F
  6
CONTINUOUS
 62
6
 10
779.0419
 20
786.7958
 11
786.3780
 21
788.3551
  0
LINE
  8
15_0F
  6
CONTINUOUS
 62
6
 10
934.0421
 20
786.7958
 11
926.7058
 21
788.3551
  0
LINE
  8
15_0F
  6
CONTINUOUS
 62
6
 10
934.0421
 20
786.7958
 11
926.7058
 21
785.2365
  0
LINE
  8
15_0F
  6
CONTINUOUS
 62
6
 10
1089.0419
 20
744.9200
 11
1089.0419
 21
792.7958
  0
LINE
  8
15_0F
  6
CONTINUOUS
 62
6
 10
934.0421
 20
786.7958
 11
1089.0419
 21
786.7958
  0
LINE
  8
15_0F
  6
CONTINUOUS
 62
6
 10
934.0421
 20
786.7958
 11
941.3781
 21
785.2365
  0
LINE
  8
15_0F
  6
CONTINUOUS
 62
6
 10
934.0421
 20
786.7958
 11
941.3781
 21
788.3551
  0
LINE
  8
15_0F
  6
CONTINUOUS
 62
6
 10
1089.0419
 20
786.7958
 11
1081.7058
 21
788.3551
  0
LINE
  8
15_0F
  6
CONTINUOUS
 62
6
 10
1089.0419
 20
786.7958
 11
1081.7058
 21
785.2365
  0
LINE
  8
15_0F
  6
CONTINUOUS
 62
6
 10
1126.5420
 20
744.9200
 11
1126.5420
 21
792.7958
  0
LINE
  8
15_0F
  6
CONTINUOUS
 62
6
 10
1089.0419
 20
786.7958
 11
1126.5420
 21
786.7958
  0
LINE
  8
15_0F
  6
CONTINUOUS
 62
6
 10
571.5419
 20
786.7958
 11
586.5419
 21
786.7958
  0
LINE
  8
15_0F
  6
CONTINUOUS
 62
6
 10
586.5419
 20
786.7958
 11
579.2059
 21
788.3551
  0
LINE
  8
15_0F
  6
CONTINUOUS
 62
6
 10
586.5419
 20
786.7958
 11
579.2059
 21
785.2365
  0
LINE
  8
15_0F
  6
CONTINUOUS
 62
6
 10
1141.5420
 20
786.7958
 11
1126.5420
 21
786.7958
  0
LINE
  8
15_0F
  6
CONTINUOUS
 62
6
 10
1126.5420
 20
786.7958
 11
1133.8781
 21
785.2365
  0
LINE
  8
15_0F
  6
CONTINUOUS
 62
6
 10
1126.5420
 20
786.7958
 11
1133.8781
 21
788.3551
  0
LINE
  8
15_0F
  6
CONTINUOUS
 62
6
 10
1136.8920
 20
725.1192
 11
1195.1883
 21
725.1192
  0
LINE
  8
15_0F
  6
CONTINUOUS
 62
6
 10
1151.2170
 20
695.2242
 11
1195.1883
 21
695.2242
  0
LINE
  8
15_0F
  6
CONTINUOUS
 62
6
 10
1189.1882
 20
725.1192
 11
1189.1882
 21
695.2242
  0
LINE
  8
15_0F
  6
CONTINUOUS
 62
6
 10
1189.1882
 20
743.1192
 11
1189.1882
 21
725.1192
  0
LINE
  8
15_0F
  6
CONTINUOUS
 62
6
 10
1189.1882
 20
725.1192
 11
1190.7477
 21
732.4553
  0
LINE
  8
15_0F
  6
CONTINUOUS
 62
6
 10
1189.1882
 20
725.1192
 11
1187.6288
 21
732.4553
  0
LINE
  8
15_0F
  6
CONTINUOUS
 62
6
 10
1189.1882
 20
677.2242
 11
1189.1882
 21
695.2242
  0
LINE
  8
15_0F
  6
CONTINUOUS
 62
6
 10
1189.1882
 20
695.2242
 11
1187.6288
 21
687.8881
  0
LINE
  8
15_0F
  6
CONTINUOUS
 62
6
 10
1189.1882
 20
695.2242
 11
1190.7477
 21
687.8881
  0
LINE
  8
15_0F
  6
CONTINUOUS
 62
6
 10
638.5039
 20
388.5682
 11
638.5039
 21
446.0000
  0
LINE
  8
15_0F
  6
CONTINUOUS
 62
6
 10
698.5040
 20
388.5682
 11
698.5040
 21
446.0000
  0
LINE
  8
15_0F
  6
CONTINUOUS
 62
6
 10
638.5039
 20
440.0000
 11
698.5040
 21
440.0000
  0
LINE
  8
15_0F
  6
CONTINUOUS
 62
6
 10
638.5039
 20
440.0000
 11
645.8400
 21
438.4407
  0
LINE
  8
15_0F
  6
CONTINUOUS
 62
6
 10
638.5039
 20
440.0000
 11
645.8400
 21
441.5593
  0
LINE
  8
15_0F
  6
CONTINUOUS
 62
6
 10
698.5040
 20
440.0000
 11
691.1678
 21
441.5593
  0
LINE
  8
15_0F
  6
CONTINUOUS
 62
6
 10
698.5040
 20
440.0000
 11
691.1678
 21
438.4407
  0
LINE
  8
15_0F
  6
CONTINUOUS
 62
6
 10
633.3052
 20
324.0623
 11
534.0000
 21
324.0623
  0
LINE
  8
15_0F
  6
CONTINUOUS
 62
6
 10
662.4195
 20
268.0623
 11
534.0000
 21
268.0623
  0
LINE
  8
15_0F
  6
CONTINUOUS
 62
6
 10
540.0000
 20
324.0623
 11
540.0000
 21
268.0623
  0
LINE
  8
15_0F
  6
CONTINUOUS
 62
6
 10
540.0000
 20
324.0623
 11
538.4407
 21
316.7262
  0
LINE
  8
15_0F
  6
CONTINUOUS
 62
6
 10
540.0000
 20
324.0623
 11
541.5593
 21
316.7262
  0
LINE
  8
15_0F
  6
CONTINUOUS
 62
6
 10
540.0000
 20
268.0623
 11
541.5593
 21
275.3985
  0
LINE
  8
15_0F
  6
CONTINUOUS
 62
6
 10
540.0000
 20
268.0623
 11
538.4407
 21
275.3985
  0
LINE
  8
15_0F
  6
CONTINUOUS
 62
4
 10
94.6046
 20
228.4110
 11
139.6046
 21
228.4110
  0
LINE
  8
15_0F
  6
CONTINUOUS
 62
4
 10
1056.4483
 20
522.0958
 11
1130.2483
 21
522.0958
  0
LINE
  8
15_0F
  6
CONTINUOUS
 62
6
 10
641.9355
 20
353.3623
 11
604.3947
 21
398.0495
  0
LINE
  8
15_0F
  6
CONTINUOUS
 62
6
 10
641.9355
 20
353.3623
 11
638.4105
 21
359.9824
  0
LINE
  8
15_0F
  6
CONTINUOUS
 62
6
 10
641.9355
 20
353.3623
 11
636.0228
 21
357.9764
  0
LINE
  8
15_0F
  6
CONTINUOUS
 62
6
 10
604.3947
 20
398.0495
 11
559.3947
 21
398.0495
  0
LINE
  8
15_0F
  6
CONTINUOUS
 62
6
 10
638.8447
 20
304.7721
 11
611.7843
 21
338.3649
  0
LINE
  8
15_0F
  6
CONTINUOUS
 62
6
 10
638.8447
 20
304.7721
 11
635.4570
 21
311.4634
  0
LINE
  8
15_0F
  6
CONTINUOUS
 62
6
 10
638.8447
 20
304.7721
 11
633.0283
 21
309.5069
  0
LINE
  8
15_0F
  6
CONTINUOUS
 62
6
 10
611.7843
 20
338.3649
 11
537.9843
 21
338.3649
  0
LINE
  8
15_0F
  6
CONTINUOUS
 62
4
 10
544.5400
 20
157.8600
 11
589.5400
 21
157.8600
  0
LINE
  8
0_00
  6
CONTINUOUS
 62
4
 10
295.0000
 20
464.8066
 11
233.0030
 21
464.8066
  0
LINE
  8
0_00
  6
CONTINUOUS
 62
4
 10
295.4000
 20
464.8066
 11
357.3970
 21
464.8066
  0
LINE
  8
0_00
  6
CONTINUOUS
 62
4
 10
357.3970
 20
466.3065
 11
233.0030
 21
466.3065
  0
LINE
  8
0_00
  6
CONTINUOUS
 62
4
 10
295.0000
 20
464.8066
 11
295.2000
 21
465.0066
  0
LINE
  8
0_00
  6
CONTINUOUS
 62
4
 10
295.2000
 20
465.0066
 11
295.4000
 21
464.8066
  0
LINE
  8
14_0E
  6
CONTINUOUS
 62
4
 10
212.7001
 20
458.1172
 11
212.9189
 21
426.7842
  0
LINE
  8
0_00
  6
CONTINUOUS
 62
4
 10
214.7166
 20
412.7975
 11
214.6466
 21
422.8201
  0
LINE
  8
0_00
  6
CONTINUOUS
 62
4
 10
216.0179
 20
412.6065
 11
215.9429
 21
423.3506
  0
LINE
  8
0_00
  6
CONTINUOUS
 62
4
 10
214.1736
 20
447.5935
 11
214.4757
 21
447.2956
  0
LINE
  8
0_00
  6
CONTINUOUS
 62
4
 10
214.1778
 20
446.9935
 11
214.4757
 21
447.2956
  0
LINE
  8
0_00
  6
CONTINUOUS
 62
4
 10
217.8519
 20
427.8130
 11
218.0588
 21
428.1772
  0
LINE
  8
0_00
  6
CONTINUOUS
 62
4
 10
218.0588
 20
428.1772
 11
216.7546
 21
428.9181
  0
LINE
  8
0_00
  6
CONTINUOUS
 62
4
 10
216.7546
 20
428.9181
 11
216.5477
 21
428.5540
  0
LINE
  8
0_00
  6
CONTINUOUS
 62
4
 10
215.4145
 20
428.2418
 11
215.0503
 21
428.4487
  0
LINE
  8
0_00
  6
CONTINUOUS
 62
4
 10
215.0503
 20
428.4487
 11
214.3094
 21
427.1444
  0
LINE
  8
0_00
  6
CONTINUOUS
 62
4
 10
214.3094
 20
427.1444
 11
214.6736
 21
426.9376
  0
LINE
  8
0_00
  6
CONTINUOUS
 62
4
 10
214.9857
 20
425.8044
 11
214.7788
 21
425.4402
  0
LINE
  8
0_00
  6
CONTINUOUS
 62
4
 10
214.7788
 20
425.4402
 11
216.0830
 21
424.6993
  0
LINE
  8
0_00
  6
CONTINUOUS
 62
4
 10
216.0830
 20
424.6993
 11
216.2899
 21
425.0635
  0
LINE
  8
0_00
  6
CONTINUOUS
 62
4
 10
219.1880
 20
427.6343
 11
218.8353
 21
427.0135
  0
LINE
  8
0_00
  6
CONTINUOUS
 62
4
 10
217.1276
 20
424.0073
 11
217.4802
 21
424.6281
  0
LINE
  8
0_00
  6
CONTINUOUS
 62
4
 10
217.7877
 20
464.0893
 11
231.4064
 21
466.1845
  0
LINE
  8
0_00
  6
CONTINUOUS
 62
4
 10
214.1002
 20
458.1123
 11
214.1736
 21
447.5935
  0
LINE
  8
0_00
  6
CONTINUOUS
 62
4
 10
214.1778
 20
446.9935
 11
214.2316
 21
439.2937
  0
LINE
  8
0_00
  6
CONTINUOUS
 62
4
 10
214.2553
 20
435.8938
 11
214.2884
 21
431.1574
  0
LINE
  8
0_00
  6
CONTINUOUS
 62
4
 10
217.9158
 20
462.5914
 11
231.6345
 21
464.7019
  0
LINE
  8
0_00
  6
CONTINUOUS
 62
4
 10
372.6123
 20
464.0893
 11
358.9936
 21
466.1845
  0
LINE
  8
0_00
  6
CONTINUOUS
 62
4
 10
372.4842
 20
462.5914
 11
358.7655
 21
464.7019
  0
LINE
  8
14_0E
  6
CONTINUOUS
 62
4
 10
377.6999
 20
458.1172
 11
377.4811
 21
426.7842
  0
LINE
  8
0_00
  6
CONTINUOUS
 62
4
 10
376.2998
 20
458.1123
 11
376.2263
 21
447.5935
  0
LINE
  8
0_00
  6
CONTINUOUS
 62
4
 10
376.2222
 20
446.9935
 11
376.1684
 21
439.2937
  0
LINE
  8
0_00
  6
CONTINUOUS
 62
4
 10
376.1447
 20
435.8938
 11
376.1116
 21
431.1574
  0
LINE
  8
0_00
  6
CONTINUOUS
 62
4
 10
376.2263
 20
447.5935
 11
375.9243
 21
447.2956
  0
LINE
  8
0_00
  6
CONTINUOUS
 62
4
 10
376.2222
 20
446.9935
 11
375.9243
 21
447.2956
  0
LINE
  8
0_00
  6
CONTINUOUS
 62
4
 10
217.1770
 20
411.3146
 11
216.2270
 21
411.3080
  0
LINE
  8
0_00
  6
CONTINUOUS
 62
4
 10
216.0179
 20
412.6065
 11
217.1679
 21
412.6146
  0
LINE
  8
0_00
  6
CONTINUOUS
 62
4
 10
375.6834
 20
412.7975
 11
375.7534
 21
422.8201
  0
LINE
  8
0_00
  6
CONTINUOUS
 62
4
 10
374.3821
 20
412.6065
 11
374.4571
 21
423.3506
  0
LINE
  8
0_00
  6
CONTINUOUS
 62
4
 10
372.5481
 20
427.8130
 11
372.3412
 21
428.1772
  0
LINE
  8
0_00
  6
CONTINUOUS
 62
4
 10
372.3412
 20
428.1772
 11
373.6454
 21
428.9181
  0
LINE
  8
0_00
  6
CONTINUOUS
 62
4
 10
373.6454
 20
428.9181
 11
373.8523
 21
428.5540
  0
LINE
  8
0_00
  6
CONTINUOUS
 62
4
 10
374.9855
 20
428.2418
 11
375.3497
 21
428.4487
  0
LINE
  8
0_00
  6
CONTINUOUS
 62
4
 10
375.3497
 20
428.4487
 11
376.0906
 21
427.1444
  0
LINE
  8
0_00
  6
CONTINUOUS
 62
4
 10
376.0906
 20
427.1444
 11
375.7264
 21
426.9376
  0
LINE
  8
0_00
  6
CONTINUOUS
 62
4
 10
375.4143
 20
425.8044
 11
375.6212
 21
425.4402
  0
LINE
  8
0_00
  6
CONTINUOUS
 62
4
 10
375.6212
 20
425.4402
 11
374.3170
 21
424.6993
  0
LINE
  8
0_00
  6
CONTINUOUS
 62
4
 10
374.3170
 20
424.6993
 11
374.1100
 21
425.0635
  0
LINE
  8
0_00
  6
CONTINUOUS
 62
4
 10
371.2120
 20
427.6343
 11
371.5647
 21
427.0135
  0
LINE
  8
0_00
  6
CONTINUOUS
 62
4
 10
373.2724
 20
424.0073
 11
372.9197
 21
424.6281
  0
LINE
  8
0_00
  6
CONTINUOUS
 62
4
 10
373.2230
 20
411.3146
 11
374.1730
 21
411.3080
  0
LINE
  8
0_00
  6
CONTINUOUS
 62
4
 10
374.3821
 20
412.6065
 11
373.2321
 21
412.6146
  0
LINE
  8
0_00
  6
CONTINUOUS
 62
4
 10
215.2386
 20
438.3007
 11
216.5385
 21
438.3098
  0
LINE
  8
0_00
  6
CONTINUOUS
 62
4
 10
215.2483
 20
436.9008
 11
216.5483
 21
436.9099
  0
LINE
  8
0_00
  6
CONTINUOUS
 62
4
 10
375.1614
 20
438.3007
 11
373.8615
 21
438.3098
  0
LINE
  8
0_00
  6
CONTINUOUS
 62
4
 10
375.1517
 20
436.9008
 11
373.8517
 21
436.9099
  0
LINE
  8
13_0D
  6
CONTINUOUS
 62
6
 10
211.7165
 20
411.3079
 11
136.8665
 21
411.3079
  0
LINE
  8
13_0D
  6
CONTINUOUS
 62
6
 10
228.5030
 20
466.3065
 11
136.8665
 21
466.3065
  0
LINE
  8
13_0D
  6
CONTINUOUS
 62
6
 10
141.3665
 20
466.3065
 11
141.3665
 21
411.3079
  0
LINE
  8
13_0D
  6
CONTINUOUS
 62
6
 10
141.3665
 20
466.3065
 11
139.8071
 21
458.9704
  0
LINE
  8
13_0D
  6
CONTINUOUS
 62
6
 10
141.3665
 20
466.3065
 11
142.9258
 21
458.9704
  0
LINE
  8
13_0D
  6
CONTINUOUS
 62
6
 10
141.3665
 20
411.3079
 11
142.9258
 21
418.6441
  0
LINE
  8
13_0D
  6
CONTINUOUS
 62
6
 10
141.3665
 20
411.3079
 11
139.8071
 21
418.6441
  0
LINE
  8
0_00
  6
CONTINUOUS
 62
4
 10
273.5947
 20
644.5315
 11
269.0349
 21
644.5312
  0
LINE
  8
0_00
  6
CONTINUOUS
 62
4
 10
273.2948
 20
643.5237
 11
273.2948
 21
642.7315
  0
LINE
  8
0_00
  6
CONTINUOUS
 62
4
 10
274.0948
 20
644.0315
 11
274.0949
 21
642.7315
  0
LINE
  8
0_00
  6
CONTINUOUS
 62
4
 10
268.1317
 20
628.5708
 11
268.2613
 21
629.2025
  0
LINE
  8
0_00
  6
CONTINUOUS
 62
4
 10
276.1056
 20
655.6869
 11
275.5428
 21
656.2495
  0
LINE
  8
0_00
  6
CONTINUOUS
 62
4
 10
276.8126
 20
656.3941
 11
276.2501
 21
656.9565
  0
LINE
  8
0_00
  6
CONTINUOUS
 62
4
 10
268.1012
 20
643.5319
 11
273.0871
 21
643.7235
  0
LINE
  8
0_00
  6
CONTINUOUS
 62
4
 10
267.4180
 20
638.4319
 11
267.5237
 21
638.4319
  0
LINE
  8
0_00
  6
CONTINUOUS
 62
4
 10
267.5194
 20
639.9319
 11
267.7514
 21
639.9319
  0
LINE
  8
0_00
  6
CONTINUOUS
 62
4
 10
267.9473
 20
639.6913
 11
267.7196
 21
638.5913
  0
LINE
  8
0_00
  6
CONTINUOUS
 62
4
 10
267.4123
 20
636.3311
 11
268.5225
 21
636.2341
  0
LINE
  8
0_00
  6
CONTINUOUS
 62
4
 10
316.8052
 20
644.5315
 11
321.3651
 21
644.5312
  0
LINE
  8
0_00
  6
CONTINUOUS
 62
4
 10
317.1052
 20
643.5237
 11
317.1051
 21
642.7315
  0
LINE
  8
0_00
  6
CONTINUOUS
 62
4
 10
316.3052
 20
644.0315
 11
316.3052
 21
642.7315
  0
LINE
  8
0_00
  6
CONTINUOUS
 62
4
 10
322.2683
 20
628.5708
 11
322.1387
 21
629.2025
  0
LINE
  8
0_00
  6
CONTINUOUS
 62
4
 10
314.2944
 20
655.6869
 11
314.8571
 21
656.2495
  0
LINE
  8
0_00
  6
CONTINUOUS
 62
4
 10
313.5874
 20
656.3941
 11
314.1456
 21
656.9522
  0
LINE
  8
0_00
  6
CONTINUOUS
 62
4
 10
322.2988
 20
643.5319
 11
317.3129
 21
643.7235
  0
LINE
  8
0_00
  6
CONTINUOUS
 62
4
 10
322.9820
 20
638.4319
 11
322.8763
 21
638.4319
  0
LINE
  8
0_00
  6
CONTINUOUS
 62
4
 10
322.8806
 20
639.9319
 11
322.6486
 21
639.9319
  0
LINE
  8
0_00
  6
CONTINUOUS
 62
4
 10
322.4527
 20
639.6913
 11
322.6805
 21
638.5913
  0
LINE
  8
0_00
  6
CONTINUOUS
 62
4
 10
322.9877
 20
636.3311
 11
321.8775
 21
636.2341
  0
LINE
  8
0_00
  6
CONTINUOUS
 62
4
 10
284.7000
 20
633.5066
 11
282.7000
 21
633.5066
  0
LINE
  8
0_00
  6
CONTINUOUS
 62
4
 10
284.7000
 20
633.5066
 11
284.7000
 21
632.7066
  0
LINE
  8
0_00
  6
CONTINUOUS
 62
4
 10
282.7000
 20
633.5066
 11
282.7000
 21
631.9066
  0
LINE
  8
0_00
  6
CONTINUOUS
 62
4
 10
305.7000
 20
633.5066
 11
307.7000
 21
633.5066
  0
LINE
  8
0_00
  6
CONTINUOUS
 62
4
 10
305.7000
 20
633.5066
 11
305.7000
 21
632.7066
  0
LINE
  8
0_00
  6
CONTINUOUS
 62
4
 10
307.7000
 20
633.5066
 11
307.7000
 21
631.9066
  0
LINE
  8
0_00
  6
CONTINUOUS
 62
4
 10
268.8000
 20
633.4066
 11
268.8000
 21
627.9019
  0
LINE
  8
0_00
  6
CONTINUOUS
 62
4
 10
321.6000
 20
633.4066
 11
321.6000
 21
627.9019
  0
LINE
  8
0_00
  6
CONTINUOUS
 62
4
 10
269.9000
 20
632.8065
 11
269.9000
 21
636.2982
  0
LINE
  8
0_00
  6
CONTINUOUS
 62
4
 10
320.5000
 20
632.8065
 11
320.5000
 21
636.2982
  0
LINE
  8
0_00
  6
CONTINUOUS
 62
4
 10
321.6000
 20
634.6065
 11
321.6000
 21
636.2065
  0
LINE
  8
0_00
  6
CONTINUOUS
 62
4
 10
322.2000
 20
634.6065
 11
321.6000
 21
634.6065
  0
LINE
  8
0_00
  6
CONTINUOUS
 62
4
 10
322.2000
 20
633.4066
 11
321.6000
 21
633.4066
  0
LINE
  8
0_00
  6
CONTINUOUS
 62
4
 10
295.2000
 20
608.6066
 11
294.9015
 21
608.3081
  0
LINE
  8
0_00
  6
CONTINUOUS
 62
4
 10
295.2000
 20
608.6066
 11
295.4985
 21
608.3081
  0
LINE
  8
0_00
  6
CONTINUOUS
 62
4
 10
270.4000
 20
632.3066
 11
274.4000
 21
632.3066
  0
LINE
  8
0_00
  6
CONTINUOUS
 62
4
 10
269.9000
 20
631.2066
 11
274.4000
 21
631.2066
  0
LINE
  8
0_00
  6
CONTINUOUS
 62
4
 10
315.7000
 20
630.8066
 11
274.7000
 21
630.8066
  0
LINE
  8
0_00
  6
CONTINUOUS
 62
4
 10
313.5000
 20
632.8065
 11
313.2000
 21
632.5066
  0
LINE
  8
0_00
  6
CONTINUOUS
 62
4
 10
315.7000
 20
632.8065
 11
313.5000
 21
632.8065
  0
LINE
  8
0_00
  6
CONTINUOUS
 62
4
 10
316.0000
 20
632.3066
 11
315.7000
 21
632.8065
  0
LINE
  8
0_00
  6
CONTINUOUS
 62
4
 10
312.9000
 20
632.8065
 11
313.2000
 21
632.5066
  0
LINE
  8
0_00
  6
CONTINUOUS
 62
4
 10
310.7000
 20
632.8065
 11
312.9000
 21
632.8065
  0
LINE
  8
0_00
  6
CONTINUOUS
 62
4
 10
320.0000
 20
632.3066
 11
316.0000
 21
632.3066
  0
LINE
  8
0_00
  6
CONTINUOUS
 62
4
 10
294.9000
 20
631.9066
 11
295.2000
 21
631.6066
  0
LINE
  8
0_00
  6
CONTINUOUS
 62
4
 10
295.5000
 20
631.9066
 11
295.2000
 21
631.6066
  0
LINE
  8
0_00
  6
CONTINUOUS
 62
4
 10
322.5436
 20
636.2892
 11
321.6000
 21
636.2065
  0
LINE
  8
0_00
  6
CONTINUOUS
 62
4
 10
321.4129
 20
637.2944
 11
321.9774
 21
637.3439
  0
LINE
  8
0_00
  6
CONTINUOUS
 62
4
 10
322.9898
 20
636.8877
 11
322.6307
 21
638.6372
  0
LINE
  8
0_00
  6
CONTINUOUS
 62
4
 10
321.7491
 20
638.4562
 11
321.9774
 21
637.3439
  0
LINE
  8
0_00
  6
CONTINUOUS
 62
4
 10
320.1000
 20
642.3356
 11
321.2683
 21
641.1673
  0
LINE
  8
0_00
  6
CONTINUOUS
 62
4
 10
319.4929
 20
641.6699
 11
320.6320
 21
640.5309
  0
LINE
  8
0_00
  6
CONTINUOUS
 62
4
 10
268.8000
 20
634.6065
 11
268.8000
 21
636.2065
  0
LINE
  8
0_00
  6
CONTINUOUS
 62
4
 10
268.2000
 20
634.6065
 11
268.8000
 21
634.6065
  0
LINE
  8
0_00
  6
CONTINUOUS
 62
4
 10
268.2000
 20
633.4066
 11
268.8000
 21
633.4066
  0
LINE
  8
0_00
  6
CONTINUOUS
 62
4
 10
267.8564
 20
636.2892
 11
268.8000
 21
636.2065
  0
LINE
  8
0_00
  6
CONTINUOUS
 62
4
 10
268.9872
 20
637.2944
 11
268.4226
 21
637.3439
  0
LINE
  8
0_00
  6
CONTINUOUS
 62
4
 10
267.4102
 20
636.8877
 11
267.7693
 21
638.6372
  0
LINE
  8
0_00
  6
CONTINUOUS
 62
4
 10
268.6509
 20
638.4562
 11
268.4226
 21
637.3439
  0
LINE
  8
0_00
  6
CONTINUOUS
 62
4
 10
270.3000
 20
642.3356
 11
269.1316
 21
641.1673
  0
LINE
  8
0_00
  6
CONTINUOUS
 62
4
 10
271.2000
 20
642.8566
 11
271.2000
 21
642.3771
  0
LINE
  8
0_00
  6
CONTINUOUS
 62
4
 10
270.3000
 20
642.8566
 11
270.3000
 21
642.3356
  0
LINE
  8
0_00
  6
CONTINUOUS
 62
4
 10
270.9071
 20
641.6699
 11
269.7681
 21
640.5309
  0
LINE
  8
0_00
  6
CONTINUOUS
 62
4
 10
295.5000
 20
631.9066
 11
306.7000
 21
631.9066
  0
LINE
  8
0_00
  6
CONTINUOUS
 62
4
 10
307.7000
 20
631.9066
 11
310.4000
 21
631.9066
  0
LINE
  8
0_00
  6
CONTINUOUS
 62
4
 10
280.0000
 20
631.9066
 11
282.7000
 21
631.9066
  0
LINE
  8
0_00
  6
CONTINUOUS
 62
4
 10
283.7000
 20
631.9066
 11
294.9000
 21
631.9066
  0
LINE
  8
0_00
  6
CONTINUOUS
 62
4
 10
319.2000
 20
642.8566
 11
319.2000
 21
642.3771
  0
LINE
  8
0_00
  6
CONTINUOUS
 62
4
 10
320.1000
 20
642.8566
 11
320.1000
 21
642.3356
  0
LINE
  8
15_0F
  6
CONTINUOUS
 62
4
 10
269.9000
 20
631.2066
 11
269.9000
 21
627.6072
  0
LINE
  8
0_00
  6
CONTINUOUS
 62
4
 10
320.5000
 20
631.2066
 11
316.0000
 21
631.2066
  0
LINE
  8
0_00
  6
CONTINUOUS
 62
4
 10
316.0000
 20
631.2066
 11
315.7000
 21
630.8066
  0
LINE
  8
15_0F
  6
CONTINUOUS
 62
4
 10
320.5000
 20
631.2066
 11
320.5000
 21
627.6072
  0
LINE
  8
0_00
  6
CONTINUOUS
 62
4
 10
310.4000
 20
631.9066
 11
310.7000
 21
632.8065
  0
LINE
  8
15_0F
  6
CONTINUOUS
 62
4
 10
283.7000
 20
632.7066
 11
284.7000
 21
632.7066
  0
LINE
  8
15_0F
  6
CONTINUOUS
 62
4
 10
283.7000
 20
632.7066
 11
283.7000
 21
631.9066
  0
LINE
  8
15_0F
  6
CONTINUOUS
 62
4
 10
306.7000
 20
632.7066
 11
305.7000
 21
632.7066
  0
LINE
  8
15_0F
  6
CONTINUOUS
 62
4
 10
306.7000
 20
632.7066
 11
306.7000
 21
631.9066
  0
LINE
  8
15_0F
  6
CONTINUOUS
 62
4
 10
268.8000
 20
627.9019
 11
268.2881
 21
627.0153
  0
LINE
  8
15_0F
  6
CONTINUOUS
 62
4
 10
269.9000
 20
627.6072
 11
269.3871
 21
626.7187
  0
LINE
  8
15_0F
  6
CONTINUOUS
 62
4
 10
321.6000
 20
627.9019
 11
322.1119
 21
627.0153
  0
LINE
  8
15_0F
  6
CONTINUOUS
 62
4
 10
320.5000
 20
627.6072
 11
321.0129
 21
626.7187
  0
LINE
  8
15_0F
  6
CONTINUOUS
 62
4
 10
288.1708
 20
610.3066
 11
302.2292
 21
610.3066
  0
LINE
  8
0_00
  6
CONTINUOUS
 62
4
 10
276.9000
 20
632.8065
 11
277.2000
 21
632.5066
  0
LINE
  8
0_00
  6
CONTINUOUS
 62
4
 10
274.7000
 20
632.8065
 11
276.9000
 21
632.8065
  0
LINE
  8
0_00
  6
CONTINUOUS
 62
4
 10
274.4000
 20
632.3066
 11
274.7000
 21
632.8065
  0
LINE
  8
0_00
  6
CONTINUOUS
 62
4
 10
277.5000
 20
632.8065
 11
277.2000
 21
632.5066
  0
LINE
  8
0_00
  6
CONTINUOUS
 62
4
 10
279.7000
 20
632.8065
 11
277.5000
 21
632.8065
  0
LINE
  8
0_00
  6
CONTINUOUS
 62
4
 10
274.4000
 20
631.2066
 11
274.7000
 21
630.8066
  0
LINE
  8
0_00
  6
CONTINUOUS
 62
4
 10
280.0000
 20
631.9066
 11
279.7000
 21
632.8065
  0
LINE
  8
12_0C
  6
CONTINUOUS
 62
2
 10
273.2000
 20
638.2066
 11
281.2000
 21
638.2066
  0
LINE
  8
12_0C
  6
CONTINUOUS
 62
2
 10
273.2000
 20
638.6066
 11
281.2000
 21
638.6066
  0
LINE
  8
12_0C
  6
CONTINUOUS
 62
2
 10
281.2000
 20
638.2066
 11
281.2000
 21
638.6066
  0
LINE
  8
12_0C
  6
CONTINUOUS
 62
2
 10
273.2000
 20
638.2066
 11
273.2000
 21
638.6066
  0
LINE
  8
12_0C
  6
CONTINUOUS
 62
2
 10
275.7500
 20
626.2065
 11
278.6500
 21
626.2065
  0
LINE
  8
12_0C
  6
CONTINUOUS
 62
2
 10
275.7500
 20
635.7066
 11
275.7500
 21
632.8065
  0
LINE
  8
0_00
  6
CONTINUOUS
 62
2
 10
275.2000
 20
635.7066
 11
275.2000
 21
632.8065
  0
LINE
  8
12_0C
  6
CONTINUOUS
 62
2
 10
278.6500
 20
630.8066
 11
278.6500
 21
626.2065
  0
LINE
  8
12_0C
  6
CONTINUOUS
 62
2
 10
278.6500
 20
635.7066
 11
278.6500
 21
632.8065
  0
LINE
  8
0_00
  6
CONTINUOUS
 62
2
 10
279.2000
 20
635.7066
 11
279.2000
 21
632.8065
  0
LINE
  8
12_0C
  6
CONTINUOUS
 62
2
 10
279.1749
 20
630.8066
 11
278.6500
 21
626.2065
  0
LINE
  8
12_0C
  6
CONTINUOUS
 62
2
 10
275.2251
 20
630.8066
 11
275.7500
 21
626.2065
  0
LINE
  8
12_0C
  6
CONTINUOUS
 62
2
 10
275.7500
 20
630.8066
 11
275.7500
 21
626.2065
  0
LINE
  8
12_0C
  6
CONTINUOUS
 62
2
 10
317.2000
 20
638.2066
 11
309.2000
 21
638.2066
  0
LINE
  8
12_0C
  6
CONTINUOUS
 62
2
 10
317.2000
 20
638.6066
 11
309.2000
 21
638.6066
  0
LINE
  8
12_0C
  6
CONTINUOUS
 62
2
 10
309.2000
 20
638.2066
 11
309.2000
 21
638.6066
  0
LINE
  8
12_0C
  6
CONTINUOUS
 62
2
 10
317.2000
 20
638.2066
 11
317.2000
 21
638.6066
  0
LINE
  8
12_0C
  6
CONTINUOUS
 62
2
 10
314.6500
 20
626.2065
 11
311.7500
 21
626.2065
  0
LINE
  8
12_0C
  6
CONTINUOUS
 62
2
 10
314.6500
 20
635.7066
 11
314.6500
 21
632.8065
  0
LINE
  8
0_00
  6
CONTINUOUS
 62
2
 10
315.2000
 20
635.7066
 11
315.2000
 21
632.8065
  0
LINE
  8
12_0C
  6
CONTINUOUS
 62
2
 10
311.7500
 20
630.8066
 11
311.7500
 21
626.2065
  0
LINE
  8
12_0C
  6
CONTINUOUS
 62
2
 10
311.7500
 20
635.7066
 11
311.7500
 21
632.8065
  0
LINE
  8
0_00
  6
CONTINUOUS
 62
2
 10
311.2000
 20
635.7066
 11
311.2000
 21
632.8065
  0
LINE
  8
12_0C
  6
CONTINUOUS
 62
2
 10
311.2251
 20
630.8066
 11
311.7500
 21
626.2065
  0
LINE
  8
12_0C
  6
CONTINUOUS
 62
2
 10
315.1749
 20
630.8066
 11
314.6500
 21
626.2065
  0
LINE
  8
12_0C
  6
CONTINUOUS
 62
2
 10
314.6500
 20
630.8066
 11
314.6500
 21
626.2065
  0
LINE
  8
0_00
  6
CONTINUOUS
 62
2
 10
291.0000
 20
644.1066
 11
299.4000
 21
644.1066
  0
LINE
  8
0_00
  6
CONTINUOUS
 62
2
 10
300.0000
 20
644.1066
 11
303.7000
 21
644.1066
  0
LINE
  8
0_00
  6
CONTINUOUS
 62
2
 10
317.2000
 20
632.3066
 11
319.2000
 21
632.3066
  0
LINE
  8
0_00
  6
CONTINUOUS
 62
2
 10
319.7000
 20
635.7066
 11
319.7000
 21
632.8065
  0
LINE
  8
0_00
  6
CONTINUOUS
 62
2
 10
317.2000
 20
635.7066
 11
317.2000
 21
632.3066
  0
LINE
  8
0_00
  6
CONTINUOUS
 62
2
 10
286.7000
 20
641.6066
 11
303.7000
 21
641.6066
  0
LINE
  8
0_00
  6
CONTINUOUS
 62
2
 10
307.7000
 20
635.7066
 11
317.2000
 21
635.7066
  0
LINE
  8
0_00
  6
CONTINUOUS
 62
2
 10
308.2000
 20
638.2066
 11
312.9000
 21
638.2066
  0
LINE
  8
0_00
  6
CONTINUOUS
 62
2
 10
313.5000
 20
638.2066
 11
317.2000
 21
638.2066
  0
LINE
  8
0_00
  6
CONTINUOUS
 62
2
 10
308.2000
 20
639.6066
 11
308.2000
 21
638.2066
  0
LINE
  8
0_00
  6
CONTINUOUS
 62
2
 10
305.7000
 20
639.6066
 11
305.7000
 21
635.0066
  0
LINE
  8
0_00
  6
CONTINUOUS
 62
2
 10
307.7000
 20
635.7066
 11
307.7000
 21
635.0066
  0
LINE
  8
0_00
  6
CONTINUOUS
 62
2
 10
312.9000
 20
638.2066
 11
313.2000
 21
637.9066
  0
LINE
  8
0_00
  6
CONTINUOUS
 62
2
 10
313.2000
 20
637.9066
 11
313.5000
 21
638.2066
  0
LINE
  8
0_00
  6
CONTINUOUS
 62
2
 10
299.4000
 20
644.1066
 11
299.7000
 21
643.8066
  0
LINE
  8
0_00
  6
CONTINUOUS
 62
2
 10
299.7000
 20
643.8066
 11
300.0000
 21
644.1066
  0
LINE
  8
0_00
  6
CONTINUOUS
 62
2
 10
290.4000
 20
644.1066
 11
286.7000
 21
644.1066
  0
LINE
  8
0_00
  6
CONTINUOUS
 62
2
 10
273.2000
 20
632.3066
 11
271.2000
 21
632.3066
  0
LINE
  8
0_00
  6
CONTINUOUS
 62
2
 10
270.7000
 20
635.7066
 11
270.7000
 21
632.8065
  0
LINE
  8
0_00
  6
CONTINUOUS
 62
2
 10
273.2000
 20
635.7066
 11
273.2000
 21
632.3066
  0
LINE
  8
0_00
  6
CONTINUOUS
 62
2
 10
282.7000
 20
635.7066
 11
273.2000
 21
635.7066
  0
LINE
  8
0_00
  6
CONTINUOUS
 62
2
 10
282.2000
 20
638.2066
 11
277.5000
 21
638.2066
  0
LINE
  8
0_00
  6
CONTINUOUS
 62
2
 10
276.9000
 20
638.2066
 11
273.2000
 21
638.2066
  0
LINE
  8
0_00
  6
CONTINUOUS
 62
2
 10
282.2000
 20
639.6066
 11
282.2000
 21
638.2066
  0
LINE
  8
0_00
  6
CONTINUOUS
 62
2
 10
284.7000
 20
639.6066
 11
284.7000
 21
635.0066
  0
LINE
  8
0_00
  6
CONTINUOUS
 62
2
 10
282.7000
 20
635.7066
 11
282.7000
 21
635.0066
  0
LINE
  8
0_00
  6
CONTINUOUS
 62
2
 10
277.5000
 20
638.2066
 11
277.2000
 21
637.9066
  0
LINE
  8
0_00
  6
CONTINUOUS
 62
2
 10
277.2000
 20
637.9066
 11
276.9000
 21
638.2066
  0
LINE
  8
0_00
  6
CONTINUOUS
 62
2
 10
291.0000
 20
644.1066
 11
290.7000
 21
643.8066
  0
LINE
  8
0_00
  6
CONTINUOUS
 62
2
 10
290.7000
 20
643.8066
 11
290.4000
 21
644.1066
  0
LINE
  8
12_0C
  6
CONTINUOUS
 62
2
 10
294.1983
 20
645.0765
 11
294.1983
 21
644.1066
  0
LINE
  8
12_0C
  6
CONTINUOUS
 62
2
 10
287.1983
 20
645.0765
 11
287.1983
 21
644.1066
  0
LINE
  8
12_0C
  6
DASHED
 62
2
 10
288.6983
 20
623.9266
 11
289.1983
 21
619.5447
  0
LINE
  8
12_0C
  6
DASHED
 62
2
 10
292.6983
 20
623.9266
 11
292.1983
 21
619.5447
  0
LINE
  8
12_0C
  6
DASHED
 62
2
 10
289.1983
 20
614.1066
 11
292.1983
 21
614.1066
  0
LINE
  8
12_0C
  6
CONTINUOUS
 62
2
 10
287.1983
 20
644.1066
 11
294.1983
 21
644.1066
  0
LINE
  8
12_0C
  6
DASHED
 62
2
 10
292.6983
 20
623.9266
 11
289.1983
 21
619.5447
  0
LINE
  8
12_0C
  6
DASHED
 62
2
 10
292.1983
 20
630.8066
 11
292.1983
 21
614.1066
  0
LINE
  8
12_0C
  6
DASHED
 62
2
 10
292.6983
 20
630.8066
 11
292.6983
 21
623.9266
  0
LINE
  8
12_0C
  6
DASHED
 62
2
 10
288.6983
 20
639.3066
 11
288.6983
 21
623.9266
  0
LINE
  8
12_0C
  6
CONTINUOUS
 62
2
 10
288.6983
 20
641.6066
 11
288.6983
 21
639.3066
  0
LINE
  8
12_0C
  6
DASHED
 62
2
 10
288.6983
 20
644.1066
 11
288.6983
 21
641.6066
  0
LINE
  8
12_0C
  6
DASHED
 62
2
 10
289.1983
 20
639.3066
 11
289.1983
 21
614.1066
  0
LINE
  8
12_0C
  6
CONTINUOUS
 62
2
 10
289.1983
 20
641.6066
 11
289.1983
 21
639.3066
  0
LINE
  8
12_0C
  6
DASHED
 62
2
 10
289.1983
 20
644.1066
 11
289.1983
 21
641.6066
  0
LINE
  8
12_0C
  6
DASHED
 62
2
 10
292.1983
 20
639.3066
 11
292.1983
 21
633.9012
  0
LINE
  8
12_0C
  6
CONTINUOUS
 62
2
 10
292.1983
 20
641.6066
 11
292.1983
 21
639.3066
  0
LINE
  8
12_0C
  6
DASHED
 62
2
 10
292.1983
 20
644.1066
 11
292.1983
 21
641.6066
  0
LINE
  8
12_0C
  6
DASHED
 62
2
 10
292.6983
 20
639.3066
 11
292.6983
 21
634.1523
  0
LINE
  8
12_0C
  6
CONTINUOUS
 62
2
 10
292.6983
 20
641.6066
 11
292.6983
 21
639.3066
  0
LINE
  8
12_0C
  6
DASHED
 62
2
 10
292.6983
 20
644.1066
 11
292.6983
 21
641.6066
  0
LINE
  8
12_0C
  6
CONTINUOUS
 62
2
 10
303.1983
 20
645.0765
 11
303.1983
 21
644.1066
  0
LINE
  8
12_0C
  6
CONTINUOUS
 62
2
 10
296.1983
 20
645.0765
 11
296.1983
 21
644.1066
  0
LINE
  8
12_0C
  6
DASHED
 62
2
 10
297.6983
 20
623.9266
 11
298.1983
 21
619.5447
  0
LINE
  8
12_0C
  6
DASHED
 62
2
 10
301.6983
 20
623.9266
 11
301.1983
 21
619.5447
  0
LINE
  8
12_0C
  6
DASHED
 62
2
 10
298.1983
 20
614.1066
 11
301.1983
 21
614.1066
  0
LINE
  8
12_0C
  6
CONTINUOUS
 62
2
 10
296.1983
 20
644.1066
 11
303.1983
 21
644.1066
  0
LINE
  8
12_0C
  6
DASHED
 62
2
 10
301.6983
 20
623.9266
 11
298.1983
 21
619.5447
  0
LINE
  8
12_0C
  6
DASHED
 62
2
 10
298.1983
 20
630.8066
 11
298.1983
 21
614.1066
  0
LINE
  8
12_0C
  6
DASHED
 62
2
 10
297.6983
 20
630.8066
 11
297.6983
 21
623.9266
  0
LINE
  8
12_0C
  6
DASHED
 62
2
 10
297.6983
 20
639.3066
 11
297.6983
 21
634.1223
  0
LINE
  8
12_0C
  6
CONTINUOUS
 62
2
 10
297.6983
 20
641.6066
 11
297.6983
 21
639.3066
  0
LINE
  8
12_0C
  6
DASHED
 62
2
 10
297.6983
 20
644.1066
 11
297.6983
 21
641.6066
  0
LINE
  8
12_0C
  6
DASHED
 62
2
 10
298.1983
 20
639.3066
 11
298.1983
 21
633.9012
  0
LINE
  8
12_0C
  6
CONTINUOUS
 62
2
 10
298.1983
 20
641.6066
 11
298.1983
 21
639.3066
  0
LINE
  8
12_0C
  6
DASHED
 62
2
 10
298.1983
 20
644.1066
 11
298.1983
 21
641.6066
  0
LINE
  8
12_0C
  6
DASHED
 62
2
 10
301.1983
 20
639.3066
 11
301.1983
 21
614.1066
  0
LINE
  8
12_0C
  6
CONTINUOUS
 62
2
 10
301.1983
 20
641.6066
 11
301.1983
 21
639.3066
  0
LINE
  8
12_0C
  6
DASHED
 62
2
 10
301.1983
 20
644.1066
 11
301.1983
 21
641.6066
  0
LINE
  8
12_0C
  6
DASHED
 62
2
 10
301.6983
 20
639.3066
 11
301.6983
 21
623.9266
  0
LINE
  8
12_0C
  6
CONTINUOUS
 62
2
 10
301.6983
 20
641.6066
 11
301.6983
 21
639.3066
  0
LINE
  8
12_0C
  6
DASHED
 62
2
 10
301.6983
 20
644.1066
 11
301.6983
 21
641.6066
  0
LINE
  8
12_0C
  6
CONTINUOUS
 62
2
 10
298.6983
 20
632.8765
 11
298.6983
 21
631.9066
  0
LINE
  8
12_0C
  6
CONTINUOUS
 62
2
 10
291.6983
 20
632.8765
 11
291.6983
 21
631.9066
  0
LINE
  8
12_0C
  6
DASHED
 62
2
 10
293.1983
 20
631.9066
 11
293.1983
 21
611.7266
  0
LINE
  8
12_0C
  6
DASHED
 62
2
 10
293.6983
 20
631.9066
 11
293.6983
 21
601.9065
  0
LINE
  8
12_0C
  6
DASHED
 62
2
 10
297.1983
 20
631.9066
 11
297.1983
 21
611.7266
  0
LINE
  8
12_0C
  6
DASHED
 62
2
 10
296.6983
 20
631.9066
 11
296.6983
 21
601.9065
  0
LINE
  8
12_0C
  6
DASHED
 62
2
 10
293.1983
 20
611.7266
 11
293.6983
 21
607.3447
  0
LINE
  8
12_0C
  6
DASHED
 62
2
 10
297.1983
 20
611.7266
 11
296.6983
 21
607.3447
  0
LINE
  8
12_0C
  6
DASHED
 62
2
 10
293.6983
 20
601.9065
 11
296.6983
 21
601.9065
  0
LINE
  8
12_0C
  6
CONTINUOUS
 62
2
 10
291.6983
 20
631.9066
 11
298.6983
 21
631.9066
  0
LINE
  8
12_0C
  6
DASHED
 62
2
 10
297.1983
 20
611.7266
 11
293.6983
 21
607.3447
  0
LINE
  8
12_0C
  6
DASHED
 62
2
 10
311.2000
 20
464.0066
 11
311.2000
 21
486.8866
  0
LINE
  8
12_0C
  6
DASHED
 62
2
 10
310.7000
 20
464.0066
 11
310.7000
 21
496.7066
  0
LINE
  8
12_0C
  6
DASHED
 62
2
 10
307.2000
 20
464.0066
 11
307.2000
 21
486.8866
  0
LINE
  8
12_0C
  6
DASHED
 62
2
 10
307.7000
 20
464.0066
 11
307.7000
 21
496.7066
  0
LINE
  8
12_0C
  6
DASHED
 62
2
 10
311.2000
 20
486.8866
 11
310.7000
 21
491.2684
  0
LINE
  8
12_0C
  6
DASHED
 62
2
 10
307.2000
 20
486.8866
 11
307.7000
 21
491.2684
  0
LINE
  8
12_0C
  6
DASHED
 62
2
 10
310.7000
 20
496.7066
 11
307.7000
 21
496.7066
  0
LINE
  8
12_0C
  6
DASHED
 62
2
 10
307.2000
 20
486.8866
 11
310.7000
 21
491.2684
  0
LINE
  8
12_0C
  6
DASHED
 62
2
 10
311.2000
 20
464.0066
 11
307.2000
 21
464.0066
  0
LINE
  8
12_0C
  6
DASHED
 62
2
 10
305.2000
 20
461.7066
 11
313.2000
 21
461.7066
  0
LINE
  8
12_0C
  6
DASHED
 62
2
 10
305.2000
 20
462.0066
 11
313.2000
 21
462.0066
  0
LINE
  8
12_0C
  6
DASHED
 62
2
 10
305.2000
 20
461.7066
 11
305.2000
 21
462.0066
  0
LINE
  8
12_0C
  6
DASHED
 62
2
 10
305.2000
 20
462.0066
 11
307.2000
 21
464.0066
  0
LINE
  8
12_0C
  6
DASHED
 62
2
 10
313.2000
 20
461.7066
 11
313.2000
 21
462.0066
  0
LINE
  8
12_0C
  6
DASHED
 62
2
 10
313.2000
 20
462.0066
 11
311.2000
 21
464.0066
  0
LINE
  8
12_0C
  6
DASHED
 62
2
 10
283.2000
 20
464.0066
 11
283.2000
 21
486.8866
  0
LINE
  8
12_0C
  6
DASHED
 62
2
 10
282.7000
 20
464.0066
 11
282.7000
 21
496.7066
  0
LINE
  8
12_0C
  6
DASHED
 62
2
 10
279.2000
 20
464.0066
 11
279.2000
 21
486.8866
  0
LINE
  8
12_0C
  6
DASHED
 62
2
 10
279.7000
 20
464.0066
 11
279.7000
 21
496.7066
  0
LINE
  8
12_0C
  6
DASHED
 62
2
 10
283.2000
 20
486.8866
 11
282.7000
 21
491.2684
  0
LINE
  8
12_0C
  6
DASHED
 62
2
 10
279.2000
 20
486.8866
 11
279.7000
 21
491.2684
  0
LINE
  8
12_0C
  6
DASHED
 62
2
 10
282.7000
 20
496.7066
 11
279.7000
 21
496.7066
  0
LINE
  8
12_0C
  6
DASHED
 62
2
 10
279.2000
 20
486.8866
 11
282.7000
 21
491.2684
  0
LINE
  8
12_0C
  6
DASHED
 62
2
 10
283.2000
 20
464.0066
 11
279.2000
 21
464.0066
  0
LINE
  8
12_0C
  6
DASHED
 62
2
 10
277.2000
 20
461.7066
 11
285.2000
 21
461.7066
  0
LINE
  8
12_0C
  6
DASHED
 62
2
 10
277.2000
 20
462.0066
 11
285.2000
 21
462.0066
  0
LINE
  8
12_0C
  6
DASHED
 62
2
 10
277.2000
 20
461.7066
 11
277.2000
 21
462.0066
  0
LINE
  8
12_0C
  6
DASHED
 62
2
 10
277.2000
 20
462.0066
 11
279.2000
 21
464.0066
  0
LINE
  8
12_0C
  6
DASHED
 62
2
 10
285.2000
 20
461.7066
 11
285.2000
 21
462.0066
  0
LINE
  8
12_0C
  6
DASHED
 62
2
 10
285.2000
 20
462.0066
 11
283.2000
 21
464.0066
  0
LINE
  8
13_0D
  6
CONTINUOUS
 62
6
 10
266.2000
 20
652.9192
 11
266.2000
 21
722.9193
  0
LINE
  8
13_0D
  6
CONTINUOUS
 62
6
 10
324.2000
 20
652.9192
 11
324.2000
 21
722.9193
  0
LINE
  8
13_0D
  6
CONTINUOUS
 62
6
 10
266.2000
 20
718.4192
 11
324.2000
 21
718.4192
  0
LINE
  8
13_0D
  6
CONTINUOUS
 62
6
 10
266.2000
 20
718.4192
 11
273.5361
 21
716.8599
  0
LINE
  8
13_0D
  6
CONTINUOUS
 62
6
 10
266.2000
 20
718.4192
 11
273.5361
 21
719.9786
  0
LINE
  8
13_0D
  6
CONTINUOUS
 62
6
 10
324.2000
 20
718.4192
 11
316.8639
 21
719.9786
  0
LINE
  8
13_0D
  6
CONTINUOUS
 62
6
 10
324.2000
 20
718.4192
 11
316.8639
 21
716.8599
  0
LINE
  8
15_0F
  6
CONTINUOUS
 62
6
 10
317.5497
 20
655.7860
 11
340.6309
 21
678.8673
  0
LINE
  8
15_0F
  6
CONTINUOUS
 62
6
 10
317.5497
 20
655.7860
 11
323.8397
 21
659.8709
  0
LINE
  8
15_0F
  6
CONTINUOUS
 62
6
 10
317.5497
 20
655.7860
 11
321.6345
 21
662.0760
  0
LINE
  8
15_0F
  6
CONTINUOUS
 62
6
 10
340.6309
 20
678.8673
 11
397.0309
 21
678.8673
  0
LINE
  8
15_0F
  6
CONTINUOUS
 62
6
 10
319.7000
 20
635.7066
 11
338.2818
 21
611.4600
  0
LINE
  8
15_0F
  6
CONTINUOUS
 62
6
 10
319.7000
 20
635.7066
 11
322.9247
 21
628.9352
  0
LINE
  8
15_0F
  6
CONTINUOUS
 62
6
 10
319.7000
 20
635.7066
 11
325.4001
 21
630.8323
  0
LINE
  8
15_0F
  6
CONTINUOUS
 62
6
 10
338.2818
 20
611.4600
 11
430.6818
 21
611.4600
  0
LINE
  8
0_00
  6
CONTINUOUS
 62
4
 10
1051.9841
 20
281.3123
 11
1051.9841
 21
282.8123
  0
LINE
  8
0_00
  6
CONTINUOUS
 62
4
 10
1052.3070
 20
284.0623
 11
1052.5914
 21
284.0623
  0
LINE
  8
0_00
  6
CONTINUOUS
 62
4
 10
1052.4586
 20
282.8123
 11
1051.9841
 21
282.8123
  0
LINE
  8
0_00
  6
CONTINUOUS
 62
4
 10
1052.4586
 20
281.3123
 11
1051.9841
 21
281.3123
  0
LINE
  8
0_00
  6
CONTINUOUS
 62
4
 10
1054.7341
 20
280.0623
 11
1053.2341
 21
280.0623
  0
LINE
  8
0_00
  6
CONTINUOUS
 62
4
 10
1053.2341
 20
280.5367
 11
1053.2341
 21
280.0623
  0
LINE
  8
0_00
  6
CONTINUOUS
 62
4
 10
1055.9841
 20
281.3123
 11
1055.9841
 21
282.8123
  0
LINE
  8
0_00
  6
CONTINUOUS
 62
4
 10
1055.6612
 20
284.0623
 11
1055.3767
 21
284.0623
  0
LINE
  8
0_00
  6
CONTINUOUS
 62
4
 10
1055.5097
 20
282.8123
 11
1055.9841
 21
282.8123
  0
LINE
  8
0_00
  6
CONTINUOUS
 62
4
 10
1055.5097
 20
281.3123
 11
1055.9841
 21
281.3123
  0
LINE
  8
0_00
  6
CONTINUOUS
 62
4
 10
1054.7341
 20
280.5367
 11
1054.7341
 21
280.0623
  0
LINE
  8
0_00
  6
CONTINUOUS
 62
4
 10
1054.2816
 20
278.0648
 11
1053.9841
 21
278.3623
  0
LINE
  8
0_00
  6
CONTINUOUS
 62
4
 10
1053.6866
 20
278.0648
 11
1053.9841
 21
278.3623
  0
LINE
  8
0_00
  6
CONTINUOUS
 62
4
 10
1051.9841
 20
310.8123
 11
1051.9841
 21
309.3123
  0
LINE
  8
0_00
  6
CONTINUOUS
 62
4
 10
1052.3070
 20
308.0623
 11
1052.5914
 21
308.0623
  0
LINE
  8
0_00
  6
CONTINUOUS
 62
4
 10
1052.4586
 20
309.3123
 11
1051.9841
 21
309.3123
  0
LINE
  8
0_00
  6
CONTINUOUS
 62
4
 10
1052.4586
 20
310.8123
 11
1051.9841
 21
310.8123
  0
LINE
  8
0_00
  6
CONTINUOUS
 62
4
 10
1054.7341
 20
312.0623
 11
1053.2341
 21
312.0623
  0
LINE
  8
0_00
  6
CONTINUOUS
 62
4
 10
1053.2341
 20
311.5880
 11
1053.2341
 21
312.0623
  0
LINE
  8
0_00
  6
CONTINUOUS
 62
4
 10
1055.9841
 20
310.8123
 11
1055.9841
 21
309.3123
  0
LINE
  8
0_00
  6
CONTINUOUS
 62
4
 10
1055.6612
 20
308.0623
 11
1055.3767
 21
308.0623
  0
LINE
  8
0_00
  6
CONTINUOUS
 62
4
 10
1055.5097
 20
309.3123
 11
1055.9841
 21
309.3123
  0
LINE
  8
0_00
  6
CONTINUOUS
 62
4
 10
1055.5097
 20
310.8123
 11
1055.9841
 21
310.8123
  0
LINE
  8
0_00
  6
CONTINUOUS
 62
4
 10
1054.7341
 20
311.5880
 11
1054.7341
 21
312.0623
  0
LINE
  8
0_00
  6
CONTINUOUS
 62
4
 10
1054.2816
 20
314.0599
 11
1053.9841
 21
313.7623
  0
LINE
  8
0_00
  6
CONTINUOUS
 62
4
 10
1053.6866
 20
314.0599
 11
1053.9841
 21
313.7623
  0
LINE
  8
0_00
  6
CONTINUOUS
 62
4
 10
1068.7341
 20
294.0623
 11
1067.2341
 21
294.0623
  0
LINE
  8
0_00
  6
CONTINUOUS
 62
4
 10
1065.9841
 20
294.3853
 11
1065.9841
 21
294.6697
  0
LINE
  8
0_00
  6
CONTINUOUS
 62
4
 10
1067.2341
 20
294.5367
 11
1067.2341
 21
294.0623
  0
LINE
  8
0_00
  6
CONTINUOUS
 62
4
 10
1068.7341
 20
294.5367
 11
1068.7341
 21
294.0623
  0
LINE
  8
0_00
  6
CONTINUOUS
 62
4
 10
1069.9841
 20
296.8123
 11
1069.9841
 21
295.3123
  0
LINE
  8
0_00
  6
CONTINUOUS
 62
4
 10
1069.5098
 20
295.3123
 11
1069.9841
 21
295.3123
  0
LINE
  8
0_00
  6
CONTINUOUS
 62
4
 10
1068.7341
 20
298.0623
 11
1067.2341
 21
298.0623
  0
LINE
  8
0_00
  6
CONTINUOUS
 62
4
 10
1065.9841
 20
297.7394
 11
1065.9841
 21
297.4550
  0
LINE
  8
0_00
  6
CONTINUOUS
 62
4
 10
1067.2341
 20
297.5880
 11
1067.2341
 21
298.0623
  0
LINE
  8
0_00
  6
CONTINUOUS
 62
4
 10
1068.7341
 20
297.5880
 11
1068.7341
 21
298.0623
  0
LINE
  8
0_00
  6
CONTINUOUS
 62
4
 10
1069.5098
 20
296.8123
 11
1069.9841
 21
296.8123
  0
LINE
  8
0_00
  6
CONTINUOUS
 62
4
 10
1071.9817
 20
296.3599
 11
1071.6841
 21
296.0623
  0
LINE
  8
0_00
  6
CONTINUOUS
 62
4
 10
1071.9817
 20
295.7648
 11
1071.6841
 21
296.0623
  0
LINE
  8
0_00
  6
CONTINUOUS
 62
4
 10
1039.2341
 20
294.0623
 11
1040.7341
 21
294.0623
  0
LINE
  8
0_00
  6
CONTINUOUS
 62
4
 10
1041.9841
 20
294.3853
 11
1041.9841
 21
294.6697
  0
LINE
  8
0_00
  6
CONTINUOUS
 62
4
 10
1040.7341
 20
294.5367
 11
1040.7341
 21
294.0623
  0
LINE
  8
0_00
  6
CONTINUOUS
 62
4
 10
1039.2341
 20
294.5367
 11
1039.2341
 21
294.0623
  0
LINE
  8
0_00
  6
CONTINUOUS
 62
4
 10
1037.9842
 20
296.8123
 11
1037.9842
 21
295.3123
  0
LINE
  8
0_00
  6
CONTINUOUS
 62
4
 10
1038.4585
 20
295.3123
 11
1037.9842
 21
295.3123
  0
LINE
  8
0_00
  6
CONTINUOUS
 62
4
 10
1039.2341
 20
298.0623
 11
1040.7341
 21
298.0623
  0
LINE
  8
0_00
  6
CONTINUOUS
 62
4
 10
1041.9841
 20
297.7394
 11
1041.9841
 21
297.4550
  0
LINE
  8
0_00
  6
CONTINUOUS
 62
4
 10
1040.7341
 20
297.5880
 11
1040.7341
 21
298.0623
  0
LINE
  8
0_00
  6
CONTINUOUS
 62
4
 10
1039.2341
 20
297.5880
 11
1039.2341
 21
298.0623
  0
LINE
  8
0_00
  6
CONTINUOUS
 62
4
 10
1038.4585
 20
296.8123
 11
1037.9842
 21
296.8123
  0
LINE
  8
0_00
  6
CONTINUOUS
 62
4
 10
1035.9866
 20
296.3599
 11
1036.2840
 21
296.0623
  0
LINE
  8
0_00
  6
CONTINUOUS
 62
4
 10
1035.9866
 20
295.7648
 11
1036.2840
 21
296.0623
  0
LINE
  8
0_00
  6
CONTINUOUS
 62
4
 10
1044.9841
 20
306.3123
 11
1062.9841
 21
306.3123
  0
LINE
  8
0_00
  6
CONTINUOUS
 62
4
 10
1044.9841
 20
285.8123
 11
1062.9841
 21
285.8123
  0
LINE
  8
0_00
  6
CONTINUOUS
 62
4
 10
1064.9842
 20
304.3123
 11
1064.9842
 21
287.8123
  0
LINE
  8
0_00
  6
CONTINUOUS
 62
4
 10
1042.9841
 20
304.3123
 11
1042.9841
 21
287.8123
  0
LINE
  8
0_00
  6
CONTINUOUS
 62
2
 10
1058.2811
 20
288.3123
 11
1049.6870
 21
288.3123
  0
LINE
  8
0_00
  6
CONTINUOUS
 62
2
 10
1058.2811
 20
303.8123
 11
1049.6870
 21
303.8123
  0
LINE
  8
0_00
  6
CONTINUOUS
 62
2
 10
1046.9842
 20
294.5675
 11
1046.9842
 21
297.5571
  0
LINE
  8
0_00
  6
CONTINUOUS
 62
2
 10
1060.9841
 20
294.5675
 11
1060.9841
 21
297.5571
  0
LINE
  8
0_00
  6
CONTINUOUS
 62
2
 10
1049.6553
 20
289.3624
 11
1050.9853
 21
289.3624
  0
LINE
  8
0_00
  6
CONTINUOUS
 62
2
 10
1056.9828
 20
289.3624
 11
1058.3130
 21
289.3624
  0
LINE
  8
0_00
  6
CONTINUOUS
 62
2
 10
1048.0841
 20
294.5675
 11
1048.0841
 21
297.5571
  0
LINE
  8
0_00
  6
CONTINUOUS
 62
2
 10
1052.3070
 20
293.5623
 11
1052.5914
 21
293.5623
  0
LINE
  8
0_00
  6
CONTINUOUS
 62
2
 10
1055.3767
 20
293.5623
 11
1055.6612
 21
293.5623
  0
LINE
  8
0_00
  6
CONTINUOUS
 62
2
 10
1053.2341
 20
289.5623
 11
1054.7341
 21
289.5623
  0
LINE
  8
0_00
  6
CONTINUOUS
 62
2
 10
1051.9841
 20
290.8123
 11
1051.9841
 21
292.3123
  0
LINE
  8
0_00
  6
CONTINUOUS
 62
2
 10
1055.9841
 20
290.8123
 11
1055.9841
 21
292.3123
  0
LINE
  8
0_00
  6
CONTINUOUS
 62
2
 10
1052.4586
 20
290.8123
 11
1051.9841
 21
290.8123
  0
LINE
  8
0_00
  6
CONTINUOUS
 62
2
 10
1052.4586
 20
292.3123
 11
1051.9841
 21
292.3123
  0
LINE
  8
0_00
  6
CONTINUOUS
 62
2
 10
1053.2341
 20
290.0367
 11
1053.2341
 21
289.5623
  0
LINE
  8
0_00
  6
CONTINUOUS
 62
2
 10
1054.7341
 20
290.0367
 11
1054.7341
 21
289.5623
  0
LINE
  8
0_00
  6
CONTINUOUS
 62
2
 10
1055.9841
 20
290.8123
 11
1055.5097
 21
290.8123
  0
LINE
  8
0_00
  6
CONTINUOUS
 62
2
 10
1055.5332
 20
292.3123
 11
1055.9841
 21
292.3123
  0
LINE
  8
0_00
  6
CONTINUOUS
 62
2
 10
1049.6553
 20
302.7623
 11
1050.9853
 21
302.7623
  0
LINE
  8
0_00
  6
CONTINUOUS
 62
2
 10
1056.9828
 20
302.7623
 11
1058.3130
 21
302.7623
  0
LINE
  8
0_00
  6
CONTINUOUS
 62
2
 10
1052.3070
 20
298.5623
 11
1052.5914
 21
298.5623
  0
LINE
  8
0_00
  6
CONTINUOUS
 62
2
 10
1055.3767
 20
298.5623
 11
1055.6612
 21
298.5623
  0
LINE
  8
0_00
  6
CONTINUOUS
 62
2
 10
1053.2341
 20
302.5623
 11
1054.7341
 21
302.5623
  0
LINE
  8
0_00
  6
CONTINUOUS
 62
2
 10
1051.9841
 20
301.3123
 11
1051.9841
 21
299.8123
  0
LINE
  8
0_00
  6
CONTINUOUS
 62
2
 10
1055.9841
 20
301.3123
 11
1055.9841
 21
299.8123
  0
LINE
  8
0_00
  6
CONTINUOUS
 62
2
 10
1052.4586
 20
301.3123
 11
1051.9841
 21
301.3123
  0
LINE
  8
0_00
  6
CONTINUOUS
 62
2
 10
1052.4586
 20
299.8123
 11
1051.9841
 21
299.8123
  0
LINE
  8
0_00
  6
CONTINUOUS
 62
2
 10
1053.2341
 20
302.0880
 11
1053.2341
 21
302.5623
  0
LINE
  8
0_00
  6
CONTINUOUS
 62
2
 10
1054.7341
 20
302.0880
 11
1054.7341
 21
302.5623
  0
LINE
  8
0_00
  6
CONTINUOUS
 62
2
 10
1055.9841
 20
301.3123
 11
1055.5097
 21
301.3123
  0
LINE
  8
0_00
  6
CONTINUOUS
 62
2
 10
1055.5332
 20
299.8123
 11
1055.9841
 21
299.8123
  0
LINE
  8
0_00
  6
CONTINUOUS
 62
2
 10
1059.8840
 20
294.5675
 11
1059.8840
 21
297.5571
  0
LINE
  8
13_0D
  6
CONTINUOUS
 62
6
 10
1035.9866
 20
318.4244
 11
1035.9866
 21
444.5000
  0
LINE
  8
13_0D
  6
CONTINUOUS
 62
6
 10
1071.9817
 20
318.4244
 11
1071.9817
 21
444.5000
  0
LINE
  8
13_0D
  6
CONTINUOUS
 62
6
 10
1071.9817
 20
440.0000
 11
1035.9866
 21
440.0000
  0
LINE
  8
13_0D
  6
CONTINUOUS
 62
6
 10
1086.9816
 20
440.0000
 11
1071.9817
 21
440.0000
  0
LINE
  8
13_0D
  6
CONTINUOUS
 62
6
 10
1071.9817
 20
440.0000
 11
1079.3177
 21
438.4407
  0
LINE
  8
13_0D
  6
CONTINUOUS
 62
6
 10
1071.9817
 20
440.0000
 11
1079.3177
 21
441.5593
  0
LINE
  8
13_0D
  6
CONTINUOUS
 62
6
 10
1020.9866
 20
440.0000
 11
1035.9866
 21
440.0000
  0
LINE
  8
13_0D
  6
CONTINUOUS
 62
6
 10
1035.9866
 20
440.0000
 11
1028.6505
 21
441.5593
  0
LINE
  8
13_0D
  6
CONTINUOUS
 62
6
 10
1035.9866
 20
440.0000
 11
1028.6505
 21
438.4407
  0
LINE
  8
13_0D
  6
CONTINUOUS
 62
6
 10
686.0040
 20
284.7748
 11
686.0040
 21
424.5000
  0
LINE
  8
13_0D
  6
CONTINUOUS
 62
6
 10
651.0040
 20
340.7748
 11
651.0040
 21
424.5000
  0
LINE
  8
13_0D
  6
CONTINUOUS
 62
6
 10
651.0040
 20
420.0000
 11
686.0040
 21
420.0000
  0
LINE
  8
13_0D
  6
CONTINUOUS
 62
6
 10
651.0040
 20
420.0000
 11
658.3401
 21
418.4407
  0
LINE
  8
13_0D
  6
CONTINUOUS
 62
6
 10
651.0040
 20
420.0000
 11
658.3401
 21
421.5593
  0
LINE
  8
13_0D
  6
CONTINUOUS
 62
6
 10
686.0040
 20
420.0000
 11
678.6679
 21
421.5593
  0
LINE
  8
13_0D
  6
CONTINUOUS
 62
6
 10
686.0040
 20
420.0000
 11
678.6679
 21
418.4407
  0
ARC
  8
0_00
  6
CONTINUOUS
 62
2
 10
219.2500
 20
430.3066
 40
8.4500
 50
314.7603
 51
405.2397
  0
ARC
  8
0_00
  6
CONTINUOUS
 62
2
 10
371.1500
 20
430.3066
 40
8.4500
 50
134.7603
 51
225.2397
  0
ARC
  8
0_00
  6
CONTINUOUS
 62
4
 10
340.0000
 20
462.2066
 40
0.5000
 50
90.0000
 51
180.0000
  0
ARC
  8
0_00
  6
CONTINUOUS
 62
4
 10
336.5000
 20
460.8066
 40
0.3000
 50
90.0000
 51
180.0000
  0
ARC
  8
0_00
  6
CONTINUOUS
 62
4
 10
336.5000
 20
458.9066
 40
0.3000
 50
180.0000
 51
270.0000
  0
ARC
  8
0_00
  6
CONTINUOUS
 62
4
 10
250.4000
 20
462.2066
 40
0.5000
 50
0.0000
 51
90.0000
  0
ARC
  8
0_00
  6
CONTINUOUS
 62
4
 10
232.4000
 20
462.2066
 40
0.5000
 50
90.0000
 51
180.0000
  0
ARC
  8
0_00
  6
CONTINUOUS
 62
4
 10
246.9000
 20
458.5066
 40
1.0000
 50
0.0000
 51
90.0000
  0
ARC
  8
0_00
  6
CONTINUOUS
 62
4
 10
235.9000
 20
458.5066
 40
1.0000
 50
90.0000
 51
180.0000
  0
ARC
  8
0_00
  6
CONTINUOUS
 62
4
 10
253.9000
 20
460.8066
 40
0.3000
 50
0.0000
 51
90.0000
  0
ARC
  8
0_00
  6
CONTINUOUS
 62
4
 10
253.9000
 20
458.9066
 40
0.3000
 50
270.0000
 51
360.0000
  0
ARC
  8
0_00
  6
CONTINUOUS
 62
4
 10
306.4252
 20
458.8066
 40
2.3000
 50
32.0054
 51
90.0000
  0
ARC
  8
0_00
  6
CONTINUOUS
 62
4
 10
283.9747
 20
458.8066
 40
2.3000
 50
90.0000
 51
147.9946
  0
ARC
  8
0_00
  6
CONTINUOUS
 62
4
 10
336.5000
 20
460.8066
 40
0.3000
 50
90.0000
 51
180.0000
  0
ARC
  8
0_00
  6
CONTINUOUS
 62
4
 10
253.9000
 20
460.8066
 40
0.3000
 50
0.0000
 51
90.0000
  0
ARC
  8
0_00
  6
CONTINUOUS
 62
4
 10
358.0000
 20
462.2066
 40
0.5000
 50
0.0000
 51
90.0000
  0
ARC
  8
0_00
  6
CONTINUOUS
 62
4
 10
340.5000
 20
453.3066
 40
2.0000
 50
270.0000
 51
360.0000
  0
ARC
  8
0_00
  6
CONTINUOUS
 62
4
 10
343.5000
 20
458.5066
 40
1.0000
 50
90.0000
 51
180.0000
  0
ARC
  8
0_00
  6
CONTINUOUS
 62
4
 10
354.5000
 20
458.5066
 40
1.0000
 50
0.0000
 51
90.0000
  0
ARC
  8
0_00
  6
CONTINUOUS
 62
4
 10
375.0000
 20
439.4065
 40
1.0000
 50
270.0000
 51
374.3788
  0
ARC
  8
0_00
  6
CONTINUOUS
 62
4
 10
356.0000
 20
457.7066
 40
0.5000
 50
180.0000
 51
270.0000
  0
ARC
  8
0_00
  6
CONTINUOUS
 62
4
 10
367.9841
 20
456.7066
 40
3.5000
 50
14.3788
 51
90.0000
  0
ARC
  8
0_00
  6
CONTINUOUS
 62
4
 10
367.6695
 20
456.2066
 40
1.0000
 50
17.7004
 51
90.0000
  0
ARC
  8
0_00
  6
CONTINUOUS
 62
4
 10
249.9000
 20
453.3066
 40
2.0000
 50
180.0000
 51
270.0000
  0
ARC
  8
0_00
  6
CONTINUOUS
 62
4
 10
215.4000
 20
439.4065
 40
1.0000
 50
165.6212
 51
270.0000
  0
ARC
  8
0_00
  6
CONTINUOUS
 62
4
 10
234.4000
 20
457.7066
 40
0.5000
 50
270.0000
 51
360.0000
  0
ARC
  8
0_00
  6
CONTINUOUS
 62
4
 10
222.4159
 20
456.7066
 40
3.5000
 50
90.0000
 51
165.6212
  0
ARC
  8
0_00
  6
CONTINUOUS
 62
4
 10
222.7305
 20
456.2066
 40
1.0000
 50
90.0000
 51
162.2996
  0
ARC
  8
0_00
  6
CONTINUOUS
 62
2
 10
323.2000
 20
452.5065
 40
7.7000
 50
39.9831
 51
140.0169
  0
ARC
  8
0_00
  6
CONTINUOUS
 62
2
 10
267.2000
 20
452.5065
 40
7.7000
 50
39.9831
 51
140.0169
  0
ARC
  8
0_00
  6
CONTINUOUS
 62
4
 10
310.2000
 20
457.1066
 40
2.3000
 50
212.0054
 51
270.0000
  0
ARC
  8
0_00
  6
CONTINUOUS
 62
4
 10
280.2000
 20
457.1066
 40
2.3000
 50
270.0000
 51
327.9946
  0
ARC
  8
0_00
  6
CONTINUOUS
 62
2
 10
651.0040
 20
324.0623
 40
2.4500
 50
45.0000
 51
58.5444
  0
ARC
  8
0_00
  6
CONTINUOUS
 62
2
 10
651.0040
 20
324.0623
 40
2.4500
 50
121.3667
 51
135.0000
  0
ARC
  8
0_00
  6
CONTINUOUS
 62
2
 10
651.0040
 20
324.0623
 40
2.4500
 50
211.4556
 51
225.0000
  0
ARC
  8
0_00
  6
CONTINUOUS
 62
2
 10
651.0040
 20
324.0623
 40
2.4500
 50
135.0000
 51
148.6333
  0
ARC
  8
0_00
  6
CONTINUOUS
 62
2
 10
651.0040
 20
324.0623
 40
2.4500
 50
31.4556
 51
45.0000
  0
ARC
  8
0_00
  6
CONTINUOUS
 62
2
 10
651.0040
 20
324.0623
 40
2.4500
 50
315.0000
 51
328.6334
  0
ARC
  8
0_00
  6
CONTINUOUS
 62
2
 10
651.0040
 20
324.0623
 40
2.4500
 50
225.0000
 51
238.5444
  0
ARC
  8
0_00
  6
CONTINUOUS
 62
2
 10
651.0040
 20
324.0623
 40
2.4500
 50
301.3667
 51
315.0000
  0
CIRCLE
  8
0_00
  6
CONTINUOUS
 62
2
 10
651.0040
 20
324.0623
 40
5.9000
  0
ARC
  8
0_00
  6
CONTINUOUS
 62
4
 10
641.5039
 20
335.0623
 40
3.0000
 50
138.1897
 51
180.0000
  0
ARC
  8
0_00
  6
CONTINUOUS
 62
4
 10
695.5040
 20
335.0623
 40
3.0000
 50
0.0000
 51
41.8103
  0
ARC
  8
0_00
  6
CONTINUOUS
 62
4
 10
697.0040
 20
296.0623
 40
0.5000
 50
131.5931
 51
228.4069
  0
ARC
  8
0_00
  6
CONTINUOUS
 62
4
 10
640.0039
 20
296.0623
 40
0.5000
 50
311.5931
 51
408.4069
  0
ARC
  8
0_00
  6
CONTINUOUS
 62
4
 10
668.5040
 20
335.5623
 40
0.5000
 50
222.8383
 51
317.1617
  0
ARC
  8
0_00
  6
CONTINUOUS
 62
4
 10
641.5039
 20
257.0623
 40
3.0000
 50
180.0000
 51
221.8103
  0
ARC
  8
0_00
  6
CONTINUOUS
 62
4
 10
695.5040
 20
257.0623
 40
3.0000
 50
318.1897
 51
360.0000
  0
ARC
  8
0_00
  6
CONTINUOUS
 62
4
 10
668.5040
 20
256.5623
 40
0.5000
 50
42.8383
 51
137.1617
  0
CIRCLE
  8
0_00
  6
CONTINUOUS
 62
2
 10
668.5040
 20
291.5623
 40
2.0000
  0
CIRCLE
  8
0_00
  6
CONTINUOUS
 62
2
 10
668.5040
 20
300.5623
 40
2.0000
  0
ARC
  8
0_00
  6
CONTINUOUS
 62
2
 10
686.0040
 20
268.0623
 40
2.4500
 50
225.0000
 51
238.5444
  0
ARC
  8
0_00
  6
CONTINUOUS
 62
2
 10
686.0040
 20
268.0623
 40
2.4500
 50
301.3667
 51
315.0000
  0
ARC
  8
0_00
  6
CONTINUOUS
 62
2
 10
686.0040
 20
268.0623
 40
2.4500
 50
31.4556
 51
45.0000
  0
ARC
  8
0_00
  6
CONTINUOUS
 62
2
 10
686.0040
 20
268.0623
 40
2.4500
 50
315.0000
 51
328.6334
  0
ARC
  8
0_00
  6
CONTINUOUS
 62
2
 10
686.0040
 20
268.0623
 40
2.4500
 50
211.4556
 51
225.0000
  0
ARC
  8
0_00
  6
CONTINUOUS
 62
2
 10
686.0040
 20
268.0623
 40
2.4500
 50
135.0000
 51
148.6333
  0
ARC
  8
0_00
  6
CONTINUOUS
 62
2
 10
686.0040
 20
268.0623
 40
2.4500
 50
45.0000
 51
58.5444
  0
ARC
  8
0_00
  6
CONTINUOUS
 62
2
 10
686.0040
 20
268.0623
 40
2.4500
 50
121.3667
 51
135.0000
  0
CIRCLE
  8
0_00
  6
CONTINUOUS
 62
2
 10
686.0040
 20
268.0623
 40
5.9000
  0
ARC
  8
0_00
  6
CONTINUOUS
 62
4
 10
655.2540
 20
324.0623
 40
3.2500
 50
282.9377
 51
437.0623
  0
ARC
  8
0_00
  6
CONTINUOUS
 62
4
 10
646.7540
 20
324.0623
 40
3.2500
 50
102.9377
 51
257.0623
  0
ARC
  8
0_00
  6
CONTINUOUS
 62
4
 10
681.7540
 20
324.0623
 40
3.2500
 50
90.0000
 51
270.0000
  0
ARC
  8
0_00
  6
CONTINUOUS
 62
4
 10
690.2540
 20
324.0623
 40
3.2500
 50
270.0000
 51
450.0000
  0
ARC
  8
0_00
  6
CONTINUOUS
 62
4
 10
655.2540
 20
268.0623
 40
3.2500
 50
270.0000
 51
450.0000
  0
ARC
  8
0_00
  6
CONTINUOUS
 62
4
 10
646.7540
 20
268.0623
 40
3.2500
 50
90.0000
 51
270.0000
  0
ARC
  8
0_00
  6
CONTINUOUS
 62
4
 10
681.7540
 20
268.0623
 40
3.2500
 50
102.9377
 51
257.0623
  0
ARC
  8
0_00
  6
CONTINUOUS
 62
4
 10
690.2540
 20
268.0623
 40
3.2500
 50
282.9377
 51
437.0623
  0
ARC
  8
0_00
  6
CONTINUOUS
 62
4
 10
668.5040
 20
291.5623
 40
1.7000
 50
206.1790
 51
243.8210
  0
ARC
  8
0_00
  6
CONTINUOUS
 62
4
 10
668.5040
 20
291.5623
 40
3.2500
 50
163.3985
 51
212.3582
  0
ARC
  8
0_00
  6
CONTINUOUS
 62
4
 10
665.5053
 20
289.6623
 40
0.3000
 50
270.0000
 51
392.3582
  0
ARC
  8
0_00
  6
CONTINUOUS
 62
4
 10
666.8269
 20
292.0623
 40
1.5000
 50
90.0000
 51
163.3985
  0
ARC
  8
0_00
  6
CONTINUOUS
 62
4
 10
668.5040
 20
291.5623
 40
1.7000
 50
131.2509
 51
153.8210
  0
ARC
  8
0_00
  6
CONTINUOUS
 62
4
 10
668.5040
 20
291.5623
 40
1.7000
 50
296.1790
 51
333.8210
  0
ARC
  8
0_00
  6
CONTINUOUS
 62
4
 10
668.5040
 20
291.5623
 40
3.2500
 50
327.6418
 51
376.6016
  0
ARC
  8
0_00
  6
CONTINUOUS
 62
4
 10
670.1810
 20
292.0623
 40
1.5000
 50
16.6015
 51
90.0000
  0
ARC
  8
0_00
  6
CONTINUOUS
 62
4
 10
668.5040
 20
291.5623
 40
1.7000
 50
26.1790
 51
48.7491
  0
ARC
  8
0_00
  6
CONTINUOUS
 62
4
 10
667.1114
 20
293.1503
 40
0.4121
 50
311.2509
 51
450.0000
  0
ARC
  8
0_00
  6
CONTINUOUS
 62
4
 10
669.8966
 20
293.1503
 40
0.4121
 50
90.0000
 51
228.7491
  0
ARC
  8
0_00
  6
CONTINUOUS
 62
4
 10
673.0040
 20
294.5623
 40
11.5000
 50
180.0000
 51
208.3594
  0
ARC
  8
0_00
  6
CONTINUOUS
 62
4
 10
664.2041
 20
289.8123
 40
1.5000
 50
208.3594
 51
270.0000
  0
ARC
  8
0_00
  6
CONTINUOUS
 62
4
 10
673.0040
 20
297.5623
 40
11.5000
 50
151.6406
 51
180.0000
  0
ARC
  8
0_00
  6
CONTINUOUS
 62
4
 10
673.0040
 20
294.5623
 40
10.4000
 50
180.0000
 51
209.0222
  0
ARC
  8
0_00
  6
CONTINUOUS
 62
4
 10
664.1722
 20
289.6623
 40
0.3000
 50
209.0222
 51
270.0000
  0
ARC
  8
0_00
  6
CONTINUOUS
 62
4
 10
673.0040
 20
297.5623
 40
10.4000
 50
150.9778
 51
180.0000
  0
ARC
  8
0_00
  6
CONTINUOUS
 62
4
 10
664.0039
 20
294.5623
 40
11.5000
 50
331.6407
 51
360.0000
  0
ARC
  8
0_00
  6
CONTINUOUS
 62
4
 10
664.0039
 20
297.5623
 40
11.5000
 50
0.0000
 51
28.3593
  0
ARC
  8
0_00
  6
CONTINUOUS
 62
4
 10
664.0039
 20
294.5623
 40
10.4000
 50
330.9778
 51
360.0000
  0
ARC
  8
0_00
  6
CONTINUOUS
 62
4
 10
664.0039
 20
297.5623
 40
10.4000
 50
0.0000
 51
29.0222
  0
ARC
  8
0_00
  6
CONTINUOUS
 62
4
 10
671.5028
 20
289.6623
 40
0.3000
 50
147.6418
 51
270.0000
  0
ARC
  8
0_00
  6
CONTINUOUS
 62
4
 10
672.8038
 20
289.8123
 40
1.5000
 50
270.0000
 51
331.6407
  0
ARC
  8
0_00
  6
CONTINUOUS
 62
4
 10
672.8358
 20
289.6623
 40
0.3000
 50
270.0000
 51
330.9778
  0
ARC
  8
0_00
  6
CONTINUOUS
 62
4
 10
668.5040
 20
300.5623
 40
1.7000
 50
116.1790
 51
153.8210
  0
ARC
  8
0_00
  6
CONTINUOUS
 62
4
 10
668.5040
 20
300.5623
 40
3.2500
 50
147.6418
 51
196.6015
  0
ARC
  8
0_00
  6
CONTINUOUS
 62
4
 10
665.5053
 20
302.4623
 40
0.3000
 50
327.6418
 51
450.0000
  0
ARC
  8
0_00
  6
CONTINUOUS
 62
4
 10
666.8269
 20
300.0623
 40
1.5000
 50
196.6015
 51
270.0000
  0
ARC
  8
0_00
  6
CONTINUOUS
 62
4
 10
668.5040
 20
300.5623
 40
1.7000
 50
206.1790
 51
228.7491
  0
ARC
  8
0_00
  6
CONTINUOUS
 62
4
 10
668.5040
 20
300.5623
 40
1.7000
 50
26.1790
 51
63.8210
  0
ARC
  8
0_00
  6
CONTINUOUS
 62
4
 10
668.5040
 20
300.5623
 40
3.2500
 50
343.3984
 51
392.3582
  0
ARC
  8
0_00
  6
CONTINUOUS
 62
4
 10
670.1810
 20
300.0623
 40
1.5000
 50
270.0000
 51
343.3984
  0
ARC
  8
0_00
  6
CONTINUOUS
 62
4
 10
668.5040
 20
300.5623
 40
1.7000
 50
311.2509
 51
333.8210
  0
ARC
  8
0_00
  6
CONTINUOUS
 62
4
 10
667.1114
 20
298.9744
 40
0.4121
 50
270.0000
 51
408.7491
  0
ARC
  8
0_00
  6
CONTINUOUS
 62
4
 10
669.8966
 20
298.9744
 40
0.4121
 50
131.2509
 51
270.0000
  0
ARC
  8
0_00
  6
CONTINUOUS
 62
4
 10
664.2041
 20
302.3123
 40
1.5000
 50
90.0000
 51
151.6406
  0
ARC
  8
0_00
  6
CONTINUOUS
 62
4
 10
664.1722
 20
302.4623
 40
0.3000
 50
90.0000
 51
150.9778
  0
ARC
  8
0_00
  6
CONTINUOUS
 62
4
 10
671.5028
 20
302.4623
 40
0.3000
 50
90.0000
 51
212.3582
  0
ARC
  8
0_00
  6
CONTINUOUS
 62
4
 10
672.8038
 20
302.3123
 40
1.5000
 50
28.3593
 51
90.0000
  0
ARC
  8
0_00
  6
CONTINUOUS
 62
4
 10
672.8358
 20
302.4623
 40
0.3000
 50
29.0222
 51
90.0000
  0
ARC
  8
0_00
  6
CONTINUOUS
 62
4
 10
586.5419
 20
720.7692
 40
4.4700
 50
90.0000
 51
270.0000
  0
ARC
  8
0_00
  6
CONTINUOUS
 62
4
 10
626.3688
 20
716.4192
 40
0.5232
 50
0.0000
 51
63.8201
  0
ARC
  8
0_00
  6
CONTINUOUS
 62
4
 10
624.0419
 20
711.6863
 40
5.7971
 50
63.8201
 51
116.1798
  0
ARC
  8
0_00
  6
CONTINUOUS
 62
4
 10
621.7152
 20
716.4192
 40
0.5232
 50
116.1798
 51
180.0000
  0
ARC
  8
0_00
  6
CONTINUOUS
 62
4
 10
781.3688
 20
716.4192
 40
0.5232
 50
0.0000
 51
63.8201
  0
ARC
  8
0_00
  6
CONTINUOUS
 62
4
 10
779.0419
 20
711.6863
 40
5.7971
 50
63.8201
 51
116.1798
  0
ARC
  8
0_00
  6
CONTINUOUS
 62
4
 10
776.7151
 20
716.4192
 40
0.5232
 50
116.1798
 51
180.0000
  0
ARC
  8
0_00
  6
CONTINUOUS
 62
4
 10
936.3688
 20
716.4192
 40
0.5232
 50
0.0000
 51
63.8201
  0
ARC
  8
0_00
  6
CONTINUOUS
 62
4
 10
934.0421
 20
711.6863
 40
5.7971
 50
63.8201
 51
116.1798
  0
ARC
  8
0_00
  6
CONTINUOUS
 62
4
 10
931.7151
 20
716.4192
 40
0.5232
 50
116.1798
 51
180.0000
  0
ARC
  8
0_00
  6
CONTINUOUS
 62
4
 10
1086.7151
 20
716.4192
 40
0.5232
 50
116.1798
 51
180.0000
  0
ARC
  8
0_00
  6
CONTINUOUS
 62
4
 10
1089.0419
 20
711.6863
 40
5.7971
 50
63.8201
 51
116.1798
  0
ARC
  8
0_00
  6
CONTINUOUS
 62
4
 10
1091.3687
 20
716.4192
 40
0.5232
 50
0.0000
 51
63.8201
  0
ARC
  8
16_10
  6
CONTINUOUS
 62
4
 10
574.7670
 20
694.2122
 40
1.2600
 50
98.4358
 51
181.8837
  0
ARC
  8
16_10
  6
CONTINUOUS
 62
4
 10
574.6170
 20
689.3592
 40
0.9900
 50
181.8837
 51
223.9454
  0
ARC
  8
16_10
  6
CONTINUOUS
 62
4
 10
574.5049
 20
687.1541
 40
0.5850
 50
181.8837
 51
271.8837
  0
ARC
  8
16_10
  6
CONTINUOUS
 62
4
 10
601.8005
 20
694.1257
 40
1.2600
 50
52.0455
 51
85.6846
  0
ARC
  8
16_10
  6
CONTINUOUS
 62
4
 10
578.5657
 20
694.0982
 40
0.9750
 50
98.4358
 51
181.8837
  0
ARC
  8
16_10
  6
CONTINUOUS
 62
4
 10
577.7133
 20
688.6977
 40
0.2700
 50
1.8837
 51
45.3477
  0
ARC
  8
16_10
  6
CONTINUOUS
 62
4
 10
578.3669
 20
689.3592
 40
0.6600
 50
181.8837
 51
225.3477
  0
ARC
  8
16_10
  6
CONTINUOUS
 62
4
 10
578.2559
 20
687.1242
 40
0.2550
 50
181.8837
 51
271.8837
  0
ARC
  8
16_10
  6
CONTINUOUS
 62
4
 10
578.7985
 20
687.0520
 40
0.3450
 50
271.8837
 51
328.0013
  0
ARC
  8
0_00
  6
CONTINUOUS
 62
4
 10
1126.5420
 20
720.7692
 40
4.4700
 50
270.0000
 51
450.0000
  0
ARC
  8
16_10
  6
CONTINUOUS
 62
4
 10
1138.3169
 20
694.2122
 40
1.2600
 50
358.1163
 51
441.5642
  0
ARC
  8
16_10
  6
CONTINUOUS
 62
4
 10
1138.4669
 20
689.3592
 40
0.9900
 50
316.0546
 51
358.1163
  0
ARC
  8
16_10
  6
CONTINUOUS
 62
4
 10
1138.5791
 20
687.1541
 40
0.5850
 50
268.1163
 51
358.1163
  0
ARC
  8
16_10
  6
CONTINUOUS
 62
4
 10
1111.2834
 20
694.1257
 40
1.2600
 50
94.3154
 51
127.9545
  0
ARC
  8
16_10
  6
CONTINUOUS
 62
4
 10
1134.5182
 20
694.0982
 40
0.9750
 50
358.1163
 51
441.5642
  0
ARC
  8
16_10
  6
CONTINUOUS
 62
4
 10
1135.3706
 20
688.6977
 40
0.2700
 50
134.6523
 51
178.1163
  0
ARC
  8
16_10
  6
CONTINUOUS
 62
4
 10
1134.7169
 20
689.3592
 40
0.6600
 50
314.6523
 51
358.1163
  0
ARC
  8
16_10
  6
CONTINUOUS
 62
4
 10
1134.8282
 20
687.1242
 40
0.2550
 50
268.1163
 51
358.1163
  0
ARC
  8
16_10
  6
CONTINUOUS
 62
4
 10
1134.2854
 20
687.0520
 40
0.3450
 50
211.9987
 51
268.1163
  0
ARC
  8
0_00
  6
CONTINUOUS
 62
3
 10
1089.6760
 20
72.2363
 40
0.5362
 50
270.0000
 51
450.0000
  0
ARC
  8
0_00
  6
CONTINUOUS
 62
3
 10
1088.1842
 20
77.0626
 40
0.6532
 50
0.0000
 51
180.0000
  0
ARC
  8
0_00
  6
CONTINUOUS
 62
3
 10
1089.1886
 20
83.4001
 40
1.9500
 50
333.9999
 51
450.0000
  0
CIRCLE
  8
0_00
  6
CONTINUOUS
 62
3
 10
1090.0660
 20
87.3000
 40
1.5600
  0
ARC
  8
0_00
  6
CONTINUOUS
 62
3
 10
1088.2811
 20
77.0626
 40
0.4500
 50
0.0000
 51
180.0000
  0
ARC
  8
0_00
  6
CONTINUOUS
 62
3
 10
1088.2811
 20
77.0626
 40
0.1500
 50
0.0000
 51
180.0000
  0
ARC
  8
0_00
  6
CONTINUOUS
 62
3
 10
1089.6760
 20
72.1725
 40
0.3000
 50
270.0000
 51
450.0000
  0
CIRCLE
  8
0_00
  6
CONTINUOUS
 62
3
 10
1090.0660
 20
87.3000
 40
1.3244
  0
CIRCLE
  8
0_00
  6
CONTINUOUS
 62
3
 10
1090.0660
 20
87.3000
 40
1.0256
  0
CIRCLE
  8
0_00
  6
CONTINUOUS
 62
3
 10
1090.0660
 20
87.3000
 40
0.7027
  0
CIRCLE
  8
0_00
  6
CONTINUOUS
 62
3
 10
1090.0660
 20
87.3000
 40
0.3440
  0
CIRCLE
  8
0_00
  6
CONTINUOUS
 62
3
 10
1090.0660
 20
87.3000
 40
0.1699
  0
CIRCLE
  8
0_00
  6
CONTINUOUS
 62
4
 10
881.0410
 20
82.2001
 40
3.7500
  0
CIRCLE
  8
0_00
  6
CONTINUOUS
 62
4
 10
881.0410
 20
82.2001
 40
6.0000
  0
ARC
  8
0_00
  6
CONTINUOUS
 62
4
 10
212.6467
 20
422.8061
 40
2.0000
 50
0.4000
 51
46.6979
  0
ARC
  8
0_00
  6
CONTINUOUS
 62
4
 10
216.4188
 20
426.8087
 40
3.5000
 50
180.4000
 51
226.6979
  0
ARC
  8
0_00
  6
CONTINUOUS
 62
4
 10
216.4188
 20
426.8087
 40
3.5000
 50
41.8470
 51
104.5490
  0
ARC
  8
0_00
  6
CONTINUOUS
 62
4
 10
215.2884
 20
431.1644
 40
1.0000
 50
180.4000
 51
284.5490
  0
ARC
  8
0_00
  6
CONTINUOUS
 62
4
 10
218.0576
 20
428.2764
 40
1.3000
 50
330.4000
 51
401.8470
  0
ARC
  8
0_00
  6
CONTINUOUS
 62
4
 10
216.4188
 20
426.8087
 40
1.7500
 50
10.5841
 51
35.0231
  0
ARC
  8
0_00
  6
CONTINUOUS
 62
4
 10
216.4188
 20
426.8087
 40
1.7500
 50
175.7769
 51
215.0231
  0
ARC
  8
0_00
  6
CONTINUOUS
 62
4
 10
216.4188
 20
426.8087
 40
1.7500
 50
85.7769
 51
125.0231
  0
ARC
  8
0_00
  6
CONTINUOUS
 62
4
 10
218.5085
 20
427.1992
 40
0.3759
 50
190.5841
 51
330.4000
  0
ARC
  8
0_00
  6
CONTINUOUS
 62
4
 10
215.9973
 20
424.6495
 40
1.3000
 50
267.6053
 51
330.4000
  0
ARC
  8
0_00
  6
CONTINUOUS
 62
4
 10
216.4188
 20
426.8087
 40
1.7500
 50
265.7769
 51
290.2159
  0
ARC
  8
0_00
  6
CONTINUOUS
 62
4
 10
217.1534
 20
424.8138
 40
0.3759
 50
330.4000
 51
470.2159
  0
ARC
  8
0_00
  6
CONTINUOUS
 62
4
 10
233.0030
 20
455.8065
 40
10.5000
 50
90.0000
 51
98.7462
  0
ARC
  8
0_00
  6
CONTINUOUS
 62
4
 10
218.7000
 20
458.1590
 40
6.0000
 50
98.7462
 51
180.4000
  0
ARC
  8
0_00
  6
CONTINUOUS
 62
4
 10
233.0030
 20
455.8065
 40
9.0000
 50
90.0000
 51
98.7462
  0
ARC
  8
0_00
  6
CONTINUOUS
 62
4
 10
218.6001
 20
458.1437
 40
4.5000
 50
98.7462
 51
180.4000
  0
ARC
  8
0_00
  6
CONTINUOUS
 62
4
 10
357.3970
 20
455.8065
 40
10.5000
 50
81.2538
 51
90.0000
  0
ARC
  8
0_00
  6
CONTINUOUS
 62
4
 10
357.3970
 20
455.8065
 40
9.0000
 50
81.2538
 51
90.0000
  0
ARC
  8
0_00
  6
CONTINUOUS
 62
4
 10
371.7000
 20
458.1590
 40
6.0000
 50
359.6000
 51
441.2538
  0
ARC
  8
0_00
  6
CONTINUOUS
 62
4
 10
371.7999
 20
458.1437
 40
4.5000
 50
359.6000
 51
441.2538
  0
ARC
  8
0_00
  6
CONTINUOUS
 62
4
 10
217.1725
 20
411.9646
 40
0.6500
 50
270.4000
 51
450.4000
  0
ARC
  8
14_0E
  6
CONTINUOUS
 62
4
 10
216.2166
 20
412.8079
 40
1.5000
 50
180.4000
 51
270.4000
  0
ARC
  8
0_00
  6
CONTINUOUS
 62
4
 10
377.7534
 20
422.8061
 40
2.0000
 50
133.3021
 51
179.6000
  0
ARC
  8
0_00
  6
CONTINUOUS
 62
4
 10
373.9812
 20
426.8087
 40
3.5000
 50
313.3021
 51
359.6000
  0
ARC
  8
0_00
  6
CONTINUOUS
 62
4
 10
373.9812
 20
426.8087
 40
3.5000
 50
75.4510
 51
138.1530
  0
ARC
  8
0_00
  6
CONTINUOUS
 62
4
 10
375.1116
 20
431.1644
 40
1.0000
 50
255.4510
 51
359.6000
  0
ARC
  8
0_00
  6
CONTINUOUS
 62
4
 10
372.3424
 20
428.2764
 40
1.3000
 50
138.1530
 51
209.6000
  0
ARC
  8
0_00
  6
CONTINUOUS
 62
4
 10
373.9812
 20
426.8087
 40
1.7500
 50
144.9769
 51
169.4159
  0
ARC
  8
0_00
  6
CONTINUOUS
 62
4
 10
373.9812
 20
426.8087
 40
1.7500
 50
324.9769
 51
364.2231
  0
ARC
  8
0_00
  6
CONTINUOUS
 62
4
 10
373.9812
 20
426.8087
 40
1.7500
 50
54.9769
 51
94.2231
  0
ARC
  8
0_00
  6
CONTINUOUS
 62
4
 10
371.8915
 20
427.1992
 40
0.3759
 50
209.6000
 51
349.4159
  0
ARC
  8
0_00
  6
CONTINUOUS
 62
4
 10
374.4027
 20
424.6495
 40
1.3000
 50
209.6000
 51
272.3947
  0
ARC
  8
0_00
  6
CONTINUOUS
 62
4
 10
373.9812
 20
426.8087
 40
1.7500
 50
249.7841
 51
274.2231
  0
ARC
  8
0_00
  6
CONTINUOUS
 62
4
 10
373.2466
 20
424.8138
 40
0.3759
 50
69.7841
 51
209.6000
  0
ARC
  8
0_00
  6
CONTINUOUS
 62
4
 10
373.2275
 20
411.9646
 40
0.6500
 50
89.6000
 51
269.6000
  0
ARC
  8
14_0E
  6
CONTINUOUS
 62
4
 10
374.1835
 20
412.8079
 40
1.5000
 50
269.6000
 51
359.6000
  0
ARC
  8
0_00
  6
CONTINUOUS
 62
4
 10
215.2316
 20
439.3007
 40
1.0000
 50
180.4000
 51
270.4000
  0
ARC
  8
0_00
  6
CONTINUOUS
 62
4
 10
215.2553
 20
435.9008
 40
1.0000
 50
90.4000
 51
180.4000
  0
ARC
  8
0_00
  6
CONTINUOUS
 62
4
 10
216.5434
 20
437.6098
 40
0.7000
 50
270.4000
 51
450.4000
  0
ARC
  8
0_00
  6
CONTINUOUS
 62
4
 10
375.1684
 20
439.3007
 40
1.0000
 50
269.6000
 51
359.6000
  0
ARC
  8
0_00
  6
CONTINUOUS
 62
4
 10
375.1447
 20
435.9008
 40
1.0000
 50
359.6000
 51
449.6000
  0
ARC
  8
0_00
  6
CONTINUOUS
 62
4
 10
373.8566
 20
437.6098
 40
0.7000
 50
89.6000
 51
269.6000
  0
ARC
  8
0_00
  6
CONTINUOUS
 62
4
 10
269.0349
 20
644.8312
 40
0.3000
 50
142.2891
 51
270.0034
  0
ARC
  8
0_00
  6
CONTINUOUS
 62
4
 10
273.5948
 20
644.0315
 40
0.5000
 50
0.0034
 51
90.0034
  0
ARC
  8
0_00
  6
CONTINUOUS
 62
4
 10
267.8378
 20
628.6311
 40
0.3000
 50
187.5171
 51
348.4034
  0
ARC
  8
0_00
  6
CONTINUOUS
 62
4
 10
295.1952
 20
637.3065
 40
27.5000
 50
136.4727
 51
163.7221
  0
ARC
  8
0_00
  6
CONTINUOUS
 62
4
 10
275.4014
 20
656.1081
 40
0.2000
 50
45.0034
 51
136.4727
  0
ARC
  8
0_00
  6
CONTINUOUS
 62
4
 10
295.1952
 20
637.3065
 40
27.8000
 50
167.0600
 51
174.5814
  0
ARC
  8
0_00
  6
CONTINUOUS
 62
4
 10
295.1952
 20
637.3065
 40
27.8000
 50
177.6802
 51
182.0108
  0
ARC
  8
0_00
  6
CONTINUOUS
 62
4
 10
295.1952
 20
637.3065
 40
27.8000
 50
186.1442
 51
194.0955
  0
ARC
  8
0_00
  6
CONTINUOUS
 62
4
 10
265.3225
 20
629.8055
 40
3.0000
 50
348.4034
 51
374.0955
  0
ARC
  8
0_00
  6
CONTINUOUS
 62
4
 10
295.1952
 20
637.3065
 40
26.5000
 50
133.9223
 51
136.0845
  0
ARC
  8
0_00
  6
CONTINUOUS
 62
4
 10
276.3915
 20
657.0979
 40
0.2000
 50
133.5347
 51
225.0034
  0
ARC
  8
0_00
  6
CONTINUOUS
 62
4
 10
273.0948
 20
643.5237
 40
0.2000
 50
0.0034
 51
92.2013
  0
ARC
  8
0_00
  6
CONTINUOUS
 62
4
 10
273.6949
 20
642.7315
 40
0.4000
 50
180.0034
 51
360.0034
  0
ARC
  8
0_00
  6
CONTINUOUS
 62
4
 10
267.5237
 20
638.6318
 40
0.2000
 50
270.0034
 51
348.3034
  0
ARC
  8
0_00
  6
CONTINUOUS
 62
4
 10
267.7514
 20
639.7318
 40
0.2000
 50
348.3034
 51
450.0034
  0
ARC
  8
0_00
  6
CONTINUOUS
 62
4
 10
268.5051
 20
636.0347
 40
0.2000
 50
344.8643
 51
445.0034
  0
ARC
  8
13_0D
  6
CONTINUOUS
 62
4
 10
265.8022
 20
636.7659
 40
3.0000
 50
305.7479
 51
344.8643
  0
ARC
  8
0_00
  6
CONTINUOUS
 62
4
 10
295.1956
 20
637.3065
 40
27.5000
 50
46.4522
 51
133.5347
  0
ARC
  8
0_00
  6
CONTINUOUS
 62
4
 10
314.0042
 20
657.0936
 40
0.2000
 50
314.9966
 51
406.4522
  0
ARC
  8
0_00
  6
CONTINUOUS
 62
4
 10
295.2000
 20
637.3065
 40
29.0000
 50
342.4092
 51
557.4880
  0
ARC
  8
0_00
  6
CONTINUOUS
 62
4
 10
321.3651
 20
644.8312
 40
0.3000
 50
269.9966
 51
397.7109
  0
ARC
  8
0_00
  6
CONTINUOUS
 62
4
 10
316.8052
 20
644.0315
 40
0.5000
 50
89.9966
 51
179.9966
  0
ARC
  8
0_00
  6
CONTINUOUS
 62
4
 10
322.5622
 20
628.6311
 40
0.3000
 50
191.5966
 51
352.4829
  0
ARC
  8
0_00
  6
CONTINUOUS
 62
4
 10
295.2048
 20
637.3065
 40
27.5000
 50
16.2778
 51
43.5273
  0
ARC
  8
0_00
  6
CONTINUOUS
 62
4
 10
314.9986
 20
656.1081
 40
0.2000
 50
43.5273
 51
134.9966
  0
ARC
  8
0_00
  6
CONTINUOUS
 62
4
 10
295.2048
 20
637.3065
 40
27.8000
 50
5.4186
 51
12.9400
  0
ARC
  8
0_00
  6
CONTINUOUS
 62
4
 10
295.2048
 20
637.3065
 40
27.8000
 50
357.9892
 51
362.3198
  0
ARC
  8
0_00
  6
CONTINUOUS
 62
4
 10
295.2048
 20
637.3065
 40
27.8000
 50
345.9045
 51
353.8558
  0
ARC
  8
0_00
  6
CONTINUOUS
 62
4
 10
325.0775
 20
629.8055
 40
3.0000
 50
165.9045
 51
191.5966
  0
ARC
  8
0_00
  6
CONTINUOUS
 62
4
 10
295.2048
 20
637.3065
 40
26.5000
 50
43.9155
 51
46.0777
  0
ARC
  8
0_00
  6
CONTINUOUS
 62
4
 10
317.3052
 20
643.5237
 40
0.2000
 50
87.7987
 51
179.9966
  0
ARC
  8
0_00
  6
CONTINUOUS
 62
4
 10
316.7051
 20
642.7315
 40
0.4000
 50
179.9966
 51
359.9966
  0
ARC
  8
0_00
  6
CONTINUOUS
 62
4
 10
322.8763
 20
638.6318
 40
0.2000
 50
191.6966
 51
269.9966
  0
ARC
  8
0_00
  6
CONTINUOUS
 62
4
 10
322.6486
 20
639.7318
 40
0.2000
 50
89.9966
 51
191.6966
  0
ARC
  8
0_00
  6
CONTINUOUS
 62
4
 10
321.8949
 20
636.0347
 40
0.2000
 50
94.9966
 51
195.1357
  0
ARC
  8
13_0D
  6
CONTINUOUS
 62
4
 10
324.5978
 20
636.7659
 40
3.0000
 50
195.1357
 51
234.2521
  0
ARC
  8
0_00
  6
CONTINUOUS
 62
4
 10
322.2000
 20
634.0066
 40
0.6000
 50
270.0000
 51
450.0000
  0
ARC
  8
0_00
  6
CONTINUOUS
 62
4
 10
295.2000
 20
637.3065
 40
29.0000
 50
201.7076
 51
269.4103
  0
ARC
  8
0_00
  6
CONTINUOUS
 62
4
 10
295.2000
 20
637.3065
 40
29.0000
 50
270.5897
 51
338.2924
  0
ARC
  8
0_00
  6
CONTINUOUS
 62
4
 10
270.4000
 20
632.8065
 40
0.5000
 50
180.0000
 51
270.0000
  0
ARC
  8
0_00
  6
CONTINUOUS
 62
4
 10
320.0000
 20
632.8065
 40
0.5000
 50
270.0000
 51
360.0000
  0
ARC
  8
0_00
  6
CONTINUOUS
 62
4
 10
322.5000
 20
636.7873
 40
0.5000
 50
275.0000
 51
371.6000
  0
ARC
  8
0_00
  6
CONTINUOUS
 62
4
 10
321.5000
 20
636.2982
 40
1.0000
 50
95.0000
 51
180.0000
  0
ARC
  8
0_00
  6
CONTINUOUS
 62
4
 10
317.7328
 20
637.6317
 40
5.0000
 50
11.6000
 51
45.0000
  0
ARC
  8
0_00
  6
CONTINUOUS
 62
4
 10
317.7328
 20
637.6317
 40
4.1000
 50
11.6000
 51
45.0000
  0
ARC
  8
0_00
  6
CONTINUOUS
 62
4
 10
268.2000
 20
634.0066
 40
0.6000
 50
90.0000
 51
270.0000
  0
ARC
  8
0_00
  6
CONTINUOUS
 62
4
 10
267.9000
 20
636.7873
 40
0.5000
 50
168.4000
 51
265.0000
  0
ARC
  8
0_00
  6
CONTINUOUS
 62
4
 10
270.7500
 20
642.8566
 40
0.4500
 50
0.0000
 51
180.0000
  0
ARC
  8
0_00
  6
CONTINUOUS
 62
4
 10
268.9000
 20
636.2982
 40
1.0000
 50
0.0000
 51
85.0000
  0
ARC
  8
0_00
  6
CONTINUOUS
 62
4
 10
272.6672
 20
637.6317
 40
5.0000
 50
135.0000
 51
168.4000
  0
ARC
  8
0_00
  6
CONTINUOUS
 62
4
 10
272.6672
 20
637.6317
 40
4.1000
 50
135.0000
 51
168.4000
  0
ARC
  8
0_00
  6
CONTINUOUS
 62
4
 10
270.2000
 20
642.3771
 40
1.0000
 50
315.0000
 51
360.0000
  0
ARC
  8
0_00
  6
CONTINUOUS
 62
4
 10
319.6500
 20
642.8566
 40
0.4500
 50
0.0000
 51
180.0000
  0
ARC
  8
0_00
  6
CONTINUOUS
 62
4
 10
320.2000
 20
642.3771
 40
1.0000
 50
180.0000
 51
225.0000
  0
ARC
  8
15_0F
  6
CONTINUOUS
 62
4
 10
295.2000
 20
637.3065
 40
27.9000
 50
202.3023
 51
255.4075
  0
ARC
  8
15_0F
  6
CONTINUOUS
 62
4
 10
295.2000
 20
637.3065
 40
27.9000
 50
284.5926
 51
337.6978
  0
ARC
  8
15_0F
  6
CONTINUOUS
 62
4
 10
268.7211
 20
626.7653
 40
0.5000
 50
150.0000
 51
201.7076
  0
ARC
  8
15_0F
  6
CONTINUOUS
 62
4
 10
321.6789
 20
626.7653
 40
0.5000
 50
338.2924
 51
390.0000
  0
ARC
  8
12_0C
  6
CONTINUOUS
 62
2
 10
277.2000
 20
635.3461
 40
5.1605
 50
39.1846
 51
140.8154
  0
ARC
  8
12_0C
  6
CONTINUOUS
 62
2
 10
313.2000
 20
635.3461
 40
5.1605
 50
39.1846
 51
140.8154
  0
ARC
  8
0_00
  6
CONTINUOUS
 62
2
 10
317.2000
 20
635.7066
 40
2.5000
 50
0.0000
 51
90.0000
  0
ARC
  8
0_00
  6
CONTINUOUS
 62
2
 10
319.2000
 20
632.8065
 40
0.5000
 50
270.0000
 51
360.0000
  0
ARC
  8
0_00
  6
CONTINUOUS
 62
2
 10
306.7000
 20
635.0066
 40
1.0000
 50
180.0000
 51
360.0000
  0
ARC
  8
0_00
  6
CONTINUOUS
 62
2
 10
303.7000
 20
639.6066
 40
4.5000
 50
0.0000
 51
90.0000
  0
ARC
  8
0_00
  6
CONTINUOUS
 62
2
 10
303.7000
 20
639.6066
 40
2.0000
 50
0.0000
 51
90.0000
  0
ARC
  8
0_00
  6
CONTINUOUS
 62
2
 10
273.2000
 20
635.7066
 40
2.5000
 50
90.0000
 51
180.0000
  0
ARC
  8
0_00
  6
CONTINUOUS
 62
2
 10
271.2000
 20
632.8065
 40
0.5000
 50
180.0000
 51
270.0000
  0
ARC
  8
0_00
  6
CONTINUOUS
 62
2
 10
283.7000
 20
635.0066
 40
1.0000
 50
180.0000
 51
360.0000
  0
ARC
  8
0_00
  6
CONTINUOUS
 62
2
 10
286.7000
 20
639.6066
 40
4.5000
 50
90.0000
 51
180.0000
  0
ARC
  8
0_00
  6
CONTINUOUS
 62
2
 10
286.7000
 20
639.6066
 40
2.0000
 50
90.0000
 51
180.0000
  0
ARC
  8
12_0C
  6
CONTINUOUS
 62
2
 10
292.8983
 20
645.0765
 40
1.3000
 50
0.0000
 51
73.3778
  0
ARC
  8
12_0C
  6
CONTINUOUS
 62
2
 10
290.6983
 20
637.7065
 40
9.0000
 50
73.3790
 51
106.6667
  0
ARC
  8
12_0C
  6
CONTINUOUS
 62
2
 10
288.4983
 20
645.0765
 40
1.3000
 50
106.6222
 51
180.0000
  0
ARC
  8
12_0C
  6
CONTINUOUS
 62
2
 10
301.8983
 20
645.0765
 40
1.3000
 50
0.0000
 51
73.3778
  0
ARC
  8
12_0C
  6
CONTINUOUS
 62
2
 10
299.6983
 20
637.7065
 40
9.0000
 50
73.3790
 51
106.6667
  0
ARC
  8
12_0C
  6
CONTINUOUS
 62
2
 10
297.4983
 20
645.0765
 40
1.3000
 50
106.6222
 51
180.0000
  0
ARC
  8
12_0C
  6
CONTINUOUS
 62
2
 10
297.3983
 20
632.8765
 40
1.3000
 50
0.0000
 51
73.3778
  0
ARC
  8
12_0C
  6
CONTINUOUS
 62
2
 10
295.1983
 20
625.5066
 40
9.0000
 50
73.3790
 51
106.6667
  0
ARC
  8
12_0C
  6
CONTINUOUS
 62
2
 10
292.9983
 20
632.8765
 40
1.3000
 50
106.6222
 51
180.0000
  0
ARC
  8
0_00
  6
CONTINUOUS
 62
4
 10
1053.9841
 20
296.0623
 40
18.0000
 50
270.9471
 51
359.0529
  0
ARC
  8
0_00
  6
CONTINUOUS
 62
4
 10
1053.9841
 20
296.0623
 40
18.0000
 50
0.9471
 51
89.0529
  0
ARC
  8
0_00
  6
CONTINUOUS
 62
4
 10
1053.9841
 20
296.0623
 40
18.0000
 50
90.9471
 51
179.0529
  0
ARC
  8
0_00
  6
CONTINUOUS
 62
4
 10
1053.9841
 20
296.0623
 40
18.0000
 50
180.9471
 51
269.0529
  0
ARC
  8
0_00
  6
CONTINUOUS
 62
4
 10
1053.9841
 20
296.0623
 40
16.8000
 50
279.5124
 51
350.4877
  0
ARC
  8
0_00
  6
CONTINUOUS
 62
4
 10
1053.9841
 20
296.0623
 40
16.8000
 50
9.5123
 51
80.4876
  0
ARC
  8
0_00
  6
CONTINUOUS
 62
4
 10
1053.9841
 20
296.0623
 40
16.8000
 50
99.5123
 51
170.4876
  0
ARC
  8
0_00
  6
CONTINUOUS
 62
4
 10
1053.9841
 20
296.0623
 40
16.8000
 50
189.5124
 51
260.4877
  0
ARC
  8
0_00
  6
CONTINUOUS
 62
4
 10
1051.2573
 20
279.7892
 40
0.3000
 50
260.4877
 51
399.8154
  0
ARC
  8
0_00
  6
CONTINUOUS
 62
4
 10
1053.9841
 20
282.0623
 40
1.7000
 50
206.1790
 51
243.8210
  0
ARC
  8
0_00
  6
CONTINUOUS
 62
4
 10
1053.9841
 20
282.0623
 40
1.7000
 50
131.2509
 51
153.8210
  0
ARC
  8
0_00
  6
CONTINUOUS
 62
4
 10
1053.9841
 20
282.0623
 40
3.2500
 50
163.3985
 51
219.8155
  0
ARC
  8
0_00
  6
CONTINUOUS
 62
4
 10
1052.3070
 20
282.5623
 40
1.5000
 50
90.0000
 51
163.3985
  0
ARC
  8
0_00
  6
CONTINUOUS
 62
4
 10
1052.5914
 20
283.6503
 40
0.4121
 50
311.2509
 51
450.0000
  0
ARC
  8
0_00
  6
CONTINUOUS
 62
4
 10
1056.7109
 20
279.7892
 40
0.3000
 50
140.1845
 51
279.5124
  0
ARC
  8
0_00
  6
CONTINUOUS
 62
4
 10
1053.9841
 20
282.0623
 40
1.7000
 50
296.1790
 51
333.8210
  0
ARC
  8
0_00
  6
CONTINUOUS
 62
4
 10
1053.9841
 20
282.0623
 40
1.7000
 50
26.1790
 51
48.7491
  0
ARC
  8
0_00
  6
CONTINUOUS
 62
4
 10
1053.9841
 20
282.0623
 40
3.2500
 50
320.1846
 51
376.6016
  0
ARC
  8
0_00
  6
CONTINUOUS
 62
4
 10
1055.6612
 20
282.5623
 40
1.5000
 50
16.6015
 51
90.0000
  0
ARC
  8
0_00
  6
CONTINUOUS
 62
4
 10
1055.3767
 20
283.6503
 40
0.4121
 50
90.0000
 51
228.7491
  0
ARC
  8
0_00
  6
CONTINUOUS
 62
4
 10
1051.2573
 20
312.3354
 40
0.3000
 50
320.1846
 51
459.5123
  0
ARC
  8
0_00
  6
CONTINUOUS
 62
4
 10
1053.9841
 20
310.0623
 40
1.7000
 50
116.1790
 51
153.8210
  0
ARC
  8
0_00
  6
CONTINUOUS
 62
4
 10
1053.9841
 20
310.0623
 40
1.7000
 50
206.1790
 51
228.7491
  0
ARC
  8
0_00
  6
CONTINUOUS
 62
4
 10
1053.9841
 20
310.0623
 40
3.2500
 50
140.1845
 51
196.6015
  0
ARC
  8
0_00
  6
CONTINUOUS
 62
4
 10
1052.3070
 20
309.5623
 40
1.5000
 50
196.6015
 51
270.0000
  0
ARC
  8
0_00
  6
CONTINUOUS
 62
4
 10
1052.5914
 20
308.4744
 40
0.4121
 50
270.0000
 51
408.7491
  0
ARC
  8
0_00
  6
CONTINUOUS
 62
4
 10
1056.7109
 20
312.3354
 40
0.3000
 50
80.4876
 51
219.8155
  0
ARC
  8
0_00
  6
CONTINUOUS
 62
4
 10
1053.9841
 20
310.0623
 40
1.7000
 50
26.1790
 51
63.8210
  0
ARC
  8
0_00
  6
CONTINUOUS
 62
4
 10
1053.9841
 20
310.0623
 40
1.7000
 50
311.2509
 51
333.8210
  0
ARC
  8
0_00
  6
CONTINUOUS
 62
4
 10
1053.9841
 20
310.0623
 40
3.2500
 50
343.3984
 51
399.8154
  0
ARC
  8
0_00
  6
CONTINUOUS
 62
4
 10
1055.6612
 20
309.5623
 40
1.5000
 50
270.0000
 51
343.3984
  0
ARC
  8
0_00
  6
CONTINUOUS
 62
4
 10
1055.3767
 20
308.4744
 40
0.4121
 50
131.2509
 51
270.0000
  0
ARC
  8
0_00
  6
CONTINUOUS
 62
4
 10
1070.2572
 20
293.3355
 40
0.3000
 50
350.4877
 51
489.8154
  0
ARC
  8
0_00
  6
CONTINUOUS
 62
4
 10
1067.9842
 20
296.0623
 40
1.7000
 50
296.1790
 51
333.8210
  0
ARC
  8
0_00
  6
CONTINUOUS
 62
4
 10
1067.9842
 20
296.0623
 40
1.7000
 50
221.2509
 51
243.8210
  0
ARC
  8
0_00
  6
CONTINUOUS
 62
4
 10
1067.9842
 20
296.0623
 40
3.2500
 50
253.3985
 51
309.8155
  0
ARC
  8
0_00
  6
CONTINUOUS
 62
4
 10
1067.4841
 20
294.3853
 40
1.5000
 50
180.0000
 51
253.3985
  0
ARC
  8
0_00
  6
CONTINUOUS
 62
4
 10
1066.3961
 20
294.6697
 40
0.4121
 50
41.2509
 51
180.0000
  0
ARC
  8
0_00
  6
CONTINUOUS
 62
4
 10
1070.2572
 20
298.7891
 40
0.3000
 50
230.1846
 51
369.5123
  0
ARC
  8
0_00
  6
CONTINUOUS
 62
4
 10
1067.9842
 20
296.0623
 40
1.7000
 50
26.1790
 51
63.8210
  0
ARC
  8
0_00
  6
CONTINUOUS
 62
4
 10
1067.9842
 20
296.0623
 40
1.7000
 50
116.1790
 51
138.7491
  0
ARC
  8
0_00
  6
CONTINUOUS
 62
4
 10
1067.9842
 20
296.0623
 40
3.2500
 50
50.1845
 51
106.6015
  0
ARC
  8
0_00
  6
CONTINUOUS
 62
4
 10
1067.4841
 20
297.7394
 40
1.5000
 50
106.6015
 51
180.0000
  0
ARC
  8
0_00
  6
CONTINUOUS
 62
4
 10
1066.3961
 20
297.4550
 40
0.4121
 50
180.0000
 51
318.7491
  0
ARC
  8
0_00
  6
CONTINUOUS
 62
4
 10
1037.7110
 20
293.3355
 40
0.3000
 50
50.1845
 51
189.5124
  0
ARC
  8
0_00
  6
CONTINUOUS
 62
4
 10
1039.9841
 20
296.0623
 40
1.7000
 50
206.1790
 51
243.8210
  0
ARC
  8
0_00
  6
CONTINUOUS
 62
4
 10
1039.9841
 20
296.0623
 40
1.7000
 50
296.1790
 51
318.7491
  0
ARC
  8
0_00
  6
CONTINUOUS
 62
4
 10
1039.9841
 20
296.0623
 40
3.2500
 50
230.1846
 51
286.6016
  0
ARC
  8
0_00
  6
CONTINUOUS
 62
4
 10
1040.4841
 20
294.3853
 40
1.5000
 50
286.6016
 51
360.0000
  0
ARC
  8
0_00
  6
CONTINUOUS
 62
4
 10
1041.5720
 20
294.6697
 40
0.4121
 50
0.0000
 51
138.7491
  0
ARC
  8
0_00
  6
CONTINUOUS
 62
4
 10
1037.7110
 20
298.7891
 40
0.3000
 50
170.4876
 51
309.8155
  0
ARC
  8
0_00
  6
CONTINUOUS
 62
4
 10
1039.9841
 20
296.0623
 40
1.7000
 50
116.1790
 51
153.8210
  0
ARC
  8
0_00
  6
CONTINUOUS
 62
4
 10
1039.9841
 20
296.0623
 40
1.7000
 50
41.2509
 51
63.8210
  0
ARC
  8
0_00
  6
CONTINUOUS
 62
4
 10
1039.9841
 20
296.0623
 40
3.2500
 50
73.3984
 51
129.8154
  0
ARC
  8
0_00
  6
CONTINUOUS
 62
4
 10
1040.4841
 20
297.7394
 40
1.5000
 50
0.0000
 51
73.3984
  0
ARC
  8
0_00
  6
CONTINUOUS
 62
4
 10
1041.5720
 20
297.4550
 40
0.4121
 50
221.2509
 51
360.0000
  0
CIRCLE
  8
0_00
  6
CONTINUOUS
 62
4
 10
1053.9841
 20
296.0623
 40
18.5000
  0
ARC
  8
0_00
  6
CONTINUOUS
 62
4
 10
1062.9841
 20
287.8123
 40
2.0000
 50
270.0000
 51
360.0000
  0
ARC
  8
0_00
  6
CONTINUOUS
 62
4
 10
1062.9841
 20
304.3123
 40
2.0000
 50
0.0000
 51
90.0000
  0
ARC
  8
0_00
  6
CONTINUOUS
 62
4
 10
1044.9841
 20
287.8123
 40
2.0000
 50
180.0000
 51
270.0000
  0
ARC
  8
0_00
  6
CONTINUOUS
 62
4
 10
1044.9841
 20
304.3123
 40
2.0000
 50
90.0000
 51
180.0000
  0
CIRCLE
  8
0_00
  6
CONTINUOUS
 62
4
 10
1053.9841
 20
296.0623
 40
20.0000
  0
ARC
  8
0_00
  6
CONTINUOUS
 62
2
 10
1058.2811
 20
289.8123
 40
1.5000
 50
270.0000
 51
331.6068
  0
ARC
  8
0_00
  6
CONTINUOUS
 62
2
 10
1049.6870
 20
289.8123
 40
1.5000
 50
208.3932
 51
270.0000
  0
ARC
  8
0_00
  6
CONTINUOUS
 62
2
 10
1058.2811
 20
302.3123
 40
1.5000
 50
28.3932
 51
90.0000
  0
ARC
  8
0_00
  6
CONTINUOUS
 62
2
 10
1049.6870
 20
302.3123
 40
1.5000
 50
90.0000
 51
151.6068
  0
ARC
  8
0_00
  6
CONTINUOUS
 62
2
 10
1058.4842
 20
294.5675
 40
11.5000
 50
180.0000
 51
183.1484
  0
ARC
  8
0_00
  6
CONTINUOUS
 62
2
 10
1058.4842
 20
294.5675
 40
11.5000
 50
183.1484
 51
208.3932
  0
ARC
  8
0_00
  6
CONTINUOUS
 62
2
 10
1058.4842
 20
297.5571
 40
11.5000
 50
151.6068
 51
180.0000
  0
ARC
  8
0_00
  6
CONTINUOUS
 62
2
 10
1049.4841
 20
297.5571
 40
11.5000
 50
0.0000
 51
28.3932
  0
ARC
  8
0_00
  6
CONTINUOUS
 62
2
 10
1049.4841
 20
294.5675
 40
11.5000
 50
331.6068
 51
360.0000
  0
ARC
  8
0_00
  6
CONTINUOUS
 62
2
 10
1049.6553
 20
289.6623
 40
0.3000
 50
209.0559
 51
270.0000
  0
ARC
  8
0_00
  6
CONTINUOUS
 62
2
 10
1050.9853
 20
289.6623
 40
0.3000
 50
270.0000
 51
392.3582
  0
ARC
  8
0_00
  6
CONTINUOUS
 62
2
 10
1056.9828
 20
289.6623
 40
0.3000
 50
147.6418
 51
270.0000
  0
ARC
  8
0_00
  6
CONTINUOUS
 62
2
 10
1053.9841
 20
291.5623
 40
1.7000
 50
206.1790
 51
243.8210
  0
ARC
  8
0_00
  6
CONTINUOUS
 62
2
 10
1053.9841
 20
291.5623
 40
1.7000
 50
296.1790
 51
333.8210
  0
ARC
  8
0_00
  6
CONTINUOUS
 62
2
 10
1053.9841
 20
291.5623
 40
1.7000
 50
25.8347
 51
48.7491
  0
ARC
  8
0_00
  6
CONTINUOUS
 62
2
 10
1053.9841
 20
291.5623
 40
1.7000
 50
131.2509
 51
153.8210
  0
ARC
  8
0_00
  6
CONTINUOUS
 62
2
 10
1053.9841
 20
291.5623
 40
3.2500
 50
163.3985
 51
212.3582
  0
ARC
  8
0_00
  6
CONTINUOUS
 62
2
 10
1052.3070
 20
292.0623
 40
1.5000
 50
90.0000
 51
163.3985
  0
ARC
  8
0_00
  6
CONTINUOUS
 62
2
 10
1053.9841
 20
291.5623
 40
3.2500
 50
327.6418
 51
376.6016
  0
ARC
  8
0_00
  6
CONTINUOUS
 62
2
 10
1055.6612
 20
292.0623
 40
1.5000
 50
16.6015
 51
90.0000
  0
ARC
  8
0_00
  6
CONTINUOUS
 62
2
 10
1052.5914
 20
293.1503
 40
0.4121
 50
311.2509
 51
450.0000
  0
ARC
  8
0_00
  6
CONTINUOUS
 62
2
 10
1055.3767
 20
293.1503
 40
0.4121
 50
90.0000
 51
228.7491
  0
ARC
  8
0_00
  6
CONTINUOUS
 62
2
 10
1049.6553
 20
302.4623
 40
0.3000
 50
90.0000
 51
150.9441
  0
ARC
  8
0_00
  6
CONTINUOUS
 62
2
 10
1050.9853
 20
302.4623
 40
0.3000
 50
327.6418
 51
450.0000
  0
ARC
  8
0_00
  6
CONTINUOUS
 62
2
 10
1056.9828
 20
302.4623
 40
0.3000
 50
90.0000
 51
212.3582
  0
ARC
  8
0_00
  6
CONTINUOUS
 62
2
 10
1053.9841
 20
300.5623
 40
1.7000
 50
116.1790
 51
153.8210
  0
ARC
  8
0_00
  6
CONTINUOUS
 62
2
 10
1053.9841
 20
300.5623
 40
1.7000
 50
26.1790
 51
63.8210
  0
ARC
  8
0_00
  6
CONTINUOUS
 62
2
 10
1053.9841
 20
300.5623
 40
1.7000
 50
311.2509
 51
334.1653
  0
ARC
  8
0_00
  6
CONTINUOUS
 62
2
 10
1053.9841
 20
300.5623
 40
1.7000
 50
206.1790
 51
228.7491
  0
ARC
  8
0_00
  6
CONTINUOUS
 62
2
 10
1053.9841
 20
300.5623
 40
3.2500
 50
147.6418
 51
196.6015
  0
ARC
  8
0_00
  6
CONTINUOUS
 62
2
 10
1052.3070
 20
300.0623
 40
1.5000
 50
196.6015
 51
270.0000
  0
ARC
  8
0_00
  6
CONTINUOUS
 62
2
 10
1053.9841
 20
300.5623
 40
3.2500
 50
343.3984
 51
392.3582
  0
ARC
  8
0_00
  6
CONTINUOUS
 62
2
 10
1055.6612
 20
300.0623
 40
1.5000
 50
270.0000
 51
343.3984
  0
ARC
  8
0_00
  6
CONTINUOUS
 62
2
 10
1052.5914
 20
298.9744
 40
0.4121
 50
270.0000
 51
408.7491
  0
ARC
  8
0_00
  6
CONTINUOUS
 62
2
 10
1055.3767
 20
298.9744
 40
0.4121
 50
131.2509
 51
270.0000
  0
ARC
  8
0_00
  6
CONTINUOUS
 62
2
 10
1058.4842
 20
294.5675
 40
10.4000
 50
180.0000
 51
209.0559
  0
ARC
  8
0_00
  6
CONTINUOUS
 62
2
 10
1058.4842
 20
297.5571
 40
10.4000
 50
150.9441
 51
180.0000
  0
ARC
  8
0_00
  6
CONTINUOUS
 62
2
 10
1058.3130
 20
289.6623
 40
0.3000
 50
270.0000
 51
330.9441
  0
ARC
  8
0_00
  6
CONTINUOUS
 62
2
 10
1058.3130
 20
302.4623
 40
0.3000
 50
29.0559
 51
90.0000
  0
ARC
  8
0_00
  6
CONTINUOUS
 62
2
 10
1049.4841
 20
294.5675
 40
10.4000
 50
330.9441
 51
360.0000
  0
ARC
  8
0_00
  6
CONTINUOUS
 62
2
 10
1049.4841
 20
297.5571
 40
10.4000
 50
0.0000
 51
29.0559
  0
TEXT
  8
0_00
 62
2
 10
200.2000
 20
742.6344
 40
12.00
 41
1.00
 50
0.0000
  1
屋外側
  0
TEXT
  8
0_00
 62
2
 10
361.4000
 20
742.6344
 40
12.00
 41
1.00
 50
0.0000
  1
建物側
  0
TEXT
  8
15_0F
 62
7
 10
118.3665
 20
421.1533
 40
6.75
 41
0.75
 50
90.0000
  1
15
  0
TEXT
  8
15_0F
 62
7
 10
118.3665
 20
461.1066
 40
7.50
 41
1.00
 50
90.0000
  1
Ｈ（トップレール手すり高さ寸法）＝１５０、２００、２５０、３００
  0
TEXT
  8
15_0F
 62
7
 10
769.3076
 20
736.1565
 40
7.50
 41
1.00
 50
0.0000
  1
Ａ
  0
TEXT
  8
15_0F
 62
7
 10
968.9373
 20
656.9344
 40
7.50
 41
1.00
 50
0.0000
  1
Ｂ
  0
TEXT
  8
15_0F
 62
7
 10
769.3076
 20
671.6605
 40
7.50
 41
1.00
 50
0.0000
  1
Ａ
  0
TEXT
  8
15_0F
 62
7
 10
189.3511
 20
484.0630
 40
7.50
 41
1.00
 50
0.0000
  1
トップレールベース
  0
TEXT
  8
15_0F
 62
7
 10
824.1611
 20
70.2000
 40
7.50
 41
1.00
 50
0.0000
  1
１
  0
TEXT
  8
15_0F
 62
7
 10
852.6611
 20
70.2000
 40
7.50
 41
1.00
 50
0.0000
  1
３
  0
TEXT
  8
15_0F
 62
7
 10
704.3110
 20
74.7000
 40
7.50
 41
1.00
 50
0.0000
  1
納まり図
  0
TEXT
  8
15_0F
 62
7
 10
511.7110
 20
41.7000
 40
7.50
 41
1.00
 50
0.0000
  1
木造
  0
TEXT
  8
15_0F
 62
7
 10
511.7110
 20
71.7000
 40
7.50
 41
1.00
 50
0.0000
  1
低層
  0
TEXT
  8
15_0F
 62
7
 10
576.0610
 20
71.7000
 40
7.50
 41
1.00
 50
0.0000
  1
手すり付笠木
  0
TEXT
  8
15_0F
 62
7
 10
583.2610
 20
41.7000
 40
7.50
 41
1.00
 50
0.0000
  1
ＭＡＭ型
  0
TEXT
  8
15_0F
 62
7
 10
639.5110
 20
44.7000
 40
7.50
 41
1.00
 50
0.0000
  1
トップレール手すり［直線部］（Ｍ柱）納まり図
  0
TEXT
  8
15_0F
 62
7
 10
201.0905
 20
100.2001
 40
7.50
 41
1.00
 50
0.0000
  1
1）Ｈ、Ｌ、ＬＣは発注寸法とする。
  0
TEXT
  8
15_0F
 62
7
 10
796.4441
 20
463.0000
 40
7.50
 41
1.00
 50
0.0000
  1
１７５≦Ｌ（柱スパン寸法）≦１３６５
  0
TEXT
  8
15_0F
 62
7
 10
699.9852
 20
789.6496
 40
7.50
 41
1.00
 50
0.0000
  1
Ｌ
  0
TEXT
  8
15_0F
 62
7
 10
826.0361
 20
788.9546
 40
7.50
 41
1.00
 50
0.0000
  1
１７５≦Ｌ≦１３６５
  0
TEXT
  8
15_0F
 62
7
 10
1009.2424
 20
789.6496
 40
7.50
 41
1.00
 50
0.0000
  1
Ｌ
  0
TEXT
  8
15_0F
 62
7
 10
142.0166
 20
556.7301
 40
7.50
 41
1.00
 50
0.0000
  1
トップレール手すり付笠木セット
  0
TEXT
  8
15_0F
 62
7
 10
739.6055
 20
656.9344
 40
7.50
 41
1.00
 50
0.0000
  1
Ｂ
  0
TEXT
  8
0_00
 62
7
 10
391.2380
 20
465.8793
 40
7.50
 41
1.00
 50
0.0000
  1
ブラケット
  0
TEXT
  8
15_0F
 62
7
 10
200.5372
 20
84.4527
 40
7.50
 41
1.00
 50
0.0000
  1
　　（躯体寸法発注の場合、Ｌは標準割付寸法、ＬＣは標準寸法とする。）
  0
TEXT
  8
15_0F
 62
7
 10
200.5036
 20
68.8701
 40
7.50
 41
1.00
 50
0.0000
  1
２）［　］内寸法は標準寸法とする。
  0
TEXT
  8
15_0F
 62
7
 10
116.4955
 20
341.1505
 40
7.50
 41
1.00
 50
0.0000
  1
下穴コーキング処理
  0
TEXT
  8
15_0F
 62
7
 10
126.7727
 20
381.1883
 40
7.50
 41
1.00
 50
0.0000
  1
タッピンねじ・トラス
  0
TEXT
  8
15_0F
 62
7
 10
128.2661
 20
368.5620
 40
7.50
 41
1.00
 50
0.0000
  1
φ５×５０（１種）
  0
TEXT
  8
13_0D
 62
7
 10
184.8000
 20
319.9192
 40
6.75
 41
0.75
 50
0.0000
  1
10
  0
TEXT
  8
13_0D
 62
7
 10
220.3500
 20
307.9192
 40
6.75
 41
0.75
 50
0.0000
  1
n
  0
TEXT
  8
13_0D
 62
7
 10
241.2000
 20
319.9192
 40
7.50
 41
1.00
 50
0.0000
  1
躯体寸法（推奨寸法：Ａ－３０）
  0
TEXT
  8
13_0D
 62
7
 10
362.8500
 20
307.9192
 40
6.75
 41
0.75
 50
0.0000
  1
n
  0
TEXT
  8
13_0D
 62
7
 10
391.2000
 20
319.9192
 40
6.75
 41
0.75
 50
0.0000
  1
10
  0
TEXT
  8
13_0D
 62
7
 10
241.2000
 20
307.9192
 40
7.50
 41
1.00
 50
0.0000
  1
　　　　（最大寸法：Ａ－２０）
  0
TEXT
  8
13_0D
 62
7
 10
219.6000
 20
279.9192
 40
7.50
 41
1.00
 50
0.0000
  1
Ａ（笠木幅）＝１５０、１６５、１８０、　　
  0
TEXT
  8
13_0D
 62
7
 10
230.4000
 20
267.9193
 40
6.75
 41
0.75
 50
0.0000
  1
           １９５、２１０
  0
TEXT
  8
15_0F
 62
7
 10
113.0021
 20
353.7767
 40
7.50
 41
1.00
 50
0.0000
  1
下穴（φ３）現場加工
  0
TEXT
  8
0_00
 62
7
 10
70.2905
 20
40.2001
 40
7.50
 41
1.00
 50
0.0000
  1
適用製品
  0
TEXT
  8
0_00
 62
7
 10
130.2905
 20
40.2001
 40
7.50
 41
1.00
 50
0.0000
  1
適用日付
  0
TEXT
  8
0_00
 62
7
 10
178.5905
 20
100.2001
 40
7.50
 41
1.00
 50
0.0000
  1
記事
  0
TEXT
  8
0_00
 62
7
 10
472.5611
 20
85.2001
 40
7.50
 41
1.00
 50
0.0000
  1
階層仕様
  0
TEXT
  8
0_00
 62
7
 10
472.5611
 20
55.2000
 40
7.50
 41
1.00
 50
0.0000
  1
適用躯体
  0
TEXT
  8
0_00
 62
7
 10
630.0610
 20
85.2001
 40
7.50
 41
1.00
 50
0.0000
  1
名　称
  0
TEXT
  8
0_00
 62
7
 10
630.0610
 20
55.2000
 40
7.50
 41
1.00
 50
0.0000
  1
図　名
  0
TEXT
  8
0_00
 62
7
 10
814.9368
 20
100.2458
 40
7.50
 41
1.00
 50
0.0000
  1
Ｎｏ．
  0
TEXT
  8
0_00
 62
7
 10
1123.5610
 20
100.2001
 40
7.50
 41
1.00
 50
0.0000
  1
適　　　　　　　　用
  0
TEXT
  8
0_00
 62
7
 10
1078.4111
 20
100.2001
 40
7.50
 41
1.00
 50
0.0000
  1
個数
  0
TEXT
  8
0_00
 62
7
 10
1023.2110
 20
100.2001
 40
7.50
 41
1.00
 50
0.0000
  1
材　　質
  0
TEXT
  8
0_00
 62
7
 10
926.1610
 20
100.2001
 40
7.50
 41
1.00
 50
0.0000
  1
部　　　品　　　名
  0
TEXT
  8
0_00
 62
7
 10
895.9360
 20
100.2001
 40
7.50
 41
1.00
 50
0.0000
  1
品番
  0
TEXT
  8
0_00
 62
7
 10
850.8611
 20
100.2001
 40
7.50
 41
1.00
 50
0.0000
  1
図　　番
  0
TEXT
  8
0_00
 62
7
 10
816.6610
 20
85.2001
 40
7.50
 41
1.00
 50
0.0000
  1
尺度
  0
TEXT
  8
0_00
 62
7
 10
816.6610
 20
55.2000
 40
7.50
 41
1.00
 50
0.0000
  1
日付
  0
TEXT
  8
0_00
 62
7
 10
928.3942
 20
85.2001
 40
7.50
 41
1.00
 50
0.0000
  1
承認
  0
TEXT
  8
0_00
 62
7
 10
970.5611
 20
85.2001
 40
7.50
 41
1.00
 50
0.0000
  1
検図
  0
TEXT
  8
0_00
 62
7
 10
1006.8610
 20
85.2001
 40
7.50
 41
1.00
 50
0.0000
  1
設計
  0
TEXT
  8
0_00
 62
7
 10
1044.2110
 20
85.2001
 40
7.50
 41
1.00
 50
0.0000
  1
製図
  0
TEXT
  8
0_00
 62
7
 10
1074.5110
 20
55.2000
 40
7.50
 41
1.00
 50
0.0000
  1
図番
  0
TEXT
  8
0_00
 62
2
 10
1103.9219
 20
74.2350
 40
12.00
 41
1.00
 50
0.0000
  1
文化シヤッター株式会社
  0
TEXT
  8
0_00
 62
7
 10
200.7905
 20
862.9501
 40
7.50
 41
1.00
 50
180.0000
  1
図番
  0
TEXT
  8
0_00
 62
7
 10
799.0510
 20
854.0169
 40
6.00
 41
1.00
 50
0.0000
  1
ＮＯ
  0
TEXT
  8
0_00
 62
7
 10
825.2111
 20
853.9501
 40
7.50
 41
1.00
 50
0.0000
  1
個　数
  0
TEXT
  8
0_00
 62
7
 10
870.3611
 20
853.9501
 40
7.50
 41
1.00
 50
0.0000
  1
日　　付
  0
TEXT
  8
0_00
 62
7
 10
984.2111
 20
853.9501
 40
7.50
 41
1.00
 50
0.0000
  1
訂　　　正　　　記　　　事
  0
TEXT
  8
0_00
 62
7
 10
838.4111
 20
70.2000
 40
6.75
 41
0.75
 50
0.0000
  1
:
  0
TEXT
  8
0_00
 62
7
 10
1137.8712
 20
26.7000
 40
6.00
 41
1.00
 50
0.0000
  1
ＪＩＳ　Ａ－３
  0
TEXT
  8
0_00
 62
7
 10
1179.4986
 20
26.6983
 40
6.00
 41
1.00
 50
0.0000
  1
（２９７×４２０）
  0
TEXT
  8
0_00
 62
7
 10
1153.1111
 20
853.9501
 40
7.50
 41
1.00
 50
0.0000
  1
担　当
  0
TEXT
  8
0_00
 62
7
 10
1189.1111
 20
853.9501
 40
7.50
 41
1.00
 50
0.0000
  1
承　認
  0
TEXT
  8
0_00
 62
7
 10
551.3111
 20
85.2001
 40
7.50
 41
1.00
 50
0.0000
  1
機種名
  0
TEXT
  8
0_00
 62
7
 10
551.3111
 20
55.2000
 40
7.50
 41
1.00
 50
0.0000
  1
型　式
  0
TEXT
  8
0_00
 62
7
 10
288.0000
 20
352.7440
 40
6.75
 41
0.75
 50
0.0000
  1
56
  0
TEXT
  8
15_0F
 62
7
 10
551.2919
 20
790.7957
 40
7.50
 41
1.00
 50
0.0000
  1
２２０≦ＬＣ［２５０］≦４５５
  0
TEXT
  8
15_0F
 62
7
 10
1100.5919
 20
790.7957
 40
7.50
 41
1.00
 50
0.0000
  1
ＬＣ
  0
TEXT
  8
15_0F
 62
7
 10
1186.1882
 20
706.5716
 40
6.75
 41
0.75
 50
90.0000
  1
H
  0
TEXT
  8
15_0F
 62
7
 10
661.3040
 20
443.0000
 40
6.75
 41
0.75
 50
0.0000
  1
60
  0
TEXT
  8
15_0F
 62
7
 10
537.0000
 20
287.5285
 40
6.75
 41
0.75
 50
90.0000
  1
56
  0
TEXT
  8
15_0F
 62
7
 10
95.5046
 20
229.3110
 40
7.50
 41
1.00
 50
0.0000
  1
Ａ－Ａ矢視図
  0
TEXT
  8
15_0F
 62
7
 10
1057.3484
 20
522.9957
 40
7.50
 41
1.00
 50
0.0000
  1
外観姿図（１：２０）
  0
TEXT
  8
15_0F
 62
7
 10
563.8947
 20
400.4495
 40
7.50
 41
1.00
 50
0.0000
  1
ブラケット
  0
TEXT
  8
15_0F
 62
7
 10
542.4842
 20
340.7649
 40
7.50
 41
1.00
 50
0.0000
  1
トップレールベース
  0
TEXT
  8
15_0F
 62
7
 10
545.4400
 20
158.7600
 40
7.50
 41
1.00
 50
0.0000
  1
Ｂ－Ｂ矢視図
  0
TEXT
  8
13_0D
 62
7
 10
139.8665
 20
431.6072
 40
6.75
 41
0.75
 50
90.0000
  1
55
  0
TEXT
  8
13_0D
 62
7
 10
284.4000
 20
719.9193
 40
6.75
 41
0.75
 50
0.0000
  1
φ58
  0
TEXT
  8
15_0F
 62
7
 10
343.6309
 20
680.3673
 40
7.50
 41
1.00
 50
0.0000
  1
Ｍ型笠木カバー
  0
TEXT
  8
15_0F
 62
7
 10
341.2818
 20
612.9600
 40
7.50
 41
1.00
 50
0.0000
  1
Ｍ型トップレール支持金具
  0
TEXT
  8
13_0D
 62
7
 10
1043.1841
 20
441.5000
 40
6.75
 41
0.75
 50
0.0000
  1
φ36
  0
TEXT
  8
13_0D
 62
7
 10
662.2547
 20
421.5000
 40
6.75
 41
0.75
 50
0.0000
  1
35
  0
POINT
  8
15_0F
 62
5
 10
0.0000
 20
0.0000
  0
POINT
  8
13_0D
 62
6
 10
222.7000
 20
318.4192
  0
POINT
  8
13_0D
 62
6
 10
367.7000
 20
318.4192
  0
POINT
  8
13_0D
 62
6
 10
367.7000
 20
318.4192
  0
POINT
  8
0_00
 62
2
 10
24.0905
 20
14.9991
  0
POINT
  8
0_00
 62
2
 10
24.0905
 20
14.9991
  0
POINT
  8
0_00
 62
2
 10
84.6905
 20
59.7001
  0
POINT
  8
0_00
 62
2
 10
84.6905
 20
74.7001
  0
POINT
  8
0_00
 62
2
 10
84.6905
 20
89.7001
  0
POINT
  8
0_00
 62
2
 10
84.6905
 20
104.7001
  0
POINT
  8
0_00
 62
2
 10
518.9110
 20
76.2000
  0
POINT
  8
0_00
 62
2
 10
518.9110
 20
46.2000
  0
POINT
  8
0_00
 62
2
 10
718.7110
 20
79.2000
  0
POINT
  8
0_00
 62
2
 10
718.7110
 20
49.2000
  0
POINT
  8
0_00
 62
2
 10
1097.7610
 20
52.2000
  0
POINT
  8
0_00
 62
2
 10
1014.0610
 20
59.7001
  0
POINT
  8
0_00
 62
2
 10
144.6905
 20
59.7001
  0
POINT
  8
0_00
 62
2
 10
144.6905
 20
74.7001
  0
POINT
  8
0_00
 62
2
 10
144.6905
 20
89.7001
  0
POINT
  8
0_00
 62
2
 10
144.6905
 20
104.7001
  0
POINT
  8
0_00
 62
2
 10
856.2610
 20
74.7000
  0
POINT
  8
0_00
 62
2
 10
827.7610
 20
74.7000
  0
POINT
  8
0_00
 62
2
 10
204.6905
 20
104.7001
  0
POINT
  8
0_00
 62
2
 10
204.6905
 20
89.7001
  0
POINT
  8
0_00
 62
2
 10
204.6905
 20
74.7001
  0
POINT
  8
0_00
 62
2
 10
204.6905
 20
59.7001
  0
POINT
  8
0_00
 62
2
 10
204.6905
 20
44.7001
  0
POINT
  8
0_00
 62
2
 10
1051.4110
 20
59.7001
  0
POINT
  8
0_00
 62
2
 10
84.6905
 20
44.7001
  0
POINT
  8
0_00
 62
2
 10
144.6905
 20
44.7001
  0
POINT
  8
0_00
 62
2
 10
174.6905
 20
858.4501
  0
POINT
  8
0_00
 62
2
 10
862.6360
 20
49.2000
  0
POINT
  8
0_00
 62
2
 10
597.6610
 20
76.2000
  0
POINT
  8
0_00
 62
2
 10
597.6610
 20
46.2000
  0
POINT
  8
0_00
 62
5
 10
295.2000
 20
451.3066
  0
POINT
  8
0_00
 62
2
 10
295.2000
 20
632.3066
  0
POINT
  8
0_00
 62
2
 10
295.2000
 20
632.3066
  0
POINT
  8
0_00
 62
2
 10
1053.9841
 20
296.0623
  0
POINT
  8
0_00
 62
2
 10
1053.9841
 20
296.0623
  0
ENDSEC
  0
EOF
