999
  
  0
SECTION
  2
HEADER
  9
$EXTMIN
 10
0
 20
0
  9
$EXTMAX
 10
1260
 20
888
  9
$LTSCALE
 40
3.00
  9
$PDMODE
 70
33
  9
$PDSIZE
 40
1.80
  0
ENDSEC
  0
SECTION
  2
TABLES
  0
TABLE
  2
LTYPE
 70
9
  0
LTYPE
  2
CONTINUOUS
 70
64
  3
実線
 72
65
 73
0
 40
0.00
  0
LTYPE
  2
DASHED
 70
64
  3
__  __  __  __  __  __  __ 
 72
65
 73
2
 40
1.00
 49
0.50
 49
-0.50
  0
LTYPE
  2
HIDDEN1
 70
64
  3
____    ____    ____    ___
 72
65
 73
2
 40
2.20
 49
1.20
 49
-1.00
  0
LTYPE
  2
HIDDEN2
 70
64
  3
______  ______  ______  ___
 72
65
 73
2
 40
4.50
 49
3.50
 49
-1.00
  0
LTYPE
  2
CENTER1
 70
64
  3
_______ _ _______ _ _______
 72
65
 73
4
 40
20.00
 49
17.00
 49
-1.00
 49
1.00
 49
-1.00
  0
LTYPE
  2
CENTER2
 70
64
  3
___________  __  __________
 72
65
 73
4
 40
40.00
 49
34.00
 49
-2.00
 49
2.00
 49
-2.00
  0
LTYPE
  2
PHANTOM1
 70
64
  3
______ _ _ ______ _ _ _____
 72
65
 73
6
 40
20.00
 49
15.00
 49
-1.00
 49
1.00
 49
-1.00
 49
1.00
 49
-1.00
  0
LTYPE
  2
PHANTOM2
 70
64
  3
__________  _  _  _________
 72
65
 73
6
 40
40.00
 49
30.00
 49
-2.00
 49
2.00
 49
-2.00
 49
2.00
 49
-2.00
  0
LTYPE
  2
DOT
 70
64
  3
 .  .  .  .  .  .  .  .  . 
 72
65
 73
2
 40
1.00
 49
0.00
 49
-1.00
  0
ENDTAB
  0
TABLE
  2
STYLE
 70
1
  0
STYLE
  2
STANDARD
 70
64
 40
0.0
 41
1.0
 42
0.0
 50
0.0
 71
0
  3
ROMANS
  4
BIGFONT
  0
ENDTAB
  0
TABLE
  2
LAYER
 70
7
  0
LAYER
  2
0_00
 70
64
 62
7
  6
CONTINUOUS
  0
LAYER
  2
3_03
 70
64
 62
7
  6
CONTINUOUS
  0
LAYER
  2
12_0C
 70
64
 62
7
  6
CONTINUOUS
  0
LAYER
  2
13_0D
 70
64
 62
7
  6
CONTINUOUS
  0
LAYER
  2
14_0E
 70
64
 62
7
  6
CONTINUOUS
  0
LAYER
  2
15_0F
 70
64
 62
7
  6
CONTINUOUS
  0
LAYER
  2
16_10
 70
64
 62
7
  6
CONTINUOUS
  0
ENDTAB
  0
ENDSEC
  0
SECTION
  2
ENTITIES
  0
LINE
  8
0_00
  6
CENTER1
 62
6
 10
297.2841
 20
575.1515
 11
297.2841
 21
510.0829
  0
LINE
  8
0_00
  6
CENTER1
 62
6
 10
241.2841
 20
575.1515
 11
241.2841
 21
510.0829
  0
LINE
  8
0_00
  6
CENTER1
 62
6
 10
269.2841
 20
612.2599
 11
269.2841
 21
472.2734
  0
LINE
  8
0_00
  6
CONTINUOUS
 62
4
 10
245.7841
 20
579.4008
 11
292.7841
 21
579.4008
  0
LINE
  8
0_00
  6
CENTER1
 62
6
 10
217.2841
 20
700.5324
 11
217.2841
 21
678.2528
  0
LINE
  8
0_00
  6
CENTER1
 62
6
 10
181.2841
 20
700.2539
 11
181.2841
 21
678.6242
  0
LINE
  8
0_00
  6
CENTER1
 62
6
 10
199.2841
 20
763.8085
 11
199.2841
 21
659.3047
  0
LINE
  8
0_00
  6
CENTER1
 62
6
 10
255.7841
 20
563.5779
 11
255.7841
 21
594.1607
  0
LINE
  8
0_00
  6
CENTER1
 62
6
 10
282.7841
 20
563.5779
 11
282.7841
 21
594.1607
  0
LINE
  8
0_00
  6
CENTER1
 62
6
 10
515.8980
 20
289.5646
 11
1078.7722
 21
289.5646
  0
LINE
  8
0_00
  6
CENTER1
 62
6
 10
630.1303
 20
380.8623
 11
630.1303
 21
194.9979
  0
LINE
  8
0_00
  6
CONTINUOUS
 62
2
 10
835.0349
 20
391.1254
 11
809.0176
 21
294.0275
  0
LINE
  8
0_00
  6
CONTINUOUS
 62
2
 10
830.6883
 20
392.2901
 11
803.5063
 21
290.8455
  0
LINE
  8
0_00
  6
CONTINUOUS
 62
2
 10
827.3944
 20
284.4447
 11
801.5702
 21
188.0674
  0
LINE
  8
0_00
  6
CONTINUOUS
 62
2
 10
805.9168
 20
186.9026
 11
832.9058
 21
287.6267
  0
LINE
  8
0_00
  6
CONTINUOUS
 62
2
 10
809.0176
 20
294.0275
 11
832.9058
 21
287.6267
  0
LINE
  8
0_00
  6
CONTINUOUS
 62
2
 10
827.3944
 20
284.4447
 11
803.5063
 21
290.8455
  0
LINE
  8
0_00
  6
CENTER1
 62
6
 10
1015.6104
 20
325.2839
 11
1015.6104
 21
253.2625
  0
LINE
  8
0_00
  6
CENTER1
 62
6
 10
1003.9156
 20
303.0646
 11
1027.1733
 21
303.0646
  0
LINE
  8
0_00
  6
CENTER1
 62
6
 10
1003.9156
 20
276.0646
 11
1027.1733
 21
276.0646
  0
LINE
  8
0_00
  6
CONTINUOUS
 62
2
 10
1014.3344
 20
305.1545
 11
1015.2034
 21
304.3158
  0
LINE
  8
0_00
  6
CONTINUOUS
 62
2
 10
1015.2034
 20
304.3158
 11
1015.6104
 21
304.1673
  0
LINE
  8
0_00
  6
CONTINUOUS
 62
2
 10
1015.6104
 20
304.1673
 11
1015.9954
 21
304.3076
  0
LINE
  8
0_00
  6
CONTINUOUS
 62
2
 10
1015.9954
 20
304.3076
 11
1016.8918
 21
305.1518
  0
LINE
  8
0_00
  6
CONTINUOUS
 62
2
 10
1013.5205
 20
304.3406
 11
1014.3592
 21
303.4716
  0
LINE
  8
0_00
  6
CONTINUOUS
 62
2
 10
1014.3592
 20
303.4716
 11
1014.5077
 21
303.0646
  0
LINE
  8
0_00
  6
CONTINUOUS
 62
2
 10
1014.5077
 20
303.0646
 11
1014.3674
 21
302.6797
  0
LINE
  8
0_00
  6
CONTINUOUS
 62
2
 10
1014.3674
 20
302.6797
 11
1013.5232
 21
301.7832
  0
LINE
  8
0_00
  6
CONTINUOUS
 62
2
 10
1017.7002
 20
301.7887
 11
1016.8616
 21
302.6577
  0
LINE
  8
0_00
  6
CONTINUOUS
 62
2
 10
1016.8616
 20
302.6577
 11
1016.7130
 21
303.0646
  0
LINE
  8
0_00
  6
CONTINUOUS
 62
2
 10
1016.7130
 20
303.0646
 11
1016.8532
 21
303.4496
  0
LINE
  8
0_00
  6
CONTINUOUS
 62
2
 10
1016.8532
 20
303.4496
 11
1017.6974
 21
304.3461
  0
LINE
  8
0_00
  6
CONTINUOUS
 62
2
 10
1016.8863
 20
300.9747
 11
1016.0174
 21
301.8135
  0
LINE
  8
0_00
  6
CONTINUOUS
 62
2
 10
1016.0174
 20
301.8135
 11
1015.6104
 21
301.9619
  0
LINE
  8
0_00
  6
CONTINUOUS
 62
2
 10
1015.6104
 20
301.9619
 11
1015.2253
 21
301.8217
  0
LINE
  8
0_00
  6
CONTINUOUS
 62
2
 10
1015.2253
 20
301.8217
 11
1014.3289
 21
300.9775
  0
LINE
  8
0_00
  6
CONTINUOUS
 62
2
 10
1014.3344
 20
278.1545
 11
1015.2034
 21
277.3158
  0
LINE
  8
0_00
  6
CONTINUOUS
 62
2
 10
1015.2034
 20
277.3158
 11
1015.6104
 21
277.1673
  0
LINE
  8
0_00
  6
CONTINUOUS
 62
2
 10
1015.6104
 20
277.1673
 11
1015.9954
 21
277.3076
  0
LINE
  8
0_00
  6
CONTINUOUS
 62
2
 10
1015.9954
 20
277.3076
 11
1016.8918
 21
278.1518
  0
LINE
  8
0_00
  6
CONTINUOUS
 62
2
 10
1013.5205
 20
277.3406
 11
1014.3592
 21
276.4716
  0
LINE
  8
0_00
  6
CONTINUOUS
 62
2
 10
1014.3592
 20
276.4716
 11
1014.5077
 21
276.0646
  0
LINE
  8
0_00
  6
CONTINUOUS
 62
2
 10
1014.5077
 20
276.0646
 11
1014.3674
 21
275.6797
  0
LINE
  8
0_00
  6
CONTINUOUS
 62
2
 10
1014.3674
 20
275.6797
 11
1013.5232
 21
274.7832
  0
LINE
  8
0_00
  6
CONTINUOUS
 62
2
 10
1017.7002
 20
274.7887
 11
1016.8616
 21
275.6577
  0
LINE
  8
0_00
  6
CONTINUOUS
 62
2
 10
1016.8616
 20
275.6577
 11
1016.7130
 21
276.0646
  0
LINE
  8
0_00
  6
CONTINUOUS
 62
2
 10
1016.7130
 20
276.0646
 11
1016.8532
 21
276.4496
  0
LINE
  8
0_00
  6
CONTINUOUS
 62
2
 10
1016.8532
 20
276.4496
 11
1017.6974
 21
277.3461
  0
LINE
  8
0_00
  6
CONTINUOUS
 62
2
 10
1016.8863
 20
273.9747
 11
1016.0174
 21
274.8134
  0
LINE
  8
0_00
  6
CONTINUOUS
 62
2
 10
1016.0174
 20
274.8134
 11
1015.6104
 21
274.9619
  0
LINE
  8
0_00
  6
CONTINUOUS
 62
2
 10
1015.6104
 20
274.9619
 11
1015.2253
 21
274.8217
  0
LINE
  8
0_00
  6
CONTINUOUS
 62
2
 10
1015.2253
 20
274.8217
 11
1014.3289
 21
273.9775
  0
LINE
  8
0_00
  6
CONTINUOUS
 62
4
 10
1001.6104
 20
268.5646
 11
1001.6104
 21
310.5646
  0
LINE
  8
0_00
  6
CONTINUOUS
 62
4
 10
1006.6103
 20
266.0646
 11
1006.6103
 21
310.5646
  0
LINE
  8
0_00
  6
CONTINUOUS
 62
4
 10
1006.6103
 20
266.0646
 11
1002.1103
 21
266.0646
  0
LINE
  8
0_00
  6
CONTINUOUS
 62
4
 10
999.6104
 20
268.5646
 11
999.6104
 21
310.5646
  0
LINE
  8
0_00
  6
CONTINUOUS
 62
4
 10
1024.6103
 20
266.0646
 11
1006.6103
 21
266.0646
  0
LINE
  8
0_00
  6
CONTINUOUS
 62
4
 10
1029.6104
 20
268.5646
 11
1029.6104
 21
310.5646
  0
LINE
  8
0_00
  6
CONTINUOUS
 62
4
 10
1024.6103
 20
266.0646
 11
1024.6103
 21
310.5646
  0
LINE
  8
0_00
  6
CONTINUOUS
 62
4
 10
1029.1103
 20
266.0646
 11
1024.6103
 21
266.0646
  0
LINE
  8
0_00
  6
CONTINUOUS
 62
4
 10
1031.6104
 20
268.5646
 11
1031.6104
 21
310.5646
  0
LINE
  8
0_00
  6
CONTINUOUS
 62
4
 10
1029.1103
 20
313.0646
 11
1002.1103
 21
313.0646
  0
LINE
  8
0_00
  6
CONTINUOUS
 62
4
 10
730.7541
 20
567.3682
 11
1161.0040
 21
567.3682
  0
LINE
  8
0_00
  6
CENTER1
 62
6
 10
738.6290
 20
736.6302
 11
738.6290
 21
695.7173
  0
LINE
  8
0_00
  6
CENTER1
 62
6
 10
776.1290
 20
736.6302
 11
776.1290
 21
695.7173
  0
LINE
  8
0_00
  6
CENTER1
 62
6
 10
1086.1290
 20
736.6302
 11
1086.1290
 21
695.7173
  0
LINE
  8
0_00
  6
CENTER1
 62
6
 10
931.1290
 20
736.6302
 11
931.1290
 21
695.7173
  0
LINE
  8
0_00
  6
CONTINUOUS
 62
4
 10
732.7790
 20
719.1544
 11
1161.0040
 21
719.1544
  0
LINE
  8
0_00
  6
CONTINUOUS
 62
4
 10
732.7790
 20
726.2044
 11
1161.0040
 21
726.2044
  0
LINE
  8
0_00
  6
CONTINUOUS
 62
4
 10
730.7541
 20
693.7877
 11
730.7541
 21
567.3682
  0
LINE
  8
3_03
  6
CONTINUOUS
 62
4
 10
732.7040
 20
726.3092
 11
728.2245
 21
726.3092
  0
LINE
  8
3_03
  6
CONTINUOUS
 62
4
 10
723.6291
 20
719.1094
 11
732.7040
 21
719.1094
  0
LINE
  8
3_03
  6
CONTINUOUS
 62
4
 10
732.7790
 20
719.1544
 11
732.7790
 21
726.2342
  0
LINE
  8
3_03
  6
CONTINUOUS
 62
4
 10
723.5540
 20
725.1129
 11
723.5540
 21
719.1844
  0
LINE
  8
0_00
  6
DASHED
 62
2
 10
206.7499
 20
290.5510
 11
356.7499
 21
290.5510
  0
LINE
  8
0_00
  6
CENTER1
 62
6
 10
266.2499
 20
299.2802
 11
266.2499
 21
274.4751
  0
LINE
  8
0_00
  6
CENTER1
 62
6
 10
287.2499
 20
299.2802
 11
287.2499
 21
274.4751
  0
LINE
  8
0_00
  6
DASHED
 62
2
 10
206.7499
 20
292.2510
 11
356.7499
 21
292.2510
  0
LINE
  8
0_00
  6
CONTINUOUS
 62
4
 10
206.7499
 20
289.0510
 11
356.7499
 21
289.0510
  0
LINE
  8
0_00
  6
CONTINUOUS
 62
4
 10
260.7499
 20
176.0510
 11
292.7499
 21
176.0510
  0
LINE
  8
0_00
  6
CONTINUOUS
 62
4
 10
285.7499
 20
188.5510
 11
285.7499
 21
275.0510
  0
LINE
  8
0_00
  6
CONTINUOUS
 62
4
 10
267.7499
 20
188.5510
 11
267.7499
 21
275.0510
  0
LINE
  8
0_00
  6
CONTINUOUS
 62
4
 10
270.2499
 20
277.5510
 11
283.2499
 21
277.5510
  0
LINE
  8
0_00
  6
CONTINUOUS
 62
4
 10
262.7499
 20
186.0510
 11
260.7499
 21
176.0510
  0
LINE
  8
0_00
  6
CONTINUOUS
 62
4
 10
290.7499
 20
186.0510
 11
292.7499
 21
176.0510
  0
LINE
  8
0_00
  6
CONTINUOUS
 62
4
 10
283.2499
 20
186.0510
 11
270.2499
 21
186.0510
  0
LINE
  8
0_00
  6
CONTINUOUS
 62
4
 10
266.7499
 20
196.0510
 11
263.7499
 21
196.0510
  0
LINE
  8
0_00
  6
CONTINUOUS
 62
4
 10
263.7499
 20
272.5510
 11
266.7499
 21
272.5510
  0
LINE
  8
0_00
  6
CONTINUOUS
 62
4
 10
286.7499
 20
272.5510
 11
289.7499
 21
272.5510
  0
LINE
  8
0_00
  6
CONTINUOUS
 62
4
 10
286.7499
 20
196.0510
 11
289.7499
 21
196.0510
  0
LINE
  8
0_00
  6
CONTINUOUS
 62
4
 10
206.7499
 20
175.5510
 11
356.7499
 21
175.5510
  0
LINE
  8
0_00
  6
CENTER1
 62
6
 10
276.7499
 20
344.1801
 11
276.7499
 21
154.6116
  0
LINE
  8
0_00
  6
CENTER1
 62
6
 10
728.1291
 20
736.6302
 11
728.1291
 21
709.8385
  0
LINE
  8
0_00
  6
CENTER1
 62
6
 10
814.6685
 20
219.5647
 11
1081.2846
 21
219.5647
  0
LINE
  8
0_00
  6
CONTINUOUS
 62
6
 10
1067.1401
 20
218.9498
 11
1093.6466
 21
179.5918
  0
LINE
  8
0_00
  6
CONTINUOUS
 62
6
 10
1067.1401
 20
218.9498
 11
1069.9449
 21
211.9939
  0
LINE
  8
0_00
  6
CONTINUOUS
 62
6
 10
1067.1401
 20
218.9498
 11
1072.5315
 21
213.7360
  0
LINE
  8
0_00
  6
CONTINUOUS
 62
6
 10
1093.6466
 20
179.5918
 11
1148.8466
 21
179.5918
  0
LINE
  8
0_00
  6
CONTINUOUS
 62
6
 10
250.3952
 20
643.8515
 11
268.7747
 21
662.2310
  0
LINE
  8
0_00
  6
CONTINUOUS
 62
6
 10
250.3952
 20
643.8515
 11
256.6852
 21
647.9363
  0
LINE
  8
0_00
  6
CONTINUOUS
 62
6
 10
250.3952
 20
643.8515
 11
254.4800
 21
650.1415
  0
LINE
  8
0_00
  6
CONTINUOUS
 62
6
 10
268.7747
 20
662.2310
 11
313.7747
 21
662.2310
  0
LINE
  8
0_00
  6
CONTINUOUS
 62
6
 10
252.5277
 20
589.1572
 11
216.1373
 21
625.5477
  0
LINE
  8
0_00
  6
CONTINUOUS
 62
6
 10
252.5277
 20
589.1572
 11
248.4429
 21
595.4473
  0
LINE
  8
0_00
  6
CONTINUOUS
 62
6
 10
252.5277
 20
589.1572
 11
246.2377
 21
593.2420
  0
LINE
  8
0_00
  6
CONTINUOUS
 62
6
 10
216.1373
 20
625.5477
 11
154.5310
 21
625.5477
  0
LINE
  8
0_00
  6
CONTINUOUS
 62
6
 10
241.8271
 20
599.8579
 11
145.0672
 21
599.8579
  0
LINE
  8
15_0F
  6
CONTINUOUS
 62
6
 10
776.1290
 20
751.6302
 11
776.1290
 21
795.4795
  0
LINE
  8
15_0F
  6
CONTINUOUS
 62
6
 10
738.6290
 20
751.6302
 11
738.6290
 21
795.4795
  0
LINE
  8
15_0F
  6
CONTINUOUS
 62
6
 10
738.6290
 20
789.4795
 11
776.1290
 21
789.4795
  0
LINE
  8
15_0F
  6
CONTINUOUS
 62
6
 10
931.1290
 20
751.6302
 11
931.1290
 21
795.4795
  0
LINE
  8
15_0F
  6
CONTINUOUS
 62
6
 10
776.1290
 20
789.4795
 11
931.1290
 21
789.4795
  0
LINE
  8
15_0F
  6
CONTINUOUS
 62
6
 10
776.1290
 20
789.4795
 11
783.4651
 21
787.9201
  0
LINE
  8
15_0F
  6
CONTINUOUS
 62
6
 10
776.1290
 20
789.4795
 11
783.4651
 21
791.0389
  0
LINE
  8
15_0F
  6
CONTINUOUS
 62
6
 10
931.1290
 20
789.4795
 11
923.7929
 21
791.0389
  0
LINE
  8
15_0F
  6
CONTINUOUS
 62
6
 10
931.1290
 20
789.4795
 11
923.7929
 21
787.9201
  0
LINE
  8
15_0F
  6
CONTINUOUS
 62
6
 10
1086.1290
 20
751.6302
 11
1086.1290
 21
795.4795
  0
LINE
  8
15_0F
  6
CONTINUOUS
 62
6
 10
931.1290
 20
789.4795
 11
1086.1290
 21
789.4795
  0
LINE
  8
15_0F
  6
CONTINUOUS
 62
6
 10
931.1290
 20
789.4795
 11
938.4651
 21
787.9201
  0
LINE
  8
15_0F
  6
CONTINUOUS
 62
6
 10
931.1290
 20
789.4795
 11
938.4651
 21
791.0389
  0
LINE
  8
15_0F
  6
CONTINUOUS
 62
6
 10
1086.1290
 20
789.4795
 11
1078.7930
 21
791.0389
  0
LINE
  8
15_0F
  6
CONTINUOUS
 62
6
 10
1086.1290
 20
789.4795
 11
1078.7930
 21
787.9201
  0
LINE
  8
15_0F
  6
CONTINUOUS
 62
6
 10
1086.1290
 20
789.4795
 11
1161.0040
 21
789.4795
  0
LINE
  8
15_0F
  6
CONTINUOUS
 62
6
 10
1086.1290
 20
789.4795
 11
1093.4650
 21
787.9201
  0
LINE
  8
15_0F
  6
CONTINUOUS
 62
6
 10
1086.1290
 20
789.4795
 11
1093.4650
 21
791.0389
  0
LINE
  8
0_00
  6
CONTINUOUS
 62
4
 10
103.0841
 20
798.8786
 11
134.2841
 21
798.8786
  0
LINE
  8
0_00
  6
CONTINUOUS
 62
4
 10
134.2841
 20
798.8786
 11
134.2841
 21
813.2786
  0
LINE
  8
0_00
  6
CONTINUOUS
 62
4
 10
103.0841
 20
813.2786
 11
134.2841
 21
813.2786
  0
LINE
  8
0_00
  6
CONTINUOUS
 62
4
 10
103.0841
 20
798.8786
 11
103.0841
 21
813.2786
  0
LINE
  8
0_00
  6
CONTINUOUS
 62
4
 10
284.2841
 20
798.8786
 11
315.4841
 21
798.8786
  0
LINE
  8
0_00
  6
CONTINUOUS
 62
4
 10
315.4841
 20
798.8786
 11
315.4841
 21
813.2786
  0
LINE
  8
0_00
  6
CONTINUOUS
 62
4
 10
284.2841
 20
813.2786
 11
315.4841
 21
813.2786
  0
LINE
  8
0_00
  6
CONTINUOUS
 62
4
 10
284.2841
 20
798.8786
 11
284.2841
 21
813.2786
  0
LINE
  8
0_00
  6
CENTER1
 62
6
 10
427.2841
 20
700.5324
 11
427.2841
 21
678.2528
  0
LINE
  8
0_00
  6
CENTER1
 62
6
 10
391.2841
 20
700.2539
 11
391.2841
 21
678.6242
  0
LINE
  8
0_00
  6
CENTER1
 62
6
 10
409.2841
 20
737.1406
 11
409.2841
 21
657.8047
  0
LINE
  8
0_00
  6
CONTINUOUS
 62
4
 10
387.7841
 20
693.9008
 11
430.7841
 21
693.9008
  0
LINE
  8
0_00
  6
CONTINUOUS
 62
4
 10
430.7841
 20
693.9008
 11
430.7841
 21
678.1881
  0
LINE
  8
0_00
  6
DASHED
 62
4
 10
387.7841
 20
680.9008
 11
430.7841
 21
680.9008
  0
LINE
  8
0_00
  6
CONTINUOUS
 62
4
 10
387.7841
 20
693.9008
 11
387.7841
 21
680.9008
  0
LINE
  8
0_00
  6
CONTINUOUS
 62
4
 10
245.7841
 20
579.4008
 11
245.7841
 21
586.9013
  0
LINE
  8
0_00
  6
CONTINUOUS
 62
4
 10
292.7841
 20
579.4008
 11
292.7841
 21
596.0132
  0
LINE
  8
0_00
  6
CONTINUOUS
 62
6
 10
245.7841
 20
589.4008
 11
292.7841
 21
589.4008
  0
LINE
  8
0_00
  6
CONTINUOUS
 62
4
 10
177.7841
 20
693.9008
 11
220.7841
 21
693.9008
  0
LINE
  8
0_00
  6
CONTINUOUS
 62
4
 10
220.7841
 20
693.9008
 11
220.7841
 21
678.1881
  0
LINE
  8
0_00
  6
DASHED
 62
4
 10
177.7841
 20
680.9008
 11
220.7841
 21
680.9008
  0
LINE
  8
0_00
  6
CONTINUOUS
 62
4
 10
177.7841
 20
693.9008
 11
177.7841
 21
680.9008
  0
LINE
  8
0_00
  6
CONTINUOUS
 62
6
 10
227.8210
 20
737.3492
 11
243.5973
 21
753.1256
  0
LINE
  8
0_00
  6
CONTINUOUS
 62
6
 10
227.8210
 20
737.3492
 11
234.1110
 21
741.4340
  0
LINE
  8
0_00
  6
CONTINUOUS
 62
6
 10
227.8210
 20
737.3492
 11
231.9058
 21
743.6393
  0
LINE
  8
0_00
  6
CONTINUOUS
 62
6
 10
243.5973
 20
753.1256
 11
302.9973
 21
753.1256
  0
LINE
  8
0_00
  6
CONTINUOUS
 62
6
 10
433.1211
 20
724.7186
 11
448.5046
 21
740.1021
  0
LINE
  8
0_00
  6
CONTINUOUS
 62
6
 10
433.1211
 20
724.7186
 11
439.4111
 21
728.8034
  0
LINE
  8
0_00
  6
CONTINUOUS
 62
6
 10
433.1211
 20
724.7186
 11
437.2059
 21
731.0087
  0
LINE
  8
0_00
  6
CONTINUOUS
 62
6
 10
448.5046
 20
740.1021
 11
507.9045
 21
740.1021
  0
LINE
  8
0_00
  6
CONTINUOUS
 62
6
 10
262.7499
 20
224.2171
 11
241.9426
 21
245.0244
  0
LINE
  8
0_00
  6
CONTINUOUS
 62
6
 10
262.7499
 20
224.2171
 11
258.6651
 21
230.5071
  0
LINE
  8
0_00
  6
CONTINUOUS
 62
6
 10
262.7499
 20
224.2171
 11
256.4598
 21
228.3019
  0
LINE
  8
0_00
  6
CONTINUOUS
 62
6
 10
241.9426
 20
245.0244
 11
196.9426
 21
245.0244
  0
LINE
  8
0_00
  6
CONTINUOUS
 62
6
 10
349.6637
 20
567.9573
 11
369.5811
 21
587.8747
  0
LINE
  8
0_00
  6
CONTINUOUS
 62
6
 10
349.6637
 20
567.9573
 11
355.9538
 21
572.0421
  0
LINE
  8
0_00
  6
CONTINUOUS
 62
6
 10
349.6637
 20
567.9573
 11
353.7485
 21
574.2473
  0
LINE
  8
0_00
  6
CONTINUOUS
 62
6
 10
369.5811
 20
587.8747
 11
414.5811
 21
587.8747
  0
LINE
  8
0_00
  6
CONTINUOUS
 62
4
 10
742.1540
 20
702.9094
 11
742.1540
 21
704.6663
  0
LINE
  8
0_00
  6
CONTINUOUS
 62
4
 10
735.1040
 20
702.9094
 11
735.1040
 21
703.2995
  0
LINE
  8
0_00
  6
CONTINUOUS
 62
4
 10
731.3540
 20
719.1094
 11
731.3540
 21
716.9924
  0
LINE
  8
0_00
  6
CONTINUOUS
 62
4
 10
724.9040
 20
719.1094
 11
724.9040
 21
717.3994
  0
LINE
  8
0_00
  6
CONTINUOUS
 62
2
 10
948.1889
 20
741.9884
 11
948.1889
 21
677.4924
  0
LINE
  8
0_00
  6
CONTINUOUS
 62
2
 10
948.1889
 20
741.9884
 11
932.3994
 21
741.9884
  0
LINE
  8
0_00
  6
CONTINUOUS
 62
2
 10
932.3994
 20
741.9884
 11
939.7354
 21
740.4291
  0
LINE
  8
0_00
  6
CONTINUOUS
 62
2
 10
932.3994
 20
741.9884
 11
939.7354
 21
743.5478
  0
LINE
  8
0_00
  6
CONTINUOUS
 62
2
 10
948.1889
 20
677.4924
 11
932.3994
 21
677.4924
  0
LINE
  8
0_00
  6
CONTINUOUS
 62
2
 10
932.3994
 20
677.4924
 11
939.7354
 21
675.9331
  0
LINE
  8
0_00
  6
CONTINUOUS
 62
2
 10
932.3994
 20
677.4924
 11
939.7354
 21
679.0517
  0
LINE
  8
0_00
  6
CONTINUOUS
 62
2
 10
895.5995
 20
694.7216
 11
1008.5026
 21
694.7216
  0
LINE
  8
0_00
  6
CONTINUOUS
 62
2
 10
1008.5026
 20
694.7216
 11
1008.5026
 21
706.3330
  0
LINE
  8
0_00
  6
CONTINUOUS
 62
2
 10
1008.5026
 20
706.3330
 11
1124.9314
 21
706.3330
  0
LINE
  8
0_00
  6
CONTINUOUS
 62
2
 10
1124.9314
 20
706.3330
 11
1124.9314
 21
670.9406
  0
LINE
  8
0_00
  6
CONTINUOUS
 62
2
 10
1124.9314
 20
670.9406
 11
1126.4908
 21
678.2766
  0
LINE
  8
0_00
  6
CONTINUOUS
 62
2
 10
1124.9314
 20
670.9406
 11
1123.3721
 21
678.2766
  0
LINE
  8
0_00
  6
CONTINUOUS
 62
2
 10
895.5995
 20
694.7216
 11
895.5995
 21
670.9406
  0
LINE
  8
0_00
  6
CONTINUOUS
 62
2
 10
895.5995
 20
670.9406
 11
897.1588
 21
678.2766
  0
LINE
  8
0_00
  6
CONTINUOUS
 62
2
 10
895.5995
 20
670.9406
 11
894.0401
 21
678.2766
  0
LINE
  8
0_00
  6
CENTER1
 62
6
 10
623.4048
 20
700.5324
 11
623.4048
 21
678.2528
  0
LINE
  8
0_00
  6
CENTER1
 62
6
 10
587.4048
 20
700.2539
 11
587.4048
 21
678.6242
  0
LINE
  8
0_00
  6
CENTER1
 62
6
 10
605.4048
 20
737.1406
 11
605.4048
 21
657.8047
  0
LINE
  8
0_00
  6
CONTINUOUS
 62
4
 10
583.9048
 20
693.9008
 11
626.9048
 21
693.9008
  0
LINE
  8
0_00
  6
CONTINUOUS
 62
4
 10
626.9048
 20
693.9008
 11
626.9048
 21
678.1881
  0
LINE
  8
0_00
  6
DASHED
 62
4
 10
583.9048
 20
680.9008
 11
626.9048
 21
680.9008
  0
LINE
  8
0_00
  6
CONTINUOUS
 62
4
 10
583.9048
 20
693.9008
 11
583.9048
 21
680.9008
  0
LINE
  8
0_00
  6
CONTINUOUS
 62
6
 10
625.6682
 20
721.1452
 11
644.6252
 21
740.1021
  0
LINE
  8
0_00
  6
CONTINUOUS
 62
6
 10
625.6682
 20
721.1452
 11
631.9582
 21
725.2299
  0
LINE
  8
0_00
  6
CONTINUOUS
 62
6
 10
625.6682
 20
721.1452
 11
629.7530
 21
727.4351
  0
LINE
  8
0_00
  6
CONTINUOUS
 62
6
 10
644.6252
 20
740.1021
 11
704.0253
 21
740.1021
  0
LINE
  8
0_00
  6
CONTINUOUS
 62
6
 10
301.4141
 20
577.8298
 11
312.9590
 21
589.3747
  0
LINE
  8
0_00
  6
CONTINUOUS
 62
6
 10
301.4141
 20
577.8298
 11
307.7042
 21
581.9146
  0
LINE
  8
0_00
  6
CONTINUOUS
 62
6
 10
301.4141
 20
577.8298
 11
305.4989
 21
584.1199
  0
LINE
  8
0_00
  6
CONTINUOUS
 62
6
 10
312.9590
 20
589.3747
 11
336.3590
 21
589.3747
  0
LINE
  8
0_00
  6
CONTINUOUS
 62
6
 10
735.0484
 20
703.7044
 11
742.1540
 21
703.7044
  0
LINE
  8
15_0F
  6
CONTINUOUS
 62
6
 10
720.6290
 20
789.4795
 11
738.6290
 21
789.4795
  0
LINE
  8
15_0F
  6
CONTINUOUS
 62
6
 10
738.6290
 20
789.4795
 11
731.2929
 21
791.0389
  0
LINE
  8
15_0F
  6
CONTINUOUS
 62
6
 10
738.6290
 20
789.4795
 11
731.2929
 21
787.9201
  0
LINE
  8
0_00
  6
CONTINUOUS
 62
4
 10
199.2841
 20
548.9008
 11
339.2841
 21
548.9008
  0
LINE
  8
0_00
  6
CONTINUOUS
 62
4
 10
321.7841
 20
548.9008
 11
321.7841
 21
451.6216
  0
LINE
  8
0_00
  6
CONTINUOUS
 62
4
 10
216.7841
 20
548.9008
 11
216.7841
 21
451.6216
  0
LINE
  8
0_00
  6
CONTINUOUS
 62
4
 10
321.7841
 20
498.9008
 11
216.7841
 21
498.9008
  0
LINE
  8
0_00
  6
CONTINUOUS
 62
4
 10
216.7841
 20
498.9008
 11
321.7841
 21
548.9008
  0
LINE
  8
0_00
  6
CONTINUOUS
 62
4
 10
327.2841
 20
548.9008
 11
327.2841
 21
451.6216
  0
LINE
  8
0_00
  6
CONTINUOUS
 62
2
 10
323.6174
 20
548.9008
 11
323.6174
 21
451.6216
  0
LINE
  8
0_00
  6
CONTINUOUS
 62
2
 10
325.4507
 20
548.9008
 11
325.4507
 21
451.6216
  0
LINE
  8
0_00
  6
CONTINUOUS
 62
4
 10
211.2841
 20
548.9008
 11
211.2841
 21
451.6216
  0
LINE
  8
0_00
  6
CONTINUOUS
 62
2
 10
214.9507
 20
548.9008
 11
214.9507
 21
451.6216
  0
LINE
  8
0_00
  6
CONTINUOUS
 62
2
 10
213.1174
 20
548.9008
 11
213.1174
 21
451.6216
  0
LINE
  8
0_00
  6
CONTINUOUS
 62
4
 10
339.2841
 20
563.9008
 11
339.2841
 21
548.9008
  0
LINE
  8
0_00
  6
CONTINUOUS
 62
4
 10
339.2841
 20
536.9008
 11
339.2841
 21
451.6216
  0
LINE
  8
0_00
  6
CONTINUOUS
 62
4
 10
199.2841
 20
536.9008
 11
211.2841
 21
536.9008
  0
LINE
  8
0_00
  6
CONTINUOUS
 62
4
 10
327.2841
 20
536.9008
 11
339.2841
 21
536.9008
  0
LINE
  8
0_00
  6
CONTINUOUS
 62
4
 10
199.2841
 20
563.9008
 11
199.2841
 21
548.9008
  0
LINE
  8
0_00
  6
CONTINUOUS
 62
4
 10
199.2841
 20
536.9008
 11
199.2841
 21
451.6216
  0
LINE
  8
0_00
  6
CONTINUOUS
 62
6
 10
200.4495
 20
548.9008
 11
199.8408
 21
548.2921
  0
LINE
  8
0_00
  6
CONTINUOUS
 62
6
 10
203.2779
 20
548.9008
 11
200.9463
 21
546.5692
  0
LINE
  8
0_00
  6
CONTINUOUS
 62
6
 10
206.1063
 20
548.9008
 11
201.6432
 21
544.4377
  0
LINE
  8
0_00
  6
CONTINUOUS
 62
6
 10
208.9348
 20
548.9008
 11
201.6922
 21
541.6583
  0
LINE
  8
0_00
  6
CONTINUOUS
 62
6
 10
211.2841
 20
548.4218
 11
199.7632
 21
536.9008
  0
LINE
  8
0_00
  6
CONTINUOUS
 62
6
 10
211.2841
 20
545.5933
 11
202.5916
 21
536.9008
  0
LINE
  8
0_00
  6
CONTINUOUS
 62
6
 10
211.2841
 20
542.7649
 11
205.4201
 21
536.9008
  0
LINE
  8
0_00
  6
CONTINUOUS
 62
6
 10
211.2841
 20
539.9365
 11
208.2485
 21
536.9008
  0
LINE
  8
0_00
  6
CONTINUOUS
 62
6
 10
211.2841
 20
537.1080
 11
211.0769
 21
536.9008
  0
LINE
  8
0_00
  6
CONTINUOUS
 62
6
 10
328.2171
 20
548.9008
 11
327.2841
 21
547.9677
  0
LINE
  8
0_00
  6
CONTINUOUS
 62
6
 10
331.0456
 20
548.9008
 11
327.2841
 21
545.1393
  0
LINE
  8
0_00
  6
CONTINUOUS
 62
6
 10
333.8740
 20
548.9008
 11
327.2841
 21
542.3109
  0
LINE
  8
0_00
  6
CONTINUOUS
 62
6
 10
336.7024
 20
548.9008
 11
327.2841
 21
539.4825
  0
LINE
  8
0_00
  6
CONTINUOUS
 62
6
 10
338.1743
 20
547.5443
 11
327.5308
 21
536.9008
  0
LINE
  8
0_00
  6
CONTINUOUS
 62
6
 10
336.7953
 20
543.3369
 11
330.3593
 21
536.9008
  0
LINE
  8
0_00
  6
CONTINUOUS
 62
6
 10
337.0571
 20
540.7703
 11
333.1877
 21
536.9008
  0
LINE
  8
0_00
  6
CONTINUOUS
 62
6
 10
337.8707
 20
538.7555
 11
336.0161
 21
536.9008
  0
LINE
  8
0_00
  6
CONTINUOUS
 62
6
 10
339.0675
 20
537.1237
 11
338.8446
 21
536.9008
  0
LINE
  8
0_00
  6
CONTINUOUS
 62
4
 10
199.2841
 20
563.9008
 11
339.2841
 21
563.9008
  0
LINE
  8
0_00
  6
CONTINUOUS
 62
2
 10
205.4201
 20
536.9008
 11
199.2841
 21
530.7649
  0
LINE
  8
0_00
  6
CONTINUOUS
 62
2
 10
208.2485
 20
536.9008
 11
199.2841
 21
527.9365
  0
LINE
  8
0_00
  6
CONTINUOUS
 62
2
 10
211.2841
 20
507.4095
 11
199.2841
 21
495.4095
  0
LINE
  8
0_00
  6
CONTINUOUS
 62
2
 10
211.2841
 20
504.5811
 11
199.2841
 21
492.5811
  0
LINE
  8
0_00
  6
CONTINUOUS
 62
2
 10
211.2841
 20
472.0542
 11
199.2841
 21
460.0542
  0
LINE
  8
0_00
  6
CONTINUOUS
 62
2
 10
211.2841
 20
469.2258
 11
199.2841
 21
457.2258
  0
LINE
  8
0_00
  6
CONTINUOUS
 62
2
 10
333.4201
 20
536.9008
 11
327.2841
 21
530.7649
  0
LINE
  8
0_00
  6
CONTINUOUS
 62
2
 10
336.2485
 20
536.9008
 11
327.2841
 21
527.9365
  0
LINE
  8
0_00
  6
CONTINUOUS
 62
2
 10
339.2841
 20
507.4095
 11
327.2841
 21
495.4095
  0
LINE
  8
0_00
  6
CONTINUOUS
 62
2
 10
339.2841
 20
504.5811
 11
327.2841
 21
492.5811
  0
LINE
  8
0_00
  6
CONTINUOUS
 62
2
 10
339.2841
 20
472.0542
 11
327.2841
 21
460.0542
  0
LINE
  8
0_00
  6
CONTINUOUS
 62
2
 10
339.2841
 20
469.2258
 11
327.2841
 21
457.2258
  0
LINE
  8
0_00
  6
PHANTOM1
 62
2
 10
341.7841
 20
563.9008
 11
341.7841
 21
451.6216
  0
LINE
  8
0_00
  6
PHANTOM1
 62
2
 10
196.7841
 20
563.9008
 11
196.7841
 21
451.6216
  0
LINE
  8
0_00
  6
CONTINUOUS
 62
4
 10
339.2841
 20
563.9008
 11
199.2841
 21
548.9008
  0
LINE
  8
0_00
  6
CONTINUOUS
 62
4
 10
313.5841
 20
574.8008
 11
313.5841
 21
573.7008
  0
LINE
  8
0_00
  6
CONTINUOUS
 62
4
 10
315.0841
 20
575.3009
 11
314.0841
 21
575.3009
  0
LINE
  8
0_00
  6
CONTINUOUS
 62
4
 10
315.0841
 20
575.3009
 11
315.0841
 21
575.1008
  0
LINE
  8
0_00
  6
CONTINUOUS
 62
4
 10
313.5841
 20
573.7008
 11
310.5841
 21
573.7008
  0
LINE
  8
0_00
  6
CONTINUOUS
 62
4
 10
310.2841
 20
573.4008
 11
310.2841
 21
571.5008
  0
LINE
  8
0_00
  6
CONTINUOUS
 62
4
 10
310.5841
 20
571.2008
 11
313.0841
 21
571.2008
  0
LINE
  8
0_00
  6
CONTINUOUS
 62
4
 10
207.4841
 20
575.1008
 11
223.4841
 21
575.1008
  0
LINE
  8
0_00
  6
CONTINUOUS
 62
4
 10
224.9841
 20
574.8008
 11
224.9841
 21
573.7008
  0
LINE
  8
0_00
  6
CONTINUOUS
 62
4
 10
223.4841
 20
575.3009
 11
224.4841
 21
575.3009
  0
LINE
  8
0_00
  6
CONTINUOUS
 62
4
 10
223.4841
 20
575.3009
 11
223.4841
 21
575.1008
  0
LINE
  8
0_00
  6
CONTINUOUS
 62
4
 10
207.4841
 20
575.3009
 11
207.4841
 21
575.1008
  0
LINE
  8
0_00
  6
CONTINUOUS
 62
4
 10
205.9841
 20
574.8008
 11
205.9841
 21
572.8008
  0
LINE
  8
0_00
  6
CONTINUOUS
 62
4
 10
206.4841
 20
575.3009
 11
207.4841
 21
575.3009
  0
LINE
  8
0_00
  6
CONTINUOUS
 62
4
 10
209.9841
 20
572.1008
 11
220.9841
 21
572.1008
  0
LINE
  8
0_00
  6
CONTINUOUS
 62
4
 10
224.9841
 20
573.7008
 11
227.9841
 21
573.7008
  0
LINE
  8
0_00
  6
CONTINUOUS
 62
4
 10
228.2841
 20
573.4008
 11
228.2841
 21
571.5008
  0
LINE
  8
0_00
  6
CONTINUOUS
 62
4
 10
227.9841
 20
571.2008
 11
225.4841
 21
571.2008
  0
LINE
  8
0_00
  6
CONTINUOUS
 62
2
 10
207.4841
 20
575.1008
 11
207.4841
 21
577.4008
  0
LINE
  8
0_00
  6
CONTINUOUS
 62
2
 10
209.7841
 20
575.1008
 11
207.4841
 21
577.4008
  0
LINE
  8
0_00
  6
CONTINUOUS
 62
2
 10
212.0468
 20
575.1008
 11
209.7468
 21
577.4008
  0
LINE
  8
0_00
  6
CONTINUOUS
 62
2
 10
214.3095
 20
575.1008
 11
212.0096
 21
577.4008
  0
LINE
  8
0_00
  6
CONTINUOUS
 62
2
 10
216.5723
 20
575.1008
 11
214.2723
 21
577.4008
  0
LINE
  8
0_00
  6
CONTINUOUS
 62
2
 10
217.4841
 20
576.4518
 11
216.5351
 21
577.4008
  0
LINE
  8
0_00
  6
CONTINUOUS
 62
2
 10
207.5213
 20
575.1008
 11
207.4841
 21
575.1381
  0
LINE
  8
0_00
  6
CONTINUOUS
 62
2
 10
209.8213
 20
577.4008
 11
207.5213
 21
575.1008
  0
LINE
  8
0_00
  6
CONTINUOUS
 62
2
 10
212.0840
 20
577.4008
 11
209.7841
 21
575.1008
  0
LINE
  8
0_00
  6
CONTINUOUS
 62
2
 10
214.3468
 20
577.4008
 11
212.0468
 21
575.1008
  0
LINE
  8
0_00
  6
CONTINUOUS
 62
2
 10
216.6095
 20
577.4008
 11
214.3095
 21
575.1008
  0
LINE
  8
0_00
  6
CONTINUOUS
 62
2
 10
217.4841
 20
576.0126
 11
216.5723
 21
575.1008
  0
LINE
  8
0_00
  6
CONTINUOUS
 62
2
 10
207.5586
 20
577.4008
 11
207.4841
 21
577.3263
  0
LINE
  8
0_00
  6
CONTINUOUS
 62
2
 10
217.4841
 20
575.1008
 11
217.4841
 21
577.4008
  0
LINE
  8
0_00
  6
CONTINUOUS
 62
4
 10
312.5341
 20
576.9008
 11
312.5341
 21
573.7008
  0
LINE
  8
0_00
  6
CONTINUOUS
 62
2
 10
312.5341
 20
576.9008
 11
312.5341
 21
577.2008
  0
LINE
  8
0_00
  6
CONTINUOUS
 62
4
 10
223.9841
 20
563.9008
 11
314.5841
 21
563.9008
  0
LINE
  8
0_00
  6
CONTINUOUS
 62
4
 10
331.0841
 20
575.1008
 11
315.0841
 21
575.1008
  0
LINE
  8
0_00
  6
CONTINUOUS
 62
4
 10
313.0841
 20
571.2008
 11
313.0841
 21
567.4008
  0
LINE
  8
0_00
  6
CONTINUOUS
 62
4
 10
331.0841
 20
575.3009
 11
331.0841
 21
575.1008
  0
LINE
  8
0_00
  6
CONTINUOUS
 62
4
 10
332.5841
 20
574.8008
 11
332.5841
 21
572.8008
  0
LINE
  8
0_00
  6
CONTINUOUS
 62
4
 10
332.0841
 20
575.3009
 11
331.0841
 21
575.3009
  0
LINE
  8
0_00
  6
CONTINUOUS
 62
4
 10
316.5841
 20
571.1008
 11
316.5841
 21
565.9008
  0
LINE
  8
0_00
  6
CONTINUOUS
 62
4
 10
328.5841
 20
572.1008
 11
317.5841
 21
572.1008
  0
LINE
  8
0_00
  6
CONTINUOUS
 62
4
 10
329.5841
 20
571.1008
 11
329.5841
 21
570.3008
  0
LINE
  8
0_00
  6
CONTINUOUS
 62
4
 10
349.0841
 20
551.0008
 11
348.4841
 21
551.0008
  0
LINE
  8
0_00
  6
CONTINUOUS
 62
4
 10
342.0682
 20
572.8008
 11
332.5841
 21
572.8008
  0
LINE
  8
0_00
  6
CONTINUOUS
 62
4
 10
341.7535
 20
569.8009
 11
330.0841
 21
569.8009
  0
LINE
  8
0_00
  6
CONTINUOUS
 62
4
 10
345.4585
 20
570.1700
 11
350.0528
 21
552.2492
  0
LINE
  8
0_00
  6
CONTINUOUS
 62
4
 10
342.7062
 20
569.1048
 11
346.8727
 21
556.0499
  0
LINE
  8
0_00
  6
CONTINUOUS
 62
4
 10
347.0551
 20
555.4783
 11
348.4841
 21
551.0008
  0
LINE
  8
0_00
  6
CONTINUOUS
 62
4
 10
225.4841
 20
571.2008
 11
225.4841
 21
567.4008
  0
LINE
  8
0_00
  6
CONTINUOUS
 62
4
 10
221.9841
 20
571.1008
 11
221.9841
 21
565.9008
  0
LINE
  8
0_00
  6
CONTINUOUS
 62
4
 10
208.9841
 20
571.1008
 11
208.9841
 21
570.3008
  0
LINE
  8
0_00
  6
CONTINUOUS
 62
4
 10
189.4841
 20
551.0008
 11
190.0841
 21
551.0008
  0
LINE
  8
0_00
  6
CONTINUOUS
 62
4
 10
196.5000
 20
572.8008
 11
205.9841
 21
572.8008
  0
LINE
  8
0_00
  6
CONTINUOUS
 62
4
 10
196.8146
 20
569.8009
 11
208.4841
 21
569.8009
  0
LINE
  8
0_00
  6
CONTINUOUS
 62
4
 10
193.1097
 20
570.1700
 11
188.5154
 21
552.2492
  0
LINE
  8
0_00
  6
CONTINUOUS
 62
4
 10
195.8620
 20
569.1048
 11
190.0841
 21
551.0008
  0
LINE
  8
0_00
  6
CONTINUOUS
 62
4
 10
346.8727
 20
556.0499
 11
346.6781
 21
555.6729
  0
LINE
  8
0_00
  6
CONTINUOUS
 62
4
 10
346.6781
 20
555.6729
 11
347.0551
 21
555.4783
  0
LINE
  8
0_00
  6
DASHED
 62
2
 10
299.7841
 20
570.6008
 11
299.7841
 21
524.9310
  0
LINE
  8
0_00
  6
CONTINUOUS
 62
2
 10
291.3841
 20
570.6008
 11
303.1841
 21
570.6008
  0
LINE
  8
0_00
  6
CONTINUOUS
 62
2
 10
303.1841
 20
570.9486
 11
303.1841
 21
570.6008
  0
LINE
  8
0_00
  6
DASHED
 62
2
 10
299.0341
 20
570.6008
 11
299.0341
 21
523.6319
  0
LINE
  8
0_00
  6
DASHED
 62
2
 10
297.2841
 20
520.6008
 11
299.7841
 21
524.9310
  0
LINE
  8
0_00
  6
DASHED
 62
2
 10
294.7841
 20
570.6008
 11
294.7841
 21
524.9310
  0
LINE
  8
0_00
  6
CONTINUOUS
 62
2
 10
291.3841
 20
570.9486
 11
291.3841
 21
570.6008
  0
LINE
  8
0_00
  6
DASHED
 62
2
 10
295.5341
 20
570.6008
 11
295.5341
 21
523.6319
  0
LINE
  8
0_00
  6
DASHED
 62
2
 10
297.2841
 20
520.6008
 11
294.7841
 21
524.9310
  0
LINE
  8
0_00
  6
CONTINUOUS
 62
2
 10
291.3841
 20
570.9486
 11
303.1841
 21
570.9486
  0
LINE
  8
0_00
  6
DASHED
 62
2
 10
238.7841
 20
570.6008
 11
238.7841
 21
524.9310
  0
LINE
  8
0_00
  6
CONTINUOUS
 62
2
 10
247.1841
 20
570.6008
 11
235.3841
 21
570.6008
  0
LINE
  8
0_00
  6
CONTINUOUS
 62
2
 10
235.3841
 20
570.9486
 11
235.3841
 21
570.6008
  0
LINE
  8
0_00
  6
DASHED
 62
2
 10
239.5341
 20
570.6008
 11
239.5341
 21
523.6319
  0
LINE
  8
0_00
  6
DASHED
 62
2
 10
241.2841
 20
520.6008
 11
238.7841
 21
524.9310
  0
LINE
  8
0_00
  6
DASHED
 62
2
 10
243.7841
 20
570.6008
 11
243.7841
 21
524.9310
  0
LINE
  8
0_00
  6
CONTINUOUS
 62
2
 10
247.1841
 20
570.9486
 11
247.1841
 21
570.6008
  0
LINE
  8
0_00
  6
DASHED
 62
2
 10
243.0341
 20
570.6008
 11
243.0341
 21
523.6319
  0
LINE
  8
0_00
  6
DASHED
 62
2
 10
241.2841
 20
520.6008
 11
243.7841
 21
524.9310
  0
LINE
  8
0_00
  6
CONTINUOUS
 62
2
 10
247.1841
 20
570.9486
 11
235.3841
 21
570.9486
  0
LINE
  8
0_00
  6
CONTINUOUS
 62
2
 10
331.0841
 20
575.1008
 11
331.0841
 21
577.4008
  0
LINE
  8
0_00
  6
CONTINUOUS
 62
2
 10
327.6527
 20
575.1008
 11
329.9527
 21
577.4008
  0
LINE
  8
0_00
  6
CONTINUOUS
 62
2
 10
325.3900
 20
575.1008
 11
327.6900
 21
577.4008
  0
LINE
  8
0_00
  6
CONTINUOUS
 62
2
 10
323.1273
 20
575.1008
 11
325.4272
 21
577.4008
  0
LINE
  8
0_00
  6
CONTINUOUS
 62
2
 10
321.0841
 20
575.3204
 11
323.1645
 21
577.4008
  0
LINE
  8
0_00
  6
CONTINUOUS
 62
2
 10
329.9155
 20
575.1008
 11
331.0841
 21
576.2695
  0
LINE
  8
0_00
  6
CONTINUOUS
 62
2
 10
331.0468
 20
575.1008
 11
331.0841
 21
575.1381
  0
LINE
  8
0_00
  6
CONTINUOUS
 62
2
 10
328.7469
 20
577.4008
 11
331.0468
 21
575.1008
  0
LINE
  8
0_00
  6
CONTINUOUS
 62
2
 10
326.4841
 20
577.4008
 11
328.7841
 21
575.1008
  0
LINE
  8
0_00
  6
CONTINUOUS
 62
2
 10
324.2214
 20
577.4008
 11
326.5214
 21
575.1008
  0
LINE
  8
0_00
  6
CONTINUOUS
 62
2
 10
321.9586
 20
577.4008
 11
324.2587
 21
575.1008
  0
LINE
  8
0_00
  6
CONTINUOUS
 62
2
 10
321.0841
 20
576.0126
 11
321.9959
 21
575.1008
  0
LINE
  8
0_00
  6
CONTINUOUS
 62
2
 10
331.0096
 20
577.4008
 11
331.0841
 21
577.3263
  0
LINE
  8
0_00
  6
CONTINUOUS
 62
2
 10
321.0841
 20
575.1008
 11
321.0841
 21
577.4008
  0
LINE
  8
0_00
  6
CONTINUOUS
 62
4
 10
293.7841
 20
579.4008
 11
293.7841
 21
578.9008
  0
LINE
  8
0_00
  6
CONTINUOUS
 62
4
 10
244.7841
 20
579.4008
 11
244.7841
 21
578.9008
  0
LINE
  8
0_00
  6
CONTINUOUS
 62
4
 10
290.7841
 20
578.9008
 11
291.2841
 21
579.4008
  0
LINE
  8
0_00
  6
CONTINUOUS
 62
4
 10
287.9557
 20
578.9008
 11
288.4557
 21
579.4008
  0
LINE
  8
0_00
  6
CONTINUOUS
 62
4
 10
285.1272
 20
578.9008
 11
285.6272
 21
579.4008
  0
LINE
  8
0_00
  6
CONTINUOUS
 62
4
 10
282.2988
 20
578.9008
 11
282.7988
 21
579.4008
  0
LINE
  8
0_00
  6
CONTINUOUS
 62
4
 10
279.4704
 20
578.9008
 11
279.9704
 21
579.4008
  0
LINE
  8
0_00
  6
CONTINUOUS
 62
4
 10
276.6420
 20
578.9008
 11
277.1420
 21
579.4008
  0
LINE
  8
0_00
  6
CONTINUOUS
 62
4
 10
273.8135
 20
578.9008
 11
274.3136
 21
579.4008
  0
LINE
  8
0_00
  6
CONTINUOUS
 62
4
 10
270.9851
 20
578.9008
 11
271.4851
 21
579.4008
  0
LINE
  8
0_00
  6
CONTINUOUS
 62
4
 10
268.1567
 20
578.9008
 11
268.6567
 21
579.4008
  0
LINE
  8
0_00
  6
CONTINUOUS
 62
4
 10
265.3282
 20
578.9008
 11
265.8283
 21
579.4008
  0
LINE
  8
0_00
  6
CONTINUOUS
 62
4
 10
262.4998
 20
578.9008
 11
262.9998
 21
579.4008
  0
LINE
  8
0_00
  6
CONTINUOUS
 62
4
 10
259.6714
 20
578.9008
 11
260.1714
 21
579.4008
  0
LINE
  8
0_00
  6
CONTINUOUS
 62
4
 10
256.8430
 20
578.9008
 11
257.3429
 21
579.4008
  0
LINE
  8
0_00
  6
CONTINUOUS
 62
4
 10
254.0145
 20
578.9008
 11
254.5145
 21
579.4008
  0
LINE
  8
0_00
  6
CONTINUOUS
 62
4
 10
251.1861
 20
578.9008
 11
251.6861
 21
579.4008
  0
LINE
  8
0_00
  6
CONTINUOUS
 62
4
 10
248.3577
 20
578.9008
 11
248.8577
 21
579.4008
  0
LINE
  8
0_00
  6
CONTINUOUS
 62
4
 10
244.7841
 20
579.4008
 11
293.7841
 21
579.4008
  0
LINE
  8
0_00
  6
CONTINUOUS
 62
4
 10
309.7841
 20
576.9008
 11
309.7841
 21
563.9008
  0
LINE
  8
0_00
  6
CONTINUOUS
 62
4
 10
228.7841
 20
576.9008
 11
228.7841
 21
563.9008
  0
LINE
  8
0_00
  6
CONTINUOUS
 62
4
 10
309.7841
 20
576.9008
 11
228.7841
 21
576.9008
  0
LINE
  8
0_00
  6
DASHED
 62
4
 10
309.7841
 20
570.6008
 11
228.7841
 21
570.6008
  0
LINE
  8
0_00
  6
CONTINUOUS
 62
4
 10
266.2841
 20
576.9008
 11
269.2841
 21
573.9008
  0
LINE
  8
0_00
  6
CONTINUOUS
 62
4
 10
269.2841
 20
573.9008
 11
272.2841
 21
576.9008
  0
LINE
  8
0_00
  6
CONTINUOUS
 62
4
 10
309.7841
 20
563.9008
 11
228.7841
 21
563.9008
  0
LINE
  8
0_00
  6
CONTINUOUS
 62
4
 10
313.0841
 20
567.4008
 11
309.7841
 21
567.4008
  0
LINE
  8
0_00
  6
CONTINUOUS
 62
4
 10
228.7841
 20
567.4008
 11
225.4841
 21
567.4008
  0
LINE
  8
15_0F
  6
CONTINUOUS
 62
6
 10
189.4977
 20
493.1825
 11
97.8568
 21
493.1825
  0
LINE
  8
15_0F
  6
CONTINUOUS
 62
6
 10
239.4843
 20
543.1690
 11
162.0862
 21
465.7710
  0
LINE
  8
15_0F
  6
CONTINUOUS
 62
6
 10
239.4843
 20
543.1690
 11
233.1942
 21
539.0842
  0
LINE
  8
15_0F
  6
CONTINUOUS
 62
6
 10
239.4843
 20
543.1690
 11
235.3995
 21
536.8790
  0
LINE
  8
15_0F
  6
CONTINUOUS
 62
6
 10
162.0862
 20
465.7710
 11
84.0862
 21
465.7710
  0
LINE
  8
13_0D
  6
CONTINUOUS
 62
6
 10
186.7841
 20
389.4795
 11
351.7841
 21
389.4795
  0
LINE
  8
13_0D
  6
CONTINUOUS
 62
6
 10
186.7841
 20
389.4795
 11
194.1202
 21
387.9202
  0
LINE
  8
13_0D
  6
CONTINUOUS
 62
6
 10
186.7841
 20
389.4795
 11
194.1202
 21
391.0389
  0
LINE
  8
13_0D
  6
CONTINUOUS
 62
6
 10
351.7841
 20
389.4795
 11
344.4480
 21
391.0389
  0
LINE
  8
13_0D
  6
CONTINUOUS
 62
6
 10
351.7841
 20
389.4795
 11
344.4480
 21
387.9202
  0
LINE
  8
13_0D
  6
CONTINUOUS
 62
6
 10
351.7841
 20
522.9404
 11
351.7841
 21
384.9796
  0
LINE
  8
13_0D
  6
CONTINUOUS
 62
6
 10
341.7841
 20
443.4634
 11
341.7841
 21
424.9796
  0
LINE
  8
13_0D
  6
CONTINUOUS
 62
6
 10
186.7841
 20
429.4796
 11
196.7841
 21
429.4796
  0
LINE
  8
13_0D
  6
CONTINUOUS
 62
6
 10
154.3841
 20
429.4796
 11
186.7841
 21
429.4796
  0
LINE
  8
13_0D
  6
CONTINUOUS
 62
6
 10
186.7841
 20
429.4796
 11
179.4480
 21
431.0389
  0
LINE
  8
13_0D
  6
CONTINUOUS
 62
6
 10
186.7841
 20
429.4796
 11
179.4480
 21
427.9202
  0
LINE
  8
13_0D
  6
CONTINUOUS
 62
6
 10
196.7841
 20
429.4796
 11
199.2841
 21
429.4796
  0
LINE
  8
13_0D
  6
CONTINUOUS
 62
6
 10
199.2841
 20
429.4796
 11
339.2841
 21
429.4796
  0
LINE
  8
13_0D
  6
CONTINUOUS
 62
6
 10
199.2841
 20
429.4796
 11
206.6202
 21
427.9202
  0
LINE
  8
13_0D
  6
CONTINUOUS
 62
6
 10
199.2841
 20
429.4796
 11
206.6202
 21
431.0389
  0
LINE
  8
13_0D
  6
CONTINUOUS
 62
6
 10
339.2841
 20
429.4796
 11
331.9480
 21
431.0389
  0
LINE
  8
13_0D
  6
CONTINUOUS
 62
6
 10
339.2841
 20
429.4796
 11
331.9480
 21
427.9202
  0
LINE
  8
13_0D
  6
CONTINUOUS
 62
6
 10
339.2841
 20
429.4796
 11
341.7841
 21
429.4796
  0
LINE
  8
13_0D
  6
CONTINUOUS
 62
6
 10
341.7841
 20
429.4796
 11
351.7841
 21
429.4796
  0
LINE
  8
13_0D
  6
CONTINUOUS
 62
6
 10
384.1841
 20
429.4796
 11
351.7841
 21
429.4796
  0
LINE
  8
13_0D
  6
CONTINUOUS
 62
6
 10
351.7841
 20
429.4796
 11
359.1202
 21
427.9202
  0
LINE
  8
13_0D
  6
CONTINUOUS
 62
6
 10
351.7841
 20
429.4796
 11
359.1202
 21
431.0389
  0
LINE
  8
13_0D
  6
CONTINUOUS
 62
6
 10
339.2841
 20
443.4634
 11
339.2841
 21
424.9796
  0
LINE
  8
13_0D
  6
CONTINUOUS
 62
6
 10
186.7841
 20
522.9404
 11
186.7841
 21
384.9796
  0
LINE
  8
13_0D
  6
CONTINUOUS
 62
6
 10
196.7841
 20
443.4634
 11
196.7841
 21
424.9796
  0
LINE
  8
13_0D
  6
CONTINUOUS
 62
6
 10
199.2841
 20
443.4634
 11
199.2841
 21
424.9796
  0
LINE
  8
0_00
  6
CONTINUOUS
 62
4
 10
292.5930
 20
175.5510
 11
293.0930
 21
176.0510
  0
LINE
  8
0_00
  6
CONTINUOUS
 62
4
 10
289.7646
 20
175.5510
 11
290.2646
 21
176.0510
  0
LINE
  8
0_00
  6
CONTINUOUS
 62
4
 10
286.9362
 20
175.5510
 11
287.4361
 21
176.0510
  0
LINE
  8
0_00
  6
CONTINUOUS
 62
4
 10
284.1077
 20
175.5510
 11
284.6077
 21
176.0510
  0
LINE
  8
0_00
  6
CONTINUOUS
 62
4
 10
281.2793
 20
175.5510
 11
281.7793
 21
176.0510
  0
LINE
  8
0_00
  6
CONTINUOUS
 62
4
 10
278.4509
 20
175.5510
 11
278.9509
 21
176.0510
  0
LINE
  8
0_00
  6
CONTINUOUS
 62
4
 10
275.6225
 20
175.5510
 11
276.1225
 21
176.0510
  0
LINE
  8
0_00
  6
CONTINUOUS
 62
4
 10
272.7940
 20
175.5510
 11
273.2940
 21
176.0510
  0
LINE
  8
0_00
  6
CONTINUOUS
 62
4
 10
269.9656
 20
175.5510
 11
270.4656
 21
176.0510
  0
LINE
  8
0_00
  6
CONTINUOUS
 62
4
 10
267.1372
 20
175.5510
 11
267.6372
 21
176.0510
  0
LINE
  8
0_00
  6
CONTINUOUS
 62
4
 10
264.3087
 20
175.5510
 11
264.8088
 21
176.0510
  0
LINE
  8
0_00
  6
CONTINUOUS
 62
4
 10
261.4803
 20
175.5510
 11
261.9803
 21
176.0510
  0
LINE
  8
0_00
  6
CONTINUOUS
 62
4
 10
259.7499
 20
176.0510
 11
293.7499
 21
176.0510
  0
LINE
  8
0_00
  6
CONTINUOUS
 62
2
 10
608.3543
 20
319.6545
 11
609.2233
 21
318.8158
  0
LINE
  8
0_00
  6
CONTINUOUS
 62
2
 10
609.2233
 20
318.8158
 11
609.6302
 21
318.6673
  0
LINE
  8
0_00
  6
CONTINUOUS
 62
2
 10
609.6302
 20
318.6673
 11
610.0153
 21
318.8075
  0
LINE
  8
0_00
  6
CONTINUOUS
 62
2
 10
610.0153
 20
318.8075
 11
610.9117
 21
319.6518
  0
LINE
  8
0_00
  6
CONTINUOUS
 62
2
 10
607.5404
 20
318.8406
 11
608.3791
 21
317.9716
  0
LINE
  8
0_00
  6
CONTINUOUS
 62
2
 10
608.3791
 20
317.9716
 11
608.5276
 21
317.5646
  0
LINE
  8
0_00
  6
CONTINUOUS
 62
2
 10
608.5276
 20
317.5646
 11
608.3873
 21
317.1797
  0
LINE
  8
0_00
  6
CONTINUOUS
 62
2
 10
608.3873
 20
317.1797
 11
607.5432
 21
316.2832
  0
LINE
  8
0_00
  6
CONTINUOUS
 62
2
 10
611.7202
 20
316.2887
 11
610.8815
 21
317.1577
  0
LINE
  8
0_00
  6
CONTINUOUS
 62
2
 10
610.8815
 20
317.1577
 11
610.7330
 21
317.5646
  0
LINE
  8
0_00
  6
CONTINUOUS
 62
2
 10
610.7330
 20
317.5646
 11
610.8732
 21
317.9496
  0
LINE
  8
0_00
  6
CONTINUOUS
 62
2
 10
610.8732
 20
317.9496
 11
611.7174
 21
318.8461
  0
LINE
  8
0_00
  6
CONTINUOUS
 62
2
 10
610.9062
 20
315.4747
 11
610.0372
 21
316.3135
  0
LINE
  8
0_00
  6
CONTINUOUS
 62
2
 10
610.0372
 20
316.3135
 11
609.6302
 21
316.4620
  0
LINE
  8
0_00
  6
CONTINUOUS
 62
2
 10
609.6302
 20
316.4620
 11
609.2453
 21
316.3217
  0
LINE
  8
0_00
  6
CONTINUOUS
 62
2
 10
609.2453
 20
316.3217
 11
608.3488
 21
315.4775
  0
LINE
  8
0_00
  6
CONTINUOUS
 62
2
 10
651.9062
 20
259.4747
 11
651.0373
 21
260.3134
  0
LINE
  8
0_00
  6
CONTINUOUS
 62
2
 10
651.0373
 20
260.3134
 11
650.6302
 21
260.4619
  0
LINE
  8
0_00
  6
CONTINUOUS
 62
2
 10
650.6302
 20
260.4619
 11
650.2453
 21
260.3217
  0
LINE
  8
0_00
  6
CONTINUOUS
 62
2
 10
650.2453
 20
260.3217
 11
649.3488
 21
259.4775
  0
LINE
  8
0_00
  6
CONTINUOUS
 62
2
 10
652.7202
 20
260.2887
 11
651.8815
 21
261.1577
  0
LINE
  8
0_00
  6
CONTINUOUS
 62
2
 10
651.8815
 20
261.1577
 11
651.7330
 21
261.5646
  0
LINE
  8
0_00
  6
CONTINUOUS
 62
2
 10
651.7330
 20
261.5646
 11
651.8732
 21
261.9496
  0
LINE
  8
0_00
  6
CONTINUOUS
 62
2
 10
651.8732
 20
261.9496
 11
652.7174
 21
262.8461
  0
LINE
  8
0_00
  6
CONTINUOUS
 62
2
 10
648.5404
 20
262.8406
 11
649.3791
 21
261.9716
  0
LINE
  8
0_00
  6
CONTINUOUS
 62
2
 10
649.3791
 20
261.9716
 11
649.5276
 21
261.5646
  0
LINE
  8
0_00
  6
CONTINUOUS
 62
2
 10
649.5276
 20
261.5646
 11
649.3873
 21
261.1797
  0
LINE
  8
0_00
  6
CONTINUOUS
 62
2
 10
649.3873
 20
261.1797
 11
648.5431
 21
260.2832
  0
LINE
  8
0_00
  6
CONTINUOUS
 62
2
 10
649.3543
 20
263.6545
 11
650.2233
 21
262.8158
  0
LINE
  8
0_00
  6
CONTINUOUS
 62
2
 10
650.2233
 20
262.8158
 11
650.6302
 21
262.6673
  0
LINE
  8
0_00
  6
CONTINUOUS
 62
2
 10
650.6302
 20
262.6673
 11
651.0153
 21
262.8075
  0
LINE
  8
0_00
  6
CONTINUOUS
 62
2
 10
651.0153
 20
262.8075
 11
651.9117
 21
263.6518
  0
LINE
  8
0_00
  6
CONTINUOUS
 62
4
 10
584.6303
 20
330.0646
 11
584.6303
 21
249.0646
  0
LINE
  8
0_00
  6
CONTINUOUS
 62
4
 10
584.6303
 20
330.0646
 11
675.6302
 21
330.0646
  0
LINE
  8
0_00
  6
CONTINUOUS
 62
4
 10
584.6303
 20
249.0646
 11
675.6302
 21
249.0646
  0
LINE
  8
0_00
  6
CONTINUOUS
 62
4
 10
596.2370
 20
249.0646
 11
596.2370
 21
330.0646
  0
LINE
  8
0_00
  6
CONTINUOUS
 62
4
 10
587.8303
 20
249.0646
 11
587.8303
 21
330.0646
  0
LINE
  8
0_00
  6
CONTINUOUS
 62
4
 10
584.6303
 20
292.5646
 11
587.8303
 21
292.5646
  0
LINE
  8
0_00
  6
CONTINUOUS
 62
4
 10
584.6303
 20
286.5646
 11
587.8303
 21
286.5646
  0
LINE
  8
0_00
  6
CONTINUOUS
 62
4
 10
619.6748
 20
249.0646
 11
619.6748
 21
330.0646
  0
LINE
  8
0_00
  6
CONTINUOUS
 62
4
 10
617.9867
 20
330.0646
 11
617.9867
 21
249.0646
  0
LINE
  8
0_00
  6
CONTINUOUS
 62
4
 10
675.6302
 20
330.0646
 11
675.6302
 21
249.0646
  0
LINE
  8
0_00
  6
CONTINUOUS
 62
4
 10
664.0236
 20
249.0646
 11
664.0236
 21
330.0646
  0
LINE
  8
0_00
  6
CONTINUOUS
 62
4
 10
672.4303
 20
249.0646
 11
672.4303
 21
330.0646
  0
LINE
  8
0_00
  6
CONTINUOUS
 62
4
 10
675.6302
 20
292.5646
 11
672.4303
 21
292.5646
  0
LINE
  8
0_00
  6
CONTINUOUS
 62
4
 10
675.6302
 20
286.5646
 11
672.4303
 21
286.5646
  0
LINE
  8
0_00
  6
CONTINUOUS
 62
4
 10
640.5857
 20
249.0646
 11
640.5857
 21
330.0646
  0
LINE
  8
0_00
  6
CONTINUOUS
 62
4
 10
642.2738
 20
330.0646
 11
642.2738
 21
249.0646
  0
LINE
  8
0_00
  6
CENTER1
 62
6
 10
609.6302
 20
328.4646
 11
609.6302
 21
306.6646
  0
LINE
  8
0_00
  6
CENTER1
 62
6
 10
598.7303
 20
317.5646
 11
620.5302
 21
317.5646
  0
LINE
  8
0_00
  6
CENTER1
 62
6
 10
650.6302
 20
272.4646
 11
650.6302
 21
250.6646
  0
LINE
  8
0_00
  6
CENTER1
 62
6
 10
639.7303
 20
261.5646
 11
661.5303
 21
261.5646
  0
LINE
  8
15_0F
  6
CONTINUOUS
 62
4
 10
1089.9909
 20
207.0646
 11
811.3193
 21
207.0646
  0
LINE
  8
15_0F
  6
CONTINUOUS
 62
4
 10
829.9276
 20
372.0646
 11
1089.9909
 21
372.0646
  0
LINE
  8
15_0F
  6
CONTINUOUS
 62
4
 10
821.9195
 20
359.5646
 11
660.1302
 21
359.5646
  0
LINE
  8
0_00
  6
CONTINUOUS
 62
4
 10
526.3011
 20
370.6646
 11
824.8937
 21
370.6646
  0
LINE
  8
15_0F
  6
CONTINUOUS
 62
4
 10
825.2688
 20
372.0646
 11
526.3011
 21
372.0646
  0
LINE
  8
15_0F
  6
CONTINUOUS
 62
4
 10
600.1302
 20
359.5646
 11
526.3011
 21
359.5646
  0
LINE
  8
15_0F
  6
CONTINUOUS
 62
4
 10
526.3011
 20
219.5647
 11
600.1302
 21
219.5647
  0
LINE
  8
15_0F
  6
CONTINUOUS
 62
4
 10
660.1302
 20
219.5647
 11
810.0099
 21
219.5647
  0
LINE
  8
0_00
  6
CONTINUOUS
 62
4
 10
526.3011
 20
208.4646
 11
807.0356
 21
208.4646
  0
LINE
  8
15_0F
  6
CONTINUOUS
 62
4
 10
806.6605
 20
207.0646
 11
526.3011
 21
207.0646
  0
LINE
  8
0_00
  6
CONTINUOUS
 62
4
 10
660.1302
 20
370.3646
 11
600.1302
 21
370.3646
  0
LINE
  8
0_00
  6
CONTINUOUS
 62
4
 10
600.1302
 20
365.0646
 11
660.1302
 21
365.0646
  0
LINE
  8
0_00
  6
CONTINUOUS
 62
4
 10
600.1302
 20
352.8646
 11
660.1302
 21
352.8646
  0
LINE
  8
0_00
  6
CONTINUOUS
 62
4
 10
600.1302
 20
351.3646
 11
660.1302
 21
351.3646
  0
LINE
  8
0_00
  6
CONTINUOUS
 62
2
 10
600.1302
 20
341.3646
 11
660.1302
 21
341.3646
  0
LINE
  8
0_00
  6
CONTINUOUS
 62
2
 10
650.1302
 20
351.3646
 11
660.1302
 21
341.3646
  0
LINE
  8
0_00
  6
CONTINUOUS
 62
2
 10
652.9587
 20
351.3646
 11
660.1302
 21
344.1931
  0
LINE
  8
0_00
  6
CONTINUOUS
 62
2
 10
655.7872
 20
351.3646
 11
660.1302
 21
347.0215
  0
LINE
  8
0_00
  6
CONTINUOUS
 62
2
 10
658.6155
 20
351.3646
 11
660.1302
 21
349.8499
  0
LINE
  8
0_00
  6
CONTINUOUS
 62
2
 10
647.3018
 20
351.3646
 11
657.3018
 21
341.3646
  0
LINE
  8
0_00
  6
CONTINUOUS
 62
2
 10
644.4734
 20
351.3646
 11
654.4734
 21
341.3646
  0
LINE
  8
0_00
  6
CONTINUOUS
 62
2
 10
641.6450
 20
351.3646
 11
651.6450
 21
341.3646
  0
LINE
  8
0_00
  6
CONTINUOUS
 62
2
 10
638.8165
 20
351.3646
 11
648.8165
 21
341.3646
  0
LINE
  8
0_00
  6
CONTINUOUS
 62
2
 10
635.9881
 20
351.3646
 11
645.9881
 21
341.3646
  0
LINE
  8
0_00
  6
CONTINUOUS
 62
2
 10
633.1598
 20
351.3646
 11
643.1597
 21
341.3646
  0
LINE
  8
0_00
  6
CONTINUOUS
 62
2
 10
630.3313
 20
351.3646
 11
640.3313
 21
341.3646
  0
LINE
  8
0_00
  6
CONTINUOUS
 62
2
 10
627.5029
 20
351.3646
 11
637.5028
 21
341.3646
  0
LINE
  8
0_00
  6
CONTINUOUS
 62
2
 10
624.6745
 20
351.3646
 11
634.6745
 21
341.3646
  0
LINE
  8
0_00
  6
CONTINUOUS
 62
2
 10
621.8460
 20
351.3646
 11
631.8460
 21
341.3646
  0
LINE
  8
0_00
  6
CONTINUOUS
 62
2
 10
619.0176
 20
351.3646
 11
629.0176
 21
341.3646
  0
LINE
  8
0_00
  6
CONTINUOUS
 62
2
 10
616.1891
 20
351.3646
 11
626.1892
 21
341.3646
  0
LINE
  8
0_00
  6
CONTINUOUS
 62
2
 10
613.3607
 20
351.3646
 11
623.3607
 21
341.3646
  0
LINE
  8
0_00
  6
CONTINUOUS
 62
2
 10
610.5323
 20
351.3646
 11
620.5323
 21
341.3646
  0
LINE
  8
0_00
  6
CONTINUOUS
 62
2
 10
607.7039
 20
351.3646
 11
617.7038
 21
341.3646
  0
LINE
  8
0_00
  6
CONTINUOUS
 62
2
 10
604.8754
 20
351.3646
 11
614.8754
 21
341.3646
  0
LINE
  8
0_00
  6
CONTINUOUS
 62
2
 10
602.0470
 20
351.3646
 11
612.0470
 21
341.3646
  0
LINE
  8
0_00
  6
CONTINUOUS
 62
2
 10
600.1302
 20
350.4529
 11
609.2186
 21
341.3646
  0
LINE
  8
0_00
  6
CONTINUOUS
 62
2
 10
600.1302
 20
347.6245
 11
606.3902
 21
341.3646
  0
LINE
  8
0_00
  6
CONTINUOUS
 62
2
 10
600.1302
 20
344.7961
 11
603.5617
 21
341.3646
  0
LINE
  8
0_00
  6
CONTINUOUS
 62
2
 10
600.1302
 20
341.9676
 11
600.7333
 21
341.3646
  0
LINE
  8
0_00
  6
CONTINUOUS
 62
4
 10
600.1302
 20
335.3646
 11
660.1302
 21
335.3646
  0
LINE
  8
0_00
  6
CONTINUOUS
 62
4
 10
600.1302
 20
333.8646
 11
660.1302
 21
333.8646
  0
LINE
  8
0_00
  6
CONTINUOUS
 62
4
 10
660.1302
 20
208.7646
 11
600.1302
 21
208.7646
  0
LINE
  8
0_00
  6
CONTINUOUS
 62
4
 10
600.1302
 20
214.0646
 11
660.1302
 21
214.0646
  0
LINE
  8
0_00
  6
CONTINUOUS
 62
4
 10
600.1302
 20
226.2646
 11
660.1302
 21
226.2646
  0
LINE
  8
0_00
  6
CONTINUOUS
 62
4
 10
600.1302
 20
227.7646
 11
660.1302
 21
227.7646
  0
LINE
  8
0_00
  6
CONTINUOUS
 62
4
 10
600.1302
 20
243.7646
 11
660.1302
 21
243.7646
  0
LINE
  8
0_00
  6
CONTINUOUS
 62
4
 10
600.1302
 20
245.2646
 11
660.1302
 21
245.2646
  0
LINE
  8
0_00
  6
CONTINUOUS
 62
2
 10
600.1302
 20
237.7646
 11
660.1302
 21
237.7646
  0
LINE
  8
0_00
  6
CONTINUOUS
 62
2
 10
645.1302
 20
237.7646
 11
655.1303
 21
227.7646
  0
LINE
  8
0_00
  6
CONTINUOUS
 62
2
 10
647.9587
 20
237.7646
 11
657.9587
 21
227.7646
  0
LINE
  8
0_00
  6
CONTINUOUS
 62
2
 10
650.7871
 20
237.7646
 11
660.1302
 21
228.4215
  0
LINE
  8
0_00
  6
CONTINUOUS
 62
2
 10
653.6156
 20
237.7646
 11
660.1302
 21
231.2499
  0
LINE
  8
0_00
  6
CONTINUOUS
 62
2
 10
656.4440
 20
237.7646
 11
660.1302
 21
234.0783
  0
LINE
  8
0_00
  6
CONTINUOUS
 62
2
 10
659.2724
 20
237.7646
 11
660.1302
 21
236.9068
  0
LINE
  8
0_00
  6
CONTINUOUS
 62
2
 10
642.3018
 20
237.7646
 11
652.3018
 21
227.7646
  0
LINE
  8
0_00
  6
CONTINUOUS
 62
2
 10
639.4734
 20
237.7646
 11
649.4734
 21
227.7646
  0
LINE
  8
0_00
  6
CONTINUOUS
 62
2
 10
636.6449
 20
237.7646
 11
646.6449
 21
227.7646
  0
LINE
  8
0_00
  6
CONTINUOUS
 62
2
 10
633.8166
 20
237.7646
 11
643.8165
 21
227.7646
  0
LINE
  8
0_00
  6
CONTINUOUS
 62
2
 10
630.9882
 20
237.7646
 11
640.9882
 21
227.7646
  0
LINE
  8
0_00
  6
CONTINUOUS
 62
2
 10
628.1597
 20
237.7646
 11
638.1597
 21
227.7646
  0
LINE
  8
0_00
  6
CONTINUOUS
 62
2
 10
625.3313
 20
237.7646
 11
635.3313
 21
227.7646
  0
LINE
  8
0_00
  6
CONTINUOUS
 62
2
 10
622.5029
 20
237.7646
 11
632.5029
 21
227.7646
  0
LINE
  8
0_00
  6
CONTINUOUS
 62
2
 10
619.6745
 20
237.7646
 11
629.6744
 21
227.7646
  0
LINE
  8
0_00
  6
CONTINUOUS
 62
2
 10
616.8460
 20
237.7646
 11
626.8460
 21
227.7646
  0
LINE
  8
0_00
  6
CONTINUOUS
 62
2
 10
614.0175
 20
237.7646
 11
624.0176
 21
227.7646
  0
LINE
  8
0_00
  6
CONTINUOUS
 62
2
 10
611.1891
 20
237.7646
 11
621.1891
 21
227.7646
  0
LINE
  8
0_00
  6
CONTINUOUS
 62
2
 10
608.3607
 20
237.7646
 11
618.3607
 21
227.7646
  0
LINE
  8
0_00
  6
CONTINUOUS
 62
2
 10
605.5323
 20
237.7646
 11
615.5323
 21
227.7646
  0
LINE
  8
0_00
  6
CONTINUOUS
 62
2
 10
602.7039
 20
237.7646
 11
612.7039
 21
227.7646
  0
LINE
  8
0_00
  6
CONTINUOUS
 62
2
 10
600.1302
 20
237.5098
 11
609.8754
 21
227.7646
  0
LINE
  8
0_00
  6
CONTINUOUS
 62
2
 10
600.1302
 20
234.6814
 11
607.0470
 21
227.7646
  0
LINE
  8
0_00
  6
CONTINUOUS
 62
2
 10
600.1302
 20
231.8530
 11
604.2186
 21
227.7646
  0
LINE
  8
0_00
  6
CONTINUOUS
 62
2
 10
600.1302
 20
229.0245
 11
601.3901
 21
227.7646
  0
LINE
  8
0_00
  6
CONTINUOUS
 62
4
 10
600.1302
 20
248.5646
 11
660.1302
 21
248.5646
  0
LINE
  8
0_00
  6
CONTINUOUS
 62
4
 10
600.1302
 20
330.5646
 11
660.1302
 21
330.5646
  0
LINE
  8
0_00
  6
CONTINUOUS
 62
4
 10
660.1302
 20
370.3646
 11
660.1302
 21
330.0646
  0
LINE
  8
0_00
  6
CONTINUOUS
 62
4
 10
660.1302
 20
249.0646
 11
660.1302
 21
208.7646
  0
LINE
  8
0_00
  6
CONTINUOUS
 62
4
 10
600.1302
 20
370.3646
 11
600.1302
 21
330.0646
  0
LINE
  8
0_00
  6
CONTINUOUS
 62
4
 10
600.1302
 20
249.0646
 11
600.1302
 21
208.7646
  0
LINE
  8
0_00
  6
CONTINUOUS
 62
4
 10
663.0857
 20
330.0646
 11
663.0857
 21
249.0646
  0
LINE
  8
0_00
  6
CONTINUOUS
 62
4
 10
597.1748
 20
330.0646
 11
597.1748
 21
249.0646
  0
LINE
  8
0_00
  6
CONTINUOUS
 62
6
 10
673.7276
 20
308.2666
 11
698.3276
 21
332.8666
  0
LINE
  8
0_00
  6
CONTINUOUS
 62
6
 10
673.7276
 20
308.2666
 11
680.0176
 21
312.3514
  0
LINE
  8
0_00
  6
CONTINUOUS
 62
6
 10
673.7276
 20
308.2666
 11
677.8124
 21
314.5567
  0
LINE
  8
0_00
  6
CONTINUOUS
 62
6
 10
698.3276
 20
332.8666
 11
743.3276
 21
332.8666
  0
LINE
  8
0_00
  6
CONTINUOUS
 62
4
 10
293.7499
 20
175.5510
 11
293.7499
 21
176.0510
  0
LINE
  8
0_00
  6
CONTINUOUS
 62
4
 10
259.7499
 20
176.0510
 11
259.7499
 21
175.5510
  0
LINE
  8
0_00
  6
CONTINUOUS
 62
4
 10
1030.1104
 20
265.0646
 11
1001.1104
 21
265.0646
  0
LINE
  8
0_00
  6
CONTINUOUS
 62
4
 10
1032.6103
 20
311.5646
 11
1032.6103
 21
267.5646
  0
LINE
  8
0_00
  6
CONTINUOUS
 62
4
 10
1030.1104
 20
314.0646
 11
1001.1104
 21
314.0646
  0
LINE
  8
0_00
  6
CONTINUOUS
 62
4
 10
998.6104
 20
311.5646
 11
998.6104
 21
267.5646
  0
LINE
  8
16_10
  6
CONTINUOUS
 62
2
 10
730.0448
 20
695.8976
 11
1161.0040
 21
695.8976
  0
LINE
  8
16_10
  6
CONTINUOUS
 62
4
 10
730.3513
 20
693.9544
 11
1161.0040
 21
693.9544
  0
LINE
  8
16_10
  6
CONTINUOUS
 62
4
 10
730.8910
 20
702.2044
 11
1161.0040
 21
702.2044
  0
LINE
  8
16_10
  6
CONTINUOUS
 62
4
 10
753.4910
 20
702.5044
 11
732.9139
 21
702.5044
  0
LINE
  8
16_10
  6
CONTINUOUS
 62
4
 10
748.1240
 20
702.9094
 11
729.1340
 21
702.9094
  0
LINE
  8
16_10
  6
CONTINUOUS
 62
4
 10
729.1340
 20
702.9094
 11
726.6692
 21
702.5438
  0
LINE
  8
16_10
  6
CONTINUOUS
 62
4
 10
725.7145
 20
696.4118
 11
725.5947
 21
701.2560
  0
LINE
  8
16_10
  6
CONTINUOUS
 62
4
 10
725.9912
 20
695.7573
 11
726.0072
 21
694.2201
  0
LINE
  8
16_10
  6
CONTINUOUS
 62
4
 10
753.9824
 20
702.4673
 11
748.1240
 21
702.9094
  0
LINE
  8
16_10
  6
CONTINUOUS
 62
4
 10
730.3572
 20
693.7747
 11
730.8969
 21
693.7923
  0
LINE
  8
16_10
  6
CONTINUOUS
 62
4
 10
730.5098
 20
702.1478
 11
732.9139
 21
702.5044
  0
LINE
  8
16_10
  6
CONTINUOUS
 62
4
 10
729.6783
 20
701.1514
 11
729.7944
 21
696.4227
  0
LINE
  8
16_10
  6
CONTINUOUS
 62
4
 10
730.0881
 20
694.2010
 11
730.0702
 21
695.7917
  0
LINE
  8
16_10
  6
CONTINUOUS
 62
4
 10
730.3569
 20
693.7746
 11
726.6107
 21
693.6546
  0
LINE
  8
0_00
  6
CONTINUOUS
 62
4
 10
206.7499
 20
336.0510
 11
356.7499
 21
336.0510
  0
LINE
  8
0_00
  6
CONTINUOUS
 62
4
 10
773.7290
 20
702.2794
 11
778.5290
 21
702.2794
  0
LINE
  8
0_00
  6
CONTINUOUS
 62
4
 10
778.2290
 20
703.7044
 11
778.2290
 21
719.1544
  0
LINE
  8
0_00
  6
CONTINUOUS
 62
4
 10
774.0289
 20
703.7044
 11
774.0289
 21
719.1544
  0
LINE
  8
0_00
  6
CONTINUOUS
 62
4
 10
777.4790
 20
704.0793
 11
777.4790
 21
717.0544
  0
LINE
  8
0_00
  6
CONTINUOUS
 62
4
 10
774.7790
 20
704.0793
 11
774.7790
 21
717.0544
  0
LINE
  8
0_00
  6
CONTINUOUS
 62
4
 10
775.1539
 20
717.4294
 11
777.1040
 21
717.4294
  0
LINE
  8
0_00
  6
CONTINUOUS
 62
4
 10
774.0289
 20
703.7044
 11
773.7290
 21
702.2044
  0
LINE
  8
0_00
  6
CONTINUOUS
 62
4
 10
778.2290
 20
703.7044
 11
778.5290
 21
702.2044
  0
LINE
  8
0_00
  6
CONTINUOUS
 62
4
 10
777.1040
 20
703.7044
 11
775.1539
 21
703.7044
  0
LINE
  8
0_00
  6
CONTINUOUS
 62
4
 10
774.6291
 20
705.2044
 11
774.1790
 21
705.2044
  0
LINE
  8
0_00
  6
CONTINUOUS
 62
4
 10
774.1790
 20
716.6794
 11
774.6291
 21
716.6794
  0
LINE
  8
0_00
  6
CONTINUOUS
 62
4
 10
777.6290
 20
716.6794
 11
778.0790
 21
716.6794
  0
LINE
  8
0_00
  6
CONTINUOUS
 62
4
 10
777.6290
 20
705.2044
 11
778.0790
 21
705.2044
  0
LINE
  8
0_00
  6
CONTINUOUS
 62
4
 10
773.5789
 20
702.2794
 11
778.6790
 21
702.2794
  0
LINE
  8
0_00
  6
CONTINUOUS
 62
4
 10
778.6790
 20
702.2044
 11
778.6790
 21
702.2794
  0
LINE
  8
0_00
  6
CONTINUOUS
 62
4
 10
773.5789
 20
702.2794
 11
773.5789
 21
702.2044
  0
LINE
  8
0_00
  6
CONTINUOUS
 62
4
 10
928.7290
 20
702.2794
 11
933.5290
 21
702.2794
  0
LINE
  8
0_00
  6
CONTINUOUS
 62
4
 10
933.2291
 20
703.7044
 11
933.2291
 21
719.1544
  0
LINE
  8
0_00
  6
CONTINUOUS
 62
4
 10
929.0290
 20
703.7044
 11
929.0290
 21
719.1544
  0
LINE
  8
0_00
  6
CONTINUOUS
 62
4
 10
932.4790
 20
704.0793
 11
932.4790
 21
717.0544
  0
LINE
  8
0_00
  6
CONTINUOUS
 62
4
 10
929.7790
 20
704.0793
 11
929.7790
 21
717.0544
  0
LINE
  8
0_00
  6
CONTINUOUS
 62
4
 10
930.1540
 20
717.4294
 11
932.1040
 21
717.4294
  0
LINE
  8
0_00
  6
CONTINUOUS
 62
4
 10
929.0290
 20
703.7044
 11
928.7290
 21
702.2044
  0
LINE
  8
0_00
  6
CONTINUOUS
 62
4
 10
933.2291
 20
703.7044
 11
933.5290
 21
702.2044
  0
LINE
  8
0_00
  6
CONTINUOUS
 62
4
 10
932.1040
 20
703.7044
 11
930.1540
 21
703.7044
  0
LINE
  8
0_00
  6
CONTINUOUS
 62
4
 10
929.6290
 20
705.2044
 11
929.1790
 21
705.2044
  0
LINE
  8
0_00
  6
CONTINUOUS
 62
4
 10
929.1790
 20
716.6794
 11
929.6290
 21
716.6794
  0
LINE
  8
0_00
  6
CONTINUOUS
 62
4
 10
932.6290
 20
716.6794
 11
933.0790
 21
716.6794
  0
LINE
  8
0_00
  6
CONTINUOUS
 62
4
 10
932.6290
 20
705.2044
 11
933.0790
 21
705.2044
  0
LINE
  8
0_00
  6
CONTINUOUS
 62
4
 10
928.5790
 20
702.2794
 11
933.6790
 21
702.2794
  0
LINE
  8
0_00
  6
CONTINUOUS
 62
4
 10
933.6790
 20
702.2044
 11
933.6790
 21
702.2794
  0
LINE
  8
0_00
  6
CONTINUOUS
 62
4
 10
928.5790
 20
702.2794
 11
928.5790
 21
702.2044
  0
LINE
  8
0_00
  6
CONTINUOUS
 62
4
 10
1083.7290
 20
702.2794
 11
1088.5291
 21
702.2794
  0
LINE
  8
0_00
  6
CONTINUOUS
 62
4
 10
1088.2289
 20
703.7044
 11
1088.2289
 21
719.1544
  0
LINE
  8
0_00
  6
CONTINUOUS
 62
4
 10
1084.0291
 20
703.7044
 11
1084.0291
 21
719.1544
  0
LINE
  8
0_00
  6
CONTINUOUS
 62
4
 10
1087.4790
 20
704.0793
 11
1087.4790
 21
717.0544
  0
LINE
  8
0_00
  6
CONTINUOUS
 62
4
 10
1084.7791
 20
704.0793
 11
1084.7791
 21
717.0544
  0
LINE
  8
0_00
  6
CONTINUOUS
 62
4
 10
1085.1541
 20
717.4294
 11
1087.1040
 21
717.4294
  0
LINE
  8
0_00
  6
CONTINUOUS
 62
4
 10
1084.0291
 20
703.7044
 11
1083.7290
 21
702.2044
  0
LINE
  8
0_00
  6
CONTINUOUS
 62
4
 10
1088.2289
 20
703.7044
 11
1088.5291
 21
702.2044
  0
LINE
  8
0_00
  6
CONTINUOUS
 62
4
 10
1087.1040
 20
703.7044
 11
1085.1541
 21
703.7044
  0
LINE
  8
0_00
  6
CONTINUOUS
 62
4
 10
1084.6290
 20
705.2044
 11
1084.1789
 21
705.2044
  0
LINE
  8
0_00
  6
CONTINUOUS
 62
4
 10
1084.1789
 20
716.6794
 11
1084.6290
 21
716.6794
  0
LINE
  8
0_00
  6
CONTINUOUS
 62
4
 10
1087.6290
 20
716.6794
 11
1088.0790
 21
716.6794
  0
LINE
  8
0_00
  6
CONTINUOUS
 62
4
 10
1087.6290
 20
705.2044
 11
1088.0790
 21
705.2044
  0
LINE
  8
0_00
  6
CONTINUOUS
 62
4
 10
1083.5790
 20
702.2794
 11
1088.6789
 21
702.2794
  0
LINE
  8
0_00
  6
CONTINUOUS
 62
4
 10
1088.6789
 20
702.2044
 11
1088.6789
 21
702.2794
  0
LINE
  8
0_00
  6
CONTINUOUS
 62
4
 10
1083.5790
 20
702.2794
 11
1083.5790
 21
702.2044
  0
LINE
  8
0_00
  6
DASHED
 62
2
 10
290.7499
 20
289.0510
 11
290.7499
 21
290.5510
  0
LINE
  8
0_00
  6
CONTINUOUS
 62
4
 10
290.7499
 20
186.0510
 11
290.7499
 21
289.0510
  0
LINE
  8
0_00
  6
DASHED
 62
2
 10
262.7499
 20
289.0510
 11
262.7499
 21
290.5510
  0
LINE
  8
0_00
  6
CONTINUOUS
 62
4
 10
262.7499
 20
186.0510
 11
262.7499
 21
289.0510
  0
LINE
  8
0_00
  6
CONTINUOUS
 62
2
 10
1089.9909
 20
352.5646
 11
824.7026
 21
352.5646
  0
LINE
  8
0_00
  6
CONTINUOUS
 62
2
 10
816.5443
 20
226.5646
 11
1089.9909
 21
226.5646
  0
LINE
  8
0_00
  6
CONTINUOUS
 62
6
 10
726.2892
 20
695.7573
 11
729.8909
 21
695.7573
  0
LINE
  8
0_00
  6
CONTINUOUS
 62
2
 10
729.8619
 20
701.7535
 11
1161.0040
 21
701.7535
  0
LINE
  8
0_00
  6
DASHED
 62
2
 10
289.1841
 20
589.4008
 11
276.3841
 21
589.4008
  0
LINE
  8
0_00
  6
DASHED
 62
2
 10
285.4341
 20
586.0009
 11
285.4341
 21
569.4008
  0
LINE
  8
0_00
  6
DASHED
 62
2
 10
280.1341
 20
586.0009
 11
280.1341
 21
569.4008
  0
LINE
  8
0_00
  6
DASHED
 62
2
 10
289.1841
 20
589.4008
 11
285.7841
 21
586.0009
  0
LINE
  8
0_00
  6
DASHED
 62
2
 10
276.3841
 20
589.4008
 11
279.7841
 21
586.0009
  0
LINE
  8
0_00
  6
DASHED
 62
2
 10
285.7841
 20
586.0009
 11
279.7841
 21
586.0009
  0
LINE
  8
0_00
  6
DASHED
 62
2
 10
285.7841
 20
586.0009
 11
285.7841
 21
569.4008
  0
LINE
  8
0_00
  6
DASHED
 62
2
 10
279.7841
 20
586.0009
 11
279.7841
 21
569.4008
  0
LINE
  8
0_00
  6
DASHED
 62
2
 10
285.7841
 20
569.4008
 11
279.7841
 21
569.4008
  0
LINE
  8
0_00
  6
DASHED
 62
2
 10
262.1841
 20
589.4008
 11
249.3841
 21
589.4008
  0
LINE
  8
0_00
  6
DASHED
 62
2
 10
258.4341
 20
586.0009
 11
258.4341
 21
569.4008
  0
LINE
  8
0_00
  6
DASHED
 62
2
 10
253.1341
 20
586.0009
 11
253.1341
 21
569.4008
  0
LINE
  8
0_00
  6
DASHED
 62
2
 10
262.1841
 20
589.4008
 11
258.7841
 21
586.0009
  0
LINE
  8
0_00
  6
DASHED
 62
2
 10
249.3841
 20
589.4008
 11
252.7841
 21
586.0009
  0
LINE
  8
0_00
  6
DASHED
 62
2
 10
258.7841
 20
586.0009
 11
252.7841
 21
586.0009
  0
LINE
  8
0_00
  6
DASHED
 62
2
 10
258.7841
 20
586.0009
 11
258.7841
 21
569.4008
  0
LINE
  8
0_00
  6
DASHED
 62
2
 10
252.7841
 20
586.0009
 11
252.7841
 21
569.4008
  0
LINE
  8
0_00
  6
DASHED
 62
2
 10
258.7841
 20
569.4008
 11
252.7841
 21
569.4008
  0
LINE
  8
0_00
  6
DASHED
 62
2
 10
219.0341
 20
695.6008
 11
219.0341
 21
683.6008
  0
LINE
  8
0_00
  6
DASHED
 62
2
 10
215.5341
 20
695.6008
 11
215.5341
 21
683.6008
  0
LINE
  8
0_00
  6
DASHED
 62
2
 10
219.2841
 20
695.6008
 11
219.2841
 21
683.6008
  0
LINE
  8
0_00
  6
DASHED
 62
2
 10
215.2841
 20
695.6008
 11
215.2841
 21
683.6008
  0
LINE
  8
0_00
  6
DASHED
 62
2
 10
219.2841
 20
683.6008
 11
215.2841
 21
683.6008
  0
LINE
  8
12_0C
  6
CONTINUOUS
 62
2
 10
213.2841
 20
695.6008
 11
221.2841
 21
695.6008
  0
LINE
  8
12_0C
  6
CONTINUOUS
 62
2
 10
213.2841
 20
696.0009
 11
221.2841
 21
696.0009
  0
LINE
  8
12_0C
  6
CONTINUOUS
 62
2
 10
221.2841
 20
695.6008
 11
221.2841
 21
696.0009
  0
LINE
  8
12_0C
  6
CONTINUOUS
 62
2
 10
213.2841
 20
695.6008
 11
213.2841
 21
696.0009
  0
LINE
  8
0_00
  6
DASHED
 62
2
 10
183.0341
 20
695.6008
 11
183.0341
 21
683.6008
  0
LINE
  8
0_00
  6
DASHED
 62
2
 10
179.5341
 20
695.6008
 11
179.5341
 21
683.6008
  0
LINE
  8
0_00
  6
DASHED
 62
2
 10
183.2841
 20
695.6008
 11
183.2841
 21
683.6008
  0
LINE
  8
0_00
  6
DASHED
 62
2
 10
179.2841
 20
695.6008
 11
179.2841
 21
683.6008
  0
LINE
  8
0_00
  6
DASHED
 62
2
 10
183.2841
 20
683.6008
 11
179.2841
 21
683.6008
  0
LINE
  8
12_0C
  6
CONTINUOUS
 62
2
 10
177.2841
 20
695.6008
 11
185.2841
 21
695.6008
  0
LINE
  8
12_0C
  6
CONTINUOUS
 62
2
 10
177.2841
 20
696.0009
 11
185.2841
 21
696.0009
  0
LINE
  8
12_0C
  6
CONTINUOUS
 62
2
 10
185.2841
 20
695.6008
 11
185.2841
 21
696.0009
  0
LINE
  8
12_0C
  6
CONTINUOUS
 62
2
 10
177.2841
 20
695.6008
 11
177.2841
 21
696.0009
  0
LINE
  8
0_00
  6
CONTINUOUS
 62
4
 10
199.2841
 20
695.7009
 11
198.9841
 21
695.4008
  0
LINE
  8
0_00
  6
CONTINUOUS
 62
4
 10
211.5841
 20
695.4008
 11
199.5841
 21
695.4008
  0
LINE
  8
0_00
  6
CONTINUOUS
 62
4
 10
199.2841
 20
695.7009
 11
199.5841
 21
695.4008
  0
LINE
  8
14_0E
  6
CONTINUOUS
 62
4
 10
212.3603
 20
697.0104
 11
203.2841
 21
697.4008
  0
LINE
  8
0_00
  6
CONTINUOUS
 62
4
 10
199.2841
 20
695.7009
 11
199.5841
 21
695.4008
  0
LINE
  8
0_00
  6
CONTINUOUS
 62
4
 10
186.9841
 20
695.4008
 11
198.9841
 21
695.4008
  0
LINE
  8
0_00
  6
CONTINUOUS
 62
4
 10
199.2841
 20
695.7009
 11
198.9841
 21
695.4008
  0
LINE
  8
14_0E
  6
CONTINUOUS
 62
4
 10
186.2079
 20
697.0104
 11
195.2841
 21
697.4008
  0
LINE
  8
0_00
  6
CONTINUOUS
 62
4
 10
203.2841
 20
697.4008
 11
195.2841
 21
697.4008
  0
LINE
  8
0_00
  6
CONTINUOUS
 62
4
 10
211.5841
 20
695.4008
 11
211.9841
 21
693.9008
  0
LINE
  8
0_00
  6
CONTINUOUS
 62
2
 10
214.7841
 20
695.6008
 11
219.7841
 21
695.6008
  0
LINE
  8
0_00
  6
CONTINUOUS
 62
4
 10
211.9841
 20
693.9008
 11
226.6841
 21
693.9008
  0
LINE
  8
0_00
  6
CONTINUOUS
 62
4
 10
217.2841
 20
694.2009
 11
216.9841
 21
693.9008
  0
LINE
  8
0_00
  6
CONTINUOUS
 62
4
 10
217.2841
 20
694.2009
 11
217.5841
 21
693.9008
  0
LINE
  8
0_00
  6
CONTINUOUS
 62
4
 10
224.6118
 20
695.4008
 11
220.0841
 21
695.4008
  0
LINE
  8
0_00
  6
CONTINUOUS
 62
4
 10
219.7841
 20
695.6008
 11
220.0841
 21
695.4008
  0
LINE
  8
0_00
  6
CONTINUOUS
 62
4
 10
214.4841
 20
695.4008
 11
213.2964
 21
695.4008
  0
LINE
  8
0_00
  6
CONTINUOUS
 62
4
 10
214.7841
 20
695.6008
 11
214.4841
 21
695.4008
  0
LINE
  8
0_00
  6
CONTINUOUS
 62
4
 10
212.6384
 20
696.7835
 11
212.9084
 21
695.7038
  0
LINE
  8
0_00
  6
CONTINUOUS
 62
4
 10
226.6841
 20
693.9008
 11
227.6841
 21
694.9008
  0
LINE
  8
0_00
  6
CONTINUOUS
 62
4
 10
227.6841
 20
694.9008
 11
227.6841
 21
696.2008
  0
LINE
  8
0_00
  6
CONTINUOUS
 62
4
 10
227.6841
 20
695.4008
 11
227.6841
 21
694.9008
  0
LINE
  8
0_00
  6
CONTINUOUS
 62
4
 10
226.7036
 20
698.2788
 11
227.5602
 21
698.3537
  0
LINE
  8
0_00
  6
CONTINUOUS
 62
4
 10
225.5969
 20
699.2861
 11
226.4350
 21
699.3595
  0
LINE
  8
0_00
  6
CONTINUOUS
 62
4
 10
224.6841
 20
698.2900
 11
224.6841
 21
697.8571
  0
LINE
  8
0_00
  6
CONTINUOUS
 62
4
 10
227.8280
 20
698.7129
 11
226.7425
 21
704.0008
  0
LINE
  8
0_00
  6
CONTINUOUS
 62
4
 10
225.9963
 20
703.1600
 11
226.7028
 21
699.7186
  0
LINE
  8
0_00
  6
CONTINUOUS
 62
4
 10
226.6820
 20
704.0008
 11
226.7425
 21
704.0008
  0
LINE
  8
0_00
  6
CONTINUOUS
 62
4
 10
186.9841
 20
695.4008
 11
186.5841
 21
693.9008
  0
LINE
  8
0_00
  6
CONTINUOUS
 62
2
 10
183.7841
 20
695.6008
 11
178.7841
 21
695.6008
  0
LINE
  8
0_00
  6
CONTINUOUS
 62
4
 10
186.5841
 20
693.9008
 11
171.8841
 21
693.9008
  0
LINE
  8
0_00
  6
CONTINUOUS
 62
4
 10
181.2841
 20
694.2009
 11
181.5841
 21
693.9008
  0
LINE
  8
0_00
  6
CONTINUOUS
 62
4
 10
181.2841
 20
694.2009
 11
180.9841
 21
693.9008
  0
LINE
  8
0_00
  6
CONTINUOUS
 62
4
 10
173.9563
 20
695.4008
 11
178.4841
 21
695.4008
  0
LINE
  8
0_00
  6
CONTINUOUS
 62
4
 10
178.7841
 20
695.6008
 11
178.4841
 21
695.4008
  0
LINE
  8
0_00
  6
CONTINUOUS
 62
4
 10
184.0841
 20
695.4008
 11
185.2718
 21
695.4008
  0
LINE
  8
0_00
  6
CONTINUOUS
 62
4
 10
183.7841
 20
695.6008
 11
184.0841
 21
695.4008
  0
LINE
  8
0_00
  6
CONTINUOUS
 62
4
 10
185.9298
 20
696.7835
 11
185.6598
 21
695.7038
  0
LINE
  8
0_00
  6
CONTINUOUS
 62
4
 10
171.8841
 20
693.9008
 11
170.8841
 21
694.9008
  0
LINE
  8
0_00
  6
CONTINUOUS
 62
4
 10
170.8841
 20
694.9008
 11
170.8841
 21
696.2008
  0
LINE
  8
0_00
  6
CONTINUOUS
 62
4
 10
170.8841
 20
695.4008
 11
170.8841
 21
694.9008
  0
LINE
  8
0_00
  6
CONTINUOUS
 62
4
 10
171.8646
 20
698.2788
 11
171.0079
 21
698.3537
  0
LINE
  8
0_00
  6
CONTINUOUS
 62
4
 10
172.9713
 20
699.2861
 11
172.1332
 21
699.3595
  0
LINE
  8
0_00
  6
CONTINUOUS
 62
4
 10
173.8841
 20
698.2900
 11
173.8841
 21
697.8571
  0
LINE
  8
0_00
  6
CONTINUOUS
 62
4
 10
170.7402
 20
698.7129
 11
171.8257
 21
704.0008
  0
LINE
  8
0_00
  6
CONTINUOUS
 62
4
 10
172.5719
 20
703.1600
 11
171.8654
 21
699.7186
  0
LINE
  8
0_00
  6
CONTINUOUS
 62
4
 10
171.8861
 20
704.0008
 11
171.8257
 21
704.0008
  0
LINE
  8
0_00
  6
CONTINUOUS
 62
4
 10
175.7841
 20
695.4008
 11
177.2841
 21
695.4008
  0
LINE
  8
0_00
  6
CONTINUOUS
 62
4
 10
229.2841
 20
731.9228
 11
229.2840
 21
693.1008
  0
LINE
  8
0_00
  6
CONTINUOUS
 62
4
 10
227.8841
 20
731.8981
 11
227.8840
 21
705.5247
  0
LINE
  8
0_00
  6
CONTINUOUS
 62
4
 10
170.6841
 20
731.8981
 11
170.6842
 21
705.5033
  0
LINE
  8
0_00
  6
CONTINUOUS
 62
4
 10
169.2841
 20
731.9228
 11
169.2842
 21
693.0957
  0
LINE
  8
0_00
  6
CONTINUOUS
 62
4
 10
170.6836
 20
696.2747
 11
170.6836
 21
693.1008
  0
LINE
  8
0_00
  6
CONTINUOUS
 62
4
 10
171.7641
 20
698.2301
 11
171.0487
 21
698.2927
  0
LINE
  8
0_00
  6
CONTINUOUS
 62
4
 10
170.6915
 20
698.7702
 11
171.1582
 21
701.0852
  0
LINE
  8
0_00
  6
CONTINUOUS
 62
4
 10
170.9622
 20
701.3247
 11
170.6836
 21
701.3247
  0
LINE
  8
0_00
  6
CONTINUOUS
 62
4
 10
170.6836
 20
701.3247
 11
170.6836
 21
703.7246
  0
LINE
  8
0_00
  6
CONTINUOUS
 62
4
 10
173.3836
 20
704.1246
 11
171.0836
 21
704.1246
  0
LINE
  8
0_00
  6
CONTINUOUS
 62
4
 10
173.6836
 20
705.1246
 11
171.0836
 21
705.1246
  0
LINE
  8
0_00
  6
CONTINUOUS
 62
4
 10
173.3836
 20
704.1246
 11
173.3836
 21
703.9247
  0
LINE
  8
0_00
  6
CONTINUOUS
 62
4
 10
174.1836
 20
704.6246
 11
174.1836
 21
703.5247
  0
LINE
  8
0_00
  6
CONTINUOUS
 62
4
 10
227.8840
 20
693.1008
 11
227.8840
 21
696.2747
  0
LINE
  8
0_00
  6
CONTINUOUS
 62
4
 10
226.8035
 20
698.2301
 11
227.5189
 21
698.2927
  0
LINE
  8
0_00
  6
CONTINUOUS
 62
4
 10
227.8761
 20
698.7702
 11
227.4094
 21
701.0852
  0
LINE
  8
0_00
  6
CONTINUOUS
 62
4
 10
224.3840
 20
704.6246
 11
224.3840
 21
703.5247
  0
LINE
  8
0_00
  6
CONTINUOUS
 62
4
 10
225.1840
 20
704.1246
 11
225.1840
 21
703.9247
  0
LINE
  8
0_00
  6
CONTINUOUS
 62
4
 10
225.1840
 20
704.1246
 11
227.4840
 21
704.1246
  0
LINE
  8
0_00
  6
CONTINUOUS
 62
4
 10
224.8840
 20
705.1246
 11
227.4840
 21
705.1246
  0
LINE
  8
0_00
  6
CONTINUOUS
 62
4
 10
227.8840
 20
701.3247
 11
227.8840
 21
703.7246
  0
LINE
  8
0_00
  6
CONTINUOUS
 62
4
 10
227.6055
 20
701.3247
 11
227.8840
 21
701.3247
  0
LINE
  8
15_0F
  6
CONTINUOUS
 62
6
 10
600.1302
 20
377.9895
 11
600.1302
 21
439.5023
  0
LINE
  8
15_0F
  6
CONTINUOUS
 62
6
 10
660.1302
 20
377.9895
 11
660.1302
 21
439.5023
  0
LINE
  8
15_0F
  6
CONTINUOUS
 62
6
 10
600.1302
 20
433.5023
 11
660.1302
 21
433.5023
  0
LINE
  8
15_0F
  6
CONTINUOUS
 62
6
 10
600.1302
 20
433.5023
 11
607.4664
 21
431.9430
  0
LINE
  8
15_0F
  6
CONTINUOUS
 62
6
 10
600.1302
 20
433.5023
 11
607.4664
 21
435.0616
  0
LINE
  8
15_0F
  6
CONTINUOUS
 62
6
 10
660.1302
 20
433.5023
 11
652.7941
 21
435.0616
  0
LINE
  8
15_0F
  6
CONTINUOUS
 62
6
 10
660.1302
 20
433.5023
 11
652.7941
 21
431.9430
  0
LINE
  8
15_0F
  6
CONTINUOUS
 62
6
 10
583.3350
 20
317.5646
 11
495.6263
 21
317.5646
  0
LINE
  8
15_0F
  6
CONTINUOUS
 62
6
 10
624.0458
 20
261.5646
 11
495.6263
 21
261.5646
  0
LINE
  8
15_0F
  6
CONTINUOUS
 62
6
 10
501.6263
 20
317.5646
 11
501.6263
 21
261.5646
  0
LINE
  8
15_0F
  6
CONTINUOUS
 62
6
 10
501.6263
 20
317.5646
 11
500.0669
 21
310.2285
  0
LINE
  8
15_0F
  6
CONTINUOUS
 62
6
 10
501.6263
 20
317.5646
 11
503.1856
 21
310.2285
  0
LINE
  8
15_0F
  6
CONTINUOUS
 62
6
 10
501.6263
 20
261.5646
 11
503.1856
 21
268.9007
  0
LINE
  8
15_0F
  6
CONTINUOUS
 62
6
 10
501.6263
 20
261.5646
 11
500.0669
 21
268.9007
  0
LINE
  8
15_0F
  6
CONTINUOUS
 62
6
 10
1044.1789
 20
313.0646
 11
1103.6386
 21
313.0646
  0
LINE
  8
15_0F
  6
CONTINUOUS
 62
6
 10
1042.3010
 20
266.0646
 11
1103.6386
 21
266.0646
  0
LINE
  8
15_0F
  6
CONTINUOUS
 62
6
 10
1097.6387
 20
313.0646
 11
1097.6387
 21
266.0646
  0
LINE
  8
15_0F
  6
CONTINUOUS
 62
6
 10
1097.6387
 20
313.0646
 11
1096.0794
 21
305.7285
  0
LINE
  8
15_0F
  6
CONTINUOUS
 62
6
 10
1097.6387
 20
313.0646
 11
1099.1980
 21
305.7285
  0
LINE
  8
15_0F
  6
CONTINUOUS
 62
6
 10
1097.6387
 20
266.0646
 11
1099.1980
 21
273.4007
  0
LINE
  8
15_0F
  6
CONTINUOUS
 62
6
 10
1097.6387
 20
266.0646
 11
1096.0794
 21
273.4007
  0
LINE
  8
15_0F
  6
CONTINUOUS
 62
6
 10
1015.6104
 20
340.2839
 11
1015.6104
 21
489.5023
  0
LINE
  8
15_0F
  6
CONTINUOUS
 62
6
 10
630.1303
 20
483.5023
 11
1015.6104
 21
483.5023
  0
LINE
  8
15_0F
  6
CONTINUOUS
 62
6
 10
630.1303
 20
483.5023
 11
637.4664
 21
481.9430
  0
LINE
  8
15_0F
  6
CONTINUOUS
 62
6
 10
630.1303
 20
483.5023
 11
637.4664
 21
485.0616
  0
LINE
  8
15_0F
  6
CONTINUOUS
 62
6
 10
1015.6104
 20
483.5023
 11
1008.2743
 21
485.0616
  0
LINE
  8
15_0F
  6
CONTINUOUS
 62
6
 10
1015.6104
 20
483.5023
 11
1008.2743
 21
481.9430
  0
LINE
  8
15_0F
  6
CONTINUOUS
 62
6
 10
630.1303
 20
389.3458
 11
630.1303
 21
408.3490
  0
LINE
  8
15_0F
  6
CONTINUOUS
 62
6
 10
630.1303
 20
469.6719
 11
630.1303
 21
489.5023
  0
LINE
  8
15_0F
  6
CONTINUOUS
 62
4
 10
1085.0603
 20
528.8060
 11
1158.8604
 21
528.8060
  0
LINE
  8
0_00
  6
CONTINUOUS
 62
6
 10
229.2841
 20
748.4701
 11
229.2841
 21
772.0779
  0
LINE
  8
0_00
  6
CONTINUOUS
 62
6
 10
169.2841
 20
748.4701
 11
169.2841
 21
772.0779
  0
LINE
  8
0_00
  6
CONTINUOUS
 62
6
 10
169.2841
 20
769.0779
 11
229.2841
 21
769.0779
  0
LINE
  8
0_00
  6
CONTINUOUS
 62
6
 10
169.2841
 20
769.0779
 11
176.6202
 21
767.5185
  0
LINE
  8
0_00
  6
CONTINUOUS
 62
6
 10
169.2841
 20
769.0779
 11
176.6202
 21
770.6373
  0
LINE
  8
0_00
  6
CONTINUOUS
 62
6
 10
229.2841
 20
769.0779
 11
221.9480
 21
770.6373
  0
LINE
  8
0_00
  6
CONTINUOUS
 62
6
 10
229.2841
 20
769.0779
 11
221.9480
 21
767.5185
  0
LINE
  8
0_00
  6
DASHED
 62
2
 10
283.1499
 20
186.0510
 11
270.3499
 21
186.0510
  0
LINE
  8
0_00
  6
DASHED
 62
2
 10
279.3999
 20
182.6510
 11
279.3999
 21
166.0510
  0
LINE
  8
0_00
  6
DASHED
 62
2
 10
274.0999
 20
182.6510
 11
274.0999
 21
166.0510
  0
LINE
  8
0_00
  6
DASHED
 62
2
 10
283.1499
 20
186.0510
 11
279.7499
 21
182.6510
  0
LINE
  8
0_00
  6
DASHED
 62
2
 10
270.3499
 20
186.0510
 11
273.7499
 21
182.6510
  0
LINE
  8
0_00
  6
DASHED
 62
2
 10
279.7499
 20
182.6510
 11
273.7499
 21
182.6510
  0
LINE
  8
0_00
  6
DASHED
 62
2
 10
279.7499
 20
182.6510
 11
279.7499
 21
166.0510
  0
LINE
  8
0_00
  6
DASHED
 62
2
 10
273.7499
 20
182.6510
 11
273.7499
 21
166.0510
  0
LINE
  8
0_00
  6
DASHED
 62
2
 10
279.7499
 20
166.0510
 11
273.7499
 21
166.0510
  0
LINE
  8
0_00
  6
DASHED
 62
2
 10
267.9999
 20
292.2510
 11
267.9999
 21
280.2510
  0
LINE
  8
0_00
  6
DASHED
 62
2
 10
264.4999
 20
292.2510
 11
264.4999
 21
280.2510
  0
LINE
  8
0_00
  6
DASHED
 62
2
 10
268.2499
 20
292.2510
 11
268.2499
 21
280.2510
  0
LINE
  8
0_00
  6
DASHED
 62
2
 10
264.2499
 20
292.2510
 11
264.2499
 21
280.2510
  0
LINE
  8
0_00
  6
DASHED
 62
2
 10
268.2499
 20
280.2510
 11
264.2499
 21
280.2510
  0
LINE
  8
12_0C
  6
DASHED
 62
2
 10
262.2499
 20
292.2510
 11
270.2499
 21
292.2510
  0
LINE
  8
12_0C
  6
DASHED
 62
2
 10
262.2499
 20
292.6510
 11
270.2499
 21
292.6510
  0
LINE
  8
12_0C
  6
DASHED
 62
2
 10
270.2499
 20
292.2510
 11
270.2499
 21
292.6510
  0
LINE
  8
12_0C
  6
DASHED
 62
2
 10
262.2499
 20
292.2510
 11
262.2499
 21
292.6510
  0
LINE
  8
0_00
  6
DASHED
 62
2
 10
288.9999
 20
292.2510
 11
288.9999
 21
280.2510
  0
LINE
  8
0_00
  6
DASHED
 62
2
 10
285.4999
 20
292.2510
 11
285.4999
 21
280.2510
  0
LINE
  8
0_00
  6
DASHED
 62
2
 10
289.2499
 20
292.2510
 11
289.2499
 21
280.2510
  0
LINE
  8
0_00
  6
DASHED
 62
2
 10
285.2499
 20
292.2510
 11
285.2499
 21
280.2510
  0
LINE
  8
0_00
  6
DASHED
 62
2
 10
289.2499
 20
280.2510
 11
285.2499
 21
280.2510
  0
LINE
  8
12_0C
  6
DASHED
 62
2
 10
283.2499
 20
292.2510
 11
291.2499
 21
292.2510
  0
LINE
  8
12_0C
  6
DASHED
 62
2
 10
283.2499
 20
292.6510
 11
291.2499
 21
292.6510
  0
LINE
  8
12_0C
  6
DASHED
 62
2
 10
291.2499
 20
292.2510
 11
291.2499
 21
292.6510
  0
LINE
  8
12_0C
  6
DASHED
 62
2
 10
283.2499
 20
292.2510
 11
283.2499
 21
292.6510
  0
LINE
  8
0_00
  6
CONTINUOUS
 62
3
 10
547.4110
 20
97.2001
 11
547.4110
 21
37.2000
  0
LINE
  8
0_00
  6
CONTINUOUS
 62
7
 10
54.6905
 20
112.2001
 11
1218.5110
 21
112.2001
  0
LINE
  8
0_00
  6
CONTINUOUS
 62
3
 10
1218.5110
 20
851.7001
 11
1218.5110
 21
865.2001
  0
LINE
  8
0_00
  6
CONTINUOUS
 62
7
 10
1218.5110
 20
37.2000
 11
1218.5110
 21
851.7001
  0
LINE
  8
0_00
  6
CONTINUOUS
 62
3
 10
54.6905
 20
851.7001
 11
54.6905
 21
865.2001
  0
LINE
  8
0_00
  6
CONTINUOUS
 62
7
 10
54.6905
 20
37.2000
 11
54.6905
 21
851.7001
  0
LINE
  8
0_00
  6
CONTINUOUS
 62
7
 10
54.6905
 20
851.7001
 11
1218.5110
 21
851.7001
  0
LINE
  8
0_00
  6
CONTINUOUS
 62
7
 10
54.6905
 20
37.2000
 11
1218.5110
 21
37.2000
  0
LINE
  8
0_00
  6
CONTINUOUS
 62
3
 10
39.6905
 20
22.2000
 11
39.6905
 21
865.2001
  0
LINE
  8
0_00
  6
CONTINUOUS
 62
3
 10
1233.5110
 20
22.2000
 11
1233.5110
 21
865.2001
  0
LINE
  8
0_00
  6
CONTINUOUS
 62
3
 10
39.6905
 20
865.2001
 11
1233.5110
 21
865.2001
  0
LINE
  8
0_00
  6
CONTINUOUS
 62
3
 10
1070.6111
 20
37.2000
 11
1070.6111
 21
112.2001
  0
LINE
  8
0_00
  6
CONTINUOUS
 62
3
 10
54.6905
 20
97.2001
 11
812.7610
 21
97.2001
  0
LINE
  8
0_00
  6
CONTINUOUS
 62
7
 10
812.7610
 20
97.2001
 11
1218.5110
 21
97.2001
  0
LINE
  8
0_00
  6
CONTINUOUS
 62
3
 10
1070.6111
 20
67.2000
 11
1218.5110
 21
67.2000
  0
LINE
  8
0_00
  6
CONTINUOUS
 62
3
 10
1100.6111
 20
112.2001
 11
1100.6111
 21
97.2001
  0
LINE
  8
0_00
  6
CONTINUOUS
 62
3
 10
812.7610
 20
37.2000
 11
812.7610
 21
97.2001
  0
LINE
  8
0_00
  6
CONTINUOUS
 62
7
 10
812.7610
 20
97.2001
 11
812.7610
 21
112.2001
  0
LINE
  8
0_00
  6
CONTINUOUS
 62
3
 10
836.7610
 20
97.2001
 11
836.7610
 21
112.2001
  0
LINE
  8
0_00
  6
CONTINUOUS
 62
3
 10
912.5110
 20
37.2000
 11
912.5110
 21
112.2001
  0
LINE
  8
0_00
  6
CONTINUOUS
 62
3
 10
1004.6111
 20
97.2001
 11
1004.6111
 21
112.2001
  0
LINE
  8
0_00
  6
CONTINUOUS
 62
3
 10
1032.2110
 20
37.2000
 11
1032.2110
 21
97.2001
  0
LINE
  8
0_00
  6
CONTINUOUS
 62
3
 10
995.9110
 20
37.2000
 11
995.9110
 21
97.2001
  0
LINE
  8
0_00
  6
CONTINUOUS
 62
3
 10
959.6110
 20
37.2000
 11
959.6110
 21
97.2001
  0
LINE
  8
0_00
  6
CONTINUOUS
 62
3
 10
468.6610
 20
37.2000
 11
468.6610
 21
112.2001
  0
LINE
  8
0_00
  6
CONTINUOUS
 62
3
 10
626.1610
 20
37.2000
 11
626.1610
 21
97.2001
  0
LINE
  8
0_00
  6
CONTINUOUS
 62
3
 10
54.6905
 20
82.2001
 11
468.6610
 21
82.2001
  0
LINE
  8
0_00
  6
CONTINUOUS
 62
3
 10
54.6905
 20
67.2000
 11
912.5110
 21
67.2000
  0
LINE
  8
0_00
  6
CONTINUOUS
 62
3
 10
174.6905
 20
52.2000
 11
468.6610
 21
52.2000
  0
LINE
  8
0_00
  6
CONTINUOUS
 62
7
 10
54.6905
 20
52.2000
 11
174.6905
 21
52.2000
  0
LINE
  8
0_00
  6
CONTINUOUS
 62
3
 10
818.0110
 20
851.7001
 11
818.0110
 21
865.2001
  0
LINE
  8
0_00
  6
CONTINUOUS
 62
3
 10
788.0110
 20
851.7001
 11
788.0110
 21
865.2001
  0
LINE
  8
0_00
  6
CONTINUOUS
 62
3
 10
204.6905
 20
851.7001
 11
204.6905
 21
865.2001
  0
LINE
  8
0_00
  6
CONTINUOUS
 62
3
 10
854.0110
 20
851.7001
 11
854.0110
 21
865.2001
  0
LINE
  8
0_00
  6
CONTINUOUS
 62
3
 10
915.5110
 20
851.7001
 11
915.5110
 21
865.2001
  0
LINE
  8
0_00
  6
CONTINUOUS
 62
3
 10
1146.5110
 20
851.7001
 11
1146.5110
 21
865.2001
  0
LINE
  8
0_00
  6
CONTINUOUS
 62
3
 10
114.6905
 20
112.2001
 11
114.6905
 21
37.2000
  0
LINE
  8
0_00
  6
CONTINUOUS
 62
7
 10
174.6905
 20
112.2001
 11
174.6905
 21
37.2000
  0
LINE
  8
0_00
  6
CONTINUOUS
 62
3
 10
869.7610
 20
67.2000
 11
869.7610
 21
97.2001
  0
LINE
  8
0_00
  6
CONTINUOUS
 62
3
 10
893.7610
 20
112.2001
 11
893.7610
 21
97.2001
  0
LINE
  8
0_00
  6
CONTINUOUS
 62
3
 10
912.5110
 20
82.2001
 11
1070.6111
 21
82.2001
  0
LINE
  8
0_00
  6
CONTINUOUS
 62
3
 10
1076.6111
 20
71.7000
 11
1078.5610
 21
71.7000
  0
LINE
  8
0_00
  6
CONTINUOUS
 62
3
 10
1078.5610
 20
71.7000
 11
1078.5610
 21
91.2000
  0
LINE
  8
0_00
  6
CONTINUOUS
 62
3
 10
1078.5610
 20
91.2000
 11
1076.6111
 21
91.2000
  0
LINE
  8
0_00
  6
CONTINUOUS
 62
3
 10
1076.6111
 20
71.7000
 11
1076.6111
 21
91.2000
  0
LINE
  8
0_00
  6
CONTINUOUS
 62
3
 10
1079.3410
 20
71.7000
 11
1081.2911
 21
71.7000
  0
LINE
  8
0_00
  6
CONTINUOUS
 62
3
 10
1081.2911
 20
71.7000
 11
1081.2911
 21
91.2000
  0
LINE
  8
0_00
  6
CONTINUOUS
 62
3
 10
1081.2911
 20
91.2000
 11
1079.3410
 21
91.2000
  0
LINE
  8
0_00
  6
CONTINUOUS
 62
3
 10
1079.3410
 20
71.7000
 11
1079.3410
 21
91.2000
  0
LINE
  8
0_00
  6
CONTINUOUS
 62
3
 10
1082.0711
 20
71.7000
 11
1084.0210
 21
71.7000
  0
LINE
  8
0_00
  6
CONTINUOUS
 62
3
 10
1084.0210
 20
71.7000
 11
1084.0210
 21
91.2000
  0
LINE
  8
0_00
  6
CONTINUOUS
 62
3
 10
1084.0210
 20
91.2000
 11
1082.0711
 21
91.2000
  0
LINE
  8
0_00
  6
CONTINUOUS
 62
3
 10
1082.0711
 20
71.7000
 11
1082.0711
 21
91.2000
  0
LINE
  8
0_00
  6
CONTINUOUS
 62
3
 10
1084.8010
 20
71.7000
 11
1086.7511
 21
71.7000
  0
LINE
  8
0_00
  6
CONTINUOUS
 62
3
 10
1086.7511
 20
91.2000
 11
1084.8010
 21
91.2000
  0
LINE
  8
0_00
  6
CONTINUOUS
 62
3
 10
1084.8010
 20
71.7000
 11
1084.8010
 21
91.2000
  0
LINE
  8
0_00
  6
CONTINUOUS
 62
3
 10
1092.4061
 20
71.7000
 11
1100.0110
 21
71.7000
  0
LINE
  8
0_00
  6
CONTINUOUS
 62
3
 10
1100.0110
 20
71.7000
 11
1100.0110
 21
73.4550
  0
LINE
  8
0_00
  6
CONTINUOUS
 62
3
 10
1100.0110
 20
73.4550
 11
1092.4061
 21
73.4550
  0
LINE
  8
0_00
  6
CONTINUOUS
 62
3
 10
1092.4061
 20
73.4550
 11
1092.4061
 21
71.7000
  0
LINE
  8
0_00
  6
CONTINUOUS
 62
3
 10
1092.4061
 20
74.2350
 11
1100.0110
 21
74.2350
  0
LINE
  8
0_00
  6
CONTINUOUS
 62
3
 10
1100.0110
 20
74.2350
 11
1100.0110
 21
75.9900
  0
LINE
  8
0_00
  6
CONTINUOUS
 62
3
 10
1100.0110
 20
75.9900
 11
1092.4061
 21
75.9900
  0
LINE
  8
0_00
  6
CONTINUOUS
 62
3
 10
1092.4061
 20
75.9900
 11
1092.4061
 21
74.2350
  0
LINE
  8
0_00
  6
CONTINUOUS
 62
3
 10
1092.4061
 20
76.7700
 11
1100.0110
 21
76.7700
  0
LINE
  8
0_00
  6
CONTINUOUS
 62
3
 10
1100.0110
 20
76.7700
 11
1100.0110
 21
78.5250
  0
LINE
  8
0_00
  6
CONTINUOUS
 62
3
 10
1100.0110
 20
78.5250
 11
1092.4061
 21
78.5250
  0
LINE
  8
0_00
  6
CONTINUOUS
 62
3
 10
1092.4061
 20
78.5250
 11
1092.4061
 21
76.7700
  0
LINE
  8
0_00
  6
CONTINUOUS
 62
3
 10
1092.4061
 20
79.3050
 11
1100.0110
 21
79.3050
  0
LINE
  8
0_00
  6
CONTINUOUS
 62
3
 10
1100.0110
 20
79.3050
 11
1100.0110
 21
81.0600
  0
LINE
  8
0_00
  6
CONTINUOUS
 62
3
 10
1100.0110
 20
81.0600
 11
1092.4061
 21
81.0600
  0
LINE
  8
0_00
  6
CONTINUOUS
 62
3
 10
1092.4061
 20
81.0600
 11
1092.4061
 21
79.3050
  0
LINE
  8
0_00
  6
CONTINUOUS
 62
3
 10
1092.4061
 20
81.8401
 11
1100.0110
 21
81.8401
  0
LINE
  8
0_00
  6
CONTINUOUS
 62
3
 10
1100.0110
 20
81.8401
 11
1100.0110
 21
83.5950
  0
LINE
  8
0_00
  6
CONTINUOUS
 62
3
 10
1100.0110
 20
83.5950
 11
1092.4061
 21
83.5950
  0
LINE
  8
0_00
  6
CONTINUOUS
 62
3
 10
1092.4061
 20
83.5950
 11
1092.4061
 21
81.8401
  0
LINE
  8
0_00
  6
CONTINUOUS
 62
3
 10
1092.4061
 20
84.3751
 11
1100.0110
 21
84.3751
  0
LINE
  8
0_00
  6
CONTINUOUS
 62
3
 10
1100.0110
 20
84.3751
 11
1100.0110
 21
86.1300
  0
LINE
  8
0_00
  6
CONTINUOUS
 62
3
 10
1100.0110
 20
86.1300
 11
1092.4061
 21
86.1300
  0
LINE
  8
0_00
  6
CONTINUOUS
 62
3
 10
1092.4061
 20
86.1300
 11
1092.4061
 21
84.3751
  0
LINE
  8
0_00
  6
CONTINUOUS
 62
3
 10
1092.4061
 20
86.9101
 11
1100.0110
 21
86.9101
  0
LINE
  8
0_00
  6
CONTINUOUS
 62
3
 10
1100.0110
 20
86.9101
 11
1100.0110
 21
88.6650
  0
LINE
  8
0_00
  6
CONTINUOUS
 62
3
 10
1100.0110
 20
88.6650
 11
1092.4061
 21
88.6650
  0
LINE
  8
0_00
  6
CONTINUOUS
 62
3
 10
1092.4061
 20
88.6650
 11
1092.4061
 21
86.9101
  0
LINE
  8
0_00
  6
CONTINUOUS
 62
3
 10
1092.4061
 20
89.4451
 11
1100.0110
 21
89.4451
  0
LINE
  8
0_00
  6
CONTINUOUS
 62
3
 10
1100.0110
 20
89.4451
 11
1100.0110
 21
91.2000
  0
LINE
  8
0_00
  6
CONTINUOUS
 62
3
 10
1100.0110
 20
91.2000
 11
1092.4061
 21
91.2000
  0
LINE
  8
0_00
  6
CONTINUOUS
 62
3
 10
1092.4061
 20
91.2000
 11
1092.4061
 21
89.4451
  0
LINE
  8
0_00
  6
CONTINUOUS
 62
3
 10
1087.5311
 20
71.7000
 11
1087.5311
 21
77.0626
  0
LINE
  8
0_00
  6
CONTINUOUS
 62
3
 10
1088.8375
 20
72.7725
 11
1088.8375
 21
77.0626
  0
LINE
  8
0_00
  6
CONTINUOUS
 62
3
 10
1087.5311
 20
71.7000
 11
1089.6760
 21
71.7000
  0
LINE
  8
0_00
  6
CONTINUOUS
 62
3
 10
1088.8375
 20
72.7725
 11
1089.6760
 21
72.7725
  0
LINE
  8
0_00
  6
CONTINUOUS
 62
3
 10
1089.6050
 20
79.8056
 11
1090.4561
 21
78.1351
  0
LINE
  8
0_00
  6
CONTINUOUS
 62
3
 10
1090.9410
 20
82.5453
 11
1089.6047
 21
79.8055
  0
LINE
  8
0_00
  6
CONTINUOUS
 62
3
 10
1086.7511
 20
85.3501
 11
1086.7511
 21
91.2000
  0
LINE
  8
0_00
  6
CONTINUOUS
 62
3
 10
1086.7511
 20
85.3501
 11
1089.1886
 21
85.3501
  0
LINE
  8
0_00
  6
CONTINUOUS
 62
3
 10
1086.7511
 20
84.1801
 11
1087.8333
 21
84.1801
  0
LINE
  8
0_00
  6
CONTINUOUS
 62
3
 10
1086.7511
 20
78.1351
 11
1090.4561
 21
78.1351
  0
LINE
  8
0_00
  6
CONTINUOUS
 62
3
 10
1086.7511
 20
81.9611
 11
1087.8334
 21
84.1801
  0
LINE
  8
0_00
  6
CONTINUOUS
 62
3
 10
1086.7511
 20
81.9613
 11
1086.7511
 21
84.1801
  0
LINE
  8
0_00
  6
CONTINUOUS
 62
3
 10
1086.7511
 20
78.1351
 11
1086.7511
 21
71.7000
  0
LINE
  8
0_00
  6
CONTINUOUS
 62
3
 10
1076.9110
 20
91.2000
 11
1076.9110
 21
71.7000
  0
LINE
  8
0_00
  6
CONTINUOUS
 62
3
 10
1077.2110
 20
91.2000
 11
1077.2110
 21
71.7000
  0
LINE
  8
0_00
  6
CONTINUOUS
 62
3
 10
1077.5110
 20
91.2000
 11
1077.5110
 21
71.7000
  0
LINE
  8
0_00
  6
CONTINUOUS
 62
3
 10
1077.8109
 20
91.2000
 11
1077.8109
 21
71.7000
  0
LINE
  8
0_00
  6
CONTINUOUS
 62
3
 10
1078.1111
 20
91.2000
 11
1078.1111
 21
71.7000
  0
LINE
  8
0_00
  6
CONTINUOUS
 62
3
 10
1079.6411
 20
91.2000
 11
1079.6411
 21
71.7000
  0
LINE
  8
0_00
  6
CONTINUOUS
 62
3
 10
1079.9410
 20
91.2000
 11
1079.9410
 21
71.7000
  0
LINE
  8
0_00
  6
CONTINUOUS
 62
3
 10
1080.2410
 20
91.2000
 11
1080.2410
 21
71.7000
  0
LINE
  8
0_00
  6
CONTINUOUS
 62
3
 10
1080.5410
 20
91.2000
 11
1080.5410
 21
71.7000
  0
LINE
  8
0_00
  6
CONTINUOUS
 62
3
 10
1080.8410
 20
91.2000
 11
1080.8410
 21
71.7000
  0
LINE
  8
0_00
  6
CONTINUOUS
 62
3
 10
1081.1411
 20
91.2000
 11
1081.1411
 21
71.7000
  0
LINE
  8
0_00
  6
CONTINUOUS
 62
3
 10
1082.3709
 20
91.2000
 11
1082.3709
 21
71.7000
  0
LINE
  8
0_00
  6
CONTINUOUS
 62
3
 10
1082.6711
 20
91.2000
 11
1082.6711
 21
71.7000
  0
LINE
  8
0_00
  6
CONTINUOUS
 62
3
 10
1082.9711
 20
91.2000
 11
1082.9711
 21
71.7000
  0
LINE
  8
0_00
  6
CONTINUOUS
 62
3
 10
1083.2710
 20
91.2000
 11
1083.2710
 21
71.7000
  0
LINE
  8
0_00
  6
CONTINUOUS
 62
3
 10
1083.5711
 20
91.2000
 11
1083.5711
 21
71.7000
  0
LINE
  8
0_00
  6
CONTINUOUS
 62
3
 10
1083.8709
 20
91.2000
 11
1083.8709
 21
71.7000
  0
LINE
  8
0_00
  6
CONTINUOUS
 62
3
 10
1092.4061
 20
72.0001
 11
1100.0110
 21
72.0001
  0
LINE
  8
0_00
  6
CONTINUOUS
 62
3
 10
1092.4061
 20
72.3001
 11
1100.0110
 21
72.3001
  0
LINE
  8
0_00
  6
CONTINUOUS
 62
3
 10
1092.4061
 20
72.6000
 11
1100.0110
 21
72.6000
  0
LINE
  8
0_00
  6
CONTINUOUS
 62
3
 10
1092.4061
 20
72.9000
 11
1100.0110
 21
72.9000
  0
LINE
  8
0_00
  6
CONTINUOUS
 62
3
 10
1092.4061
 20
73.2000
 11
1100.0110
 21
73.2000
  0
LINE
  8
0_00
  6
CONTINUOUS
 62
3
 10
1092.4061
 20
74.5351
 11
1100.0110
 21
74.5351
  0
LINE
  8
0_00
  6
CONTINUOUS
 62
3
 10
1092.4061
 20
74.8351
 11
1100.0110
 21
74.8351
  0
LINE
  8
0_00
  6
CONTINUOUS
 62
3
 10
1092.4061
 20
75.1350
 11
1100.0110
 21
75.1350
  0
LINE
  8
0_00
  6
CONTINUOUS
 62
3
 10
1092.4061
 20
75.4350
 11
1100.0110
 21
75.4350
  0
LINE
  8
0_00
  6
CONTINUOUS
 62
3
 10
1092.4061
 20
75.7350
 11
1100.0110
 21
75.7350
  0
LINE
  8
0_00
  6
CONTINUOUS
 62
3
 10
1092.4061
 20
77.0701
 11
1100.0110
 21
77.0701
  0
LINE
  8
0_00
  6
CONTINUOUS
 62
3
 10
1092.4061
 20
77.3701
 11
1100.0110
 21
77.3701
  0
LINE
  8
0_00
  6
CONTINUOUS
 62
3
 10
1092.4061
 20
77.6700
 11
1100.0110
 21
77.6700
  0
LINE
  8
0_00
  6
CONTINUOUS
 62
3
 10
1092.4061
 20
77.9700
 11
1100.0110
 21
77.9700
  0
LINE
  8
0_00
  6
CONTINUOUS
 62
3
 10
1092.4061
 20
78.2701
 11
1100.0110
 21
78.2701
  0
LINE
  8
0_00
  6
CONTINUOUS
 62
3
 10
1092.4061
 20
79.6051
 11
1100.0110
 21
79.6051
  0
LINE
  8
0_00
  6
CONTINUOUS
 62
3
 10
1092.4061
 20
79.9051
 11
1100.0110
 21
79.9051
  0
LINE
  8
0_00
  6
CONTINUOUS
 62
3
 10
1092.4061
 20
80.2050
 11
1100.0110
 21
80.2050
  0
LINE
  8
0_00
  6
CONTINUOUS
 62
3
 10
1092.4061
 20
80.5050
 11
1100.0110
 21
80.5050
  0
LINE
  8
0_00
  6
CONTINUOUS
 62
3
 10
1092.4061
 20
80.8051
 11
1100.0110
 21
80.8051
  0
LINE
  8
0_00
  6
CONTINUOUS
 62
3
 10
1092.4061
 20
82.1401
 11
1100.0110
 21
82.1401
  0
LINE
  8
0_00
  6
CONTINUOUS
 62
3
 10
1092.4061
 20
82.4401
 11
1100.0110
 21
82.4401
  0
LINE
  8
0_00
  6
CONTINUOUS
 62
3
 10
1092.4061
 20
82.7400
 11
1100.0110
 21
82.7400
  0
LINE
  8
0_00
  6
CONTINUOUS
 62
3
 10
1092.4061
 20
83.0400
 11
1100.0110
 21
83.0400
  0
LINE
  8
0_00
  6
CONTINUOUS
 62
3
 10
1092.4061
 20
83.3401
 11
1100.0110
 21
83.3401
  0
LINE
  8
0_00
  6
CONTINUOUS
 62
3
 10
1100.0110
 20
84.6751
 11
1092.4061
 21
84.6751
  0
LINE
  8
0_00
  6
CONTINUOUS
 62
3
 10
1100.0110
 20
84.9751
 11
1092.4061
 21
84.9751
  0
LINE
  8
0_00
  6
CONTINUOUS
 62
3
 10
1100.0110
 20
85.2750
 11
1092.4061
 21
85.2750
  0
LINE
  8
0_00
  6
CONTINUOUS
 62
3
 10
1100.0110
 20
85.5750
 11
1092.4061
 21
85.5750
  0
LINE
  8
0_00
  6
CONTINUOUS
 62
3
 10
1100.0110
 20
85.8751
 11
1092.4061
 21
85.8751
  0
LINE
  8
0_00
  6
CONTINUOUS
 62
3
 10
1092.4061
 20
87.2101
 11
1100.0110
 21
87.2101
  0
LINE
  8
0_00
  6
CONTINUOUS
 62
3
 10
1092.4061
 20
87.5101
 11
1100.0110
 21
87.5101
  0
LINE
  8
0_00
  6
CONTINUOUS
 62
3
 10
1092.4061
 20
87.8100
 11
1100.0110
 21
87.8100
  0
LINE
  8
0_00
  6
CONTINUOUS
 62
3
 10
1092.4061
 20
88.1100
 11
1100.0110
 21
88.1100
  0
LINE
  8
0_00
  6
CONTINUOUS
 62
3
 10
1092.4061
 20
88.4101
 11
1100.0110
 21
88.4101
  0
LINE
  8
0_00
  6
CONTINUOUS
 62
3
 10
1092.4061
 20
89.7451
 11
1100.0110
 21
89.7451
  0
LINE
  8
0_00
  6
CONTINUOUS
 62
3
 10
1092.4061
 20
90.0451
 11
1100.0110
 21
90.0451
  0
LINE
  8
0_00
  6
CONTINUOUS
 62
3
 10
1092.4061
 20
90.3450
 11
1100.0110
 21
90.3450
  0
LINE
  8
0_00
  6
CONTINUOUS
 62
3
 10
1092.4061
 20
90.6450
 11
1100.0110
 21
90.6450
  0
LINE
  8
0_00
  6
CONTINUOUS
 62
3
 10
1092.4061
 20
90.9451
 11
1100.0110
 21
90.9451
  0
LINE
  8
0_00
  6
CONTINUOUS
 62
3
 10
1085.1010
 20
91.2000
 11
1085.1010
 21
71.7000
  0
LINE
  8
0_00
  6
CONTINUOUS
 62
3
 10
1085.4011
 20
91.2000
 11
1085.4011
 21
71.7000
  0
LINE
  8
0_00
  6
CONTINUOUS
 62
3
 10
1085.7009
 20
91.2000
 11
1085.7009
 21
71.7000
  0
LINE
  8
0_00
  6
CONTINUOUS
 62
3
 10
1086.0008
 20
91.2000
 11
1086.0008
 21
71.7000
  0
LINE
  8
0_00
  6
CONTINUOUS
 62
3
 10
1086.3010
 20
91.2000
 11
1086.3010
 21
71.7000
  0
LINE
  8
0_00
  6
CONTINUOUS
 62
3
 10
1086.6010
 20
91.2000
 11
1086.6010
 21
71.7000
  0
LINE
  8
0_00
  6
CONTINUOUS
 62
3
 10
1087.8311
 20
71.7000
 11
1087.8311
 21
77.0626
  0
LINE
  8
0_00
  6
CONTINUOUS
 62
3
 10
1088.1312
 20
71.7000
 11
1088.1312
 21
77.0626
  0
LINE
  8
0_00
  6
CONTINUOUS
 62
3
 10
1088.4310
 20
71.7000
 11
1088.4310
 21
77.0626
  0
LINE
  8
0_00
  6
CONTINUOUS
 62
3
 10
1088.7309
 20
71.7000
 11
1088.7309
 21
77.0626
  0
LINE
  8
0_00
  6
CONTINUOUS
 62
3
 10
1088.8375
 20
72.4725
 11
1089.6760
 21
72.4725
  0
LINE
  8
0_00
  6
CONTINUOUS
 62
3
 10
1088.8375
 20
72.1725
 11
1089.6760
 21
72.1725
  0
LINE
  8
0_00
  6
CONTINUOUS
 62
3
 10
1088.8375
 20
71.8725
 11
1089.6760
 21
71.8725
  0
LINE
  8
0_00
  6
CONTINUOUS
 62
3
 10
1090.2825
 20
78.4758
 11
1086.7853
 21
78.4758
  0
LINE
  8
0_00
  6
CONTINUOUS
 62
3
 10
1090.1032
 20
78.8278
 11
1086.7853
 21
78.8278
  0
LINE
  8
0_00
  6
CONTINUOUS
 62
3
 10
1089.8939
 20
79.2384
 11
1086.7779
 21
79.2384
  0
LINE
  8
0_00
  6
CONTINUOUS
 62
3
 10
1089.7204
 20
79.5787
 11
1086.7744
 21
79.5787
  0
LINE
  8
0_00
  6
CONTINUOUS
 62
3
 10
1091.0859
 20
83.5262
 11
1089.1502
 21
79.5579
  0
LINE
  8
0_00
  6
CONTINUOUS
 62
3
 10
1090.9896
 20
84.0133
 11
1088.8107
 21
79.5458
  0
LINE
  8
0_00
  6
CONTINUOUS
 62
3
 10
1090.8083
 20
84.3258
 11
1088.4914
 21
79.5758
  0
LINE
  8
0_00
  6
CONTINUOUS
 62
3
 10
1090.6029
 20
84.5893
 11
1088.1454
 21
79.5508
  0
LINE
  8
0_00
  6
CONTINUOUS
 62
3
 10
1090.4008
 20
84.8596
 11
1087.8790
 21
79.6887
  0
LINE
  8
0_00
  6
CONTINUOUS
 62
3
 10
1090.1371
 20
85.0026
 11
1087.4908
 21
79.5774
  0
LINE
  8
0_00
  6
CONTINUOUS
 62
3
 10
1089.8761
 20
85.1521
 11
1087.1534
 21
79.5697
  0
LINE
  8
0_00
  6
CONTINUOUS
 62
3
 10
1089.5665
 20
85.2017
 11
1086.8386
 21
79.6087
  0
LINE
  8
0_00
  6
CONTINUOUS
 62
3
 10
1089.2498
 20
85.2367
 11
1086.7053
 21
80.0197
  0
LINE
  8
0_00
  6
CONTINUOUS
 62
3
 10
1088.9374
 20
85.2802
 11
1086.7329
 21
80.7607
  0
LINE
  8
0_00
  6
CONTINUOUS
 62
3
 10
1088.5957
 20
85.2643
 11
1086.6388
 21
81.2521
  0
LINE
  8
0_00
  6
CONTINUOUS
 62
3
 10
1087.9926
 20
84.4801
 11
1086.7511
 21
84.4801
  0
LINE
  8
0_00
  6
CONTINUOUS
 62
3
 10
1088.2355
 20
84.7801
 11
1086.7511
 21
84.7801
  0
LINE
  8
0_00
  6
CONTINUOUS
 62
3
 10
1088.3496
 20
85.0800
 11
1086.7511
 21
85.0800
  0
LINE
  8
0_00
  6
CONTINUOUS
 62
3
 10
796.2610
 20
852.4893
 11
809.7610
 21
852.4893
  0
LINE
  8
0_00
  6
CONTINUOUS
 62
3
 10
797.1685
 20
854.0609
 11
796.2610
 21
852.4893
  0
LINE
  8
0_00
  6
CONTINUOUS
 62
3
 10
800.8929
 20
860.5119
 11
803.0110
 21
864.1806
  0
LINE
  8
0_00
  6
CONTINUOUS
 62
3
 10
808.8538
 20
854.0609
 11
809.7610
 21
852.4893
  0
LINE
  8
0_00
  6
CONTINUOUS
 62
3
 10
805.1292
 20
860.5119
 11
803.0110
 21
864.1806
  0
LINE
  8
0_00
  6
CONTINUOUS
 62
3
 10
1218.5110
 20
154.2001
 11
1221.5110
 21
154.2001
  0
LINE
  8
0_00
  6
CONTINUOUS
 62
3
 10
1218.5110
 20
175.2001
 11
1221.5110
 21
175.2001
  0
LINE
  8
0_00
  6
CONTINUOUS
 62
3
 10
1218.5110
 20
196.2001
 11
1221.5110
 21
196.2001
  0
LINE
  8
0_00
  6
CONTINUOUS
 62
3
 10
1218.5110
 20
217.2001
 11
1221.5110
 21
217.2001
  0
LINE
  8
0_00
  6
CONTINUOUS
 62
3
 10
1218.5110
 20
238.2001
 11
1221.5110
 21
238.2001
  0
LINE
  8
0_00
  6
CONTINUOUS
 62
3
 10
1218.5110
 20
259.2001
 11
1221.5110
 21
259.2001
  0
LINE
  8
0_00
  6
CONTINUOUS
 62
3
 10
1218.5110
 20
280.2001
 11
1221.5110
 21
280.2001
  0
LINE
  8
0_00
  6
CONTINUOUS
 62
3
 10
1218.5110
 20
301.2001
 11
1221.5110
 21
301.2001
  0
LINE
  8
0_00
  6
CONTINUOUS
 62
3
 10
1218.5110
 20
322.2001
 11
1221.5110
 21
322.2001
  0
LINE
  8
0_00
  6
CONTINUOUS
 62
3
 10
1218.5110
 20
343.2001
 11
1221.5110
 21
343.2001
  0
LINE
  8
0_00
  6
CONTINUOUS
 62
3
 10
1218.5110
 20
364.2001
 11
1221.5110
 21
364.2001
  0
LINE
  8
0_00
  6
CONTINUOUS
 62
3
 10
1218.5110
 20
385.2001
 11
1221.5110
 21
385.2001
  0
LINE
  8
0_00
  6
CONTINUOUS
 62
3
 10
1218.5110
 20
406.2001
 11
1221.5110
 21
406.2001
  0
LINE
  8
0_00
  6
CONTINUOUS
 62
3
 10
1218.5110
 20
427.2001
 11
1221.5110
 21
427.2001
  0
LINE
  8
0_00
  6
CONTINUOUS
 62
3
 10
1218.5110
 20
448.2001
 11
1221.5110
 21
448.2001
  0
LINE
  8
0_00
  6
CONTINUOUS
 62
3
 10
1218.5110
 20
469.2001
 11
1221.5110
 21
469.2001
  0
LINE
  8
0_00
  6
CONTINUOUS
 62
3
 10
1218.5110
 20
490.2001
 11
1221.5110
 21
490.2001
  0
LINE
  8
0_00
  6
CONTINUOUS
 62
3
 10
1218.5110
 20
833.7001
 11
1221.5110
 21
833.7001
  0
LINE
  8
0_00
  6
CONTINUOUS
 62
3
 10
1218.5110
 20
815.7001
 11
1221.5110
 21
815.7001
  0
LINE
  8
0_00
  6
CONTINUOUS
 62
3
 10
1218.5110
 20
797.7001
 11
1221.5110
 21
797.7001
  0
LINE
  8
0_00
  6
CONTINUOUS
 62
3
 10
1218.5110
 20
779.7001
 11
1221.5110
 21
779.7001
  0
LINE
  8
0_00
  6
CONTINUOUS
 62
3
 10
1218.5110
 20
761.7001
 11
1221.5110
 21
761.7001
  0
LINE
  8
0_00
  6
CONTINUOUS
 62
3
 10
1218.5110
 20
743.7001
 11
1221.5110
 21
743.7001
  0
LINE
  8
0_00
  6
CONTINUOUS
 62
3
 10
1218.5110
 20
511.2001
 11
1221.5110
 21
511.2001
  0
LINE
  8
0_00
  6
CONTINUOUS
 62
3
 10
1218.5110
 20
532.2001
 11
1221.5110
 21
532.2001
  0
LINE
  8
0_00
  6
CONTINUOUS
 62
3
 10
1218.5110
 20
553.2001
 11
1221.5110
 21
553.2001
  0
LINE
  8
0_00
  6
CONTINUOUS
 62
3
 10
1218.5110
 20
574.2001
 11
1221.5110
 21
574.2001
  0
LINE
  8
0_00
  6
CONTINUOUS
 62
3
 10
1218.5110
 20
595.2001
 11
1221.5110
 21
595.2001
  0
LINE
  8
0_00
  6
CONTINUOUS
 62
3
 10
1218.5110
 20
616.2001
 11
1221.5110
 21
616.2001
  0
LINE
  8
0_00
  6
CONTINUOUS
 62
3
 10
1218.5110
 20
637.2000
 11
1221.5110
 21
637.2000
  0
LINE
  8
0_00
  6
CONTINUOUS
 62
3
 10
1218.5110
 20
658.2000
 11
1221.5110
 21
658.2000
  0
LINE
  8
0_00
  6
CONTINUOUS
 62
3
 10
1218.5110
 20
679.2000
 11
1221.5110
 21
679.2000
  0
LINE
  8
0_00
  6
CONTINUOUS
 62
3
 10
1218.5110
 20
700.2001
 11
1221.5110
 21
700.2001
  0
LINE
  8
0_00
  6
CONTINUOUS
 62
3
 10
1218.5110
 20
721.2001
 11
1221.5110
 21
721.2001
  0
LINE
  8
0_00
  6
CENTER1
 62
3
 10
881.0410
 20
73.2001
 11
881.0410
 21
91.2001
  0
LINE
  8
0_00
  6
CONTINUOUS
 62
4
 10
891.5411
 20
78.4501
 11
891.5411
 21
85.9501
  0
LINE
  8
0_00
  6
CONTINUOUS
 62
4
 10
905.0410
 20
76.2001
 11
905.0410
 21
88.2001
  0
LINE
  8
0_00
  6
CONTINUOUS
 62
4
 10
891.5411
 20
85.9501
 11
905.0410
 21
88.2001
  0
LINE
  8
0_00
  6
CONTINUOUS
 62
4
 10
891.5411
 20
78.4501
 11
905.0410
 21
76.2001
  0
LINE
  8
0_00
  6
CENTER1
 62
3
 10
872.0411
 20
82.2001
 11
907.3555
 21
82.2001
  0
LINE
  8
0_00
  6
CONTINUOUS
 62
3
 10
1191.5110
 20
37.2000
 11
1191.5110
 21
67.2000
  0
LINE
  8
0_00
  6
CONTINUOUS
 62
3
 10
39.6905
 20
22.2000
 11
1233.5110
 21
22.2000
  0
LINE
  8
0_00
  6
CONTINUOUS
 62
3
 10
1182.5110
 20
865.2001
 11
1182.5110
 21
851.7001
  0
LINE
  8
0_00
  6
CONTINUOUS
 62
3
 10
0.0000
 20
443.7000
 11
39.6905
 21
443.7000
  0
LINE
  8
0_00
  6
CONTINUOUS
 62
3
 10
626.1610
 20
22.2000
 11
626.1610
 21
0.0000
  0
LINE
  8
0_00
  6
CONTINUOUS
 62
3
 10
626.1610
 20
865.2001
 11
626.1610
 21
891.0000
  0
LINE
  8
0_00
  6
CONTINUOUS
 62
3
 10
1233.5110
 20
443.7000
 11
1260.0000
 21
443.7000
  0
LINE
  8
0_00
  6
CONTINUOUS
 62
6
 10
1082.3665
 20
219.5647
 11
1130.6778
 21
219.5647
  0
LINE
  8
0_00
  6
CONTINUOUS
 62
6
 10
1103.6903
 20
289.5646
 11
1130.6778
 21
289.5646
  0
LINE
  8
0_00
  6
CONTINUOUS
 62
6
 10
1127.6778
 20
289.5646
 11
1127.6778
 21
219.5647
  0
LINE
  8
0_00
  6
CONTINUOUS
 62
6
 10
1127.6778
 20
289.5646
 11
1126.1185
 21
282.2285
  0
LINE
  8
0_00
  6
CONTINUOUS
 62
6
 10
1127.6778
 20
289.5646
 11
1129.2372
 21
282.2285
  0
LINE
  8
0_00
  6
CONTINUOUS
 62
6
 10
1127.6778
 20
219.5647
 11
1129.2372
 21
226.9007
  0
LINE
  8
0_00
  6
CONTINUOUS
 62
6
 10
1127.6778
 20
219.5647
 11
1126.1185
 21
226.9007
  0
LINE
  8
0_00
  6
CONTINUOUS
 62
6
 10
650.6302
 20
278.9310
 11
650.6302
 21
411.3490
  0
LINE
  8
0_00
  6
CONTINUOUS
 62
6
 10
609.6302
 20
332.0184
 11
609.6302
 21
411.3490
  0
LINE
  8
0_00
  6
CONTINUOUS
 62
6
 10
609.6302
 20
408.3490
 11
650.6302
 21
408.3490
  0
LINE
  8
0_00
  6
CONTINUOUS
 62
6
 10
609.6302
 20
408.3490
 11
616.9664
 21
406.7897
  0
LINE
  8
0_00
  6
CONTINUOUS
 62
6
 10
609.6302
 20
408.3490
 11
616.9664
 21
409.9083
  0
LINE
  8
0_00
  6
CONTINUOUS
 62
6
 10
650.6302
 20
408.3490
 11
643.2941
 21
409.9083
  0
LINE
  8
0_00
  6
CONTINUOUS
 62
6
 10
650.6302
 20
408.3490
 11
643.2941
 21
406.7897
  0
LINE
  8
0_00
  6
CONTINUOUS
 62
6
 10
199.2841
 20
782.0520
 11
199.2841
 21
795.0779
  0
LINE
  8
0_00
  6
CONTINUOUS
 62
6
 10
199.2841
 20
789.0779
 11
269.2841
 21
789.0779
  0
LINE
  8
0_00
  6
CONTINUOUS
 62
6
 10
199.2841
 20
789.0779
 11
206.6202
 21
787.5186
  0
LINE
  8
0_00
  6
CONTINUOUS
 62
6
 10
199.2841
 20
789.0779
 11
206.6202
 21
790.6371
  0
LINE
  8
0_00
  6
CONTINUOUS
 62
6
 10
269.2841
 20
789.0779
 11
261.9480
 21
790.6371
  0
LINE
  8
0_00
  6
CONTINUOUS
 62
6
 10
269.2841
 20
789.0779
 11
261.9480
 21
787.5186
  0
LINE
  8
0_00
  6
CONTINUOUS
 62
6
 10
269.2841
 20
627.2599
 11
269.2841
 21
646.4612
  0
LINE
  8
0_00
  6
CONTINUOUS
 62
6
 10
269.2841
 20
678.0458
 11
269.2841
 21
749.0897
  0
LINE
  8
0_00
  6
CONTINUOUS
 62
6
 10
269.2841
 20
768.5856
 11
269.2841
 21
795.0779
  0
LINE
  8
0_00
  6
DASHED
 62
2
 10
429.0341
 20
695.6008
 11
429.0341
 21
683.6008
  0
LINE
  8
0_00
  6
DASHED
 62
2
 10
425.5341
 20
695.6008
 11
425.5341
 21
683.6008
  0
LINE
  8
0_00
  6
DASHED
 62
2
 10
429.2841
 20
695.6008
 11
429.2841
 21
683.6008
  0
LINE
  8
0_00
  6
DASHED
 62
2
 10
425.2841
 20
695.6008
 11
425.2841
 21
683.6008
  0
LINE
  8
0_00
  6
DASHED
 62
2
 10
429.2841
 20
683.6008
 11
425.2841
 21
683.6008
  0
LINE
  8
12_0C
  6
CONTINUOUS
 62
2
 10
423.2841
 20
695.6008
 11
431.2841
 21
695.6008
  0
LINE
  8
12_0C
  6
CONTINUOUS
 62
2
 10
423.2841
 20
696.0009
 11
431.2841
 21
696.0009
  0
LINE
  8
12_0C
  6
CONTINUOUS
 62
2
 10
431.2841
 20
695.6008
 11
431.2841
 21
696.0009
  0
LINE
  8
12_0C
  6
CONTINUOUS
 62
2
 10
423.2841
 20
695.6008
 11
423.2841
 21
696.0009
  0
LINE
  8
0_00
  6
DASHED
 62
2
 10
393.0341
 20
695.6008
 11
393.0341
 21
683.6008
  0
LINE
  8
0_00
  6
DASHED
 62
2
 10
389.5341
 20
695.6008
 11
389.5341
 21
683.6008
  0
LINE
  8
0_00
  6
DASHED
 62
2
 10
393.2841
 20
695.6008
 11
393.2841
 21
683.6008
  0
LINE
  8
0_00
  6
DASHED
 62
2
 10
389.2841
 20
695.6008
 11
389.2841
 21
683.6008
  0
LINE
  8
0_00
  6
DASHED
 62
2
 10
393.2841
 20
683.6008
 11
389.2841
 21
683.6008
  0
LINE
  8
12_0C
  6
CONTINUOUS
 62
2
 10
387.2841
 20
695.6008
 11
395.2841
 21
695.6008
  0
LINE
  8
12_0C
  6
CONTINUOUS
 62
2
 10
387.2841
 20
696.0009
 11
395.2841
 21
696.0009
  0
LINE
  8
12_0C
  6
CONTINUOUS
 62
2
 10
395.2841
 20
695.6008
 11
395.2841
 21
696.0009
  0
LINE
  8
12_0C
  6
CONTINUOUS
 62
2
 10
387.2841
 20
695.6008
 11
387.2841
 21
696.0009
  0
LINE
  8
0_00
  6
CONTINUOUS
 62
4
 10
409.2841
 20
695.7009
 11
408.9841
 21
695.4008
  0
LINE
  8
0_00
  6
CONTINUOUS
 62
4
 10
421.5841
 20
695.4008
 11
409.5841
 21
695.4008
  0
LINE
  8
0_00
  6
CONTINUOUS
 62
4
 10
409.2841
 20
695.7009
 11
409.5841
 21
695.4008
  0
LINE
  8
14_0E
  6
CONTINUOUS
 62
4
 10
422.3603
 20
697.0104
 11
413.2841
 21
697.4008
  0
LINE
  8
0_00
  6
CONTINUOUS
 62
4
 10
409.2841
 20
695.7009
 11
409.5841
 21
695.4008
  0
LINE
  8
0_00
  6
CONTINUOUS
 62
4
 10
396.9841
 20
695.4008
 11
408.9841
 21
695.4008
  0
LINE
  8
0_00
  6
CONTINUOUS
 62
4
 10
409.2841
 20
695.7009
 11
408.9841
 21
695.4008
  0
LINE
  8
14_0E
  6
CONTINUOUS
 62
4
 10
396.2079
 20
697.0104
 11
405.2841
 21
697.4008
  0
LINE
  8
0_00
  6
CONTINUOUS
 62
4
 10
413.2841
 20
697.4008
 11
405.2841
 21
697.4008
  0
LINE
  8
0_00
  6
CONTINUOUS
 62
4
 10
421.9841
 20
693.9008
 11
426.9841
 21
693.9008
  0
LINE
  8
0_00
  6
CONTINUOUS
 62
4
 10
421.5841
 20
695.4008
 11
421.9841
 21
693.9008
  0
LINE
  8
0_00
  6
CONTINUOUS
 62
4
 10
424.7841
 20
695.6008
 11
429.7841
 21
695.6008
  0
LINE
  8
0_00
  6
CONTINUOUS
 62
4
 10
427.5841
 20
693.9008
 11
436.6841
 21
693.9008
  0
LINE
  8
0_00
  6
CONTINUOUS
 62
4
 10
427.2841
 20
694.2009
 11
426.9841
 21
693.9008
  0
LINE
  8
0_00
  6
CONTINUOUS
 62
4
 10
427.2841
 20
694.2009
 11
427.5841
 21
693.9008
  0
LINE
  8
0_00
  6
CONTINUOUS
 62
4
 10
434.6119
 20
695.4008
 11
430.0841
 21
695.4008
  0
LINE
  8
0_00
  6
CONTINUOUS
 62
4
 10
429.7841
 20
695.6008
 11
430.0841
 21
695.4008
  0
LINE
  8
0_00
  6
CONTINUOUS
 62
4
 10
424.4841
 20
695.4008
 11
423.2964
 21
695.4008
  0
LINE
  8
0_00
  6
CONTINUOUS
 62
4
 10
424.7841
 20
695.6008
 11
424.4841
 21
695.4008
  0
LINE
  8
0_00
  6
CONTINUOUS
 62
4
 10
422.6384
 20
696.7835
 11
422.9084
 21
695.7038
  0
LINE
  8
0_00
  6
CONTINUOUS
 62
4
 10
436.6841
 20
693.9008
 11
437.6841
 21
694.9008
  0
LINE
  8
0_00
  6
CONTINUOUS
 62
4
 10
437.6841
 20
694.9008
 11
437.6841
 21
696.2008
  0
LINE
  8
0_00
  6
CONTINUOUS
 62
4
 10
437.6841
 20
695.4008
 11
437.6841
 21
694.9008
  0
LINE
  8
0_00
  6
CONTINUOUS
 62
4
 10
436.7036
 20
698.2788
 11
437.5602
 21
698.3537
  0
LINE
  8
0_00
  6
CONTINUOUS
 62
4
 10
435.5969
 20
699.2861
 11
436.4350
 21
699.3595
  0
LINE
  8
0_00
  6
CONTINUOUS
 62
4
 10
434.6841
 20
698.2900
 11
434.6841
 21
697.8571
  0
LINE
  8
0_00
  6
CONTINUOUS
 62
4
 10
437.8279
 20
698.7129
 11
436.7425
 21
704.0008
  0
LINE
  8
0_00
  6
CONTINUOUS
 62
4
 10
435.9963
 20
703.1600
 11
436.7027
 21
699.7186
  0
LINE
  8
0_00
  6
CONTINUOUS
 62
4
 10
436.6820
 20
704.0008
 11
436.7425
 21
704.0008
  0
LINE
  8
0_00
  6
CONTINUOUS
 62
4
 10
439.2847
 20
704.1473
 11
439.2846
 21
694.9396
  0
LINE
  8
0_00
  6
CONTINUOUS
 62
4
 10
437.8846
 20
696.2974
 11
437.8846
 21
693.9568
  0
LINE
  8
0_00
  6
CONTINUOUS
 62
4
 10
437.8847
 20
701.3474
 11
437.8847
 21
703.7435
  0
LINE
  8
0_00
  6
CONTINUOUS
 62
4
 10
435.1847
 20
704.1474
 11
437.4847
 21
704.1473
  0
LINE
  8
0_00
  6
CONTINUOUS
 62
4
 10
434.3847
 20
704.4473
 11
434.3847
 21
703.5474
  0
LINE
  8
0_00
  6
CONTINUOUS
 62
4
 10
435.1847
 20
704.1474
 11
435.1847
 21
703.9474
  0
LINE
  8
0_00
  6
CONTINUOUS
 62
4
 10
436.8041
 20
698.2528
 11
437.5195
 21
698.3154
  0
LINE
  8
0_00
  6
CONTINUOUS
 62
4
 10
437.8768
 20
698.7930
 11
437.4100
 21
701.1078
  0
LINE
  8
0_00
  6
CONTINUOUS
 62
4
 10
437.6061
 20
701.3474
 11
437.8847
 21
701.3474
  0
LINE
  8
0_00
  6
CONTINUOUS
 62
4
 10
435.3847
 20
705.4474
 11
437.9847
 21
705.4474
  0
LINE
  8
0_00
  6
CONTINUOUS
 62
4
 10
396.5841
 20
693.9008
 11
391.5841
 21
693.9008
  0
LINE
  8
0_00
  6
CONTINUOUS
 62
4
 10
396.9841
 20
695.4008
 11
396.5841
 21
693.9008
  0
LINE
  8
0_00
  6
CONTINUOUS
 62
4
 10
393.7841
 20
695.6008
 11
388.7841
 21
695.6008
  0
LINE
  8
0_00
  6
CONTINUOUS
 62
4
 10
390.9841
 20
693.9008
 11
381.8841
 21
693.9008
  0
LINE
  8
0_00
  6
CONTINUOUS
 62
4
 10
391.2841
 20
694.2009
 11
391.5841
 21
693.9008
  0
LINE
  8
0_00
  6
CONTINUOUS
 62
4
 10
391.2841
 20
694.2009
 11
390.9841
 21
693.9008
  0
LINE
  8
0_00
  6
CONTINUOUS
 62
4
 10
383.9563
 20
695.4008
 11
388.4841
 21
695.4008
  0
LINE
  8
0_00
  6
CONTINUOUS
 62
4
 10
388.7841
 20
695.6008
 11
388.4841
 21
695.4008
  0
LINE
  8
0_00
  6
CONTINUOUS
 62
4
 10
394.0841
 20
695.4008
 11
395.2718
 21
695.4008
  0
LINE
  8
0_00
  6
CONTINUOUS
 62
4
 10
393.7841
 20
695.6008
 11
394.0841
 21
695.4008
  0
LINE
  8
0_00
  6
CONTINUOUS
 62
4
 10
395.9297
 20
696.7835
 11
395.6598
 21
695.7038
  0
LINE
  8
0_00
  6
CONTINUOUS
 62
4
 10
381.8841
 20
693.9008
 11
380.8841
 21
694.9008
  0
LINE
  8
0_00
  6
CONTINUOUS
 62
4
 10
380.8841
 20
694.9008
 11
380.8841
 21
696.2008
  0
LINE
  8
0_00
  6
CONTINUOUS
 62
4
 10
380.8841
 20
695.4008
 11
380.8841
 21
694.9008
  0
LINE
  8
0_00
  6
CONTINUOUS
 62
4
 10
381.8646
 20
698.2788
 11
381.0079
 21
698.3537
  0
LINE
  8
0_00
  6
CONTINUOUS
 62
4
 10
382.9713
 20
699.2861
 11
382.1332
 21
699.3595
  0
LINE
  8
0_00
  6
CONTINUOUS
 62
4
 10
383.8841
 20
698.2900
 11
383.8841
 21
697.8571
  0
LINE
  8
0_00
  6
CONTINUOUS
 62
4
 10
380.7402
 20
698.7129
 11
381.8257
 21
704.0008
  0
LINE
  8
0_00
  6
CONTINUOUS
 62
4
 10
382.5718
 20
703.1600
 11
381.8654
 21
699.7186
  0
LINE
  8
0_00
  6
CONTINUOUS
 62
4
 10
381.8862
 20
704.0008
 11
381.8257
 21
704.0008
  0
LINE
  8
0_00
  6
CONTINUOUS
 62
4
 10
379.2835
 20
704.1473
 11
379.2836
 21
694.9396
  0
LINE
  8
0_00
  6
CONTINUOUS
 62
4
 10
380.6836
 20
696.2974
 11
380.6836
 21
693.9568
  0
LINE
  8
0_00
  6
CONTINUOUS
 62
4
 10
380.6835
 20
701.3474
 11
380.6835
 21
703.7435
  0
LINE
  8
0_00
  6
CONTINUOUS
 62
4
 10
383.3835
 20
704.1474
 11
381.0835
 21
704.1473
  0
LINE
  8
0_00
  6
CONTINUOUS
 62
4
 10
384.1835
 20
704.4473
 11
384.1835
 21
703.5474
  0
LINE
  8
0_00
  6
CONTINUOUS
 62
4
 10
383.3835
 20
704.1474
 11
383.3835
 21
703.9474
  0
LINE
  8
0_00
  6
CONTINUOUS
 62
4
 10
381.7640
 20
698.2528
 11
381.0487
 21
698.3154
  0
LINE
  8
0_00
  6
CONTINUOUS
 62
4
 10
380.6914
 20
698.7930
 11
381.1581
 21
701.1078
  0
LINE
  8
0_00
  6
CONTINUOUS
 62
4
 10
380.9621
 20
701.3474
 11
380.6835
 21
701.3474
  0
LINE
  8
0_00
  6
CONTINUOUS
 62
4
 10
383.1835
 20
705.4474
 11
380.5835
 21
705.4474
  0
LINE
  8
0_00
  6
CONTINUOUS
 62
4
 10
385.7841
 20
695.4008
 11
387.2841
 21
695.4008
  0
LINE
  8
0_00
  6
CONTINUOUS
 62
4
 10
434.2841
 20
693.9008
 11
384.2841
 21
693.9008
  0
LINE
  8
0_00
  6
CONTINUOUS
 62
6
 10
424.2841
 20
729.6568
 11
491.9249
 21
729.6568
  0
LINE
  8
0_00
  6
CONTINUOUS
 62
6
 10
454.2941
 20
692.5474
 11
491.9249
 21
692.5474
  0
LINE
  8
0_00
  6
CONTINUOUS
 62
6
 10
485.9249
 20
729.6568
 11
485.9249
 21
692.5474
  0
LINE
  8
0_00
  6
CONTINUOUS
 62
6
 10
485.9249
 20
729.6568
 11
484.3656
 21
722.3208
  0
LINE
  8
0_00
  6
CONTINUOUS
 62
6
 10
485.9249
 20
729.6568
 11
487.4843
 21
722.3208
  0
LINE
  8
0_00
  6
CONTINUOUS
 62
6
 10
485.9249
 20
692.5474
 11
487.4843
 21
699.8834
  0
LINE
  8
0_00
  6
CONTINUOUS
 62
6
 10
485.9249
 20
692.5474
 11
484.3656
 21
699.8834
  0
LINE
  8
0_00
  6
CONTINUOUS
 62
6
 10
394.2841
 20
729.6568
 11
343.8586
 21
729.6568
  0
LINE
  8
0_00
  6
CONTINUOUS
 62
6
 10
349.8586
 20
729.6568
 11
349.8586
 21
593.5804
  0
LINE
  8
0_00
  6
CONTINUOUS
 62
6
 10
349.8586
 20
729.6568
 11
348.2993
 21
722.3208
  0
LINE
  8
0_00
  6
CONTINUOUS
 62
6
 10
349.8586
 20
729.6568
 11
351.4179
 21
722.3208
  0
LINE
  8
0_00
  6
CONTINUOUS
 62
6
 10
369.2841
 20
723.3590
 11
369.2841
 21
775.0779
  0
LINE
  8
0_00
  6
CONTINUOUS
 62
6
 10
369.2841
 20
769.0779
 11
449.2841
 21
769.0779
  0
LINE
  8
0_00
  6
CONTINUOUS
 62
6
 10
369.2841
 20
769.0779
 11
376.6202
 21
767.5185
  0
LINE
  8
0_00
  6
CONTINUOUS
 62
6
 10
369.2841
 20
769.0779
 11
376.6202
 21
770.6373
  0
LINE
  8
0_00
  6
CONTINUOUS
 62
6
 10
449.2841
 20
769.0779
 11
441.9480
 21
770.6373
  0
LINE
  8
0_00
  6
CONTINUOUS
 62
6
 10
449.2841
 20
769.0779
 11
441.9480
 21
767.5185
  0
LINE
  8
0_00
  6
CONTINUOUS
 62
6
 10
449.2841
 20
723.3590
 11
449.2841
 21
736.1212
  0
LINE
  8
0_00
  6
CONTINUOUS
 62
6
 10
449.2841
 20
756.4578
 11
449.2841
 21
775.0779
  0
LINE
  8
0_00
  6
CONTINUOUS
 62
6
 10
999.6104
 20
325.5647
 11
999.6104
 21
461.6250
  0
LINE
  8
0_00
  6
CONTINUOUS
 62
6
 10
1031.6104
 20
325.5647
 11
1031.6104
 21
461.6250
  0
LINE
  8
0_00
  6
CONTINUOUS
 62
6
 10
999.6104
 20
455.6249
 11
1031.6104
 21
455.6249
  0
LINE
  8
0_00
  6
CONTINUOUS
 62
6
 10
970.2103
 20
455.6249
 11
999.6104
 21
455.6249
  0
LINE
  8
0_00
  6
CONTINUOUS
 62
6
 10
999.6104
 20
455.6249
 11
992.2744
 21
457.1843
  0
LINE
  8
0_00
  6
CONTINUOUS
 62
6
 10
999.6104
 20
455.6249
 11
992.2744
 21
454.0656
  0
LINE
  8
0_00
  6
CONTINUOUS
 62
6
 10
1049.6104
 20
455.6249
 11
1031.6104
 21
455.6249
  0
LINE
  8
0_00
  6
CONTINUOUS
 62
6
 10
1031.6104
 20
455.6249
 11
1038.9466
 21
454.0656
  0
LINE
  8
0_00
  6
CONTINUOUS
 62
6
 10
1031.6104
 20
455.6249
 11
1038.9466
 21
457.1843
  0
LINE
  8
0_00
  6
CONTINUOUS
 62
6
 10
1176.0040
 20
726.2044
 11
1203.5439
 21
726.2044
  0
LINE
  8
0_00
  6
CONTINUOUS
 62
6
 10
1176.0040
 20
702.2044
 11
1203.5439
 21
702.2044
  0
LINE
  8
0_00
  6
CONTINUOUS
 62
6
 10
1197.5440
 20
726.2044
 11
1197.5440
 21
702.2044
  0
LINE
  8
0_00
  6
CONTINUOUS
 62
6
 10
1197.5440
 20
744.2043
 11
1197.5440
 21
726.2044
  0
LINE
  8
0_00
  6
CONTINUOUS
 62
6
 10
1197.5440
 20
726.2044
 11
1199.1033
 21
733.5405
  0
LINE
  8
0_00
  6
CONTINUOUS
 62
6
 10
1197.5440
 20
726.2044
 11
1195.9846
 21
733.5405
  0
LINE
  8
0_00
  6
CONTINUOUS
 62
6
 10
1197.5440
 20
684.2043
 11
1197.5440
 21
702.2044
  0
LINE
  8
0_00
  6
CONTINUOUS
 62
6
 10
1197.5440
 20
702.2044
 11
1195.9846
 21
694.8683
  0
LINE
  8
0_00
  6
CONTINUOUS
 62
6
 10
1197.5440
 20
702.2044
 11
1199.1033
 21
694.8683
  0
LINE
  8
0_00
  6
CONTINUOUS
 62
6
 10
154.9836
 20
692.4008
 11
108.9244
 21
692.4008
  0
LINE
  8
0_00
  6
CONTINUOUS
 62
6
 10
169.2841
 20
739.4008
 11
108.9244
 21
739.4008
  0
LINE
  8
0_00
  6
CONTINUOUS
 62
6
 10
114.9244
 20
739.4008
 11
114.9244
 21
692.4008
  0
LINE
  8
0_00
  6
CONTINUOUS
 62
6
 10
114.9244
 20
739.4008
 11
113.3650
 21
732.0647
  0
LINE
  8
0_00
  6
CONTINUOUS
 62
6
 10
114.9244
 20
739.4008
 11
116.4837
 21
732.0647
  0
LINE
  8
0_00
  6
CONTINUOUS
 62
6
 10
114.9244
 20
692.4008
 11
116.4837
 21
699.7370
  0
LINE
  8
0_00
  6
CONTINUOUS
 62
6
 10
114.9244
 20
692.4008
 11
113.3650
 21
699.7370
  0
LINE
  8
15_0F
  6
CONTINUOUS
 62
4
 10
502.1451
 20
151.3623
 11
547.1451
 21
151.3623
  0
LINE
  8
15_0F
  6
CONTINUOUS
 62
4
 10
106.8452
 20
360.9319
 11
151.8451
 21
360.9319
  0
LINE
  8
0_00
  6
DASHED
 62
2
 10
625.1548
 20
695.9008
 11
625.1548
 21
683.9008
  0
LINE
  8
0_00
  6
DASHED
 62
2
 10
621.6548
 20
695.9008
 11
621.6548
 21
683.9008
  0
LINE
  8
0_00
  6
DASHED
 62
2
 10
625.4048
 20
695.9008
 11
625.4048
 21
683.9008
  0
LINE
  8
0_00
  6
DASHED
 62
2
 10
621.4048
 20
695.9008
 11
621.4048
 21
683.9008
  0
LINE
  8
0_00
  6
DASHED
 62
2
 10
625.4048
 20
683.9008
 11
621.4048
 21
683.9008
  0
LINE
  8
12_0C
  6
CONTINUOUS
 62
2
 10
619.4048
 20
695.9008
 11
627.4048
 21
695.9008
  0
LINE
  8
12_0C
  6
CONTINUOUS
 62
2
 10
619.4048
 20
696.3008
 11
627.4048
 21
696.3008
  0
LINE
  8
12_0C
  6
CONTINUOUS
 62
2
 10
627.4048
 20
695.9008
 11
627.4048
 21
696.3008
  0
LINE
  8
12_0C
  6
CONTINUOUS
 62
2
 10
619.4048
 20
695.9008
 11
619.4048
 21
696.3008
  0
LINE
  8
0_00
  6
DASHED
 62
2
 10
589.1548
 20
695.9008
 11
589.1548
 21
683.9008
  0
LINE
  8
0_00
  6
DASHED
 62
2
 10
585.6548
 20
695.9008
 11
585.6548
 21
683.9008
  0
LINE
  8
0_00
  6
DASHED
 62
2
 10
589.4048
 20
695.9008
 11
589.4048
 21
683.9008
  0
LINE
  8
0_00
  6
DASHED
 62
2
 10
585.4048
 20
695.9008
 11
585.4048
 21
683.9008
  0
LINE
  8
0_00
  6
DASHED
 62
2
 10
589.4048
 20
683.9008
 11
585.4048
 21
683.9008
  0
LINE
  8
12_0C
  6
CONTINUOUS
 62
2
 10
583.4048
 20
695.9008
 11
591.4048
 21
695.9008
  0
LINE
  8
12_0C
  6
CONTINUOUS
 62
2
 10
583.4048
 20
696.3008
 11
591.4048
 21
696.3008
  0
LINE
  8
12_0C
  6
CONTINUOUS
 62
2
 10
591.4048
 20
695.9008
 11
591.4048
 21
696.3008
  0
LINE
  8
12_0C
  6
CONTINUOUS
 62
2
 10
583.4048
 20
695.9008
 11
583.4048
 21
696.3008
  0
LINE
  8
0_00
  6
CONTINUOUS
 62
6
 10
590.4048
 20
729.4008
 11
539.9793
 21
729.4008
  0
LINE
  8
0_00
  6
CONTINUOUS
 62
6
 10
545.9793
 20
729.4008
 11
545.9793
 21
593.3243
  0
LINE
  8
0_00
  6
CONTINUOUS
 62
6
 10
545.9793
 20
729.4008
 11
544.4200
 21
722.0647
  0
LINE
  8
0_00
  6
CONTINUOUS
 62
6
 10
545.9793
 20
729.4008
 11
547.5386
 21
722.0647
  0
LINE
  8
0_00
  6
CONTINUOUS
 62
4
 10
594.9031
 20
696.6008
 11
592.9032
 21
696.6008
  0
LINE
  8
0_00
  6
CONTINUOUS
 62
4
 10
594.9031
 20
696.6008
 11
594.9031
 21
695.8008
  0
LINE
  8
0_00
  6
CONTINUOUS
 62
4
 10
592.9032
 20
696.6008
 11
592.9032
 21
695.0008
  0
LINE
  8
0_00
  6
CONTINUOUS
 62
4
 10
615.9031
 20
696.6008
 11
617.9031
 21
696.6008
  0
LINE
  8
0_00
  6
CONTINUOUS
 62
4
 10
615.9031
 20
696.6008
 11
615.9031
 21
695.8008
  0
LINE
  8
0_00
  6
CONTINUOUS
 62
4
 10
617.9031
 20
696.6008
 11
617.9031
 21
695.0008
  0
LINE
  8
0_00
  6
CONTINUOUS
 62
4
 10
579.0031
 20
696.5008
 11
579.0031
 21
690.9962
  0
LINE
  8
0_00
  6
CONTINUOUS
 62
4
 10
631.8031
 20
696.5008
 11
631.8031
 21
690.9962
  0
LINE
  8
0_00
  6
CONTINUOUS
 62
4
 10
580.1031
 20
695.9008
 11
580.1031
 21
699.3925
  0
LINE
  8
0_00
  6
CONTINUOUS
 62
4
 10
630.7031
 20
695.9008
 11
630.7031
 21
699.3925
  0
LINE
  8
0_00
  6
CONTINUOUS
 62
4
 10
631.8031
 20
697.7008
 11
631.8031
 21
699.3008
  0
LINE
  8
0_00
  6
CONTINUOUS
 62
4
 10
632.4031
 20
697.7008
 11
631.8031
 21
697.7008
  0
LINE
  8
0_00
  6
CONTINUOUS
 62
4
 10
632.4031
 20
696.5008
 11
631.8031
 21
696.5008
  0
LINE
  8
0_00
  6
CONTINUOUS
 62
4
 10
605.4031
 20
671.7009
 11
605.1047
 21
671.4023
  0
LINE
  8
0_00
  6
CONTINUOUS
 62
4
 10
605.4031
 20
671.7009
 11
605.7016
 21
671.4023
  0
LINE
  8
0_00
  6
CONTINUOUS
 62
4
 10
580.6032
 20
695.4008
 11
584.6032
 21
695.4008
  0
LINE
  8
0_00
  6
CONTINUOUS
 62
4
 10
580.1031
 20
694.3008
 11
584.6032
 21
694.3008
  0
LINE
  8
0_00
  6
CONTINUOUS
 62
4
 10
625.9032
 20
693.9008
 11
584.9031
 21
693.9008
  0
LINE
  8
0_00
  6
CONTINUOUS
 62
4
 10
623.7031
 20
695.9008
 11
623.4032
 21
695.6008
  0
LINE
  8
0_00
  6
CONTINUOUS
 62
4
 10
625.9032
 20
695.9008
 11
623.7031
 21
695.9008
  0
LINE
  8
0_00
  6
CONTINUOUS
 62
4
 10
626.2031
 20
695.4008
 11
625.9032
 21
695.9008
  0
LINE
  8
0_00
  6
CONTINUOUS
 62
4
 10
623.1031
 20
695.9008
 11
623.4032
 21
695.6008
  0
LINE
  8
0_00
  6
CONTINUOUS
 62
4
 10
620.9031
 20
695.9008
 11
623.1031
 21
695.9008
  0
LINE
  8
0_00
  6
CONTINUOUS
 62
4
 10
630.2031
 20
695.4008
 11
626.2031
 21
695.4008
  0
LINE
  8
0_00
  6
CONTINUOUS
 62
4
 10
605.1031
 20
695.0008
 11
605.4031
 21
694.7008
  0
LINE
  8
0_00
  6
CONTINUOUS
 62
4
 10
605.7031
 20
695.0008
 11
605.4031
 21
694.7008
  0
LINE
  8
0_00
  6
CONTINUOUS
 62
4
 10
632.7467
 20
699.3833
 11
631.8031
 21
699.3008
  0
LINE
  8
0_00
  6
CONTINUOUS
 62
4
 10
631.6160
 20
700.3887
 11
632.1806
 21
700.4380
  0
LINE
  8
0_00
  6
CONTINUOUS
 62
4
 10
633.1929
 20
699.9820
 11
632.8338
 21
701.7314
  0
LINE
  8
0_00
  6
CONTINUOUS
 62
4
 10
631.9522
 20
701.5504
 11
632.1806
 21
700.4380
  0
LINE
  8
0_00
  6
CONTINUOUS
 62
4
 10
630.3031
 20
705.4299
 11
631.4715
 21
704.2616
  0
LINE
  8
0_00
  6
CONTINUOUS
 62
4
 10
629.6960
 20
704.7642
 11
630.8351
 21
703.6251
  0
LINE
  8
0_00
  6
CONTINUOUS
 62
4
 10
579.0031
 20
697.7008
 11
579.0031
 21
699.3008
  0
LINE
  8
0_00
  6
CONTINUOUS
 62
4
 10
578.4032
 20
697.7008
 11
579.0031
 21
697.7008
  0
LINE
  8
0_00
  6
CONTINUOUS
 62
4
 10
578.4032
 20
696.5008
 11
579.0031
 21
696.5008
  0
LINE
  8
0_00
  6
CONTINUOUS
 62
4
 10
578.0596
 20
699.3833
 11
579.0031
 21
699.3008
  0
LINE
  8
0_00
  6
CONTINUOUS
 62
4
 10
579.1902
 20
700.3887
 11
578.6257
 21
700.4380
  0
LINE
  8
0_00
  6
CONTINUOUS
 62
4
 10
577.6133
 20
699.9820
 11
577.9724
 21
701.7314
  0
LINE
  8
0_00
  6
CONTINUOUS
 62
4
 10
578.8541
 20
701.5504
 11
578.6257
 21
700.4380
  0
LINE
  8
0_00
  6
CONTINUOUS
 62
4
 10
580.5031
 20
705.4299
 11
579.3348
 21
704.2616
  0
LINE
  8
0_00
  6
CONTINUOUS
 62
4
 10
581.4031
 20
705.9508
 11
581.4031
 21
705.4713
  0
LINE
  8
0_00
  6
CONTINUOUS
 62
4
 10
580.5031
 20
705.9508
 11
580.5031
 21
705.4299
  0
LINE
  8
0_00
  6
CONTINUOUS
 62
4
 10
581.1102
 20
704.7642
 11
579.9712
 21
703.6251
  0
LINE
  8
0_00
  6
CONTINUOUS
 62
4
 10
605.7031
 20
695.0008
 11
616.9032
 21
695.0008
  0
LINE
  8
0_00
  6
CONTINUOUS
 62
4
 10
617.9031
 20
695.0008
 11
620.6031
 21
695.0008
  0
LINE
  8
0_00
  6
CONTINUOUS
 62
4
 10
590.2031
 20
695.0008
 11
592.9032
 21
695.0008
  0
LINE
  8
0_00
  6
CONTINUOUS
 62
4
 10
593.9031
 20
695.0008
 11
605.1031
 21
695.0008
  0
LINE
  8
0_00
  6
CONTINUOUS
 62
4
 10
629.4032
 20
705.9508
 11
629.4032
 21
705.4713
  0
LINE
  8
0_00
  6
CONTINUOUS
 62
4
 10
630.3031
 20
705.9508
 11
630.3031
 21
705.4299
  0
LINE
  8
15_0F
  6
CONTINUOUS
 62
4
 10
580.1031
 20
694.3008
 11
580.1031
 21
690.7014
  0
LINE
  8
0_00
  6
CONTINUOUS
 62
4
 10
630.7031
 20
694.3008
 11
626.2031
 21
694.3008
  0
LINE
  8
0_00
  6
CONTINUOUS
 62
4
 10
626.2031
 20
694.3008
 11
625.9032
 21
693.9008
  0
LINE
  8
15_0F
  6
CONTINUOUS
 62
4
 10
630.7031
 20
694.3008
 11
630.7031
 21
690.7014
  0
LINE
  8
0_00
  6
CONTINUOUS
 62
4
 10
620.6031
 20
695.0008
 11
620.9031
 21
695.9008
  0
LINE
  8
15_0F
  6
CONTINUOUS
 62
4
 10
593.9031
 20
695.8008
 11
594.9031
 21
695.8008
  0
LINE
  8
15_0F
  6
CONTINUOUS
 62
4
 10
593.9031
 20
695.8008
 11
593.9031
 21
695.0008
  0
LINE
  8
15_0F
  6
CONTINUOUS
 62
4
 10
616.9032
 20
695.8008
 11
615.9031
 21
695.8008
  0
LINE
  8
15_0F
  6
CONTINUOUS
 62
4
 10
616.9032
 20
695.8008
 11
616.9032
 21
695.0008
  0
LINE
  8
15_0F
  6
CONTINUOUS
 62
4
 10
579.0031
 20
690.9962
 11
578.4912
 21
690.1095
  0
LINE
  8
15_0F
  6
CONTINUOUS
 62
4
 10
580.1031
 20
690.7014
 11
579.5902
 21
689.8130
  0
LINE
  8
15_0F
  6
CONTINUOUS
 62
4
 10
631.8031
 20
690.9962
 11
632.3150
 21
690.1095
  0
LINE
  8
15_0F
  6
CONTINUOUS
 62
4
 10
630.7031
 20
690.7014
 11
631.2160
 21
689.8130
  0
LINE
  8
15_0F
  6
CONTINUOUS
 62
4
 10
598.3739
 20
673.4008
 11
612.4324
 21
673.4008
  0
LINE
  8
0_00
  6
CONTINUOUS
 62
4
 10
587.1031
 20
695.9008
 11
587.4031
 21
695.6008
  0
LINE
  8
0_00
  6
CONTINUOUS
 62
4
 10
584.9031
 20
695.9008
 11
587.1031
 21
695.9008
  0
LINE
  8
0_00
  6
CONTINUOUS
 62
4
 10
584.6032
 20
695.4008
 11
584.9031
 21
695.9008
  0
LINE
  8
0_00
  6
CONTINUOUS
 62
4
 10
587.7031
 20
695.9008
 11
587.4031
 21
695.6008
  0
LINE
  8
0_00
  6
CONTINUOUS
 62
4
 10
589.9031
 20
695.9008
 11
587.7031
 21
695.9008
  0
LINE
  8
0_00
  6
CONTINUOUS
 62
4
 10
584.6032
 20
694.3008
 11
584.9031
 21
693.9008
  0
LINE
  8
0_00
  6
CONTINUOUS
 62
4
 10
590.2031
 20
695.0008
 11
589.9031
 21
695.9008
  0
LINE
  8
0_00
  6
CONTINUOUS
 62
4
 10
627.0031
 20
707.6270
 11
631.5630
 21
707.6270
  0
LINE
  8
0_00
  6
CONTINUOUS
 62
4
 10
627.3031
 20
706.6192
 11
627.3031
 21
705.8270
  0
LINE
  8
0_00
  6
CONTINUOUS
 62
4
 10
626.5031
 20
707.1270
 11
626.5031
 21
705.8270
  0
LINE
  8
0_00
  6
CONTINUOUS
 62
4
 10
632.4672
 20
691.6667
 11
632.3375
 21
692.2983
  0
LINE
  8
0_00
  6
CONTINUOUS
 62
4
 10
624.4916
 20
718.7822
 11
625.0543
 21
719.3450
  0
LINE
  8
0_00
  6
CONTINUOUS
 62
4
 10
623.7846
 20
719.4894
 11
624.3472
 21
720.0520
  0
LINE
  8
0_00
  6
CONTINUOUS
 62
4
 10
632.4968
 20
706.6277
 11
627.5108
 21
706.8190
  0
LINE
  8
0_00
  6
CONTINUOUS
 62
4
 10
633.1802
 20
701.5277
 11
633.0745
 21
701.5277
  0
LINE
  8
0_00
  6
CONTINUOUS
 62
4
 10
633.0788
 20
703.0277
 11
632.8467
 21
703.0277
  0
LINE
  8
0_00
  6
CONTINUOUS
 62
4
 10
632.6509
 20
702.7871
 11
632.8786
 21
701.6872
  0
LINE
  8
0_00
  6
CONTINUOUS
 62
4
 10
633.1860
 20
699.4270
 11
632.0759
 21
699.3299
  0
LINE
  8
0_00
  6
CONTINUOUS
 62
4
 10
583.8045
 20
707.6257
 11
579.2446
 21
707.6255
  0
LINE
  8
0_00
  6
CONTINUOUS
 62
4
 10
583.5044
 20
706.6179
 11
583.5045
 21
705.8257
  0
LINE
  8
0_00
  6
CONTINUOUS
 62
4
 10
584.3044
 20
707.1257
 11
584.3045
 21
705.8258
  0
LINE
  8
0_00
  6
CONTINUOUS
 62
4
 10
578.3413
 20
691.6651
 11
578.4710
 21
692.2968
  0
LINE
  8
0_00
  6
CONTINUOUS
 62
4
 10
586.3152
 20
718.7811
 11
585.7525
 21
719.3438
  0
LINE
  8
0_00
  6
CONTINUOUS
 62
4
 10
587.0223
 20
719.4883
 11
586.4595
 21
720.0509
  0
LINE
  8
0_00
  6
CONTINUOUS
 62
4
 10
578.3108
 20
706.6261
 11
583.2968
 21
706.8177
  0
LINE
  8
0_00
  6
CONTINUOUS
 62
4
 10
577.6276
 20
701.5261
 11
577.7334
 21
701.5261
  0
LINE
  8
0_00
  6
CONTINUOUS
 62
4
 10
577.7291
 20
703.0260
 11
577.9611
 21
703.0260
  0
LINE
  8
0_00
  6
CONTINUOUS
 62
4
 10
578.1569
 20
702.7855
 11
577.9292
 21
701.6856
  0
LINE
  8
0_00
  6
CONTINUOUS
 62
4
 10
577.6219
 20
699.4254
 11
578.7322
 21
699.3283
  0
LINE
  8
15_0F
  6
CONTINUOUS
 62
4
 10
146.8451
 20
140.9319
 11
206.2451
 21
140.9319
  0
LINE
  8
0_00
  6
CONTINUOUS
 62
6
 10
728.1291
 20
751.6302
 11
728.1291
 21
775.4795
  0
LINE
  8
0_00
  6
CONTINUOUS
 62
6
 10
738.6290
 20
751.6302
 11
738.6290
 21
775.4795
  0
LINE
  8
0_00
  6
CONTINUOUS
 62
6
 10
728.1291
 20
769.4795
 11
738.6290
 21
769.4795
  0
LINE
  8
0_00
  6
CONTINUOUS
 62
6
 10
698.7290
 20
769.4795
 11
728.1291
 21
769.4795
  0
LINE
  8
0_00
  6
CONTINUOUS
 62
6
 10
728.1291
 20
769.4795
 11
720.7929
 21
771.0389
  0
LINE
  8
0_00
  6
CONTINUOUS
 62
6
 10
728.1291
 20
769.4795
 11
720.7929
 21
767.9201
  0
LINE
  8
0_00
  6
CONTINUOUS
 62
6
 10
756.6290
 20
769.4795
 11
738.6290
 21
769.4795
  0
LINE
  8
0_00
  6
CONTINUOUS
 62
6
 10
738.6290
 20
769.4795
 11
745.9651
 21
767.9201
  0
LINE
  8
0_00
  6
CONTINUOUS
 62
6
 10
738.6290
 20
769.4795
 11
745.9651
 21
771.0389
  0
LINE
  8
0_00
  6
CONTINUOUS
 62
4
 10
269.0841
 20
577.4008
 11
207.0871
 21
577.4008
  0
LINE
  8
0_00
  6
CONTINUOUS
 62
4
 10
269.4841
 20
577.4008
 11
331.4811
 21
577.4008
  0
LINE
  8
0_00
  6
CONTINUOUS
 62
4
 10
331.4811
 20
578.9008
 11
207.0871
 21
578.9008
  0
LINE
  8
0_00
  6
CONTINUOUS
 62
4
 10
269.0841
 20
577.4008
 11
269.2841
 21
577.6008
  0
LINE
  8
0_00
  6
CONTINUOUS
 62
4
 10
269.2841
 20
577.6008
 11
269.4841
 21
577.4008
  0
LINE
  8
14_0E
  6
CONTINUOUS
 62
4
 10
186.7842
 20
570.7114
 11
187.0030
 21
539.3785
  0
LINE
  8
0_00
  6
CONTINUOUS
 62
4
 10
188.8007
 20
525.3917
 11
188.7307
 21
535.4143
  0
LINE
  8
0_00
  6
CONTINUOUS
 62
4
 10
190.1021
 20
525.2008
 11
190.0271
 21
535.9448
  0
LINE
  8
0_00
  6
CONTINUOUS
 62
4
 10
188.2577
 20
560.1877
 11
188.5598
 21
559.8899
  0
LINE
  8
0_00
  6
CONTINUOUS
 62
4
 10
188.2619
 20
559.5878
 11
188.5598
 21
559.8899
  0
LINE
  8
0_00
  6
CONTINUOUS
 62
4
 10
191.9360
 20
540.4073
 11
192.1429
 21
540.7715
  0
LINE
  8
0_00
  6
CONTINUOUS
 62
4
 10
192.1429
 20
540.7715
 11
190.8387
 21
541.5124
  0
LINE
  8
0_00
  6
CONTINUOUS
 62
4
 10
190.8387
 20
541.5124
 11
190.6318
 21
541.1482
  0
LINE
  8
0_00
  6
CONTINUOUS
 62
4
 10
189.4986
 20
540.8361
 11
189.1344
 21
541.0430
  0
LINE
  8
0_00
  6
CONTINUOUS
 62
4
 10
189.1344
 20
541.0430
 11
188.3935
 21
539.7387
  0
LINE
  8
0_00
  6
CONTINUOUS
 62
4
 10
188.3935
 20
539.7387
 11
188.7577
 21
539.5318
  0
LINE
  8
0_00
  6
CONTINUOUS
 62
4
 10
189.0698
 20
538.3986
 11
188.8629
 21
538.0344
  0
LINE
  8
0_00
  6
CONTINUOUS
 62
4
 10
188.8629
 20
538.0344
 11
190.1671
 21
537.2935
  0
LINE
  8
0_00
  6
CONTINUOUS
 62
4
 10
190.1671
 20
537.2935
 11
190.3740
 21
537.6577
  0
LINE
  8
0_00
  6
CONTINUOUS
 62
4
 10
193.2721
 20
540.2285
 11
192.9194
 21
539.6078
  0
LINE
  8
0_00
  6
CONTINUOUS
 62
4
 10
191.2117
 20
536.6016
 11
191.5643
 21
537.2223
  0
LINE
  8
0_00
  6
CONTINUOUS
 62
4
 10
191.8717
 20
576.6835
 11
205.4905
 21
578.7788
  0
LINE
  8
0_00
  6
CONTINUOUS
 62
4
 10
188.1843
 20
570.7066
 11
188.2577
 21
560.1877
  0
LINE
  8
0_00
  6
CONTINUOUS
 62
4
 10
188.2619
 20
559.5878
 11
188.3157
 21
551.8880
  0
LINE
  8
0_00
  6
CONTINUOUS
 62
4
 10
188.3394
 20
548.4880
 11
188.3725
 21
543.7516
  0
LINE
  8
0_00
  6
CONTINUOUS
 62
4
 10
191.9999
 20
575.1856
 11
205.7185
 21
577.2961
  0
LINE
  8
0_00
  6
CONTINUOUS
 62
4
 10
346.6964
 20
576.6835
 11
333.0778
 21
578.7788
  0
LINE
  8
0_00
  6
CONTINUOUS
 62
4
 10
346.5683
 20
575.1856
 11
332.8496
 21
577.2961
  0
LINE
  8
14_0E
  6
CONTINUOUS
 62
4
 10
351.7839
 20
570.7114
 11
351.5652
 21
539.3785
  0
LINE
  8
0_00
  6
CONTINUOUS
 62
4
 10
350.3839
 20
570.7066
 11
350.3105
 21
560.1877
  0
LINE
  8
0_00
  6
CONTINUOUS
 62
4
 10
350.3062
 20
559.5878
 11
350.2525
 21
551.8880
  0
LINE
  8
0_00
  6
CONTINUOUS
 62
4
 10
350.2288
 20
548.4880
 11
350.1957
 21
543.7516
  0
LINE
  8
0_00
  6
CONTINUOUS
 62
4
 10
350.3105
 20
560.1877
 11
350.0084
 21
559.8899
  0
LINE
  8
0_00
  6
CONTINUOUS
 62
4
 10
350.3062
 20
559.5878
 11
350.0084
 21
559.8899
  0
LINE
  8
0_00
  6
CONTINUOUS
 62
4
 10
191.2611
 20
523.9089
 11
190.3111
 21
523.9022
  0
LINE
  8
0_00
  6
CONTINUOUS
 62
4
 10
190.1021
 20
525.2008
 11
191.2520
 21
525.2088
  0
LINE
  8
0_00
  6
CONTINUOUS
 62
4
 10
349.7675
 20
525.3917
 11
349.8375
 21
535.4143
  0
LINE
  8
0_00
  6
CONTINUOUS
 62
4
 10
348.4662
 20
525.2008
 11
348.5411
 21
535.9448
  0
LINE
  8
0_00
  6
CONTINUOUS
 62
4
 10
346.6322
 20
540.4073
 11
346.4253
 21
540.7715
  0
LINE
  8
0_00
  6
CONTINUOUS
 62
4
 10
346.4253
 20
540.7715
 11
347.7295
 21
541.5124
  0
LINE
  8
0_00
  6
CONTINUOUS
 62
4
 10
347.7295
 20
541.5124
 11
347.9364
 21
541.1482
  0
LINE
  8
0_00
  6
CONTINUOUS
 62
4
 10
349.0696
 20
540.8361
 11
349.4338
 21
541.0430
  0
LINE
  8
0_00
  6
CONTINUOUS
 62
4
 10
349.4338
 20
541.0430
 11
350.1747
 21
539.7387
  0
LINE
  8
0_00
  6
CONTINUOUS
 62
4
 10
350.1747
 20
539.7387
 11
349.8105
 21
539.5318
  0
LINE
  8
0_00
  6
CONTINUOUS
 62
4
 10
349.4984
 20
538.3986
 11
349.7053
 21
538.0344
  0
LINE
  8
0_00
  6
CONTINUOUS
 62
4
 10
349.7053
 20
538.0344
 11
348.4010
 21
537.2935
  0
LINE
  8
0_00
  6
CONTINUOUS
 62
4
 10
348.4010
 20
537.2935
 11
348.1941
 21
537.6577
  0
LINE
  8
0_00
  6
CONTINUOUS
 62
4
 10
345.2961
 20
540.2285
 11
345.6487
 21
539.6078
  0
LINE
  8
0_00
  6
CONTINUOUS
 62
4
 10
347.3565
 20
536.6016
 11
347.0038
 21
537.2223
  0
LINE
  8
0_00
  6
CONTINUOUS
 62
4
 10
347.3071
 20
523.9089
 11
348.2571
 21
523.9022
  0
LINE
  8
0_00
  6
CONTINUOUS
 62
4
 10
348.4662
 20
525.2008
 11
347.3162
 21
525.2088
  0
LINE
  8
0_00
  6
CONTINUOUS
 62
4
 10
189.3226
 20
550.8950
 11
190.6226
 21
550.9040
  0
LINE
  8
0_00
  6
CONTINUOUS
 62
4
 10
189.3324
 20
549.4950
 11
190.6324
 21
549.5041
  0
LINE
  8
0_00
  6
CONTINUOUS
 62
4
 10
349.2455
 20
550.8950
 11
347.9455
 21
550.9040
  0
LINE
  8
0_00
  6
CONTINUOUS
 62
4
 10
349.2358
 20
549.4950
 11
347.9358
 21
549.5041
  0
LINE
  8
0_00
  6
CONTINUOUS
 62
3
 10
309.2841
 20
577.4008
 11
229.2841
 21
577.4008
  0
LINE
  8
0_00
  6
CONTINUOUS
 62
3
 10
309.2841
 20
577.4008
 11
309.2841
 21
576.9008
  0
LINE
  8
0_00
  6
CONTINUOUS
 62
3
 10
229.2841
 20
577.4008
 11
229.2841
 21
576.9008
  0
LINE
  8
0_00
  6
CONTINUOUS
 62
3
 10
229.2841
 20
576.9008
 11
309.2841
 21
576.9008
  0
LINE
  8
13_0D
  6
CONTINUOUS
 62
6
 10
182.4631
 20
563.9008
 11
90.4244
 21
563.9008
  0
LINE
  8
13_0D
  6
CONTINUOUS
 62
6
 10
182.4631
 20
578.9008
 11
90.4244
 21
578.9008
  0
LINE
  8
13_0D
  6
CONTINUOUS
 62
6
 10
94.9244
 20
563.9008
 11
94.9244
 21
578.9008
  0
LINE
  8
13_0D
  6
CONTINUOUS
 62
6
 10
94.9244
 20
531.5008
 11
94.9244
 21
563.9008
  0
LINE
  8
13_0D
  6
CONTINUOUS
 62
6
 10
94.9244
 20
563.9008
 11
93.3651
 21
556.5647
  0
LINE
  8
13_0D
  6
CONTINUOUS
 62
6
 10
94.9244
 20
563.9008
 11
96.4837
 21
556.5647
  0
LINE
  8
13_0D
  6
CONTINUOUS
 62
6
 10
169.2841
 20
739.4008
 11
90.4244
 21
739.4008
  0
LINE
  8
13_0D
  6
CONTINUOUS
 62
6
 10
94.9244
 20
578.9008
 11
94.9244
 21
739.4008
  0
LINE
  8
13_0D
  6
CONTINUOUS
 62
6
 10
94.9244
 20
578.9008
 11
96.4837
 21
586.2369
  0
LINE
  8
13_0D
  6
CONTINUOUS
 62
6
 10
94.9244
 20
578.9008
 11
93.3651
 21
586.2369
  0
LINE
  8
13_0D
  6
CONTINUOUS
 62
6
 10
94.9244
 20
739.4008
 11
93.3651
 21
732.0647
  0
LINE
  8
13_0D
  6
CONTINUOUS
 62
6
 10
94.9244
 20
739.4008
 11
96.4837
 21
732.0647
  0
LINE
  8
13_0D
  6
CONTINUOUS
 62
6
 10
182.4631
 20
523.9021
 11
110.4244
 21
523.9021
  0
LINE
  8
13_0D
  6
CONTINUOUS
 62
6
 10
182.4631
 20
578.9008
 11
110.4244
 21
578.9008
  0
LINE
  8
13_0D
  6
CONTINUOUS
 62
6
 10
114.9244
 20
578.9008
 11
114.9244
 21
523.9021
  0
LINE
  8
13_0D
  6
CONTINUOUS
 62
6
 10
114.9244
 20
578.9008
 11
113.3650
 21
571.5647
  0
LINE
  8
13_0D
  6
CONTINUOUS
 62
6
 10
114.9244
 20
578.9008
 11
116.4837
 21
571.5647
  0
LINE
  8
13_0D
  6
CONTINUOUS
 62
6
 10
114.9244
 20
523.9021
 11
116.4837
 21
531.2383
  0
LINE
  8
13_0D
  6
CONTINUOUS
 62
6
 10
114.9244
 20
523.9021
 11
113.3650
 21
531.2383
  0
LINE
  8
0_00
  6
CONTINUOUS
 62
6
 10
241.2841
 20
502.7338
 11
241.2841
 21
443.4795
  0
LINE
  8
0_00
  6
CONTINUOUS
 62
6
 10
297.2841
 20
502.7338
 11
297.2841
 21
443.4795
  0
LINE
  8
0_00
  6
CONTINUOUS
 62
6
 10
241.2841
 20
449.4795
 11
297.2841
 21
449.4795
  0
LINE
  8
0_00
  6
CONTINUOUS
 62
6
 10
241.2841
 20
449.4795
 11
248.6202
 21
447.9202
  0
LINE
  8
0_00
  6
CONTINUOUS
 62
6
 10
241.2841
 20
449.4795
 11
248.6202
 21
451.0389
  0
LINE
  8
0_00
  6
CONTINUOUS
 62
6
 10
297.2841
 20
449.4795
 11
289.9480
 21
451.0389
  0
LINE
  8
0_00
  6
CONTINUOUS
 62
6
 10
297.2841
 20
449.4795
 11
289.9480
 21
447.9202
  0
LINE
  8
13_0D
  6
CONTINUOUS
 62
6
 10
675.6302
 20
334.5646
 11
675.6302
 21
460.1250
  0
LINE
  8
13_0D
  6
CONTINUOUS
 62
6
 10
584.6303
 20
334.5646
 11
584.6303
 21
460.1250
  0
LINE
  8
13_0D
  6
CONTINUOUS
 62
6
 10
584.6303
 20
455.6249
 11
675.6302
 21
455.6249
  0
LINE
  8
13_0D
  6
CONTINUOUS
 62
6
 10
584.6303
 20
455.6249
 11
591.9664
 21
454.0656
  0
LINE
  8
13_0D
  6
CONTINUOUS
 62
6
 10
584.6303
 20
455.6249
 11
591.9664
 21
457.1843
  0
LINE
  8
13_0D
  6
CONTINUOUS
 62
6
 10
675.6302
 20
455.6249
 11
668.2942
 21
457.1843
  0
LINE
  8
13_0D
  6
CONTINUOUS
 62
6
 10
675.6302
 20
455.6249
 11
668.2942
 21
454.0656
  0
LINE
  8
13_0D
  6
CONTINUOUS
 62
6
 10
634.4048
 20
707.6195
 11
634.4048
 21
773.5779
  0
LINE
  8
13_0D
  6
CONTINUOUS
 62
6
 10
576.4048
 20
707.6195
 11
576.4048
 21
773.5779
  0
LINE
  8
13_0D
  6
CONTINUOUS
 62
6
 10
576.4048
 20
769.0779
 11
634.4048
 21
769.0779
  0
LINE
  8
13_0D
  6
CONTINUOUS
 62
6
 10
576.4048
 20
769.0779
 11
583.7409
 21
767.5185
  0
LINE
  8
13_0D
  6
CONTINUOUS
 62
6
 10
576.4048
 20
769.0779
 11
583.7409
 21
770.6373
  0
LINE
  8
13_0D
  6
CONTINUOUS
 62
6
 10
634.4048
 20
769.0779
 11
627.0687
 21
770.6373
  0
LINE
  8
13_0D
  6
CONTINUOUS
 62
6
 10
634.4048
 20
769.0779
 11
627.0687
 21
767.5185
  0
ARC
  8
0_00
  6
CONTINUOUS
 62
2
 10
1015.6104
 20
303.0646
 40
2.4500
 50
45.0000
 51
58.5444
  0
ARC
  8
0_00
  6
CONTINUOUS
 62
2
 10
1015.6104
 20
303.0646
 40
2.4500
 50
121.3667
 51
135.0000
  0
ARC
  8
0_00
  6
CONTINUOUS
 62
2
 10
1015.6104
 20
303.0646
 40
2.4500
 50
211.4556
 51
225.0000
  0
ARC
  8
0_00
  6
CONTINUOUS
 62
2
 10
1015.6104
 20
303.0646
 40
2.4500
 50
135.0000
 51
148.6333
  0
ARC
  8
0_00
  6
CONTINUOUS
 62
2
 10
1015.6104
 20
303.0646
 40
2.4500
 50
31.4556
 51
45.0000
  0
ARC
  8
0_00
  6
CONTINUOUS
 62
2
 10
1015.6104
 20
303.0646
 40
2.4500
 50
315.0000
 51
328.6334
  0
ARC
  8
0_00
  6
CONTINUOUS
 62
2
 10
1015.6104
 20
303.0646
 40
2.4500
 50
225.0000
 51
238.5444
  0
ARC
  8
0_00
  6
CONTINUOUS
 62
2
 10
1015.6104
 20
303.0646
 40
2.4500
 50
301.3667
 51
315.0000
  0
CIRCLE
  8
0_00
  6
CONTINUOUS
 62
2
 10
1015.6104
 20
303.0646
 40
5.9000
  0
ARC
  8
0_00
  6
CONTINUOUS
 62
2
 10
1015.6104
 20
276.0646
 40
2.4500
 50
45.0000
 51
58.5444
  0
ARC
  8
0_00
  6
CONTINUOUS
 62
2
 10
1015.6104
 20
276.0646
 40
2.4500
 50
121.3667
 51
135.0000
  0
ARC
  8
0_00
  6
CONTINUOUS
 62
2
 10
1015.6104
 20
276.0646
 40
2.4500
 50
211.4556
 51
225.0000
  0
ARC
  8
0_00
  6
CONTINUOUS
 62
2
 10
1015.6104
 20
276.0646
 40
2.4500
 50
135.0000
 51
148.6333
  0
ARC
  8
0_00
  6
CONTINUOUS
 62
2
 10
1015.6104
 20
276.0646
 40
2.4500
 50
31.4556
 51
45.0000
  0
ARC
  8
0_00
  6
CONTINUOUS
 62
2
 10
1015.6104
 20
276.0646
 40
2.4500
 50
315.0000
 51
328.6334
  0
ARC
  8
0_00
  6
CONTINUOUS
 62
2
 10
1015.6104
 20
276.0646
 40
2.4500
 50
225.0000
 51
238.5444
  0
ARC
  8
0_00
  6
CONTINUOUS
 62
2
 10
1015.6104
 20
276.0646
 40
2.4500
 50
301.3667
 51
315.0000
  0
CIRCLE
  8
0_00
  6
CONTINUOUS
 62
2
 10
1015.6104
 20
276.0646
 40
5.9000
  0
ARC
  8
0_00
  6
CONTINUOUS
 62
4
 10
1004.1104
 20
268.5646
 40
2.5000
 50
180.0000
 51
270.0000
  0
ARC
  8
0_00
  6
CONTINUOUS
 62
4
 10
1004.1104
 20
310.5646
 40
2.5000
 50
90.0000
 51
180.0000
  0
ARC
  8
0_00
  6
CONTINUOUS
 62
4
 10
1004.1104
 20
268.5646
 40
2.5000
 50
270.0000
 51
360.0000
  0
ARC
  8
0_00
  6
CONTINUOUS
 62
4
 10
1004.1104
 20
310.5646
 40
2.5000
 50
0.0000
 51
90.0000
  0
ARC
  8
0_00
  6
CONTINUOUS
 62
4
 10
1002.1103
 20
268.5646
 40
2.5000
 50
180.0000
 51
270.0000
  0
ARC
  8
0_00
  6
CONTINUOUS
 62
4
 10
1002.1103
 20
310.5646
 40
2.5000
 50
90.0000
 51
180.0000
  0
ARC
  8
0_00
  6
CONTINUOUS
 62
4
 10
1027.1104
 20
268.5646
 40
2.5000
 50
270.0000
 51
360.0000
  0
ARC
  8
0_00
  6
CONTINUOUS
 62
4
 10
1027.1104
 20
310.5646
 40
2.5000
 50
0.0000
 51
90.0000
  0
ARC
  8
0_00
  6
CONTINUOUS
 62
4
 10
1027.1104
 20
268.5646
 40
2.5000
 50
180.0000
 51
270.0000
  0
ARC
  8
0_00
  6
CONTINUOUS
 62
4
 10
1027.1104
 20
310.5646
 40
2.5000
 50
90.0000
 51
180.0000
  0
ARC
  8
0_00
  6
CONTINUOUS
 62
4
 10
1029.1103
 20
268.5646
 40
2.5000
 50
270.0000
 51
360.0000
  0
ARC
  8
0_00
  6
CONTINUOUS
 62
4
 10
1029.1103
 20
310.5646
 40
2.5000
 50
0.0000
 51
90.0000
  0
ARC
  8
3_03
  6
CONTINUOUS
 62
4
 10
728.1291
 20
695.9643
 40
30.3450
 50
89.8197
 51
97.0407
  0
ARC
  8
3_03
  6
CONTINUOUS
 62
4
 10
724.5290
 20
725.1129
 40
0.9750
 50
97.0407
 51
180.0000
  0
ARC
  8
3_03
  6
CONTINUOUS
 62
4
 10
732.7040
 20
726.2342
 40
0.0750
 50
0.0000
 51
90.0000
  0
ARC
  8
3_03
  6
CONTINUOUS
 62
4
 10
732.7040
 20
719.1844
 40
0.0750
 50
270.0000
 51
360.0000
  0
ARC
  8
3_03
  6
CONTINUOUS
 62
4
 10
723.6291
 20
719.1844
 40
0.0750
 50
180.0000
 51
270.0000
  0
ARC
  8
0_00
  6
CONTINUOUS
 62
4
 10
283.2499
 20
188.5510
 40
2.5000
 50
270.0000
 51
360.0000
  0
ARC
  8
0_00
  6
CONTINUOUS
 62
4
 10
270.2499
 20
188.5510
 40
2.5000
 50
180.0000
 51
270.0000
  0
ARC
  8
0_00
  6
CONTINUOUS
 62
4
 10
270.2499
 20
275.0510
 40
2.5000
 50
90.0000
 51
180.0000
  0
ARC
  8
0_00
  6
CONTINUOUS
 62
4
 10
283.2499
 20
275.0510
 40
2.5000
 50
0.0000
 51
90.0000
  0
ARC
  8
0_00
  6
CONTINUOUS
 62
4
 10
435.7841
 20
678.1881
 40
5.0000
 50
180.0000
 51
229.0338
  0
ARC
  8
0_00
  6
CONTINUOUS
 62
4
 10
124.2975
 20
414.0679
 40
375.0000
 50
34.0115
 51
45.3615
  0
ARC
  8
0_00
  6
CONTINUOUS
 62
4
 10
104.6988
 20
296.8647
 40
500.0000
 50
44.1641
 51
49.0337
  0
ARC
  8
0_00
  6
CONTINUOUS
 62
4
 10
235.7841
 20
586.9013
 40
10.0000
 50
0.0000
 51
28.2628
  0
ARC
  8
0_00
  6
CONTINUOUS
 62
4
 10
282.7841
 20
596.0132
 40
10.0000
 50
0.0000
 51
37.6262
  0
ARC
  8
0_00
  6
CONTINUOUS
 62
4
 10
225.7841
 20
678.1881
 40
5.0000
 50
180.0000
 51
229.0338
  0
ARC
  8
0_00
  6
CONTINUOUS
 62
4
 10
-85.7025
 20
414.0679
 40
375.0000
 50
28.2628
 51
45.3615
  0
ARC
  8
0_00
  6
CONTINUOUS
 62
4
 10
-105.3012
 20
296.8647
 40
500.0000
 50
37.6262
 51
49.0337
  0
ARC
  8
0_00
  6
CONTINUOUS
 62
4
 10
235.7841
 20
586.9013
 40
10.0000
 50
0.0000
 51
28.2628
  0
ARC
  8
0_00
  6
CONTINUOUS
 62
4
 10
282.7841
 20
596.0132
 40
10.0000
 50
0.0000
 51
37.6262
  0
ARC
  8
0_00
  6
CONTINUOUS
 62
4
 10
235.7841
 20
586.9013
 40
10.0000
 50
0.0000
 51
28.2628
  0
ARC
  8
0_00
  6
CONTINUOUS
 62
4
 10
282.7841
 20
596.0132
 40
10.0000
 50
0.0000
 51
37.6262
  0
ARC
  8
0_00
  6
CONTINUOUS
 62
4
 10
733.6040
 20
703.2995
 40
1.5000
 50
0.0000
 51
28.2628
  0
ARC
  8
0_00
  6
CONTINUOUS
 62
4
 10
682.4412
 20
659.7940
 40
75.0000
 50
37.6262
 51
49.0337
  0
ARC
  8
0_00
  6
CONTINUOUS
 62
4
 10
740.6540
 20
704.6663
 40
1.5000
 50
0.0000
 51
37.6262
  0
ARC
  8
0_00
  6
CONTINUOUS
 62
4
 10
685.3810
 20
677.3745
 40
56.2500
 50
28.2628
 51
45.3615
  0
ARC
  8
0_00
  6
CONTINUOUS
 62
4
 10
732.1040
 20
716.9924
 40
0.7500
 50
180.0000
 51
229.0338
  0
ARC
  8
0_00
  6
CONTINUOUS
 62
4
 10
631.9048
 20
678.1881
 40
5.0000
 50
180.0000
 51
229.0338
  0
ARC
  8
0_00
  6
CONTINUOUS
 62
4
 10
320.4182
 20
414.0679
 40
375.0000
 50
34.0115
 51
45.3615
  0
ARC
  8
0_00
  6
CONTINUOUS
 62
4
 10
300.8195
 20
296.8647
 40
500.0000
 50
44.1641
 51
49.0337
  0
ARC
  8
0_00
  6
CONTINUOUS
 62
2
 10
193.3341
 20
542.9008
 40
8.4500
 50
314.7603
 51
405.2397
  0
ARC
  8
0_00
  6
CONTINUOUS
 62
2
 10
345.2341
 20
542.9008
 40
8.4500
 50
134.7603
 51
225.2397
  0
ARC
  8
0_00
  6
CONTINUOUS
 62
4
 10
314.0841
 20
574.8008
 40
0.5000
 50
90.0000
 51
180.0000
  0
ARC
  8
0_00
  6
CONTINUOUS
 62
4
 10
310.5841
 20
573.4008
 40
0.3000
 50
90.0000
 51
180.0000
  0
ARC
  8
0_00
  6
CONTINUOUS
 62
4
 10
310.5841
 20
571.5008
 40
0.3000
 50
180.0000
 51
270.0000
  0
ARC
  8
0_00
  6
CONTINUOUS
 62
4
 10
224.4841
 20
574.8008
 40
0.5000
 50
0.0000
 51
90.0000
  0
ARC
  8
0_00
  6
CONTINUOUS
 62
4
 10
206.4841
 20
574.8008
 40
0.5000
 50
90.0000
 51
180.0000
  0
ARC
  8
0_00
  6
CONTINUOUS
 62
4
 10
220.9841
 20
571.1008
 40
1.0000
 50
0.0000
 51
90.0000
  0
ARC
  8
0_00
  6
CONTINUOUS
 62
4
 10
209.9841
 20
571.1008
 40
1.0000
 50
90.0000
 51
180.0000
  0
ARC
  8
0_00
  6
CONTINUOUS
 62
4
 10
227.9841
 20
573.4008
 40
0.3000
 50
0.0000
 51
90.0000
  0
ARC
  8
0_00
  6
CONTINUOUS
 62
4
 10
227.9841
 20
571.5008
 40
0.3000
 50
270.0000
 51
360.0000
  0
ARC
  8
0_00
  6
CONTINUOUS
 62
4
 10
310.5841
 20
573.4008
 40
0.3000
 50
90.0000
 51
180.0000
  0
ARC
  8
0_00
  6
CONTINUOUS
 62
4
 10
227.9841
 20
573.4008
 40
0.3000
 50
0.0000
 51
90.0000
  0
ARC
  8
0_00
  6
CONTINUOUS
 62
4
 10
332.0841
 20
574.8008
 40
0.5000
 50
0.0000
 51
90.0000
  0
ARC
  8
0_00
  6
CONTINUOUS
 62
4
 10
314.5841
 20
565.9008
 40
2.0000
 50
270.0000
 51
360.0000
  0
ARC
  8
0_00
  6
CONTINUOUS
 62
4
 10
317.5841
 20
571.1008
 40
1.0000
 50
90.0000
 51
180.0000
  0
ARC
  8
0_00
  6
CONTINUOUS
 62
4
 10
328.5841
 20
571.1008
 40
1.0000
 50
0.0000
 51
90.0000
  0
ARC
  8
0_00
  6
CONTINUOUS
 62
4
 10
349.0841
 20
552.0009
 40
1.0000
 50
270.0000
 51
374.3788
  0
ARC
  8
0_00
  6
CONTINUOUS
 62
4
 10
330.0841
 20
570.3008
 40
0.5000
 50
180.0000
 51
270.0000
  0
ARC
  8
0_00
  6
CONTINUOUS
 62
4
 10
342.0682
 20
569.3008
 40
3.5000
 50
14.3788
 51
90.0000
  0
ARC
  8
0_00
  6
CONTINUOUS
 62
4
 10
341.7535
 20
568.8008
 40
1.0000
 50
17.7004
 51
90.0000
  0
ARC
  8
0_00
  6
CONTINUOUS
 62
4
 10
223.9841
 20
565.9008
 40
2.0000
 50
180.0000
 51
270.0000
  0
ARC
  8
0_00
  6
CONTINUOUS
 62
4
 10
189.4841
 20
552.0009
 40
1.0000
 50
165.6212
 51
270.0000
  0
ARC
  8
0_00
  6
CONTINUOUS
 62
4
 10
208.4841
 20
570.3008
 40
0.5000
 50
270.0000
 51
360.0000
  0
ARC
  8
0_00
  6
CONTINUOUS
 62
4
 10
196.5000
 20
569.3008
 40
3.5000
 50
90.0000
 51
165.6212
  0
ARC
  8
0_00
  6
CONTINUOUS
 62
4
 10
196.8146
 20
568.8008
 40
1.0000
 50
90.0000
 51
162.2996
  0
ARC
  8
0_00
  6
CONTINUOUS
 62
2
 10
297.2841
 20
566.0008
 40
7.7000
 50
39.9831
 51
140.0169
  0
ARC
  8
0_00
  6
CONTINUOUS
 62
2
 10
241.2841
 20
566.0008
 40
7.7000
 50
39.9831
 51
140.0169
  0
ARC
  8
0_00
  6
CONTINUOUS
 62
2
 10
609.6302
 20
317.5646
 40
2.4500
 50
45.0000
 51
58.5444
  0
ARC
  8
0_00
  6
CONTINUOUS
 62
2
 10
609.6302
 20
317.5646
 40
2.4500
 50
121.3667
 51
135.0000
  0
ARC
  8
0_00
  6
CONTINUOUS
 62
2
 10
609.6302
 20
317.5646
 40
2.4500
 50
211.4556
 51
225.0000
  0
ARC
  8
0_00
  6
CONTINUOUS
 62
2
 10
609.6302
 20
317.5646
 40
2.4500
 50
135.0000
 51
148.6333
  0
ARC
  8
0_00
  6
CONTINUOUS
 62
2
 10
609.6302
 20
317.5646
 40
2.4500
 50
31.4556
 51
45.0000
  0
ARC
  8
0_00
  6
CONTINUOUS
 62
2
 10
609.6302
 20
317.5646
 40
2.4500
 50
315.0000
 51
328.6334
  0
ARC
  8
0_00
  6
CONTINUOUS
 62
2
 10
609.6302
 20
317.5646
 40
2.4500
 50
225.0000
 51
238.5444
  0
ARC
  8
0_00
  6
CONTINUOUS
 62
2
 10
609.6302
 20
317.5646
 40
2.4500
 50
301.3667
 51
315.0000
  0
ARC
  8
0_00
  6
CONTINUOUS
 62
2
 10
650.6302
 20
261.5646
 40
2.4500
 50
225.0000
 51
238.5444
  0
ARC
  8
0_00
  6
CONTINUOUS
 62
2
 10
650.6302
 20
261.5646
 40
2.4500
 50
301.3667
 51
315.0000
  0
ARC
  8
0_00
  6
CONTINUOUS
 62
2
 10
650.6302
 20
261.5646
 40
2.4500
 50
31.4556
 51
45.0000
  0
ARC
  8
0_00
  6
CONTINUOUS
 62
2
 10
650.6302
 20
261.5646
 40
2.4500
 50
315.0000
 51
328.6334
  0
ARC
  8
0_00
  6
CONTINUOUS
 62
2
 10
650.6302
 20
261.5646
 40
2.4500
 50
211.4556
 51
225.0000
  0
ARC
  8
0_00
  6
CONTINUOUS
 62
2
 10
650.6302
 20
261.5646
 40
2.4500
 50
135.0000
 51
148.6333
  0
ARC
  8
0_00
  6
CONTINUOUS
 62
2
 10
650.6302
 20
261.5646
 40
2.4500
 50
45.0000
 51
58.5444
  0
ARC
  8
0_00
  6
CONTINUOUS
 62
2
 10
650.6302
 20
261.5646
 40
2.4500
 50
121.3667
 51
135.0000
  0
CIRCLE
  8
0_00
  6
CONTINUOUS
 62
2
 10
650.6302
 20
261.5646
 40
5.9000
  0
CIRCLE
  8
0_00
  6
CONTINUOUS
 62
2
 10
609.6302
 20
317.5646
 40
5.9000
  0
CIRCLE
  8
0_00
  6
CONTINUOUS
 62
4
 10
608.1302
 20
289.5646
 40
3.5000
  0
CIRCLE
  8
0_00
  6
CONTINUOUS
 62
4
 10
652.1303
 20
289.5646
 40
3.5000
  0
CIRCLE
  8
0_00
  6
CONTINUOUS
 62
4
 10
650.6302
 20
317.5646
 40
3.5000
  0
CIRCLE
  8
0_00
  6
CONTINUOUS
 62
4
 10
609.6302
 20
261.5646
 40
3.5000
  0
CIRCLE
  8
12_0C
  6
CONTINUOUS
 62
6
 10
630.1303
 20
303.0646
 40
3.0000
  0
CIRCLE
  8
12_0C
  6
CONTINUOUS
 62
6
 10
630.1303
 20
303.0646
 40
2.3500
  0
CIRCLE
  8
0_00
  6
CONTINUOUS
 62
4
 10
630.1303
 20
303.0646
 40
4.2500
  0
CIRCLE
  8
12_0C
  6
CONTINUOUS
 62
6
 10
630.1303
 20
276.0646
 40
3.0000
  0
CIRCLE
  8
12_0C
  6
CONTINUOUS
 62
6
 10
630.1303
 20
276.0646
 40
2.3500
  0
CIRCLE
  8
0_00
  6
CONTINUOUS
 62
4
 10
630.1303
 20
276.0646
 40
4.2500
  0
ARC
  8
0_00
  6
CONTINUOUS
 62
4
 10
1030.1104
 20
267.5646
 40
2.5000
 50
270.0000
 51
360.0000
  0
ARC
  8
0_00
  6
CONTINUOUS
 62
4
 10
1030.1104
 20
311.5646
 40
2.5000
 50
0.0000
 51
90.0000
  0
ARC
  8
0_00
  6
CONTINUOUS
 62
4
 10
1001.1104
 20
311.5646
 40
2.5000
 50
90.0000
 51
180.0000
  0
ARC
  8
0_00
  6
CONTINUOUS
 62
4
 10
1001.1104
 20
267.5646
 40
2.5000
 50
180.0000
 51
270.0000
  0
ARC
  8
16_10
  6
CONTINUOUS
 62
4
 10
726.8540
 20
701.2975
 40
1.2600
 50
98.4358
 51
181.8837
  0
ARC
  8
16_10
  6
CONTINUOUS
 62
4
 10
726.7039
 20
696.4444
 40
0.9900
 50
181.8837
 51
223.9454
  0
ARC
  8
16_10
  6
CONTINUOUS
 62
4
 10
726.5919
 20
694.2393
 40
0.5850
 50
181.8837
 51
271.8837
  0
ARC
  8
16_10
  6
CONTINUOUS
 62
4
 10
753.8876
 20
701.2109
 40
1.2600
 50
52.0455
 51
85.6846
  0
ARC
  8
16_10
  6
CONTINUOUS
 62
4
 10
730.6528
 20
701.1834
 40
0.9750
 50
98.4358
 51
181.8837
  0
ARC
  8
16_10
  6
CONTINUOUS
 62
4
 10
729.8004
 20
695.7828
 40
0.2700
 50
1.8837
 51
45.3477
  0
ARC
  8
16_10
  6
CONTINUOUS
 62
4
 10
730.4540
 20
696.4444
 40
0.6600
 50
181.8837
 51
225.3477
  0
ARC
  8
16_10
  6
CONTINUOUS
 62
4
 10
730.3429
 20
694.2095
 40
0.2550
 50
181.8837
 51
271.8837
  0
ARC
  8
16_10
  6
CONTINUOUS
 62
4
 10
730.8856
 20
694.1372
 40
0.3450
 50
271.8837
 51
328.0013
  0
ARC
  8
0_00
  6
CONTINUOUS
 62
4
 10
777.1040
 20
704.0793
 40
0.3750
 50
270.0000
 51
360.0000
  0
ARC
  8
0_00
  6
CONTINUOUS
 62
4
 10
775.1539
 20
704.0793
 40
0.3750
 50
180.0000
 51
270.0000
  0
ARC
  8
0_00
  6
CONTINUOUS
 62
4
 10
775.1539
 20
717.0544
 40
0.3750
 50
90.0000
 51
180.0000
  0
ARC
  8
0_00
  6
CONTINUOUS
 62
4
 10
777.1040
 20
717.0544
 40
0.3750
 50
0.0000
 51
90.0000
  0
ARC
  8
0_00
  6
CONTINUOUS
 62
4
 10
932.1040
 20
704.0793
 40
0.3750
 50
270.0000
 51
360.0000
  0
ARC
  8
0_00
  6
CONTINUOUS
 62
4
 10
930.1540
 20
704.0793
 40
0.3750
 50
180.0000
 51
270.0000
  0
ARC
  8
0_00
  6
CONTINUOUS
 62
4
 10
930.1540
 20
717.0544
 40
0.3750
 50
90.0000
 51
180.0000
  0
ARC
  8
0_00
  6
CONTINUOUS
 62
4
 10
932.1040
 20
717.0544
 40
0.3750
 50
0.0000
 51
90.0000
  0
ARC
  8
0_00
  6
CONTINUOUS
 62
4
 10
1087.1040
 20
704.0793
 40
0.3750
 50
270.0000
 51
360.0000
  0
ARC
  8
0_00
  6
CONTINUOUS
 62
4
 10
1085.1541
 20
704.0793
 40
0.3750
 50
180.0000
 51
270.0000
  0
ARC
  8
0_00
  6
CONTINUOUS
 62
4
 10
1085.1541
 20
717.0544
 40
0.3750
 50
90.0000
 51
180.0000
  0
ARC
  8
0_00
  6
CONTINUOUS
 62
4
 10
1087.1040
 20
717.0544
 40
0.3750
 50
0.0000
 51
90.0000
  0
ARC
  8
0_00
  6
DASHED
 62
2
 10
282.7841
 20
575.4723
 40
15.3286
 50
65.3218
 51
114.6782
  0
ARC
  8
0_00
  6
DASHED
 62
2
 10
255.7841
 20
575.4723
 40
15.3286
 50
65.3218
 51
114.6782
  0
ARC
  8
12_0C
  6
CONTINUOUS
 62
2
 10
217.2841
 20
692.7403
 40
5.1605
 50
39.1846
 51
140.8154
  0
ARC
  8
12_0C
  6
CONTINUOUS
 62
2
 10
181.2841
 20
692.7403
 40
5.1605
 50
39.1846
 51
140.8154
  0
ARC
  8
0_00
  6
CONTINUOUS
 62
4
 10
213.2964
 20
695.8008
 40
0.4000
 50
194.0363
 51
270.0000
  0
ARC
  8
0_00
  6
CONTINUOUS
 62
4
 10
212.3474
 20
696.7107
 40
0.3000
 50
14.0362
 51
87.5372
  0
ARC
  8
0_00
  6
CONTINUOUS
 62
4
 10
224.6118
 20
696.0009
 40
0.6000
 50
270.0000
 51
388.8667
  0
ARC
  8
0_00
  6
CONTINUOUS
 62
4
 10
227.5341
 20
698.6526
 40
0.3000
 50
275.0000
 51
371.6000
  0
ARC
  8
0_00
  6
CONTINUOUS
 62
4
 10
226.7341
 20
697.9301
 40
0.3500
 50
95.0000
 51
185.0988
  0
ARC
  8
0_00
  6
CONTINUOUS
 62
4
 10
225.6841
 20
698.2900
 40
1.0000
 50
95.0000
 51
180.0000
  0
ARC
  8
0_00
  6
CONTINUOUS
 62
4
 10
226.4089
 20
699.6583
 40
0.3000
 50
275.0000
 51
371.6000
  0
ARC
  8
0_00
  6
CONTINUOUS
 62
4
 10
226.6820
 20
703.3008
 40
0.7000
 50
90.0000
 51
191.6000
  0
ARC
  8
0_00
  6
CONTINUOUS
 62
4
 10
228.3776
 20
698.0768
 40
2.0000
 50
185.0988
 51
249.7122
  0
ARC
  8
0_00
  6
CONTINUOUS
 62
4
 10
228.3776
 20
698.0768
 40
3.7000
 50
183.4043
 51
208.8667
  0
ARC
  8
0_00
  6
CONTINUOUS
 62
4
 10
185.2718
 20
695.8008
 40
0.4000
 50
270.0000
 51
345.9637
  0
ARC
  8
0_00
  6
CONTINUOUS
 62
4
 10
186.2208
 20
696.7107
 40
0.3000
 50
92.4628
 51
165.9637
  0
ARC
  8
0_00
  6
CONTINUOUS
 62
4
 10
173.9563
 20
696.0009
 40
0.6000
 50
151.1333
 51
270.0000
  0
ARC
  8
0_00
  6
CONTINUOUS
 62
4
 10
171.0341
 20
698.6526
 40
0.3000
 50
168.4000
 51
265.0000
  0
ARC
  8
0_00
  6
CONTINUOUS
 62
4
 10
171.8341
 20
697.9301
 40
0.3500
 50
354.9012
 51
445.0000
  0
ARC
  8
0_00
  6
CONTINUOUS
 62
4
 10
172.8841
 20
698.2900
 40
1.0000
 50
0.0000
 51
85.0000
  0
ARC
  8
0_00
  6
CONTINUOUS
 62
4
 10
172.1593
 20
699.6583
 40
0.3000
 50
168.4000
 51
265.0000
  0
ARC
  8
0_00
  6
CONTINUOUS
 62
4
 10
171.8861
 20
703.3008
 40
0.7000
 50
348.4000
 51
450.0000
  0
ARC
  8
0_00
  6
CONTINUOUS
 62
4
 10
170.1906
 20
698.0768
 40
2.0000
 50
290.2878
 51
354.9012
  0
ARC
  8
0_00
  6
CONTINUOUS
 62
4
 10
170.1906
 20
698.0768
 40
3.7000
 50
331.1333
 51
356.5957
  0
ARC
  8
0_00
  6
CONTINUOUS
 62
4
 10
199.2841
 20
537.8009
 40
201.6000
 50
82.9521
 51
97.0479
  0
ARC
  8
0_00
  6
CONTINUOUS
 62
4
 10
175.2841
 20
731.9228
 40
6.0000
 50
97.0479
 51
180.0001
  0
ARC
  8
0_00
  6
CONTINUOUS
 62
4
 10
223.2841
 20
731.9228
 40
6.0000
 50
359.9999
 51
442.9521
  0
ARC
  8
14_0E
  6
CONTINUOUS
 62
4
 10
199.2841
 20
537.8009
 40
200.0000
 50
82.8930
 51
97.1069
  0
ARC
  8
14_0E
  6
CONTINUOUS
 62
4
 10
175.0841
 20
731.8981
 40
4.4000
 50
97.1069
 51
180.0000
  0
ARC
  8
14_0E
  6
CONTINUOUS
 62
4
 10
223.4841
 20
731.8981
 40
4.4000
 50
0.0000
 51
82.8930
  0
ARC
  8
0_00
  6
CONTINUOUS
 62
4
 10
169.9836
 20
693.1008
 40
0.7000
 50
180.0001
 51
360.0001
  0
ARC
  8
14_0E
  6
CONTINUOUS
 62
4
 10
170.1130
 20
698.1915
 40
2.0000
 50
286.5774
 51
349.1683
  0
ARC
  8
0_00
  6
CONTINUOUS
 62
4
 10
171.7336
 20
697.8815
 40
0.3500
 50
349.1683
 51
445.0000
  0
ARC
  8
0_00
  6
CONTINUOUS
 62
4
 10
171.0836
 20
698.6912
 40
0.4000
 50
168.6000
 51
265.0000
  0
ARC
  8
0_00
  6
CONTINUOUS
 62
4
 10
170.9622
 20
701.1247
 40
0.2000
 50
348.6000
 51
450.0000
  0
ARC
  8
0_00
  6
CONTINUOUS
 62
4
 10
171.0836
 20
703.7246
 40
0.4000
 50
90.0000
 51
180.0000
  0
ARC
  8
0_00
  6
CONTINUOUS
 62
4
 10
171.0836
 20
705.5247
 40
0.4000
 50
183.0566
 51
270.0000
  0
ARC
  8
0_00
  6
CONTINUOUS
 62
4
 10
173.9836
 20
703.9247
 40
0.6000
 50
180.0000
 51
270.0000
  0
ARC
  8
0_00
  6
CONTINUOUS
 62
4
 10
173.6836
 20
704.6246
 40
0.5000
 50
0.0000
 51
90.0000
  0
ARC
  8
0_00
  6
CONTINUOUS
 62
4
 10
173.9836
 20
703.5247
 40
0.2000
 50
270.0000
 51
360.0000
  0
ARC
  8
0_00
  6
CONTINUOUS
 62
4
 10
228.5840
 20
693.1008
 40
0.7000
 50
179.9999
 51
359.9999
  0
ARC
  8
14_0E
  6
CONTINUOUS
 62
4
 10
228.4546
 20
698.1915
 40
2.0000
 50
190.8317
 51
253.4226
  0
ARC
  8
0_00
  6
CONTINUOUS
 62
4
 10
226.8341
 20
697.8815
 40
0.3500
 50
95.0000
 51
190.8317
  0
ARC
  8
0_00
  6
CONTINUOUS
 62
4
 10
227.4840
 20
698.6912
 40
0.4000
 50
275.0000
 51
371.4000
  0
ARC
  8
0_00
  6
CONTINUOUS
 62
4
 10
224.8840
 20
704.6246
 40
0.5000
 50
90.0000
 51
180.0000
  0
ARC
  8
0_00
  6
CONTINUOUS
 62
4
 10
224.5840
 20
703.5247
 40
0.2000
 50
180.0000
 51
270.0000
  0
ARC
  8
0_00
  6
CONTINUOUS
 62
4
 10
224.5840
 20
703.9247
 40
0.6000
 50
270.0000
 51
360.0000
  0
ARC
  8
0_00
  6
CONTINUOUS
 62
4
 10
227.4840
 20
705.5247
 40
0.4000
 50
270.0000
 51
359.9999
  0
ARC
  8
0_00
  6
CONTINUOUS
 62
4
 10
227.4840
 20
703.7246
 40
0.4000
 50
0.0000
 51
90.0000
  0
ARC
  8
0_00
  6
CONTINUOUS
 62
4
 10
227.6055
 20
701.1247
 40
0.2000
 50
90.0000
 51
191.4000
  0
ARC
  8
0_00
  6
CONTINUOUS
 62
2
 10
276.7499
 20
172.1224
 40
15.3286
 50
65.3218
 51
114.6782
  0
ARC
  8
12_0C
  6
DASHED
 62
2
 10
266.2499
 20
289.3905
 40
5.1605
 50
39.1846
 51
140.8154
  0
ARC
  8
12_0C
  6
DASHED
 62
2
 10
287.2499
 20
289.3905
 40
5.1605
 50
39.1846
 51
140.8154
  0
ARC
  8
0_00
  6
CONTINUOUS
 62
3
 10
1089.6760
 20
72.2363
 40
0.5362
 50
270.0000
 51
450.0000
  0
ARC
  8
0_00
  6
CONTINUOUS
 62
3
 10
1088.1842
 20
77.0626
 40
0.6532
 50
0.0000
 51
180.0000
  0
ARC
  8
0_00
  6
CONTINUOUS
 62
3
 10
1089.1886
 20
83.4001
 40
1.9500
 50
333.9999
 51
450.0000
  0
CIRCLE
  8
0_00
  6
CONTINUOUS
 62
3
 10
1090.0660
 20
87.3000
 40
1.5600
  0
ARC
  8
0_00
  6
CONTINUOUS
 62
3
 10
1088.2811
 20
77.0626
 40
0.4500
 50
0.0000
 51
180.0000
  0
ARC
  8
0_00
  6
CONTINUOUS
 62
3
 10
1088.2811
 20
77.0626
 40
0.1500
 50
0.0000
 51
180.0000
  0
ARC
  8
0_00
  6
CONTINUOUS
 62
3
 10
1089.6760
 20
72.1725
 40
0.3000
 50
270.0000
 51
450.0000
  0
CIRCLE
  8
0_00
  6
CONTINUOUS
 62
3
 10
1090.0660
 20
87.3000
 40
1.3244
  0
CIRCLE
  8
0_00
  6
CONTINUOUS
 62
3
 10
1090.0660
 20
87.3000
 40
1.0256
  0
CIRCLE
  8
0_00
  6
CONTINUOUS
 62
3
 10
1090.0660
 20
87.3000
 40
0.7027
  0
CIRCLE
  8
0_00
  6
CONTINUOUS
 62
3
 10
1090.0660
 20
87.3000
 40
0.3440
  0
CIRCLE
  8
0_00
  6
CONTINUOUS
 62
3
 10
1090.0660
 20
87.3000
 40
0.1699
  0
CIRCLE
  8
0_00
  6
CONTINUOUS
 62
4
 10
881.0410
 20
82.2001
 40
3.7500
  0
CIRCLE
  8
0_00
  6
CONTINUOUS
 62
4
 10
881.0410
 20
82.2001
 40
6.0000
  0
ARC
  8
12_0C
  6
CONTINUOUS
 62
2
 10
427.2841
 20
692.7403
 40
5.1605
 50
39.1846
 51
140.8154
  0
ARC
  8
12_0C
  6
CONTINUOUS
 62
2
 10
391.2841
 20
692.7403
 40
5.1605
 50
39.1846
 51
140.8154
  0
ARC
  8
0_00
  6
CONTINUOUS
 62
4
 10
423.2964
 20
695.8008
 40
0.4000
 50
194.0363
 51
270.0000
  0
ARC
  8
0_00
  6
CONTINUOUS
 62
4
 10
422.3474
 20
696.7107
 40
0.3000
 50
14.0362
 51
87.5372
  0
ARC
  8
0_00
  6
CONTINUOUS
 62
4
 10
434.6119
 20
696.0009
 40
0.6000
 50
270.0000
 51
388.8667
  0
ARC
  8
0_00
  6
CONTINUOUS
 62
4
 10
437.5341
 20
698.6526
 40
0.3000
 50
275.0000
 51
371.6000
  0
ARC
  8
0_00
  6
CONTINUOUS
 62
4
 10
436.7341
 20
697.9301
 40
0.3500
 50
95.0000
 51
185.0988
  0
ARC
  8
0_00
  6
CONTINUOUS
 62
4
 10
435.6841
 20
698.2900
 40
1.0000
 50
95.0000
 51
180.0000
  0
ARC
  8
0_00
  6
CONTINUOUS
 62
4
 10
436.4089
 20
699.6583
 40
0.3000
 50
275.0000
 51
371.6000
  0
ARC
  8
0_00
  6
CONTINUOUS
 62
4
 10
436.6820
 20
703.3008
 40
0.7000
 50
90.0000
 51
191.6000
  0
ARC
  8
0_00
  6
CONTINUOUS
 62
4
 10
438.3776
 20
698.0768
 40
2.0000
 50
185.0988
 51
249.7122
  0
ARC
  8
0_00
  6
CONTINUOUS
 62
4
 10
438.3776
 20
698.0768
 40
3.7000
 50
183.4043
 51
208.8667
  0
ARC
  8
0_00
  6
CONTINUOUS
 62
4
 10
439.7846
 20
694.9395
 40
0.5000
 50
179.9995
 51
296.3368
  0
ARC
  8
0_00
  6
CONTINUOUS
 62
4
 10
437.4847
 20
703.7474
 40
0.4000
 50
359.4403
 51
449.9995
  0
ARC
  8
0_00
  6
CONTINUOUS
 62
4
 10
434.5847
 20
703.5474
 40
0.2000
 50
179.9995
 51
269.9996
  0
ARC
  8
0_00
  6
CONTINUOUS
 62
4
 10
434.5847
 20
703.9474
 40
0.6000
 50
269.9996
 51
359.9996
  0
ARC
  8
0_00
  6
CONTINUOUS
 62
4
 10
436.8347
 20
697.9042
 40
0.3500
 50
94.9995
 51
190.8312
  0
ARC
  8
14_0E
  6
CONTINUOUS
 62
4
 10
438.4552
 20
698.2142
 40
2.0000
 50
190.8312
 51
253.4221
  0
ARC
  8
0_00
  6
CONTINUOUS
 62
4
 10
437.4846
 20
698.7139
 40
0.4000
 50
274.9996
 51
371.3995
  0
ARC
  8
0_00
  6
CONTINUOUS
 62
4
 10
437.6061
 20
701.1473
 40
0.2000
 50
89.9995
 51
191.3996
  0
ARC
  8
0_00
  6
CONTINUOUS
 62
4
 10
435.3847
 20
704.4473
 40
1.0000
 50
89.9995
 51
179.9995
  0
ARC
  8
0_00
  6
CONTINUOUS
 62
4
 10
437.9847
 20
704.1473
 40
1.3000
 50
359.9996
 51
449.9995
  0
ARC
  8
0_00
  6
CONTINUOUS
 62
4
 10
409.2841
 20
669.6568
 40
60.0000
 50
56.5252
 51
123.4747
  0
ARC
  8
0_00
  6
CONTINUOUS
 62
4
 10
433.8841
 20
706.8590
 40
15.4000
 50
292.7488
 51
416.5252
  0
ARC
  8
0_00
  6
CONTINUOUS
 62
4
 10
439.2941
 20
693.9568
 40
1.4095
 50
179.9994
 51
292.7488
  0
ARC
  8
0_00
  6
CONTINUOUS
 62
4
 10
433.8841
 20
706.8590
 40
13.8000
 50
296.3368
 51
416.5252
  0
ARC
  8
0_00
  6
CONTINUOUS
 62
4
 10
409.2841
 20
669.6568
 40
58.4000
 50
56.5252
 51
123.4747
  0
ARC
  8
0_00
  6
CONTINUOUS
 62
4
 10
395.2718
 20
695.8008
 40
0.4000
 50
270.0000
 51
345.9637
  0
ARC
  8
0_00
  6
CONTINUOUS
 62
4
 10
396.2208
 20
696.7107
 40
0.3000
 50
92.4628
 51
165.9637
  0
ARC
  8
0_00
  6
CONTINUOUS
 62
4
 10
383.9563
 20
696.0009
 40
0.6000
 50
151.1333
 51
270.0000
  0
ARC
  8
0_00
  6
CONTINUOUS
 62
4
 10
381.0341
 20
698.6526
 40
0.3000
 50
168.4000
 51
265.0000
  0
ARC
  8
0_00
  6
CONTINUOUS
 62
4
 10
381.8341
 20
697.9301
 40
0.3500
 50
354.9012
 51
445.0000
  0
ARC
  8
0_00
  6
CONTINUOUS
 62
4
 10
382.8841
 20
698.2900
 40
1.0000
 50
0.0000
 51
85.0000
  0
ARC
  8
0_00
  6
CONTINUOUS
 62
4
 10
382.1593
 20
699.6583
 40
0.3000
 50
168.4000
 51
265.0000
  0
ARC
  8
0_00
  6
CONTINUOUS
 62
4
 10
381.8862
 20
703.3008
 40
0.7000
 50
348.4000
 51
450.0000
  0
ARC
  8
0_00
  6
CONTINUOUS
 62
4
 10
380.1906
 20
698.0768
 40
2.0000
 50
290.2878
 51
354.9012
  0
ARC
  8
0_00
  6
CONTINUOUS
 62
4
 10
380.1906
 20
698.0768
 40
3.7000
 50
331.1333
 51
356.5957
  0
ARC
  8
0_00
  6
CONTINUOUS
 62
4
 10
378.7836
 20
694.9395
 40
0.5000
 50
243.6632
 51
360.0004
  0
ARC
  8
0_00
  6
CONTINUOUS
 62
4
 10
381.0835
 20
703.7474
 40
0.4000
 50
89.9999
 51
180.5597
  0
ARC
  8
0_00
  6
CONTINUOUS
 62
4
 10
383.9835
 20
703.5474
 40
0.2000
 50
270.0005
 51
360.0004
  0
ARC
  8
0_00
  6
CONTINUOUS
 62
4
 10
383.9835
 20
703.9474
 40
0.6000
 50
180.0005
 51
270.0005
  0
ARC
  8
0_00
  6
CONTINUOUS
 62
4
 10
381.7335
 20
697.9042
 40
0.3500
 50
349.1688
 51
445.0004
  0
ARC
  8
14_0E
  6
CONTINUOUS
 62
4
 10
380.1129
 20
698.2142
 40
2.0000
 50
286.5779
 51
349.1688
  0
ARC
  8
0_00
  6
CONTINUOUS
 62
4
 10
381.0835
 20
698.7139
 40
0.4000
 50
168.6004
 51
265.0005
  0
ARC
  8
0_00
  6
CONTINUOUS
 62
4
 10
380.9621
 20
701.1473
 40
0.2000
 50
348.6005
 51
450.0004
  0
ARC
  8
0_00
  6
CONTINUOUS
 62
4
 10
383.1835
 20
704.4473
 40
1.0000
 50
0.0004
 51
90.0004
  0
ARC
  8
0_00
  6
CONTINUOUS
 62
4
 10
380.5835
 20
704.1473
 40
1.3000
 50
90.0004
 51
180.0005
  0
ARC
  8
0_00
  6
CONTINUOUS
 62
4
 10
384.6841
 20
706.8590
 40
15.4000
 50
123.4747
 51
247.2512
  0
ARC
  8
0_00
  6
CONTINUOUS
 62
4
 10
379.2741
 20
693.9568
 40
1.4095
 50
247.2512
 51
360.0006
  0
ARC
  8
0_00
  6
CONTINUOUS
 62
4
 10
384.6841
 20
706.8590
 40
13.8000
 50
123.4747
 51
243.6632
  0
ARC
  8
12_0C
  6
CONTINUOUS
 62
2
 10
623.4048
 20
693.0403
 40
5.1605
 50
39.1846
 51
140.8154
  0
ARC
  8
12_0C
  6
CONTINUOUS
 62
2
 10
587.4048
 20
693.0403
 40
5.1605
 50
39.1846
 51
140.8154
  0
ARC
  8
0_00
  6
CONTINUOUS
 62
4
 10
632.4031
 20
697.1008
 40
0.6000
 50
270.0000
 51
450.0000
  0
ARC
  8
0_00
  6
CONTINUOUS
 62
4
 10
605.4031
 20
700.4008
 40
29.0000
 50
201.7076
 51
269.4103
  0
ARC
  8
0_00
  6
CONTINUOUS
 62
4
 10
605.4031
 20
700.4008
 40
29.0000
 50
270.5897
 51
338.2924
  0
ARC
  8
0_00
  6
CONTINUOUS
 62
4
 10
580.6032
 20
695.9008
 40
0.5000
 50
180.0000
 51
270.0000
  0
ARC
  8
0_00
  6
CONTINUOUS
 62
4
 10
630.2031
 20
695.9008
 40
0.5000
 50
270.0000
 51
360.0000
  0
ARC
  8
0_00
  6
CONTINUOUS
 62
4
 10
632.7031
 20
699.8815
 40
0.5000
 50
275.0000
 51
371.6000
  0
ARC
  8
0_00
  6
CONTINUOUS
 62
4
 10
631.7031
 20
699.3925
 40
1.0000
 50
95.0000
 51
180.0000
  0
ARC
  8
0_00
  6
CONTINUOUS
 62
4
 10
627.9359
 20
700.7260
 40
5.0000
 50
11.6000
 51
45.0000
  0
ARC
  8
0_00
  6
CONTINUOUS
 62
4
 10
627.9359
 20
700.7260
 40
4.1000
 50
11.6000
 51
45.0000
  0
ARC
  8
0_00
  6
CONTINUOUS
 62
4
 10
578.4032
 20
697.1008
 40
0.6000
 50
90.0000
 51
270.0000
  0
ARC
  8
0_00
  6
CONTINUOUS
 62
4
 10
578.1031
 20
699.8815
 40
0.5000
 50
168.4000
 51
265.0000
  0
ARC
  8
0_00
  6
CONTINUOUS
 62
4
 10
580.9531
 20
705.9508
 40
0.4500
 50
0.0000
 51
180.0000
  0
ARC
  8
0_00
  6
CONTINUOUS
 62
4
 10
579.1032
 20
699.3925
 40
1.0000
 50
0.0000
 51
85.0000
  0
ARC
  8
0_00
  6
CONTINUOUS
 62
4
 10
582.8703
 20
700.7260
 40
5.0000
 50
135.0000
 51
168.4000
  0
ARC
  8
0_00
  6
CONTINUOUS
 62
4
 10
582.8703
 20
700.7260
 40
4.1000
 50
135.0000
 51
168.4000
  0
ARC
  8
0_00
  6
CONTINUOUS
 62
4
 10
580.4031
 20
705.4713
 40
1.0000
 50
315.0000
 51
360.0000
  0
ARC
  8
0_00
  6
CONTINUOUS
 62
4
 10
629.8531
 20
705.9508
 40
0.4500
 50
0.0000
 51
180.0000
  0
ARC
  8
0_00
  6
CONTINUOUS
 62
4
 10
630.4032
 20
705.4713
 40
1.0000
 50
180.0000
 51
225.0000
  0
ARC
  8
15_0F
  6
CONTINUOUS
 62
4
 10
605.4031
 20
700.4008
 40
27.9000
 50
202.3023
 51
255.4075
  0
ARC
  8
15_0F
  6
CONTINUOUS
 62
4
 10
605.4031
 20
700.4008
 40
27.9000
 50
284.5926
 51
337.6978
  0
ARC
  8
15_0F
  6
CONTINUOUS
 62
4
 10
578.9242
 20
689.8595
 40
0.5000
 50
150.0000
 51
201.7076
  0
ARC
  8
15_0F
  6
CONTINUOUS
 62
4
 10
631.8820
 20
689.8595
 40
0.5000
 50
338.2924
 51
390.0000
  0
ARC
  8
0_00
  6
CONTINUOUS
 62
4
 10
631.5630
 20
707.9270
 40
0.3000
 50
270.0000
 51
397.7143
  0
ARC
  8
0_00
  6
CONTINUOUS
 62
4
 10
627.0031
 20
707.1270
 40
0.5000
 50
90.0000
 51
180.0000
  0
ARC
  8
0_00
  6
CONTINUOUS
 62
4
 10
605.4031
 20
700.4008
 40
29.0000
 50
342.4088
 51
449.9966
  0
ARC
  8
0_00
  6
CONTINUOUS
 62
4
 10
632.7610
 20
691.7270
 40
0.3000
 50
191.6000
 51
342.4088
  0
ARC
  8
0_00
  6
CONTINUOUS
 62
4
 10
605.4031
 20
700.4008
 40
27.5000
 50
46.4693
 51
89.9727
  0
ARC
  8
0_00
  6
CONTINUOUS
 62
4
 10
605.4031
 20
700.4008
 40
27.5000
 50
16.2813
 51
43.5307
  0
ARC
  8
0_00
  6
CONTINUOUS
 62
4
 10
605.4031
 20
700.4008
 40
27.8000
 50
5.4220
 51
12.9434
  0
ARC
  8
0_00
  6
CONTINUOUS
 62
4
 10
605.4031
 20
700.4008
 40
27.8000
 50
357.9926
 51
362.3232
  0
ARC
  8
0_00
  6
CONTINUOUS
 62
4
 10
605.4031
 20
700.4008
 40
27.8000
 50
345.9079
 51
353.8593
  0
ARC
  8
0_00
  6
CONTINUOUS
 62
4
 10
635.2762
 20
692.9016
 40
3.0000
 50
165.9079
 51
191.6000
  0
ARC
  8
0_00
  6
CONTINUOUS
 62
4
 10
605.4031
 20
700.4008
 40
26.5000
 50
43.9189
 51
46.0811
  0
ARC
  8
0_00
  6
CONTINUOUS
 62
4
 10
625.1957
 20
719.2035
 40
0.2000
 50
43.5307
 51
135.0000
  0
ARC
  8
0_00
  6
CONTINUOUS
 62
4
 10
624.2058
 20
720.1935
 40
0.2000
 50
315.0000
 51
406.4693
  0
ARC
  8
0_00
  6
CONTINUOUS
 62
4
 10
627.5031
 20
706.6192
 40
0.2000
 50
87.8021
 51
180.0000
  0
ARC
  8
0_00
  6
CONTINUOUS
 62
4
 10
626.9031
 20
705.8270
 40
0.4000
 50
180.0000
 51
360.0000
  0
ARC
  8
0_00
  6
CONTINUOUS
 62
4
 10
633.0745
 20
701.7278
 40
0.2000
 50
191.7000
 51
270.0000
  0
ARC
  8
0_00
  6
CONTINUOUS
 62
4
 10
632.8467
 20
702.8277
 40
0.2000
 50
90.0000
 51
191.7000
  0
ARC
  8
0_00
  6
CONTINUOUS
 62
4
 10
632.0934
 20
699.1306
 40
0.2000
 50
95.0000
 51
195.1391
  0
ARC
  8
13_0D
  6
CONTINUOUS
 62
4
 10
634.7961
 20
699.8619
 40
3.0000
 50
195.1391
 51
234.2555
  0
ARC
  8
0_00
  6
CONTINUOUS
 62
4
 10
579.2446
 20
707.9254
 40
0.3000
 50
142.2891
 51
270.0034
  0
ARC
  8
0_00
  6
CONTINUOUS
 62
4
 10
583.8045
 20
707.1257
 40
0.5000
 50
0.0034
 51
90.0034
  0
ARC
  8
0_00
  6
CONTINUOUS
 62
4
 10
605.4048
 20
700.4008
 40
29.0000
 50
90.0000
 51
197.5946
  0
ARC
  8
0_00
  6
CONTINUOUS
 62
4
 10
578.0475
 20
691.7254
 40
0.3000
 50
197.5946
 51
348.4034
  0
ARC
  8
0_00
  6
CONTINUOUS
 62
4
 10
605.4048
 20
700.4008
 40
27.5000
 50
90.0307
 51
133.5341
  0
ARC
  8
0_00
  6
CONTINUOUS
 62
4
 10
605.4048
 20
700.4008
 40
27.5000
 50
136.4727
 51
163.7221
  0
ARC
  8
0_00
  6
CONTINUOUS
 62
4
 10
605.4048
 20
700.4008
 40
27.8000
 50
167.0600
 51
174.5814
  0
ARC
  8
0_00
  6
CONTINUOUS
 62
4
 10
605.4048
 20
700.4008
 40
27.8000
 50
177.6802
 51
182.0108
  0
ARC
  8
0_00
  6
CONTINUOUS
 62
4
 10
605.4048
 20
700.4008
 40
27.8000
 50
186.1442
 51
194.0955
  0
ARC
  8
0_00
  6
CONTINUOUS
 62
4
 10
575.5322
 20
692.8997
 40
3.0000
 50
348.4034
 51
374.0955
  0
ARC
  8
0_00
  6
CONTINUOUS
 62
4
 10
605.4048
 20
700.4008
 40
26.5000
 50
133.9223
 51
136.0845
  0
ARC
  8
0_00
  6
CONTINUOUS
 62
4
 10
585.6111
 20
719.2023
 40
0.2000
 50
45.0034
 51
136.4727
  0
ARC
  8
0_00
  6
CONTINUOUS
 62
4
 10
586.6009
 20
720.1924
 40
0.2000
 50
133.5341
 51
225.0034
  0
ARC
  8
0_00
  6
CONTINUOUS
 62
4
 10
583.3044
 20
706.6179
 40
0.2000
 50
0.0034
 51
92.2013
  0
ARC
  8
0_00
  6
CONTINUOUS
 62
4
 10
583.9046
 20
705.8258
 40
0.4000
 50
180.0034
 51
360.0034
  0
ARC
  8
0_00
  6
CONTINUOUS
 62
4
 10
577.7334
 20
701.7261
 40
0.2000
 50
270.0034
 51
348.3034
  0
ARC
  8
0_00
  6
CONTINUOUS
 62
4
 10
577.9611
 20
702.8261
 40
0.2000
 50
348.3034
 51
450.0034
  0
ARC
  8
0_00
  6
CONTINUOUS
 62
4
 10
578.7147
 20
699.1290
 40
0.2000
 50
344.8643
 51
445.0034
  0
ARC
  8
13_0D
  6
CONTINUOUS
 62
4
 10
576.0119
 20
699.8602
 40
3.0000
 50
305.7479
 51
344.8643
  0
ARC
  8
0_00
  6
CONTINUOUS
 62
4
 10
186.7307
 20
535.4003
 40
2.0000
 50
0.4000
 51
46.6979
  0
ARC
  8
0_00
  6
CONTINUOUS
 62
4
 10
190.5029
 20
539.4029
 40
3.5000
 50
180.4000
 51
226.6979
  0
ARC
  8
0_00
  6
CONTINUOUS
 62
4
 10
190.5029
 20
539.4029
 40
3.5000
 50
41.8470
 51
104.5490
  0
ARC
  8
0_00
  6
CONTINUOUS
 62
4
 10
189.3725
 20
543.7587
 40
1.0000
 50
180.4000
 51
284.5490
  0
ARC
  8
0_00
  6
CONTINUOUS
 62
4
 10
192.1417
 20
540.8707
 40
1.3000
 50
330.4000
 51
401.8470
  0
ARC
  8
0_00
  6
CONTINUOUS
 62
4
 10
190.5029
 20
539.4029
 40
1.7500
 50
10.5841
 51
35.0231
  0
ARC
  8
0_00
  6
CONTINUOUS
 62
4
 10
190.5029
 20
539.4029
 40
1.7500
 50
175.7769
 51
215.0231
  0
ARC
  8
0_00
  6
CONTINUOUS
 62
4
 10
190.5029
 20
539.4029
 40
1.7500
 50
85.7769
 51
125.0231
  0
ARC
  8
0_00
  6
CONTINUOUS
 62
4
 10
192.5926
 20
539.7934
 40
0.3759
 50
190.5841
 51
330.4000
  0
ARC
  8
0_00
  6
CONTINUOUS
 62
4
 10
190.0814
 20
537.2437
 40
1.3000
 50
267.6053
 51
330.4000
  0
ARC
  8
0_00
  6
CONTINUOUS
 62
4
 10
190.5029
 20
539.4029
 40
1.7500
 50
265.7769
 51
290.2159
  0
ARC
  8
0_00
  6
CONTINUOUS
 62
4
 10
191.2375
 20
537.4080
 40
0.3759
 50
330.4000
 51
470.2159
  0
ARC
  8
0_00
  6
CONTINUOUS
 62
4
 10
207.0871
 20
568.4008
 40
10.5000
 50
90.0000
 51
98.7462
  0
ARC
  8
0_00
  6
CONTINUOUS
 62
4
 10
192.7841
 20
570.7533
 40
6.0000
 50
98.7462
 51
180.4000
  0
ARC
  8
0_00
  6
CONTINUOUS
 62
4
 10
207.0871
 20
568.4008
 40
9.0000
 50
90.0000
 51
98.7462
  0
ARC
  8
0_00
  6
CONTINUOUS
 62
4
 10
192.6842
 20
570.7379
 40
4.5000
 50
98.7462
 51
180.4000
  0
ARC
  8
0_00
  6
CONTINUOUS
 62
4
 10
331.4811
 20
568.4008
 40
10.5000
 50
81.2538
 51
90.0000
  0
ARC
  8
0_00
  6
CONTINUOUS
 62
4
 10
331.4811
 20
568.4008
 40
9.0000
 50
81.2538
 51
90.0000
  0
ARC
  8
0_00
  6
CONTINUOUS
 62
4
 10
345.7841
 20
570.7533
 40
6.0000
 50
359.6000
 51
441.2538
  0
ARC
  8
0_00
  6
CONTINUOUS
 62
4
 10
345.8840
 20
570.7379
 40
4.5000
 50
359.6000
 51
441.2538
  0
ARC
  8
0_00
  6
CONTINUOUS
 62
4
 10
191.2566
 20
524.5588
 40
0.6500
 50
270.4000
 51
450.4000
  0
ARC
  8
14_0E
  6
CONTINUOUS
 62
4
 10
190.3006
 20
525.4022
 40
1.5000
 50
180.4000
 51
270.4000
  0
ARC
  8
0_00
  6
CONTINUOUS
 62
4
 10
351.8374
 20
535.4003
 40
2.0000
 50
133.3021
 51
179.6000
  0
ARC
  8
0_00
  6
CONTINUOUS
 62
4
 10
348.0653
 20
539.4029
 40
3.5000
 50
313.3021
 51
359.6000
  0
ARC
  8
0_00
  6
CONTINUOUS
 62
4
 10
348.0653
 20
539.4029
 40
3.5000
 50
75.4510
 51
138.1530
  0
ARC
  8
0_00
  6
CONTINUOUS
 62
4
 10
349.1957
 20
543.7587
 40
1.0000
 50
255.4510
 51
359.6000
  0
ARC
  8
0_00
  6
CONTINUOUS
 62
4
 10
346.4264
 20
540.8707
 40
1.3000
 50
138.1530
 51
209.6000
  0
ARC
  8
0_00
  6
CONTINUOUS
 62
4
 10
348.0653
 20
539.4029
 40
1.7500
 50
144.9769
 51
169.4159
  0
ARC
  8
0_00
  6
CONTINUOUS
 62
4
 10
348.0653
 20
539.4029
 40
1.7500
 50
324.9769
 51
364.2231
  0
ARC
  8
0_00
  6
CONTINUOUS
 62
4
 10
348.0653
 20
539.4029
 40
1.7500
 50
54.9769
 51
94.2231
  0
ARC
  8
0_00
  6
CONTINUOUS
 62
4
 10
345.9755
 20
539.7934
 40
0.3759
 50
209.6000
 51
349.4159
  0
ARC
  8
0_00
  6
CONTINUOUS
 62
4
 10
348.4869
 20
537.2437
 40
1.3000
 50
209.6000
 51
272.3947
  0
ARC
  8
0_00
  6
CONTINUOUS
 62
4
 10
348.0653
 20
539.4029
 40
1.7500
 50
249.7841
 51
274.2231
  0
ARC
  8
0_00
  6
CONTINUOUS
 62
4
 10
347.3306
 20
537.4080
 40
0.3759
 50
69.7841
 51
209.6000
  0
ARC
  8
0_00
  6
CONTINUOUS
 62
4
 10
347.3116
 20
524.5588
 40
0.6500
 50
89.6000
 51
269.6000
  0
ARC
  8
14_0E
  6
CONTINUOUS
 62
4
 10
348.2676
 20
525.4022
 40
1.5000
 50
269.6000
 51
359.6000
  0
ARC
  8
0_00
  6
CONTINUOUS
 62
4
 10
189.3157
 20
551.8949
 40
1.0000
 50
180.4000
 51
270.4000
  0
ARC
  8
0_00
  6
CONTINUOUS
 62
4
 10
189.3394
 20
548.4950
 40
1.0000
 50
90.4000
 51
180.4000
  0
ARC
  8
0_00
  6
CONTINUOUS
 62
4
 10
190.6275
 20
550.2041
 40
0.7000
 50
270.4000
 51
450.4000
  0
ARC
  8
0_00
  6
CONTINUOUS
 62
4
 10
349.2526
 20
551.8949
 40
1.0000
 50
269.6000
 51
359.6000
  0
ARC
  8
0_00
  6
CONTINUOUS
 62
4
 10
349.2288
 20
548.4950
 40
1.0000
 50
359.6000
 51
449.6000
  0
ARC
  8
0_00
  6
CONTINUOUS
 62
4
 10
347.9407
 20
550.2041
 40
0.7000
 50
89.6000
 51
269.6000
  0
TEXT
  8
15_0F
 62
7
 10
201.1241
 20
100.7827
 40
7.50
 41
1.00
 50
0.0000
  1
１）Ｌ、ＬＣは発注寸法とする。
  0
TEXT
  8
15_0F
 62
7
 10
201.1241
 20
85.7827
 40
7.50
 41
1.00
 50
0.0000
  1
　　（躯体寸法発注の場合、Ｌは標準割付寸法、ＬＣは標準寸法とする。）
  0
TEXT
  8
15_0F
 62
7
 10
704.3110
 20
74.7000
 40
7.50
 41
1.00
 50
0.0000
  1
納まり図
  0
TEXT
  8
15_0F
 62
7
 10
576.0610
 20
71.7000
 40
7.50
 41
1.00
 50
0.0000
  1
手すり付笠木
  0
TEXT
  8
15_0F
 62
7
 10
511.7110
 20
41.7000
 40
7.50
 41
1.00
 50
0.0000
  1
木造
  0
TEXT
  8
15_0F
 62
7
 10
511.7110
 20
71.7000
 40
7.50
 41
1.00
 50
0.0000
  1
低層
  0
TEXT
  8
15_0F
 62
7
 10
552.1879
 20
42.8739
 40
6.00
 41
1.00
 50
0.0000
  1
ＫＡＭ、ＤＡＭ、ＭＡＭ型
  0
TEXT
  8
15_0F
 62
7
 10
824.1611
 20
70.2000
 40
7.50
 41
1.00
 50
0.0000
  1
１
  0
TEXT
  8
15_0F
 62
7
 10
852.6611
 20
70.2000
 40
7.50
 41
1.00
 50
0.0000
  1
３
  0
TEXT
  8
0_00
 62
7
 10
1099.6466
 20
182.5918
 40
7.50
 41
1.00
 50
0.0000
  1
笠木カバー芯
  0
TEXT
  8
0_00
 62
7
 10
273.2747
 20
664.6309
 40
7.50
 41
1.00
 50
0.0000
  1
デザイン柱
  0
TEXT
  8
0_00
 62
7
 10
159.0310
 20
627.9476
 40
7.50
 41
1.00
 50
0.0000
  1
丸さら小ねじ
  0
TEXT
  8
0_00
 62
7
 10
162.4773
 20
613.9086
 40
7.50
 41
1.00
 50
0.0000
  1
Ｍ６×１６
  0
TEXT
  8
0_00
 62
7
 10
149.5672
 20
602.2579
 40
7.50
 41
1.00
 50
0.0000
  1
下穴コーキング処理
  0
TEXT
  8
15_0F
 62
7
 10
701.8089
 20
792.4795
 40
7.50
 41
1.00
 50
0.0000
  1
２２０≦ＬＣ［２５０］≦４５５
  0
TEXT
  8
15_0F
 62
7
 10
850.0290
 20
792.4795
 40
7.50
 41
1.00
 50
0.0000
  1
Ｌ
  0
TEXT
  8
15_0F
 62
7
 10
972.6291
 20
792.4795
 40
7.50
 41
1.00
 50
0.0000
  1
１７５≦Ｌ≦１３６５
  0
TEXT
  8
15_0F
 62
7
 10
1123.2914
 20
792.4795
 40
7.50
 41
1.00
 50
0.0000
  1
Ｌ
  0
TEXT
  8
0_00
 62
2
 10
104.2841
 20
800.0786
 40
12.00
 41
1.00
 50
0.0000
  1
屋外側
  0
TEXT
  8
0_00
 62
2
 10
285.4841
 20
800.0786
 40
12.00
 41
1.00
 50
0.0000
  1
建物側
  0
TEXT
  8
15_0F
 62
7
 10
178.1147
 20
816.1847
 40
7.50
 41
1.00
 50
0.0000
  1
［ＫＡＭ型］
  0
TEXT
  8
15_0F
 62
7
 10
388.1147
 20
816.1847
 40
7.50
 41
1.00
 50
0.0000
  1
［DＡＭ型］
  0
TEXT
  8
0_00
 62
7
 10
248.0973
 20
755.5255
 40
7.50
 41
1.00
 50
0.0000
  1
Ｋ型笠木カバー
  0
TEXT
  8
0_00
 62
7
 10
453.0045
 20
742.5022
 40
7.50
 41
1.00
 50
0.0000
  1
Ｄ型笠木カバー
  0
TEXT
  8
0_00
 62
7
 10
201.4426
 20
247.4244
 40
7.50
 41
1.00
 50
0.0000
  1
デザイン柱
  0
TEXT
  8
15_0F
 62
7
 10
663.8385
 20
53.3556
 40
7.50
 41
1.00
 50
0.0000
  1
トップレール手すり［直線部］納まり図
  0
TEXT
  8
15_0F
 62
7
 10
696.2385
 20
41.3556
 40
7.50
 41
1.00
 50
0.0000
  1
（外向デザイン柱）
  0
TEXT
  8
0_00
 62
7
 10
374.0811
 20
589.3747
 40
7.50
 41
1.00
 50
0.0000
  1
ブラケット
  0
TEXT
  8
15_0F
 62
7
 10
921.3946
 20
737.2417
 40
7.50
 41
1.00
 50
0.0000
  1
Ａ
  0
TEXT
  8
15_0F
 62
7
 10
1121.0244
 20
658.0197
 40
7.50
 41
1.00
 50
0.0000
  1
Ｂ
  0
TEXT
  8
15_0F
 62
7
 10
921.3946
 20
672.7457
 40
7.50
 41
1.00
 50
0.0000
  1
Ａ
  0
TEXT
  8
15_0F
 62
7
 10
891.6925
 20
658.0197
 40
7.50
 41
1.00
 50
0.0000
  1
Ｂ
  0
TEXT
  8
15_0F
 62
7
 10
584.2355
 20
816.1847
 40
7.50
 41
1.00
 50
0.0000
  1
［ＭＡＭ型］
  0
TEXT
  8
0_00
 62
7
 10
649.1253
 20
742.5022
 40
7.50
 41
1.00
 50
0.0000
  1
Ｍ型笠木カバー
  0
TEXT
  8
0_00
 62
7
 10
317.4590
 20
591.7747
 40
7.50
 41
1.00
 50
0.0000
  1
笠木
  0
TEXT
  8
15_0F
 62
7
 10
201.0905
 20
70.2001
 40
7.50
 41
1.00
 50
0.0000
  1
２）［　］内寸法は標準寸法とする。
  0
TEXT
  8
15_0F
 62
7
 10
90.5796
 20
454.6447
 40
7.50
 41
1.00
 50
0.0000
  1
下穴コーキング処理
  0
TEXT
  8
15_0F
 62
7
 10
100.8568
 20
494.6825
 40
7.50
 41
1.00
 50
0.0000
  1
タッピンねじ・トラス
  0
TEXT
  8
15_0F
 62
7
 10
102.3502
 20
482.0563
 40
7.50
 41
1.00
 50
0.0000
  1
φ５×５０（１種）
  0
TEXT
  8
15_0F
 62
7
 10
87.0862
 20
467.2710
 40
7.50
 41
1.00
 50
0.0000
  1
下穴（φ３）現場加工
  0
TEXT
  8
13_0D
 62
7
 10
193.6841
 20
390.9796
 40
7.50
 41
1.00
 50
0.0000
  1
Ａ（笠木幅）＝１５０、１６５、１８０、　　
  0
TEXT
  8
13_0D
 62
7
 10
204.4841
 20
378.9795
 40
6.75
 41
0.75
 50
0.0000
  1
           １９５、２１０
  0
TEXT
  8
13_0D
 62
7
 10
158.8841
 20
430.9795
 40
6.75
 41
0.75
 50
0.0000
  1
10
  0
TEXT
  8
13_0D
 62
7
 10
194.4341
 20
418.9796
 40
6.75
 41
0.75
 50
0.0000
  1
n
  0
TEXT
  8
13_0D
 62
7
 10
215.2841
 20
430.9795
 40
7.50
 41
1.00
 50
0.0000
  1
躯体寸法（推奨寸法：Ａ－３０）
  0
TEXT
  8
13_0D
 62
7
 10
336.9341
 20
418.9796
 40
6.75
 41
0.75
 50
0.0000
  1
n
  0
TEXT
  8
13_0D
 62
7
 10
365.2841
 20
430.9795
 40
6.75
 41
0.75
 50
0.0000
  1
10
  0
TEXT
  8
13_0D
 62
7
 10
215.2841
 20
418.9796
 40
7.50
 41
1.00
 50
0.0000
  1
　　　　（最大寸法：Ａ－２０）
  0
TEXT
  8
0_00
 62
7
 10
702.8275
 20
335.2666
 40
7.50
 41
1.00
 50
0.0000
  1
ＡＭベース
  0
TEXT
  8
15_0F
 62
7
 10
622.9302
 20
436.5023
 40
6.75
 41
0.75
 50
0.0000
  1
60
  0
TEXT
  8
15_0F
 62
7
 10
498.6263
 20
281.0308
 40
6.75
 41
0.75
 50
90.0000
  1
56
  0
TEXT
  8
15_0F
 62
7
 10
1094.6386
 20
282.3646
 40
6.75
 41
0.75
 50
90.0000
  1
47
  0
TEXT
  8
15_0F
 62
7
 10
758.0703
 20
486.5023
 40
7.50
 41
1.00
 50
0.0000
  1
１７５≦Ｌ（柱スパン寸法）≦１３６５
  0
TEXT
  8
15_0F
 62
7
 10
1085.9603
 20
529.7059
 40
7.50
 41
1.00
 50
0.0000
  1
外観姿図（１：２０）
  0
TEXT
  8
0_00
 62
7
 10
192.0841
 20
772.0779
 40
6.75
 41
0.75
 50
0.0000
  1
60
  0
TEXT
  8
0_00
 62
7
 10
70.2905
 20
40.2001
 40
7.50
 41
1.00
 50
0.0000
  1
適用製品
  0
TEXT
  8
0_00
 62
7
 10
130.2905
 20
40.2001
 40
7.50
 41
1.00
 50
0.0000
  1
適用日付
  0
TEXT
  8
0_00
 62
7
 10
178.5905
 20
100.2001
 40
7.50
 41
1.00
 50
0.0000
  1
記事
  0
TEXT
  8
0_00
 62
7
 10
472.5611
 20
85.2001
 40
7.50
 41
1.00
 50
0.0000
  1
階層仕様
  0
TEXT
  8
0_00
 62
7
 10
472.5611
 20
55.2000
 40
7.50
 41
1.00
 50
0.0000
  1
適用躯体
  0
TEXT
  8
0_00
 62
7
 10
630.0610
 20
85.2001
 40
7.50
 41
1.00
 50
0.0000
  1
名　称
  0
TEXT
  8
0_00
 62
7
 10
630.0610
 20
55.2000
 40
7.50
 41
1.00
 50
0.0000
  1
図　名
  0
TEXT
  8
0_00
 62
7
 10
814.9368
 20
100.2458
 40
7.50
 41
1.00
 50
0.0000
  1
Ｎｏ．
  0
TEXT
  8
0_00
 62
7
 10
1123.5610
 20
100.2001
 40
7.50
 41
1.00
 50
0.0000
  1
適　　　　　　　　用
  0
TEXT
  8
0_00
 62
7
 10
1078.4111
 20
100.2001
 40
7.50
 41
1.00
 50
0.0000
  1
個数
  0
TEXT
  8
0_00
 62
7
 10
1023.2110
 20
100.2001
 40
7.50
 41
1.00
 50
0.0000
  1
材　　質
  0
TEXT
  8
0_00
 62
7
 10
926.1610
 20
100.2001
 40
7.50
 41
1.00
 50
0.0000
  1
部　　　品　　　名
  0
TEXT
  8
0_00
 62
7
 10
895.9360
 20
100.2001
 40
7.50
 41
1.00
 50
0.0000
  1
品番
  0
TEXT
  8
0_00
 62
7
 10
850.8611
 20
100.2001
 40
7.50
 41
1.00
 50
0.0000
  1
図　　番
  0
TEXT
  8
0_00
 62
7
 10
816.6610
 20
85.2001
 40
7.50
 41
1.00
 50
0.0000
  1
尺度
  0
TEXT
  8
0_00
 62
7
 10
816.6610
 20
55.2000
 40
7.50
 41
1.00
 50
0.0000
  1
日付
  0
TEXT
  8
0_00
 62
7
 10
928.3942
 20
85.2001
 40
7.50
 41
1.00
 50
0.0000
  1
承認
  0
TEXT
  8
0_00
 62
7
 10
970.5611
 20
85.2001
 40
7.50
 41
1.00
 50
0.0000
  1
検図
  0
TEXT
  8
0_00
 62
7
 10
1006.8610
 20
85.2001
 40
7.50
 41
1.00
 50
0.0000
  1
設計
  0
TEXT
  8
0_00
 62
7
 10
1044.2110
 20
85.2001
 40
7.50
 41
1.00
 50
0.0000
  1
製図
  0
TEXT
  8
0_00
 62
7
 10
1074.5110
 20
55.2000
 40
7.50
 41
1.00
 50
0.0000
  1
図番
  0
TEXT
  8
0_00
 62
2
 10
1103.9219
 20
74.2350
 40
12.00
 41
1.00
 50
0.0000
  1
文化シヤッター株式会社
  0
TEXT
  8
0_00
 62
7
 10
200.7905
 20
862.9501
 40
7.50
 41
1.00
 50
180.0000
  1
図番
  0
TEXT
  8
0_00
 62
7
 10
799.0510
 20
854.0169
 40
6.00
 41
1.00
 50
0.0000
  1
ＮＯ
  0
TEXT
  8
0_00
 62
7
 10
825.2111
 20
853.9501
 40
7.50
 41
1.00
 50
0.0000
  1
個　数
  0
TEXT
  8
0_00
 62
7
 10
870.3611
 20
853.9501
 40
7.50
 41
1.00
 50
0.0000
  1
日　　付
  0
TEXT
  8
0_00
 62
7
 10
984.2111
 20
853.9501
 40
7.50
 41
1.00
 50
0.0000
  1
訂　　　正　　　記　　　事
  0
TEXT
  8
0_00
 62
7
 10
838.4111
 20
70.2000
 40
6.75
 41
0.75
 50
0.0000
  1
:
  0
TEXT
  8
0_00
 62
7
 10
1137.8712
 20
26.7000
 40
6.00
 41
1.00
 50
0.0000
  1
ＪＩＳ　Ａ－３
  0
TEXT
  8
0_00
 62
7
 10
1179.4986
 20
26.6983
 40
6.00
 41
1.00
 50
0.0000
  1
（２９７×４２０）
  0
TEXT
  8
0_00
 62
7
 10
1153.1111
 20
853.9501
 40
7.50
 41
1.00
 50
0.0000
  1
担　当
  0
TEXT
  8
0_00
 62
7
 10
1189.1111
 20
853.9501
 40
7.50
 41
1.00
 50
0.0000
  1
承　認
  0
TEXT
  8
0_00
 62
7
 10
551.3111
 20
85.2001
 40
7.50
 41
1.00
 50
0.0000
  1
機種名
  0
TEXT
  8
0_00
 62
7
 10
551.3111
 20
55.2000
 40
7.50
 41
1.00
 50
0.0000
  1
型　式
  0
TEXT
  8
0_00
 62
7
 10
1124.6778
 20
246.6146
 40
6.75
 41
0.75
 50
90.0000
  1
70
  0
TEXT
  8
0_00
 62
7
 10
622.1803
 20
411.3490
 40
6.75
 41
0.75
 50
0.0000
  1
41
  0
TEXT
  8
0_00
 62
7
 10
227.0841
 20
792.0779
 40
6.75
 41
0.75
 50
0.0000
  1
70
  0
TEXT
  8
0_00
 62
7
 10
482.9249
 20
703.9021
 40
6.75
 41
0.75
 50
90.0000
  1
37
  0
TEXT
  8
0_00
 62
7
 10
346.8586
 20
634.6796
 40
7.50
 41
1.00
 50
90.0000
  1
Ｈ＝１５０
  0
TEXT
  8
0_00
 62
7
 10
402.8984
 20
772.0779
 40
6.75
 41
0.75
 50
0.0000
  1
80
  0
TEXT
  8
0_00
 62
7
 10
976.2103
 20
458.6250
 40
6.75
 41
0.75
 50
0.0000
  1
32
  0
TEXT
  8
0_00
 62
7
 10
1194.5440
 20
710.5226
 40
6.75
 41
0.75
 50
90.0000
  1
H
  0
TEXT
  8
0_00
 62
7
 10
111.9244
 20
708.7008
 40
6.75
 41
0.75
 50
90.0000
  1
47
  0
TEXT
  8
15_0F
 62
7
 10
503.0451
 20
152.2623
 40
7.50
 41
1.00
 50
0.0000
  1
Ｂ－Ｂ矢視図
  0
TEXT
  8
15_0F
 62
7
 10
107.7451
 20
361.8319
 40
7.50
 41
1.00
 50
0.0000
  1
Ａ－Ａ矢視図
  0
TEXT
  8
0_00
 62
7
 10
542.9793
 20
634.4236
 40
7.50
 41
1.00
 50
90.0000
  1
Ｈ＝１５０
  0
TEXT
  8
15_0F
 62
7
 10
147.7451
 20
141.8318
 40
7.50
 41
1.00
 50
0.0000
  1
デザイン柱内観図
  0
TEXT
  8
0_00
 62
7
 10
704.7290
 20
772.4795
 40
6.75
 41
0.75
 50
0.0000
  1
70
  0
TEXT
  8
13_0D
 62
7
 10
93.4244
 20
536.0008
 40
6.75
 41
0.75
 50
90.0000
  1
15
  0
TEXT
  8
13_0D
 62
7
 10
93.4244
 20
587.1508
 40
7.50
 41
1.00
 50
90.0000
  1
Ｈ（トップレール手すり高さ寸法）＝１６０
  0
TEXT
  8
13_0D
 62
7
 10
113.4244
 20
542.5974
 40
6.75
 41
0.75
 50
90.0000
  1
55
  0
TEXT
  8
0_00
 62
7
 10
262.0841
 20
452.4795
 40
6.75
 41
0.75
 50
0.0000
  1
56
  0
TEXT
  8
13_0D
 62
7
 10
623.3968
 20
457.1249
 40
6.75
 41
0.75
 50
0.0000
  1
91
  0
TEXT
  8
13_0D
 62
7
 10
594.6048
 20
770.5779
 40
6.75
 41
0.75
 50
0.0000
  1
φ58
  0
POINT
  8
0_00
 62
4
 10
245.7841
 20
589.4008
  0
POINT
  8
0_00
 62
4
 10
245.7841
 20
589.4008
  0
POINT
  8
0_00
 62
4
 10
245.7841
 20
589.4008
  0
POINT
  8
0_00
 62
5
 10
0.0000
 20
0.0000
  0
POINT
  8
0_00
 62
5
 10
733.6682
 20
24.5135
  0
POINT
  8
0_00
 62
4
 10
269.2841
 20
579.4008
  0
POINT
  8
13_0D
 62
6
 10
196.7841
 20
429.4796
  0
POINT
  8
13_0D
 62
6
 10
341.7841
 20
429.4796
  0
POINT
  8
13_0D
 62
6
 10
341.7841
 20
429.4796
  0
POINT
  8
0_00
 62
2
 10
332.2841
 20
578.9008
  0
POINT
  8
0_00
 62
2
 10
206.2841
 20
578.9008
  0
POINT
  8
0_00
 62
4
 10
199.2841
 20
693.9008
  0
POINT
  8
0_00
 62
2
 10
24.0905
 20
14.9991
  0
POINT
  8
0_00
 62
2
 10
24.0905
 20
14.9991
  0
POINT
  8
0_00
 62
2
 10
84.6905
 20
59.7001
  0
POINT
  8
0_00
 62
2
 10
84.6905
 20
74.7001
  0
POINT
  8
0_00
 62
2
 10
84.6905
 20
89.7001
  0
POINT
  8
0_00
 62
2
 10
84.6905
 20
104.7001
  0
POINT
  8
0_00
 62
2
 10
518.9110
 20
76.2000
  0
POINT
  8
0_00
 62
2
 10
518.9110
 20
46.2000
  0
POINT
  8
0_00
 62
2
 10
718.7110
 20
79.2000
  0
POINT
  8
0_00
 62
2
 10
718.7110
 20
49.2000
  0
POINT
  8
0_00
 62
2
 10
1097.7610
 20
52.2000
  0
POINT
  8
0_00
 62
2
 10
1014.0610
 20
59.7001
  0
POINT
  8
0_00
 62
2
 10
144.6905
 20
59.7001
  0
POINT
  8
0_00
 62
2
 10
144.6905
 20
74.7001
  0
POINT
  8
0_00
 62
2
 10
144.6905
 20
89.7001
  0
POINT
  8
0_00
 62
2
 10
144.6905
 20
104.7001
  0
POINT
  8
0_00
 62
2
 10
856.2610
 20
74.7000
  0
POINT
  8
0_00
 62
2
 10
827.7610
 20
74.7000
  0
POINT
  8
0_00
 62
2
 10
204.6905
 20
104.7001
  0
POINT
  8
0_00
 62
2
 10
204.6905
 20
89.7001
  0
POINT
  8
0_00
 62
2
 10
204.6905
 20
74.7001
  0
POINT
  8
0_00
 62
2
 10
204.6905
 20
59.7001
  0
POINT
  8
0_00
 62
2
 10
204.6905
 20
44.7001
  0
POINT
  8
0_00
 62
2
 10
1051.4110
 20
59.7001
  0
POINT
  8
0_00
 62
2
 10
84.6905
 20
44.7001
  0
POINT
  8
0_00
 62
2
 10
144.6905
 20
44.7001
  0
POINT
  8
0_00
 62
2
 10
174.6905
 20
858.4501
  0
POINT
  8
0_00
 62
2
 10
862.6360
 20
49.2000
  0
POINT
  8
0_00
 62
2
 10
597.6610
 20
76.2000
  0
POINT
  8
0_00
 62
2
 10
597.6610
 20
46.2000
  0
POINT
  8
0_00
 62
5
 10
269.2841
 20
563.9008
  0
ENDSEC
  0
EOF
