999
  
  0
SECTION
  2
HEADER
  9
$EXTMIN
 10
0
 20
0
  9
$EXTMAX
 10
1260
 20
888
  9
$LTSCALE
 40
3.00
  9
$PDMODE
 70
33
  9
$PDSIZE
 40
1.80
  0
ENDSEC
  0
SECTION
  2
TABLES
  0
TABLE
  2
LTYPE
 70
9
  0
LTYPE
  2
CONTINUOUS
 70
64
  3
実線
 72
65
 73
0
 40
0.00
  0
LTYPE
  2
DASHED
 70
64
  3
__  __  __  __  __  __  __ 
 72
65
 73
2
 40
1.00
 49
0.50
 49
-0.50
  0
LTYPE
  2
HIDDEN1
 70
64
  3
____    ____    ____    ___
 72
65
 73
2
 40
2.20
 49
1.20
 49
-1.00
  0
LTYPE
  2
HIDDEN2
 70
64
  3
______  ______  ______  ___
 72
65
 73
2
 40
4.50
 49
3.50
 49
-1.00
  0
LTYPE
  2
CENTER1
 70
64
  3
_______ _ _______ _ _______
 72
65
 73
4
 40
20.00
 49
17.00
 49
-1.00
 49
1.00
 49
-1.00
  0
LTYPE
  2
CENTER2
 70
64
  3
___________  __  __________
 72
65
 73
4
 40
40.00
 49
34.00
 49
-2.00
 49
2.00
 49
-2.00
  0
LTYPE
  2
PHANTOM1
 70
64
  3
______ _ _ ______ _ _ _____
 72
65
 73
6
 40
20.00
 49
15.00
 49
-1.00
 49
1.00
 49
-1.00
 49
1.00
 49
-1.00
  0
LTYPE
  2
PHANTOM2
 70
64
  3
__________  _  _  _________
 72
65
 73
6
 40
40.00
 49
30.00
 49
-2.00
 49
2.00
 49
-2.00
 49
2.00
 49
-2.00
  0
LTYPE
  2
DOT
 70
64
  3
 .  .  .  .  .  .  .  .  . 
 72
65
 73
2
 40
1.00
 49
0.00
 49
-1.00
  0
ENDTAB
  0
TABLE
  2
STYLE
 70
1
  0
STYLE
  2
STANDARD
 70
64
 40
0.0
 41
1.0
 42
0.0
 50
0.0
 71
0
  3
ROMANS
  4
BIGFONT
  0
ENDTAB
  0
TABLE
  2
LAYER
 70
8
  0
LAYER
  2
0_00
 70
64
 62
7
  6
CONTINUOUS
  0
LAYER
  2
3_03
 70
64
 62
7
  6
CONTINUOUS
  0
LAYER
  2
5_05
 70
64
 62
7
  6
CONTINUOUS
  0
LAYER
  2
12_0C
 70
64
 62
7
  6
CONTINUOUS
  0
LAYER
  2
13_0D
 70
64
 62
7
  6
CONTINUOUS
  0
LAYER
  2
14_0E
 70
64
 62
7
  6
CONTINUOUS
  0
LAYER
  2
15_0F
 70
64
 62
7
  6
CONTINUOUS
  0
LAYER
  2
16_10
 70
64
 62
7
  6
CONTINUOUS
  0
ENDTAB
  0
ENDSEC
  0
SECTION
  2
ENTITIES
  0
LINE
  8
0_00
  6
CENTER1
 62
6
 10
277.2841
 20
485.6515
 11
277.2841
 21
420.5828
  0
LINE
  8
0_00
  6
CENTER1
 62
6
 10
221.2841
 20
485.6515
 11
221.2841
 21
420.5828
  0
LINE
  8
0_00
  6
CENTER1
 62
6
 10
249.2841
 20
612.2599
 11
249.2841
 21
379.1646
  0
LINE
  8
0_00
  6
CENTER1
 62
6
 10
197.2841
 20
700.5324
 11
197.2841
 21
678.2528
  0
LINE
  8
0_00
  6
CENTER1
 62
6
 10
161.2841
 20
700.2539
 11
161.2841
 21
678.6242
  0
LINE
  8
0_00
  6
CENTER1
 62
6
 10
179.2841
 20
763.8085
 11
179.2841
 21
659.3047
  0
LINE
  8
0_00
  6
CENTER1
 62
6
 10
235.7841
 20
563.5779
 11
235.7841
 21
594.1607
  0
LINE
  8
0_00
  6
CENTER1
 62
6
 10
262.7841
 20
563.5779
 11
262.7841
 21
594.1607
  0
LINE
  8
0_00
  6
CENTER1
 62
6
 10
655.8980
 20
289.5646
 11
1138.7723
 21
289.5646
  0
LINE
  8
0_00
  6
CENTER1
 62
6
 10
770.1302
 20
380.8623
 11
770.1302
 21
194.9979
  0
LINE
  8
0_00
  6
CONTINUOUS
 62
2
 10
935.0349
 20
391.1254
 11
909.0176
 21
294.0275
  0
LINE
  8
0_00
  6
CONTINUOUS
 62
2
 10
930.6882
 20
392.2901
 11
903.5063
 21
290.8455
  0
LINE
  8
0_00
  6
CONTINUOUS
 62
2
 10
927.3944
 20
284.4447
 11
901.5702
 21
188.0674
  0
LINE
  8
0_00
  6
CONTINUOUS
 62
2
 10
905.9169
 20
186.9026
 11
932.9058
 21
287.6267
  0
LINE
  8
0_00
  6
CONTINUOUS
 62
2
 10
909.0176
 20
294.0275
 11
932.9058
 21
287.6267
  0
LINE
  8
0_00
  6
CONTINUOUS
 62
2
 10
927.3944
 20
284.4447
 11
903.5063
 21
290.8455
  0
LINE
  8
0_00
  6
CENTER1
 62
6
 10
1075.6103
 20
325.2839
 11
1075.6103
 21
253.2625
  0
LINE
  8
0_00
  6
CENTER1
 62
6
 10
1063.9156
 20
303.0646
 11
1087.1733
 21
303.0646
  0
LINE
  8
0_00
  6
CENTER1
 62
6
 10
1063.9156
 20
276.0646
 11
1087.1733
 21
276.0646
  0
LINE
  8
0_00
  6
CONTINUOUS
 62
2
 10
1074.3344
 20
305.1545
 11
1075.2034
 21
304.3158
  0
LINE
  8
0_00
  6
CONTINUOUS
 62
2
 10
1075.2034
 20
304.3158
 11
1075.6103
 21
304.1673
  0
LINE
  8
0_00
  6
CONTINUOUS
 62
2
 10
1075.6103
 20
304.1673
 11
1075.9953
 21
304.3076
  0
LINE
  8
0_00
  6
CONTINUOUS
 62
2
 10
1075.9953
 20
304.3076
 11
1076.8918
 21
305.1518
  0
LINE
  8
0_00
  6
CONTINUOUS
 62
2
 10
1073.5205
 20
304.3406
 11
1074.3591
 21
303.4716
  0
LINE
  8
0_00
  6
CONTINUOUS
 62
2
 10
1074.3591
 20
303.4716
 11
1074.5078
 21
303.0646
  0
LINE
  8
0_00
  6
CONTINUOUS
 62
2
 10
1074.5078
 20
303.0646
 11
1074.3674
 21
302.6797
  0
LINE
  8
0_00
  6
CONTINUOUS
 62
2
 10
1074.3674
 20
302.6797
 11
1073.5232
 21
301.7832
  0
LINE
  8
0_00
  6
CONTINUOUS
 62
2
 10
1077.7002
 20
301.7887
 11
1076.8616
 21
302.6577
  0
LINE
  8
0_00
  6
CONTINUOUS
 62
2
 10
1076.8616
 20
302.6577
 11
1076.7130
 21
303.0646
  0
LINE
  8
0_00
  6
CONTINUOUS
 62
2
 10
1076.7130
 20
303.0646
 11
1076.8533
 21
303.4496
  0
LINE
  8
0_00
  6
CONTINUOUS
 62
2
 10
1076.8533
 20
303.4496
 11
1077.6975
 21
304.3461
  0
LINE
  8
0_00
  6
CONTINUOUS
 62
2
 10
1076.8863
 20
300.9747
 11
1076.0173
 21
301.8135
  0
LINE
  8
0_00
  6
CONTINUOUS
 62
2
 10
1076.0173
 20
301.8135
 11
1075.6103
 21
301.9619
  0
LINE
  8
0_00
  6
CONTINUOUS
 62
2
 10
1075.6103
 20
301.9619
 11
1075.2253
 21
301.8217
  0
LINE
  8
0_00
  6
CONTINUOUS
 62
2
 10
1075.2253
 20
301.8217
 11
1074.3289
 21
300.9775
  0
LINE
  8
0_00
  6
CONTINUOUS
 62
2
 10
1074.3344
 20
278.1545
 11
1075.2034
 21
277.3158
  0
LINE
  8
0_00
  6
CONTINUOUS
 62
2
 10
1075.2034
 20
277.3158
 11
1075.6103
 21
277.1673
  0
LINE
  8
0_00
  6
CONTINUOUS
 62
2
 10
1075.6103
 20
277.1673
 11
1075.9953
 21
277.3076
  0
LINE
  8
0_00
  6
CONTINUOUS
 62
2
 10
1075.9953
 20
277.3076
 11
1076.8918
 21
278.1518
  0
LINE
  8
0_00
  6
CONTINUOUS
 62
2
 10
1073.5205
 20
277.3406
 11
1074.3591
 21
276.4716
  0
LINE
  8
0_00
  6
CONTINUOUS
 62
2
 10
1074.3591
 20
276.4716
 11
1074.5078
 21
276.0646
  0
LINE
  8
0_00
  6
CONTINUOUS
 62
2
 10
1074.5078
 20
276.0646
 11
1074.3674
 21
275.6797
  0
LINE
  8
0_00
  6
CONTINUOUS
 62
2
 10
1074.3674
 20
275.6797
 11
1073.5232
 21
274.7832
  0
LINE
  8
0_00
  6
CONTINUOUS
 62
2
 10
1077.7002
 20
274.7887
 11
1076.8616
 21
275.6577
  0
LINE
  8
0_00
  6
CONTINUOUS
 62
2
 10
1076.8616
 20
275.6577
 11
1076.7130
 21
276.0646
  0
LINE
  8
0_00
  6
CONTINUOUS
 62
2
 10
1076.7130
 20
276.0646
 11
1076.8533
 21
276.4496
  0
LINE
  8
0_00
  6
CONTINUOUS
 62
2
 10
1076.8533
 20
276.4496
 11
1077.6975
 21
277.3461
  0
LINE
  8
0_00
  6
CONTINUOUS
 62
2
 10
1076.8863
 20
273.9747
 11
1076.0173
 21
274.8134
  0
LINE
  8
0_00
  6
CONTINUOUS
 62
2
 10
1076.0173
 20
274.8134
 11
1075.6103
 21
274.9619
  0
LINE
  8
0_00
  6
CONTINUOUS
 62
2
 10
1075.6103
 20
274.9619
 11
1075.2253
 21
274.8217
  0
LINE
  8
0_00
  6
CONTINUOUS
 62
2
 10
1075.2253
 20
274.8217
 11
1074.3289
 21
273.9775
  0
LINE
  8
0_00
  6
CONTINUOUS
 62
4
 10
1061.6104
 20
268.5646
 11
1061.6104
 21
310.5646
  0
LINE
  8
0_00
  6
CONTINUOUS
 62
4
 10
1066.6103
 20
266.0646
 11
1066.6103
 21
310.5646
  0
LINE
  8
0_00
  6
CONTINUOUS
 62
4
 10
1066.6103
 20
266.0646
 11
1062.1103
 21
266.0646
  0
LINE
  8
0_00
  6
CONTINUOUS
 62
4
 10
1059.6103
 20
268.5646
 11
1059.6103
 21
310.5646
  0
LINE
  8
0_00
  6
CONTINUOUS
 62
4
 10
1084.6103
 20
266.0646
 11
1066.6103
 21
266.0646
  0
LINE
  8
0_00
  6
CONTINUOUS
 62
4
 10
1089.6104
 20
268.5646
 11
1089.6104
 21
310.5646
  0
LINE
  8
0_00
  6
CONTINUOUS
 62
4
 10
1084.6103
 20
266.0646
 11
1084.6103
 21
310.5646
  0
LINE
  8
0_00
  6
CONTINUOUS
 62
4
 10
1089.1103
 20
266.0646
 11
1084.6103
 21
266.0646
  0
LINE
  8
0_00
  6
CONTINUOUS
 62
4
 10
1091.6104
 20
268.5646
 11
1091.6104
 21
310.5646
  0
LINE
  8
0_00
  6
CONTINUOUS
 62
4
 10
1089.1103
 20
313.0646
 11
1062.1103
 21
313.0646
  0
LINE
  8
0_00
  6
CONTINUOUS
 62
4
 10
730.7541
 20
553.8681
 11
1161.0040
 21
553.8681
  0
LINE
  8
0_00
  6
CENTER1
 62
6
 10
738.6290
 20
736.6302
 11
738.6290
 21
670.0295
  0
LINE
  8
0_00
  6
CENTER1
 62
6
 10
776.1290
 20
736.6302
 11
776.1290
 21
695.7173
  0
LINE
  8
0_00
  6
CONTINUOUS
 62
4
 10
732.7790
 20
719.1544
 11
1161.0040
 21
719.1544
  0
LINE
  8
0_00
  6
CONTINUOUS
 62
4
 10
732.7790
 20
726.2044
 11
1161.0040
 21
726.2044
  0
LINE
  8
0_00
  6
CONTINUOUS
 62
4
 10
730.7541
 20
680.2877
 11
730.7541
 21
553.8681
  0
LINE
  8
3_03
  6
CONTINUOUS
 62
4
 10
732.7040
 20
726.3092
 11
728.2245
 21
726.3092
  0
LINE
  8
3_03
  6
CONTINUOUS
 62
4
 10
723.6291
 20
719.1094
 11
732.7040
 21
719.1094
  0
LINE
  8
3_03
  6
CONTINUOUS
 62
4
 10
732.7790
 20
719.1544
 11
732.7790
 21
726.2342
  0
LINE
  8
3_03
  6
CONTINUOUS
 62
4
 10
723.5540
 20
725.1129
 11
723.5540
 21
719.1844
  0
LINE
  8
0_00
  6
DASHED
 62
2
 10
446.7782
 20
368.2005
 11
596.7783
 21
368.2005
  0
LINE
  8
0_00
  6
CENTER1
 62
6
 10
506.2782
 20
376.9297
 11
506.2782
 21
352.1246
  0
LINE
  8
0_00
  6
CENTER1
 62
6
 10
527.2783
 20
376.9297
 11
527.2783
 21
352.1246
  0
LINE
  8
0_00
  6
DASHED
 62
2
 10
446.7782
 20
369.9005
 11
596.7783
 21
369.9005
  0
LINE
  8
0_00
  6
CONTINUOUS
 62
4
 10
446.7782
 20
366.7005
 11
596.7783
 21
366.7005
  0
LINE
  8
0_00
  6
CONTINUOUS
 62
4
 10
525.7783
 20
266.2005
 11
525.7783
 21
352.7005
  0
LINE
  8
0_00
  6
CONTINUOUS
 62
4
 10
507.7782
 20
266.2005
 11
507.7782
 21
352.7005
  0
LINE
  8
0_00
  6
CONTINUOUS
 62
4
 10
510.2782
 20
355.2005
 11
523.2783
 21
355.2005
  0
LINE
  8
0_00
  6
CONTINUOUS
 62
4
 10
502.7782
 20
263.7005
 11
500.7782
 21
253.7005
  0
LINE
  8
0_00
  6
CONTINUOUS
 62
4
 10
530.7783
 20
263.7005
 11
532.7783
 21
253.7005
  0
LINE
  8
0_00
  6
CONTINUOUS
 62
4
 10
523.2783
 20
263.7005
 11
510.2782
 21
263.7005
  0
LINE
  8
0_00
  6
CONTINUOUS
 62
4
 10
506.7782
 20
273.7005
 11
503.7782
 21
273.7005
  0
LINE
  8
0_00
  6
CONTINUOUS
 62
4
 10
503.7782
 20
350.2005
 11
506.7782
 21
350.2005
  0
LINE
  8
0_00
  6
CONTINUOUS
 62
4
 10
526.7782
 20
350.2005
 11
529.7783
 21
350.2005
  0
LINE
  8
0_00
  6
CONTINUOUS
 62
4
 10
526.7782
 20
273.7005
 11
529.7783
 21
273.7005
  0
LINE
  8
0_00
  6
CENTER1
 62
6
 10
516.7783
 20
421.8296
 11
516.7783
 21
232.2612
  0
LINE
  8
0_00
  6
CENTER1
 62
6
 10
728.1291
 20
736.6302
 11
728.1291
 21
709.8385
  0
LINE
  8
0_00
  6
CENTER1
 62
6
 10
914.6686
 20
219.5647
 11
1141.2846
 21
219.5647
  0
LINE
  8
0_00
  6
CONTINUOUS
 62
6
 10
1127.1401
 20
218.9498
 11
1153.6466
 21
179.5918
  0
LINE
  8
0_00
  6
CONTINUOUS
 62
6
 10
1127.1401
 20
218.9498
 11
1129.9448
 21
211.9939
  0
LINE
  8
0_00
  6
CONTINUOUS
 62
6
 10
1127.1401
 20
218.9498
 11
1132.5315
 21
213.7360
  0
LINE
  8
0_00
  6
CONTINUOUS
 62
6
 10
1153.6466
 20
179.5918
 11
1208.8466
 21
179.5918
  0
LINE
  8
0_00
  6
CONTINUOUS
 62
6
 10
230.3952
 20
643.8515
 11
248.7746
 21
662.2310
  0
LINE
  8
0_00
  6
CONTINUOUS
 62
6
 10
230.3952
 20
643.8515
 11
236.6852
 21
647.9363
  0
LINE
  8
0_00
  6
CONTINUOUS
 62
6
 10
230.3952
 20
643.8515
 11
234.4800
 21
650.1415
  0
LINE
  8
0_00
  6
CONTINUOUS
 62
6
 10
248.7746
 20
662.2310
 11
293.7746
 21
662.2310
  0
LINE
  8
0_00
  6
CONTINUOUS
 62
6
 10
232.5277
 20
589.1572
 11
196.1373
 21
625.5477
  0
LINE
  8
0_00
  6
CONTINUOUS
 62
6
 10
232.5277
 20
589.1572
 11
228.4429
 21
595.4473
  0
LINE
  8
0_00
  6
CONTINUOUS
 62
6
 10
232.5277
 20
589.1572
 11
226.2377
 21
593.2420
  0
LINE
  8
0_00
  6
CONTINUOUS
 62
6
 10
196.1373
 20
625.5477
 11
134.5310
 21
625.5477
  0
LINE
  8
0_00
  6
CONTINUOUS
 62
6
 10
221.8271
 20
599.8579
 11
125.0672
 21
599.8579
  0
LINE
  8
15_0F
  6
CONTINUOUS
 62
6
 10
776.1290
 20
751.6302
 11
776.1290
 21
795.4795
  0
LINE
  8
15_0F
  6
CONTINUOUS
 62
6
 10
738.6290
 20
751.6302
 11
738.6290
 21
795.4795
  0
LINE
  8
15_0F
  6
CONTINUOUS
 62
6
 10
738.6290
 20
789.4795
 11
776.1290
 21
789.4795
  0
LINE
  8
15_0F
  6
CONTINUOUS
 62
6
 10
931.1290
 20
751.6302
 11
931.1290
 21
795.4795
  0
LINE
  8
15_0F
  6
CONTINUOUS
 62
6
 10
776.1290
 20
789.4795
 11
931.1290
 21
789.4795
  0
LINE
  8
15_0F
  6
CONTINUOUS
 62
6
 10
776.1290
 20
789.4795
 11
783.4651
 21
787.9201
  0
LINE
  8
15_0F
  6
CONTINUOUS
 62
6
 10
776.1290
 20
789.4795
 11
783.4651
 21
791.0389
  0
LINE
  8
15_0F
  6
CONTINUOUS
 62
6
 10
931.1290
 20
789.4795
 11
923.7929
 21
791.0389
  0
LINE
  8
15_0F
  6
CONTINUOUS
 62
6
 10
931.1290
 20
789.4795
 11
923.7929
 21
787.9201
  0
LINE
  8
15_0F
  6
CONTINUOUS
 62
6
 10
1086.1290
 20
751.6302
 11
1086.1290
 21
795.4795
  0
LINE
  8
15_0F
  6
CONTINUOUS
 62
6
 10
931.1290
 20
789.4795
 11
1086.1290
 21
789.4795
  0
LINE
  8
15_0F
  6
CONTINUOUS
 62
6
 10
931.1290
 20
789.4795
 11
938.4651
 21
787.9201
  0
LINE
  8
15_0F
  6
CONTINUOUS
 62
6
 10
931.1290
 20
789.4795
 11
938.4651
 21
791.0389
  0
LINE
  8
15_0F
  6
CONTINUOUS
 62
6
 10
1086.1290
 20
789.4795
 11
1078.7930
 21
791.0389
  0
LINE
  8
15_0F
  6
CONTINUOUS
 62
6
 10
1086.1290
 20
789.4795
 11
1078.7930
 21
787.9201
  0
LINE
  8
15_0F
  6
CONTINUOUS
 62
6
 10
1086.1290
 20
789.4795
 11
1161.0040
 21
789.4795
  0
LINE
  8
15_0F
  6
CONTINUOUS
 62
6
 10
1086.1290
 20
789.4795
 11
1093.4650
 21
787.9201
  0
LINE
  8
15_0F
  6
CONTINUOUS
 62
6
 10
1086.1290
 20
789.4795
 11
1093.4650
 21
791.0389
  0
LINE
  8
0_00
  6
CONTINUOUS
 62
4
 10
83.0841
 20
798.8786
 11
114.2841
 21
798.8786
  0
LINE
  8
0_00
  6
CONTINUOUS
 62
4
 10
114.2841
 20
798.8786
 11
114.2841
 21
813.2786
  0
LINE
  8
0_00
  6
CONTINUOUS
 62
4
 10
83.0841
 20
813.2786
 11
114.2841
 21
813.2786
  0
LINE
  8
0_00
  6
CONTINUOUS
 62
4
 10
83.0841
 20
798.8786
 11
83.0841
 21
813.2786
  0
LINE
  8
0_00
  6
CONTINUOUS
 62
4
 10
264.2841
 20
798.8786
 11
295.4841
 21
798.8786
  0
LINE
  8
0_00
  6
CONTINUOUS
 62
4
 10
295.4841
 20
798.8786
 11
295.4841
 21
813.2786
  0
LINE
  8
0_00
  6
CONTINUOUS
 62
4
 10
264.2841
 20
813.2786
 11
295.4841
 21
813.2786
  0
LINE
  8
0_00
  6
CONTINUOUS
 62
4
 10
264.2841
 20
798.8786
 11
264.2841
 21
813.2786
  0
LINE
  8
0_00
  6
CENTER1
 62
6
 10
407.2841
 20
710.2763
 11
407.2841
 21
687.9967
  0
LINE
  8
0_00
  6
CENTER1
 62
6
 10
371.2841
 20
709.9978
 11
371.2841
 21
688.3681
  0
LINE
  8
0_00
  6
CENTER1
 62
6
 10
389.2841
 20
746.8845
 11
389.2841
 21
667.5488
  0
LINE
  8
0_00
  6
CONTINUOUS
 62
4
 10
367.7841
 20
703.6447
 11
410.7841
 21
703.6447
  0
LINE
  8
0_00
  6
CONTINUOUS
 62
4
 10
410.7841
 20
703.6447
 11
410.7841
 21
687.9321
  0
LINE
  8
0_00
  6
DASHED
 62
4
 10
367.7841
 20
690.6448
 11
410.7841
 21
690.6448
  0
LINE
  8
0_00
  6
CONTINUOUS
 62
4
 10
367.7841
 20
703.6447
 11
367.7841
 21
690.6448
  0
LINE
  8
0_00
  6
CONTINUOUS
 62
4
 10
225.7841
 20
579.4008
 11
225.7841
 21
586.9013
  0
LINE
  8
0_00
  6
CONTINUOUS
 62
4
 10
272.7841
 20
579.4008
 11
272.7841
 21
596.0132
  0
LINE
  8
0_00
  6
CONTINUOUS
 62
6
 10
225.7841
 20
589.4008
 11
272.7841
 21
589.4008
  0
LINE
  8
0_00
  6
CONTINUOUS
 62
4
 10
157.7841
 20
693.9008
 11
200.7841
 21
693.9008
  0
LINE
  8
0_00
  6
CONTINUOUS
 62
4
 10
200.7841
 20
693.9008
 11
200.7841
 21
678.1881
  0
LINE
  8
0_00
  6
DASHED
 62
4
 10
157.7841
 20
680.9008
 11
200.7841
 21
680.9008
  0
LINE
  8
0_00
  6
CONTINUOUS
 62
4
 10
157.7841
 20
693.9008
 11
157.7841
 21
680.9008
  0
LINE
  8
0_00
  6
CONTINUOUS
 62
6
 10
207.8210
 20
737.3492
 11
223.5973
 21
753.1256
  0
LINE
  8
0_00
  6
CONTINUOUS
 62
6
 10
207.8210
 20
737.3492
 11
214.1110
 21
741.4340
  0
LINE
  8
0_00
  6
CONTINUOUS
 62
6
 10
207.8210
 20
737.3492
 11
211.9058
 21
743.6393
  0
LINE
  8
0_00
  6
CONTINUOUS
 62
6
 10
223.5973
 20
753.1256
 11
282.9973
 21
753.1256
  0
LINE
  8
0_00
  6
CONTINUOUS
 62
6
 10
413.1210
 20
734.4626
 11
428.5046
 21
749.8461
  0
LINE
  8
0_00
  6
CONTINUOUS
 62
6
 10
413.1210
 20
734.4626
 11
419.4111
 21
738.5473
  0
LINE
  8
0_00
  6
CONTINUOUS
 62
6
 10
413.1210
 20
734.4626
 11
417.2059
 21
740.7527
  0
LINE
  8
0_00
  6
CONTINUOUS
 62
6
 10
428.5046
 20
749.8461
 11
487.9045
 21
749.8461
  0
LINE
  8
0_00
  6
CONTINUOUS
 62
6
 10
502.7782
 20
301.8666
 11
481.9709
 21
322.6740
  0
LINE
  8
0_00
  6
CONTINUOUS
 62
6
 10
502.7782
 20
301.8666
 11
498.6934
 21
308.1566
  0
LINE
  8
0_00
  6
CONTINUOUS
 62
6
 10
502.7782
 20
301.8666
 11
496.4882
 21
305.9514
  0
LINE
  8
0_00
  6
CONTINUOUS
 62
6
 10
481.9709
 20
322.6740
 11
436.9709
 21
322.6740
  0
LINE
  8
0_00
  6
CONTINUOUS
 62
6
 10
329.6637
 20
478.4572
 11
349.5811
 21
498.3746
  0
LINE
  8
0_00
  6
CONTINUOUS
 62
6
 10
329.6637
 20
478.4572
 11
335.9538
 21
482.5421
  0
LINE
  8
0_00
  6
CONTINUOUS
 62
6
 10
329.6637
 20
478.4572
 11
333.7485
 21
484.7473
  0
LINE
  8
0_00
  6
CONTINUOUS
 62
6
 10
349.5811
 20
498.3746
 11
394.5811
 21
498.3746
  0
LINE
  8
0_00
  6
CONTINUOUS
 62
4
 10
742.1540
 20
702.1294
 11
742.1540
 21
704.6663
  0
LINE
  8
0_00
  6
CONTINUOUS
 62
4
 10
735.1040
 20
702.1294
 11
735.1040
 21
703.2995
  0
LINE
  8
0_00
  6
CONTINUOUS
 62
4
 10
731.3540
 20
719.1094
 11
731.3540
 21
716.9924
  0
LINE
  8
0_00
  6
CONTINUOUS
 62
4
 10
724.9040
 20
719.1094
 11
724.9040
 21
717.3994
  0
LINE
  8
0_00
  6
CONTINUOUS
 62
2
 10
948.1889
 20
741.9884
 11
948.1889
 21
667.4924
  0
LINE
  8
0_00
  6
CONTINUOUS
 62
2
 10
948.1889
 20
741.9884
 11
932.3994
 21
741.9884
  0
LINE
  8
0_00
  6
CONTINUOUS
 62
2
 10
932.3994
 20
741.9884
 11
939.7354
 21
740.4291
  0
LINE
  8
0_00
  6
CONTINUOUS
 62
2
 10
932.3994
 20
741.9884
 11
939.7354
 21
743.5478
  0
LINE
  8
0_00
  6
CONTINUOUS
 62
2
 10
948.1889
 20
667.4924
 11
932.3994
 21
667.4924
  0
LINE
  8
0_00
  6
CONTINUOUS
 62
2
 10
932.3994
 20
667.4924
 11
939.7354
 21
665.9331
  0
LINE
  8
0_00
  6
CONTINUOUS
 62
2
 10
932.3994
 20
667.4924
 11
939.7354
 21
669.0518
  0
LINE
  8
0_00
  6
CONTINUOUS
 62
2
 10
895.5995
 20
685.7216
 11
1008.5026
 21
685.7216
  0
LINE
  8
0_00
  6
CONTINUOUS
 62
2
 10
1008.5026
 20
685.7216
 11
1008.5026
 21
707.3330
  0
LINE
  8
0_00
  6
CONTINUOUS
 62
2
 10
1008.5026
 20
707.3330
 11
1124.9314
 21
707.3330
  0
LINE
  8
0_00
  6
CONTINUOUS
 62
2
 10
1124.9314
 20
707.3330
 11
1124.9314
 21
661.9405
  0
LINE
  8
0_00
  6
CONTINUOUS
 62
2
 10
1124.9314
 20
661.9405
 11
1126.4908
 21
669.2766
  0
LINE
  8
0_00
  6
CONTINUOUS
 62
2
 10
1124.9314
 20
661.9405
 11
1123.3721
 21
669.2766
  0
LINE
  8
0_00
  6
CONTINUOUS
 62
2
 10
895.5995
 20
685.7216
 11
895.5995
 21
661.9405
  0
LINE
  8
0_00
  6
CONTINUOUS
 62
2
 10
895.5995
 20
661.9405
 11
897.1588
 21
669.2766
  0
LINE
  8
0_00
  6
CONTINUOUS
 62
2
 10
895.5995
 20
661.9405
 11
894.0401
 21
669.2766
  0
LINE
  8
0_00
  6
CENTER1
 62
6
 10
603.4048
 20
710.5324
 11
603.4048
 21
688.2528
  0
LINE
  8
0_00
  6
CENTER1
 62
6
 10
567.4048
 20
710.2538
 11
567.4048
 21
688.6241
  0
LINE
  8
0_00
  6
CENTER1
 62
6
 10
585.4048
 20
747.1405
 11
585.4048
 21
667.8047
  0
LINE
  8
0_00
  6
CONTINUOUS
 62
4
 10
563.9048
 20
703.9008
 11
606.9048
 21
703.9008
  0
LINE
  8
0_00
  6
CONTINUOUS
 62
4
 10
606.9048
 20
703.9008
 11
606.9048
 21
688.1881
  0
LINE
  8
0_00
  6
DASHED
 62
4
 10
563.9048
 20
690.9008
 11
606.9048
 21
690.9008
  0
LINE
  8
0_00
  6
CONTINUOUS
 62
4
 10
563.9048
 20
703.9008
 11
563.9048
 21
690.9008
  0
LINE
  8
0_00
  6
CONTINUOUS
 62
6
 10
605.6682
 20
731.1452
 11
624.6252
 21
750.1021
  0
LINE
  8
0_00
  6
CONTINUOUS
 62
6
 10
605.6682
 20
731.1452
 11
611.9583
 21
735.2298
  0
LINE
  8
0_00
  6
CONTINUOUS
 62
6
 10
605.6682
 20
731.1452
 11
609.7531
 21
737.4352
  0
LINE
  8
0_00
  6
CONTINUOUS
 62
6
 10
624.6252
 20
750.1021
 11
684.0253
 21
750.1021
  0
LINE
  8
0_00
  6
CONTINUOUS
 62
6
 10
735.0484
 20
703.7044
 11
742.1540
 21
703.7044
  0
LINE
  8
15_0F
  6
CONTINUOUS
 62
6
 10
720.6290
 20
789.4795
 11
738.6290
 21
789.4795
  0
LINE
  8
15_0F
  6
CONTINUOUS
 62
6
 10
738.6290
 20
789.4795
 11
731.2929
 21
791.0389
  0
LINE
  8
15_0F
  6
CONTINUOUS
 62
6
 10
738.6290
 20
789.4795
 11
731.2929
 21
787.9201
  0
LINE
  8
0_00
  6
CONTINUOUS
 62
4
 10
179.2841
 20
459.4008
 11
319.2841
 21
459.4008
  0
LINE
  8
0_00
  6
CONTINUOUS
 62
4
 10
301.7841
 20
459.4008
 11
301.7841
 21
362.1217
  0
LINE
  8
0_00
  6
CONTINUOUS
 62
4
 10
196.7841
 20
459.4008
 11
196.7841
 21
362.1217
  0
LINE
  8
0_00
  6
CONTINUOUS
 62
4
 10
301.7841
 20
409.4008
 11
196.7841
 21
409.4008
  0
LINE
  8
0_00
  6
CONTINUOUS
 62
4
 10
196.7841
 20
409.4008
 11
301.7841
 21
459.4008
  0
LINE
  8
0_00
  6
CONTINUOUS
 62
4
 10
307.2841
 20
459.4008
 11
307.2841
 21
362.1217
  0
LINE
  8
0_00
  6
CONTINUOUS
 62
2
 10
303.6174
 20
459.4008
 11
303.6174
 21
362.1217
  0
LINE
  8
0_00
  6
CONTINUOUS
 62
2
 10
305.4508
 20
459.4008
 11
305.4508
 21
362.1217
  0
LINE
  8
0_00
  6
CONTINUOUS
 62
4
 10
191.2841
 20
459.4008
 11
191.2841
 21
362.1217
  0
LINE
  8
0_00
  6
CONTINUOUS
 62
2
 10
194.9507
 20
459.4008
 11
194.9507
 21
362.1217
  0
LINE
  8
0_00
  6
CONTINUOUS
 62
2
 10
193.1174
 20
459.4008
 11
193.1174
 21
362.1217
  0
LINE
  8
0_00
  6
CONTINUOUS
 62
4
 10
319.2841
 20
474.4008
 11
319.2841
 21
459.4008
  0
LINE
  8
0_00
  6
CONTINUOUS
 62
4
 10
319.2841
 20
447.4008
 11
319.2841
 21
362.1217
  0
LINE
  8
0_00
  6
CONTINUOUS
 62
4
 10
179.2841
 20
447.4008
 11
191.2841
 21
447.4008
  0
LINE
  8
0_00
  6
CONTINUOUS
 62
4
 10
307.2841
 20
447.4008
 11
319.2841
 21
447.4008
  0
LINE
  8
0_00
  6
CONTINUOUS
 62
4
 10
179.2841
 20
474.4008
 11
179.2841
 21
459.4008
  0
LINE
  8
0_00
  6
CONTINUOUS
 62
4
 10
179.2841
 20
447.4008
 11
179.2841
 21
362.1217
  0
LINE
  8
0_00
  6
CONTINUOUS
 62
6
 10
180.4495
 20
459.4008
 11
179.8408
 21
458.7921
  0
LINE
  8
0_00
  6
CONTINUOUS
 62
6
 10
183.2779
 20
459.4008
 11
180.9463
 21
457.0692
  0
LINE
  8
0_00
  6
CONTINUOUS
 62
6
 10
186.1063
 20
459.4008
 11
181.6432
 21
454.9377
  0
LINE
  8
0_00
  6
CONTINUOUS
 62
6
 10
188.9348
 20
459.4008
 11
181.6922
 21
452.1583
  0
LINE
  8
0_00
  6
CONTINUOUS
 62
6
 10
191.2841
 20
458.9217
 11
179.7632
 21
447.4008
  0
LINE
  8
0_00
  6
CONTINUOUS
 62
6
 10
191.2841
 20
456.0933
 11
182.5916
 21
447.4008
  0
LINE
  8
0_00
  6
CONTINUOUS
 62
6
 10
191.2841
 20
453.2649
 11
185.4200
 21
447.4008
  0
LINE
  8
0_00
  6
CONTINUOUS
 62
6
 10
191.2841
 20
450.4365
 11
188.2485
 21
447.4008
  0
LINE
  8
0_00
  6
CONTINUOUS
 62
6
 10
191.2841
 20
447.6080
 11
191.0769
 21
447.4008
  0
LINE
  8
0_00
  6
CONTINUOUS
 62
6
 10
308.2171
 20
459.4008
 11
307.2841
 21
458.4678
  0
LINE
  8
0_00
  6
CONTINUOUS
 62
6
 10
311.0456
 20
459.4008
 11
307.2841
 21
455.6394
  0
LINE
  8
0_00
  6
CONTINUOUS
 62
6
 10
313.8740
 20
459.4008
 11
307.2841
 21
452.8109
  0
LINE
  8
0_00
  6
CONTINUOUS
 62
6
 10
316.7024
 20
459.4008
 11
307.2841
 21
449.9825
  0
LINE
  8
0_00
  6
CONTINUOUS
 62
6
 10
318.1743
 20
458.0443
 11
307.5308
 21
447.4008
  0
LINE
  8
0_00
  6
CONTINUOUS
 62
6
 10
316.7953
 20
453.8369
 11
310.3593
 21
447.4008
  0
LINE
  8
0_00
  6
CONTINUOUS
 62
6
 10
317.0571
 20
451.2702
 11
313.1877
 21
447.4008
  0
LINE
  8
0_00
  6
CONTINUOUS
 62
6
 10
317.8708
 20
449.2554
 11
316.0161
 21
447.4008
  0
LINE
  8
0_00
  6
CONTINUOUS
 62
6
 10
319.0674
 20
447.6237
 11
318.8446
 21
447.4008
  0
LINE
  8
0_00
  6
CONTINUOUS
 62
4
 10
179.2841
 20
474.4008
 11
319.2841
 21
474.4008
  0
LINE
  8
0_00
  6
CONTINUOUS
 62
2
 10
185.4200
 20
447.4008
 11
179.2841
 21
441.2649
  0
LINE
  8
0_00
  6
CONTINUOUS
 62
2
 10
188.2485
 20
447.4008
 11
179.2841
 21
438.4365
  0
LINE
  8
0_00
  6
CONTINUOUS
 62
2
 10
191.2841
 20
417.9096
 11
179.2841
 21
405.9096
  0
LINE
  8
0_00
  6
CONTINUOUS
 62
2
 10
191.2841
 20
415.0811
 11
179.2841
 21
403.0811
  0
LINE
  8
0_00
  6
CONTINUOUS
 62
2
 10
191.2841
 20
382.5542
 11
179.2841
 21
370.5542
  0
LINE
  8
0_00
  6
CONTINUOUS
 62
2
 10
191.2841
 20
379.7258
 11
179.2841
 21
367.7258
  0
LINE
  8
0_00
  6
CONTINUOUS
 62
2
 10
313.4201
 20
447.4008
 11
307.2841
 21
441.2649
  0
LINE
  8
0_00
  6
CONTINUOUS
 62
2
 10
316.2485
 20
447.4008
 11
307.2841
 21
438.4365
  0
LINE
  8
0_00
  6
CONTINUOUS
 62
2
 10
319.2841
 20
417.9096
 11
307.2841
 21
405.9096
  0
LINE
  8
0_00
  6
CONTINUOUS
 62
2
 10
319.2841
 20
415.0811
 11
307.2841
 21
403.0811
  0
LINE
  8
0_00
  6
CONTINUOUS
 62
2
 10
319.2841
 20
382.5542
 11
307.2841
 21
370.5542
  0
LINE
  8
0_00
  6
CONTINUOUS
 62
2
 10
319.2841
 20
379.7258
 11
307.2841
 21
367.7258
  0
LINE
  8
0_00
  6
PHANTOM1
 62
2
 10
321.7841
 20
474.4008
 11
321.7841
 21
362.1217
  0
LINE
  8
0_00
  6
PHANTOM1
 62
2
 10
176.7841
 20
474.4008
 11
176.7841
 21
362.1217
  0
LINE
  8
0_00
  6
CONTINUOUS
 62
4
 10
319.2841
 20
474.4008
 11
179.2841
 21
459.4008
  0
LINE
  8
0_00
  6
CONTINUOUS
 62
4
 10
203.9841
 20
474.4008
 11
294.5841
 21
474.4008
  0
LINE
  8
15_0F
  6
CONTINUOUS
 62
6
 10
169.4977
 20
403.6825
 11
77.8568
 21
403.6825
  0
LINE
  8
15_0F
  6
CONTINUOUS
 62
6
 10
219.4843
 20
453.6690
 11
142.0863
 21
376.2710
  0
LINE
  8
15_0F
  6
CONTINUOUS
 62
6
 10
219.4843
 20
453.6690
 11
213.1943
 21
449.5842
  0
LINE
  8
15_0F
  6
CONTINUOUS
 62
6
 10
219.4843
 20
453.6690
 11
215.3995
 21
447.3790
  0
LINE
  8
15_0F
  6
CONTINUOUS
 62
6
 10
142.0863
 20
376.2710
 11
64.0862
 21
376.2710
  0
LINE
  8
13_0D
  6
CONTINUOUS
 62
6
 10
166.7841
 20
299.9796
 11
331.7841
 21
299.9796
  0
LINE
  8
13_0D
  6
CONTINUOUS
 62
6
 10
166.7841
 20
299.9796
 11
174.1202
 21
298.4202
  0
LINE
  8
13_0D
  6
CONTINUOUS
 62
6
 10
166.7841
 20
299.9796
 11
174.1202
 21
301.5389
  0
LINE
  8
13_0D
  6
CONTINUOUS
 62
6
 10
331.7841
 20
299.9796
 11
324.4480
 21
301.5389
  0
LINE
  8
13_0D
  6
CONTINUOUS
 62
6
 10
331.7841
 20
299.9796
 11
324.4480
 21
298.4202
  0
LINE
  8
13_0D
  6
CONTINUOUS
 62
6
 10
331.7841
 20
433.4404
 11
331.7841
 21
295.4796
  0
LINE
  8
13_0D
  6
CONTINUOUS
 62
6
 10
321.7841
 20
353.9633
 11
321.7841
 21
335.4795
  0
LINE
  8
13_0D
  6
CONTINUOUS
 62
6
 10
166.7841
 20
339.9796
 11
176.7841
 21
339.9796
  0
LINE
  8
13_0D
  6
CONTINUOUS
 62
6
 10
134.3841
 20
339.9796
 11
166.7841
 21
339.9796
  0
LINE
  8
13_0D
  6
CONTINUOUS
 62
6
 10
166.7841
 20
339.9796
 11
159.4480
 21
341.5389
  0
LINE
  8
13_0D
  6
CONTINUOUS
 62
6
 10
166.7841
 20
339.9796
 11
159.4480
 21
338.4202
  0
LINE
  8
13_0D
  6
CONTINUOUS
 62
6
 10
176.7841
 20
339.9796
 11
179.2841
 21
339.9796
  0
LINE
  8
13_0D
  6
CONTINUOUS
 62
6
 10
179.2841
 20
339.9796
 11
319.2841
 21
339.9796
  0
LINE
  8
13_0D
  6
CONTINUOUS
 62
6
 10
179.2841
 20
339.9796
 11
186.6202
 21
338.4202
  0
LINE
  8
13_0D
  6
CONTINUOUS
 62
6
 10
179.2841
 20
339.9796
 11
186.6202
 21
341.5389
  0
LINE
  8
13_0D
  6
CONTINUOUS
 62
6
 10
319.2841
 20
339.9796
 11
311.9480
 21
341.5389
  0
LINE
  8
13_0D
  6
CONTINUOUS
 62
6
 10
319.2841
 20
339.9796
 11
311.9480
 21
338.4202
  0
LINE
  8
13_0D
  6
CONTINUOUS
 62
6
 10
319.2841
 20
339.9796
 11
321.7841
 21
339.9796
  0
LINE
  8
13_0D
  6
CONTINUOUS
 62
6
 10
321.7841
 20
339.9796
 11
331.7841
 21
339.9796
  0
LINE
  8
13_0D
  6
CONTINUOUS
 62
6
 10
364.1841
 20
339.9796
 11
331.7841
 21
339.9796
  0
LINE
  8
13_0D
  6
CONTINUOUS
 62
6
 10
331.7841
 20
339.9796
 11
339.1202
 21
338.4202
  0
LINE
  8
13_0D
  6
CONTINUOUS
 62
6
 10
331.7841
 20
339.9796
 11
339.1202
 21
341.5389
  0
LINE
  8
13_0D
  6
CONTINUOUS
 62
6
 10
319.2841
 20
353.9633
 11
319.2841
 21
335.4795
  0
LINE
  8
13_0D
  6
CONTINUOUS
 62
6
 10
166.7841
 20
433.4404
 11
166.7841
 21
295.4796
  0
LINE
  8
13_0D
  6
CONTINUOUS
 62
6
 10
176.7841
 20
353.9633
 11
176.7841
 21
335.4795
  0
LINE
  8
13_0D
  6
CONTINUOUS
 62
6
 10
179.2841
 20
353.9633
 11
179.2841
 21
335.4795
  0
LINE
  8
15_0F
  6
CONTINUOUS
 62
4
 10
1149.9909
 20
207.0646
 11
911.3192
 21
207.0646
  0
LINE
  8
15_0F
  6
CONTINUOUS
 62
4
 10
929.9277
 20
372.0646
 11
1149.9909
 21
372.0646
  0
LINE
  8
15_0F
  6
CONTINUOUS
 62
4
 10
921.9195
 20
359.5646
 11
800.1302
 21
359.5646
  0
LINE
  8
0_00
  6
CONTINUOUS
 62
4
 10
666.3011
 20
370.6646
 11
924.8937
 21
370.6646
  0
LINE
  8
15_0F
  6
CONTINUOUS
 62
4
 10
925.2688
 20
372.0646
 11
666.3011
 21
372.0646
  0
LINE
  8
15_0F
  6
CONTINUOUS
 62
4
 10
740.1302
 20
359.5646
 11
666.3011
 21
359.5646
  0
LINE
  8
15_0F
  6
CONTINUOUS
 62
4
 10
666.3011
 20
219.5647
 11
740.1302
 21
219.5647
  0
LINE
  8
15_0F
  6
CONTINUOUS
 62
4
 10
800.1302
 20
219.5647
 11
910.0099
 21
219.5647
  0
LINE
  8
0_00
  6
CONTINUOUS
 62
4
 10
666.3011
 20
208.4646
 11
907.0356
 21
208.4646
  0
LINE
  8
15_0F
  6
CONTINUOUS
 62
4
 10
906.6606
 20
207.0646
 11
666.3011
 21
207.0646
  0
LINE
  8
0_00
  6
CONTINUOUS
 62
4
 10
1090.1104
 20
265.0646
 11
1061.1104
 21
265.0646
  0
LINE
  8
0_00
  6
CONTINUOUS
 62
4
 10
1092.6104
 20
311.5646
 11
1092.6104
 21
267.5646
  0
LINE
  8
0_00
  6
CONTINUOUS
 62
4
 10
1090.1104
 20
314.0646
 11
1061.1104
 21
314.0646
  0
LINE
  8
0_00
  6
CONTINUOUS
 62
4
 10
1058.6104
 20
311.5646
 11
1058.6104
 21
267.5646
  0
LINE
  8
16_10
  6
CONTINUOUS
 62
2
 10
730.0448
 20
682.3976
 11
1161.0040
 21
682.3976
  0
LINE
  8
16_10
  6
CONTINUOUS
 62
4
 10
730.3513
 20
680.4543
 11
1161.0040
 21
680.4543
  0
LINE
  8
16_10
  6
CONTINUOUS
 62
4
 10
730.8910
 20
688.7043
 11
1161.0040
 21
688.7043
  0
LINE
  8
16_10
  6
CONTINUOUS
 62
4
 10
753.4910
 20
689.0044
 11
732.9139
 21
689.0044
  0
LINE
  8
16_10
  6
CONTINUOUS
 62
4
 10
748.1240
 20
689.4094
 11
729.1340
 21
689.4094
  0
LINE
  8
16_10
  6
CONTINUOUS
 62
4
 10
729.1340
 20
689.4094
 11
726.6692
 21
689.0438
  0
LINE
  8
16_10
  6
CONTINUOUS
 62
4
 10
725.7145
 20
682.9118
 11
725.5947
 21
687.7560
  0
LINE
  8
16_10
  6
CONTINUOUS
 62
4
 10
725.9912
 20
682.2573
 11
726.0072
 21
680.7202
  0
LINE
  8
16_10
  6
CONTINUOUS
 62
4
 10
753.9824
 20
688.9672
 11
748.1240
 21
689.4094
  0
LINE
  8
16_10
  6
CONTINUOUS
 62
4
 10
730.3572
 20
680.2747
 11
730.8969
 21
680.2923
  0
LINE
  8
16_10
  6
CONTINUOUS
 62
4
 10
730.5098
 20
688.6479
 11
732.9139
 21
689.0044
  0
LINE
  8
16_10
  6
CONTINUOUS
 62
4
 10
729.6783
 20
687.6514
 11
729.7944
 21
682.9227
  0
LINE
  8
16_10
  6
CONTINUOUS
 62
4
 10
730.0881
 20
680.7011
 11
730.0702
 21
682.2917
  0
LINE
  8
16_10
  6
CONTINUOUS
 62
4
 10
730.3569
 20
680.2746
 11
726.6107
 21
680.1546
  0
LINE
  8
0_00
  6
CONTINUOUS
 62
4
 10
446.7782
 20
413.7005
 11
596.7783
 21
413.7005
  0
LINE
  8
0_00
  6
CONTINUOUS
 62
4
 10
778.2290
 20
703.7044
 11
778.2290
 21
719.1544
  0
LINE
  8
0_00
  6
CONTINUOUS
 62
4
 10
774.0289
 20
703.7044
 11
774.0289
 21
719.1544
  0
LINE
  8
0_00
  6
CONTINUOUS
 62
4
 10
777.4790
 20
704.0793
 11
777.4790
 21
717.0544
  0
LINE
  8
0_00
  6
CONTINUOUS
 62
4
 10
774.7790
 20
704.0793
 11
774.7790
 21
717.0544
  0
LINE
  8
0_00
  6
CONTINUOUS
 62
4
 10
775.1539
 20
717.4294
 11
777.1040
 21
717.4294
  0
LINE
  8
0_00
  6
CONTINUOUS
 62
4
 10
774.0289
 20
703.7044
 11
773.7290
 21
702.2044
  0
LINE
  8
0_00
  6
CONTINUOUS
 62
4
 10
778.2290
 20
703.7044
 11
778.5290
 21
702.2044
  0
LINE
  8
0_00
  6
CONTINUOUS
 62
4
 10
777.1040
 20
703.7044
 11
775.1539
 21
703.7044
  0
LINE
  8
0_00
  6
CONTINUOUS
 62
4
 10
774.6291
 20
705.2044
 11
774.1790
 21
705.2044
  0
LINE
  8
0_00
  6
CONTINUOUS
 62
4
 10
774.1790
 20
716.6794
 11
774.6291
 21
716.6794
  0
LINE
  8
0_00
  6
CONTINUOUS
 62
4
 10
777.6290
 20
716.6794
 11
778.0790
 21
716.6794
  0
LINE
  8
0_00
  6
CONTINUOUS
 62
4
 10
777.6290
 20
705.2044
 11
778.0790
 21
705.2044
  0
LINE
  8
0_00
  6
DASHED
 62
2
 10
530.7783
 20
366.7005
 11
530.7783
 21
368.2005
  0
LINE
  8
0_00
  6
CONTINUOUS
 62
4
 10
530.7783
 20
263.7005
 11
530.7783
 21
366.7005
  0
LINE
  8
0_00
  6
DASHED
 62
2
 10
502.7782
 20
366.7005
 11
502.7782
 21
368.2005
  0
LINE
  8
0_00
  6
CONTINUOUS
 62
4
 10
502.7782
 20
263.7005
 11
502.7782
 21
366.7005
  0
LINE
  8
0_00
  6
CONTINUOUS
 62
2
 10
1149.9909
 20
352.5646
 11
924.7026
 21
352.5646
  0
LINE
  8
0_00
  6
CONTINUOUS
 62
2
 10
916.5442
 20
226.5646
 11
1149.9909
 21
226.5646
  0
LINE
  8
0_00
  6
CONTINUOUS
 62
6
 10
726.2892
 20
682.2573
 11
729.8909
 21
682.2573
  0
LINE
  8
0_00
  6
CONTINUOUS
 62
2
 10
729.8619
 20
688.2535
 11
1161.0040
 21
688.2535
  0
LINE
  8
0_00
  6
PHANTOM1
 62
2
 10
176.7841
 20
474.4008
 11
321.7841
 21
474.4008
  0
LINE
  8
0_00
  6
CENTER1
 62
6
 10
231.2841
 20
514.3534
 11
231.2841
 21
476.6008
  0
LINE
  8
0_00
  6
CENTER1
 62
6
 10
267.2841
 20
514.3534
 11
267.2841
 21
476.6008
  0
LINE
  8
0_00
  6
CONTINUOUS
 62
4
 10
227.2841
 20
489.9008
 11
227.2841
 21
489.4008
  0
LINE
  8
0_00
  6
CONTINUOUS
 62
4
 10
227.2841
 20
489.9008
 11
271.2841
 21
489.9008
  0
LINE
  8
0_00
  6
CONTINUOUS
 62
4
 10
271.2841
 20
489.9008
 11
271.2841
 21
489.4008
  0
LINE
  8
0_00
  6
CENTER1
 62
6
 10
221.2841
 20
486.0903
 11
221.2841
 21
424.0940
  0
LINE
  8
0_00
  6
CENTER1
 62
6
 10
277.2841
 20
486.0903
 11
277.2841
 21
424.0940
  0
LINE
  8
0_00
  6
CONTINUOUS
 62
4
 10
270.7841
 20
489.9008
 11
270.7841
 21
573.4008
  0
LINE
  8
0_00
  6
DASHED
 62
2
 10
257.0341
 20
569.4008
 11
257.0341
 21
484.2009
  0
LINE
  8
0_00
  6
DASHED
 62
2
 10
241.5341
 20
484.2009
 11
241.5341
 21
569.4008
  0
LINE
  8
0_00
  6
CONTINUOUS
 62
4
 10
227.7841
 20
489.9008
 11
227.7841
 21
573.4008
  0
LINE
  8
0_00
  6
CONTINUOUS
 62
4
 10
225.7841
 20
579.4008
 11
272.7841
 21
579.4008
  0
LINE
  8
0_00
  6
CONTINUOUS
 62
4
 10
272.7841
 20
579.4008
 11
272.7841
 21
573.4008
  0
LINE
  8
0_00
  6
CONTINUOUS
 62
4
 10
225.7841
 20
579.4008
 11
225.7841
 21
573.4008
  0
LINE
  8
0_00
  6
DASHED
 62
2
 10
225.7841
 20
574.4008
 11
272.7841
 21
574.4008
  0
LINE
  8
0_00
  6
CONTINUOUS
 62
4
 10
225.7841
 20
573.4008
 11
272.7841
 21
573.4008
  0
LINE
  8
0_00
  6
DASHED
 62
2
 10
241.5343
 20
569.4008
 11
257.0343
 21
569.4008
  0
LINE
  8
0_00
  6
CENTER1
 62
6
 10
231.2843
 20
584.6391
 11
231.2843
 21
539.5498
  0
LINE
  8
0_00
  6
DASHED
 62
2
 10
270.7843
 20
573.4008
 11
270.7843
 21
574.4008
  0
LINE
  8
0_00
  6
DASHED
 62
2
 10
227.7843
 20
573.4008
 11
227.7843
 21
574.4008
  0
LINE
  8
0_00
  6
CENTER1
 62
6
 10
267.2843
 20
584.6391
 11
267.2843
 21
539.5498
  0
LINE
  8
0_00
  6
CENTER1
 62
6
 10
253.7843
 20
584.6391
 11
253.7843
 21
539.5498
  0
LINE
  8
0_00
  6
CENTER1
 62
6
 10
244.7843
 20
584.6391
 11
244.7843
 21
539.5498
  0
LINE
  8
0_00
  6
CONTINUOUS
 62
4
 10
502.7782
 20
247.7005
 11
502.7782
 21
194.3827
  0
LINE
  8
0_00
  6
DASHED
 62
2
 10
509.7783
 20
243.7005
 11
509.7783
 21
194.3827
  0
LINE
  8
0_00
  6
DASHED
 62
2
 10
523.7783
 20
243.7005
 11
523.7783
 21
194.3827
  0
LINE
  8
0_00
  6
CONTINUOUS
 62
4
 10
530.7783
 20
247.7005
 11
530.7783
 21
194.3827
  0
LINE
  8
0_00
  6
DASHED
 62
2
 10
523.7783
 20
243.7005
 11
509.7783
 21
243.7005
  0
LINE
  8
0_00
  6
CENTER1
 62
6
 10
527.2783
 20
258.3934
 11
527.2783
 21
212.9185
  0
LINE
  8
0_00
  6
CENTER1
 62
6
 10
506.2782
 20
258.3934
 11
506.2782
 21
212.9185
  0
LINE
  8
0_00
  6
CENTER1
 62
6
 10
776.1290
 20
730.7350
 11
776.1290
 21
670.0295
  0
LINE
  8
0_00
  6
CONTINUOUS
 62
4
 10
741.8540
 20
689.4094
 11
741.8540
 21
701.3044
  0
LINE
  8
0_00
  6
CONTINUOUS
 62
4
 10
735.4040
 20
689.4094
 11
735.4040
 21
701.3044
  0
LINE
  8
0_00
  6
CONTINUOUS
 62
4
 10
735.1040
 20
702.2044
 11
735.1040
 21
701.3044
  0
LINE
  8
0_00
  6
CONTINUOUS
 62
4
 10
735.1040
 20
701.3044
 11
742.1540
 21
701.3044
  0
LINE
  8
0_00
  6
CONTINUOUS
 62
4
 10
735.1040
 20
702.2044
 11
742.1540
 21
702.2044
  0
LINE
  8
0_00
  6
CONTINUOUS
 62
4
 10
742.1540
 20
702.2044
 11
742.1540
 21
701.3044
  0
LINE
  8
16_10
  6
CONTINUOUS
 62
4
 10
773.7290
 20
702.2044
 11
773.7290
 21
701.3044
  0
LINE
  8
16_10
  6
CONTINUOUS
 62
4
 10
778.5290
 20
701.3044
 11
773.7290
 21
701.3044
  0
LINE
  8
16_10
  6
CONTINUOUS
 62
4
 10
773.7290
 20
701.7869
 11
773.7290
 21
701.3044
  0
LINE
  8
16_10
  6
CONTINUOUS
 62
4
 10
778.5290
 20
702.2044
 11
778.5290
 21
701.3044
  0
LINE
  8
16_10
  6
CONTINUOUS
 62
4
 10
774.0289
 20
701.3044
 11
774.0289
 21
688.7043
  0
LINE
  8
16_10
  6
CONTINUOUS
 62
4
 10
778.2290
 20
701.3044
 11
778.2290
 21
688.7043
  0
LINE
  8
0_00
  6
CONTINUOUS
 62
4
 10
778.5290
 20
702.2044
 11
773.7290
 21
702.2044
  0
LINE
  8
0_00
  6
CENTER1
 62
6
 10
931.1290
 20
736.6302
 11
931.1290
 21
695.7173
  0
LINE
  8
0_00
  6
CONTINUOUS
 62
4
 10
933.2291
 20
703.7044
 11
933.2291
 21
719.1544
  0
LINE
  8
0_00
  6
CONTINUOUS
 62
4
 10
929.0290
 20
703.7044
 11
929.0290
 21
719.1544
  0
LINE
  8
0_00
  6
CONTINUOUS
 62
4
 10
932.4790
 20
704.0793
 11
932.4790
 21
717.0544
  0
LINE
  8
0_00
  6
CONTINUOUS
 62
4
 10
929.7790
 20
704.0793
 11
929.7790
 21
717.0544
  0
LINE
  8
0_00
  6
CONTINUOUS
 62
4
 10
930.1540
 20
717.4294
 11
932.1040
 21
717.4294
  0
LINE
  8
0_00
  6
CONTINUOUS
 62
4
 10
929.0290
 20
703.7044
 11
928.7290
 21
702.2044
  0
LINE
  8
0_00
  6
CONTINUOUS
 62
4
 10
933.2291
 20
703.7044
 11
933.5290
 21
702.2044
  0
LINE
  8
0_00
  6
CONTINUOUS
 62
4
 10
932.1040
 20
703.7044
 11
930.1540
 21
703.7044
  0
LINE
  8
0_00
  6
CONTINUOUS
 62
4
 10
929.6290
 20
705.2044
 11
929.1790
 21
705.2044
  0
LINE
  8
0_00
  6
CONTINUOUS
 62
4
 10
929.1790
 20
716.6794
 11
929.6290
 21
716.6794
  0
LINE
  8
0_00
  6
CONTINUOUS
 62
4
 10
932.6290
 20
716.6794
 11
933.0790
 21
716.6794
  0
LINE
  8
0_00
  6
CONTINUOUS
 62
4
 10
932.6290
 20
705.2044
 11
933.0790
 21
705.2044
  0
LINE
  8
0_00
  6
CENTER1
 62
6
 10
931.1290
 20
730.7350
 11
931.1290
 21
670.0295
  0
LINE
  8
16_10
  6
CONTINUOUS
 62
4
 10
928.7290
 20
702.2044
 11
928.7290
 21
701.3044
  0
LINE
  8
16_10
  6
CONTINUOUS
 62
4
 10
933.5290
 20
701.3044
 11
928.7290
 21
701.3044
  0
LINE
  8
16_10
  6
CONTINUOUS
 62
4
 10
928.7290
 20
701.7869
 11
928.7290
 21
701.3044
  0
LINE
  8
16_10
  6
CONTINUOUS
 62
4
 10
933.5290
 20
702.2044
 11
933.5290
 21
701.3044
  0
LINE
  8
16_10
  6
CONTINUOUS
 62
4
 10
929.0290
 20
701.3044
 11
929.0290
 21
688.7043
  0
LINE
  8
16_10
  6
CONTINUOUS
 62
4
 10
933.2291
 20
701.3044
 11
933.2291
 21
688.7043
  0
LINE
  8
0_00
  6
CONTINUOUS
 62
4
 10
933.5290
 20
702.2044
 11
928.7290
 21
702.2044
  0
LINE
  8
0_00
  6
CENTER1
 62
6
 10
1086.1290
 20
736.6302
 11
1086.1290
 21
705.7173
  0
LINE
  8
0_00
  6
CONTINUOUS
 62
4
 10
1088.2289
 20
703.7044
 11
1088.2289
 21
719.1544
  0
LINE
  8
0_00
  6
CONTINUOUS
 62
4
 10
1084.0291
 20
703.7044
 11
1084.0291
 21
719.1544
  0
LINE
  8
0_00
  6
CONTINUOUS
 62
4
 10
1087.4790
 20
704.0793
 11
1087.4790
 21
717.0544
  0
LINE
  8
0_00
  6
CONTINUOUS
 62
4
 10
1084.7791
 20
704.0793
 11
1084.7791
 21
717.0544
  0
LINE
  8
0_00
  6
CONTINUOUS
 62
4
 10
1085.1541
 20
717.4294
 11
1087.1040
 21
717.4294
  0
LINE
  8
0_00
  6
CONTINUOUS
 62
4
 10
1084.0291
 20
703.7044
 11
1083.7290
 21
702.2044
  0
LINE
  8
0_00
  6
CONTINUOUS
 62
4
 10
1088.2289
 20
703.7044
 11
1088.5291
 21
702.2044
  0
LINE
  8
0_00
  6
CONTINUOUS
 62
4
 10
1087.1040
 20
703.7044
 11
1085.1541
 21
703.7044
  0
LINE
  8
0_00
  6
CONTINUOUS
 62
4
 10
1084.6290
 20
705.2044
 11
1084.1789
 21
705.2044
  0
LINE
  8
0_00
  6
CONTINUOUS
 62
4
 10
1084.1789
 20
716.6794
 11
1084.6290
 21
716.6794
  0
LINE
  8
0_00
  6
CONTINUOUS
 62
4
 10
1087.6290
 20
716.6794
 11
1088.0790
 21
716.6794
  0
LINE
  8
0_00
  6
CONTINUOUS
 62
4
 10
1087.6290
 20
705.2044
 11
1088.0790
 21
705.2044
  0
LINE
  8
0_00
  6
CENTER1
 62
6
 10
1086.1290
 20
730.7350
 11
1086.1290
 21
670.0295
  0
LINE
  8
16_10
  6
CONTINUOUS
 62
4
 10
1083.7290
 20
702.2044
 11
1083.7290
 21
701.3044
  0
LINE
  8
16_10
  6
CONTINUOUS
 62
4
 10
1088.5291
 20
701.3044
 11
1083.7290
 21
701.3044
  0
LINE
  8
16_10
  6
CONTINUOUS
 62
4
 10
1083.7290
 20
701.7869
 11
1083.7290
 21
701.3044
  0
LINE
  8
16_10
  6
CONTINUOUS
 62
4
 10
1088.5291
 20
702.2044
 11
1088.5291
 21
701.3044
  0
LINE
  8
16_10
  6
CONTINUOUS
 62
4
 10
1084.0291
 20
701.3044
 11
1084.0291
 21
688.7043
  0
LINE
  8
16_10
  6
CONTINUOUS
 62
4
 10
1088.2289
 20
701.3044
 11
1088.2289
 21
688.7043
  0
LINE
  8
0_00
  6
CONTINUOUS
 62
4
 10
1088.5291
 20
702.2044
 11
1083.7290
 21
702.2044
  0
LINE
  8
0_00
  6
CONTINUOUS
 62
4
 10
800.1302
 20
370.3646
 11
740.1302
 21
370.3646
  0
LINE
  8
0_00
  6
CONTINUOUS
 62
4
 10
740.1302
 20
365.0646
 11
800.1302
 21
365.0646
  0
LINE
  8
0_00
  6
CONTINUOUS
 62
4
 10
740.1302
 20
352.8646
 11
800.1302
 21
352.8646
  0
LINE
  8
0_00
  6
CONTINUOUS
 62
4
 10
740.1302
 20
351.3646
 11
800.1302
 21
351.3646
  0
LINE
  8
0_00
  6
CONTINUOUS
 62
2
 10
740.1302
 20
341.3646
 11
800.1302
 21
341.3646
  0
LINE
  8
0_00
  6
CONTINUOUS
 62
2
 10
790.1302
 20
351.3646
 11
800.1302
 21
341.3646
  0
LINE
  8
0_00
  6
CONTINUOUS
 62
2
 10
792.9587
 20
351.3646
 11
800.1302
 21
344.1931
  0
LINE
  8
0_00
  6
CONTINUOUS
 62
2
 10
795.7871
 20
351.3646
 11
800.1302
 21
347.0215
  0
LINE
  8
0_00
  6
CONTINUOUS
 62
2
 10
798.6156
 20
351.3646
 11
800.1302
 21
349.8499
  0
LINE
  8
0_00
  6
CONTINUOUS
 62
2
 10
787.3018
 20
351.3646
 11
797.3018
 21
341.3646
  0
LINE
  8
0_00
  6
CONTINUOUS
 62
2
 10
784.4734
 20
351.3646
 11
794.4734
 21
341.3646
  0
LINE
  8
0_00
  6
CONTINUOUS
 62
2
 10
781.6450
 20
351.3646
 11
791.6451
 21
341.3646
  0
LINE
  8
0_00
  6
CONTINUOUS
 62
2
 10
778.8166
 20
351.3646
 11
788.8165
 21
341.3646
  0
LINE
  8
0_00
  6
CONTINUOUS
 62
2
 10
775.9882
 20
351.3646
 11
785.9882
 21
341.3646
  0
LINE
  8
0_00
  6
CONTINUOUS
 62
2
 10
773.1596
 20
351.3646
 11
783.1597
 21
341.3646
  0
LINE
  8
0_00
  6
CONTINUOUS
 62
2
 10
770.3313
 20
351.3646
 11
780.3312
 21
341.3646
  0
LINE
  8
0_00
  6
CONTINUOUS
 62
2
 10
767.5029
 20
351.3646
 11
777.5029
 21
341.3646
  0
LINE
  8
0_00
  6
CONTINUOUS
 62
2
 10
764.6744
 20
351.3646
 11
774.6744
 21
341.3646
  0
LINE
  8
0_00
  6
CONTINUOUS
 62
2
 10
761.8460
 20
351.3646
 11
771.8460
 21
341.3646
  0
LINE
  8
0_00
  6
CONTINUOUS
 62
2
 10
759.0176
 20
351.3646
 11
769.0176
 21
341.3646
  0
LINE
  8
0_00
  6
CONTINUOUS
 62
2
 10
756.1892
 20
351.3646
 11
766.1891
 21
341.3646
  0
LINE
  8
0_00
  6
CONTINUOUS
 62
2
 10
753.3607
 20
351.3646
 11
763.3607
 21
341.3646
  0
LINE
  8
0_00
  6
CONTINUOUS
 62
2
 10
750.5322
 20
351.3646
 11
760.5323
 21
341.3646
  0
LINE
  8
0_00
  6
CONTINUOUS
 62
2
 10
747.7039
 20
351.3646
 11
757.7039
 21
341.3646
  0
LINE
  8
0_00
  6
CONTINUOUS
 62
2
 10
744.8754
 20
351.3646
 11
754.8754
 21
341.3646
  0
LINE
  8
0_00
  6
CONTINUOUS
 62
2
 10
742.0470
 20
351.3646
 11
752.0470
 21
341.3646
  0
LINE
  8
0_00
  6
CONTINUOUS
 62
2
 10
740.1302
 20
350.4529
 11
749.2186
 21
341.3646
  0
LINE
  8
0_00
  6
CONTINUOUS
 62
2
 10
740.1302
 20
347.6245
 11
746.3901
 21
341.3646
  0
LINE
  8
0_00
  6
CONTINUOUS
 62
2
 10
740.1302
 20
344.7961
 11
743.5617
 21
341.3646
  0
LINE
  8
0_00
  6
CONTINUOUS
 62
2
 10
740.1302
 20
341.9676
 11
740.7333
 21
341.3646
  0
LINE
  8
0_00
  6
CONTINUOUS
 62
2
 10
751.3543
 20
319.6545
 11
752.2233
 21
318.8158
  0
LINE
  8
0_00
  6
CONTINUOUS
 62
2
 10
752.2233
 20
318.8158
 11
752.6303
 21
318.6673
  0
LINE
  8
0_00
  6
CONTINUOUS
 62
2
 10
752.6303
 20
318.6673
 11
753.0152
 21
318.8075
  0
LINE
  8
0_00
  6
CONTINUOUS
 62
2
 10
753.0152
 20
318.8075
 11
753.9117
 21
319.6518
  0
LINE
  8
0_00
  6
CONTINUOUS
 62
2
 10
750.5404
 20
318.8406
 11
751.3791
 21
317.9716
  0
LINE
  8
0_00
  6
CONTINUOUS
 62
2
 10
751.3791
 20
317.9716
 11
751.5276
 21
317.5646
  0
LINE
  8
0_00
  6
CONTINUOUS
 62
2
 10
751.5276
 20
317.5646
 11
751.3873
 21
317.1797
  0
LINE
  8
0_00
  6
CONTINUOUS
 62
2
 10
751.3873
 20
317.1797
 11
750.5431
 21
316.2832
  0
LINE
  8
0_00
  6
CONTINUOUS
 62
2
 10
754.7201
 20
316.2887
 11
753.8815
 21
317.1577
  0
LINE
  8
0_00
  6
CONTINUOUS
 62
2
 10
753.8815
 20
317.1577
 11
753.7330
 21
317.5646
  0
LINE
  8
0_00
  6
CONTINUOUS
 62
2
 10
753.7330
 20
317.5646
 11
753.8731
 21
317.9496
  0
LINE
  8
0_00
  6
CONTINUOUS
 62
2
 10
753.8731
 20
317.9496
 11
754.7174
 21
318.8461
  0
LINE
  8
0_00
  6
CONTINUOUS
 62
2
 10
753.9062
 20
315.4747
 11
753.0372
 21
316.3135
  0
LINE
  8
0_00
  6
CONTINUOUS
 62
2
 10
753.0372
 20
316.3135
 11
752.6303
 21
316.4620
  0
LINE
  8
0_00
  6
CONTINUOUS
 62
2
 10
752.6303
 20
316.4620
 11
752.2453
 21
316.3217
  0
LINE
  8
0_00
  6
CONTINUOUS
 62
2
 10
752.2453
 20
316.3217
 11
751.3488
 21
315.4775
  0
LINE
  8
0_00
  6
CONTINUOUS
 62
4
 10
800.1302
 20
370.3646
 11
800.1302
 21
208.7646
  0
LINE
  8
0_00
  6
CONTINUOUS
 62
4
 10
740.1302
 20
370.3646
 11
740.1302
 21
208.7646
  0
LINE
  8
0_00
  6
CONTINUOUS
 62
4
 10
800.1302
 20
208.7646
 11
740.1302
 21
208.7646
  0
LINE
  8
0_00
  6
CONTINUOUS
 62
4
 10
740.1302
 20
214.0646
 11
800.1302
 21
214.0646
  0
LINE
  8
0_00
  6
CONTINUOUS
 62
4
 10
740.1302
 20
226.2646
 11
800.1302
 21
226.2646
  0
LINE
  8
0_00
  6
CONTINUOUS
 62
4
 10
740.1302
 20
227.7646
 11
800.1302
 21
227.7646
  0
LINE
  8
0_00
  6
CONTINUOUS
 62
4
 10
740.1302
 20
243.7646
 11
800.1302
 21
243.7646
  0
LINE
  8
0_00
  6
CONTINUOUS
 62
4
 10
740.1302
 20
245.2646
 11
800.1302
 21
245.2646
  0
LINE
  8
0_00
  6
CONTINUOUS
 62
4
 10
740.1302
 20
248.5646
 11
800.1302
 21
248.5646
  0
LINE
  8
0_00
  6
CONTINUOUS
 62
4
 10
740.1302
 20
335.3646
 11
800.1302
 21
335.3646
  0
LINE
  8
0_00
  6
CONTINUOUS
 62
4
 10
740.1302
 20
333.8646
 11
800.1302
 21
333.8646
  0
LINE
  8
0_00
  6
CONTINUOUS
 62
4
 10
740.1302
 20
330.5646
 11
800.1302
 21
330.5646
  0
LINE
  8
0_00
  6
CONTINUOUS
 62
4
 10
770.6303
 20
330.0646
 11
769.6303
 21
330.0646
  0
LINE
  8
0_00
  6
CONTINUOUS
 62
4
 10
770.6303
 20
330.0646
 11
770.6303
 21
328.8685
  0
LINE
  8
0_00
  6
CONTINUOUS
 62
4
 10
769.6303
 20
330.0646
 11
769.6303
 21
328.8685
  0
LINE
  8
0_00
  6
CONTINUOUS
 62
4
 10
770.1302
 20
330.0646
 11
770.1302
 21
328.5646
  0
LINE
  8
0_00
  6
CONTINUOUS
 62
4
 10
770.6303
 20
249.0646
 11
769.6303
 21
249.0646
  0
LINE
  8
0_00
  6
CONTINUOUS
 62
4
 10
770.6303
 20
249.0646
 11
770.6303
 21
250.2608
  0
LINE
  8
0_00
  6
CONTINUOUS
 62
4
 10
769.6303
 20
249.0646
 11
769.6303
 21
250.2608
  0
LINE
  8
0_00
  6
CONTINUOUS
 62
4
 10
770.1302
 20
249.0646
 11
770.1302
 21
250.5646
  0
LINE
  8
0_00
  6
CONTINUOUS
 62
4
 10
740.1302
 20
328.5646
 11
740.1302
 21
291.5646
  0
LINE
  8
0_00
  6
CONTINUOUS
 62
4
 10
740.1302
 20
287.5646
 11
740.1302
 21
250.5646
  0
LINE
  8
0_00
  6
CONTINUOUS
 62
4
 10
800.1302
 20
328.5646
 11
800.1302
 21
291.5646
  0
LINE
  8
0_00
  6
CONTINUOUS
 62
4
 10
800.1302
 20
287.5646
 11
800.1302
 21
250.5646
  0
LINE
  8
0_00
  6
CONTINUOUS
 62
4
 10
800.1302
 20
291.5646
 11
798.2984
 21
289.9386
  0
LINE
  8
0_00
  6
CONTINUOUS
 62
4
 10
800.1302
 20
287.5646
 11
798.2984
 21
289.1907
  0
LINE
  8
0_00
  6
CONTINUOUS
 62
4
 10
740.1302
 20
291.5646
 11
741.9622
 21
289.9386
  0
LINE
  8
0_00
  6
CONTINUOUS
 62
4
 10
740.1302
 20
287.5646
 11
741.9622
 21
289.1907
  0
LINE
  8
0_00
  6
CONTINUOUS
 62
4
 10
772.2030
 20
330.5646
 11
770.4968
 21
328.7247
  0
LINE
  8
0_00
  6
CONTINUOUS
 62
4
 10
768.0575
 20
330.5646
 11
769.7636
 21
328.7247
  0
LINE
  8
0_00
  6
CONTINUOUS
 62
4
 10
772.2030
 20
248.5646
 11
770.4968
 21
250.4046
  0
LINE
  8
0_00
  6
CONTINUOUS
 62
4
 10
768.0575
 20
248.5646
 11
769.7636
 21
250.4046
  0
LINE
  8
0_00
  6
CONTINUOUS
 62
2
 10
788.9062
 20
259.4747
 11
788.0372
 21
260.3134
  0
LINE
  8
0_00
  6
CONTINUOUS
 62
2
 10
788.0372
 20
260.3134
 11
787.6303
 21
260.4619
  0
LINE
  8
0_00
  6
CONTINUOUS
 62
2
 10
787.6303
 20
260.4619
 11
787.2453
 21
260.3217
  0
LINE
  8
0_00
  6
CONTINUOUS
 62
2
 10
787.2453
 20
260.3217
 11
786.3488
 21
259.4775
  0
LINE
  8
0_00
  6
CONTINUOUS
 62
2
 10
789.7202
 20
260.2887
 11
788.8814
 21
261.1577
  0
LINE
  8
0_00
  6
CONTINUOUS
 62
2
 10
788.8814
 20
261.1577
 11
788.7329
 21
261.5646
  0
LINE
  8
0_00
  6
CONTINUOUS
 62
2
 10
788.7329
 20
261.5646
 11
788.8731
 21
261.9496
  0
LINE
  8
0_00
  6
CONTINUOUS
 62
2
 10
788.8731
 20
261.9496
 11
789.7174
 21
262.8461
  0
LINE
  8
0_00
  6
CONTINUOUS
 62
2
 10
785.5404
 20
262.8406
 11
786.3791
 21
261.9716
  0
LINE
  8
0_00
  6
CONTINUOUS
 62
2
 10
786.3791
 20
261.9716
 11
786.5275
 21
261.5646
  0
LINE
  8
0_00
  6
CONTINUOUS
 62
2
 10
786.5275
 20
261.5646
 11
786.3874
 21
261.1797
  0
LINE
  8
0_00
  6
CONTINUOUS
 62
2
 10
786.3874
 20
261.1797
 11
785.5431
 21
260.2832
  0
LINE
  8
0_00
  6
CONTINUOUS
 62
2
 10
786.3543
 20
263.6545
 11
787.2232
 21
262.8158
  0
LINE
  8
0_00
  6
CONTINUOUS
 62
2
 10
787.2232
 20
262.8158
 11
787.6303
 21
262.6673
  0
LINE
  8
0_00
  6
CONTINUOUS
 62
2
 10
787.6303
 20
262.6673
 11
788.0153
 21
262.8075
  0
LINE
  8
0_00
  6
CONTINUOUS
 62
2
 10
788.0153
 20
262.8075
 11
788.9117
 21
263.6518
  0
LINE
  8
0_00
  6
CONTINUOUS
 62
4
 10
740.1302
 20
302.0646
 11
800.1302
 21
302.0646
  0
LINE
  8
0_00
  6
CONTINUOUS
 62
4
 10
800.1302
 20
304.5646
 11
740.1302
 21
304.5646
  0
LINE
  8
0_00
  6
CONTINUOUS
 62
4
 10
740.1302
 20
277.0646
 11
800.1302
 21
277.0646
  0
LINE
  8
0_00
  6
CONTINUOUS
 62
4
 10
800.1302
 20
274.5646
 11
740.1302
 21
274.5646
  0
LINE
  8
0_00
  6
CONTINUOUS
 62
4
 10
769.8302
 20
277.5646
 11
770.4303
 21
277.5646
  0
LINE
  8
0_00
  6
CONTINUOUS
 62
4
 10
769.8302
 20
280.5646
 11
770.4303
 21
280.5646
  0
LINE
  8
0_00
  6
CONTINUOUS
 62
4
 10
770.4303
 20
280.5646
 11
770.4303
 21
277.5646
  0
LINE
  8
0_00
  6
CONTINUOUS
 62
4
 10
769.8302
 20
280.5646
 11
769.8302
 21
277.5646
  0
LINE
  8
0_00
  6
CONTINUOUS
 62
4
 10
770.1302
 20
277.5646
 11
770.1302
 21
280.5646
  0
LINE
  8
0_00
  6
CONTINUOUS
 62
4
 10
769.8302
 20
301.5646
 11
770.4303
 21
301.5646
  0
LINE
  8
0_00
  6
CONTINUOUS
 62
4
 10
769.8302
 20
298.5646
 11
770.4303
 21
298.5646
  0
LINE
  8
0_00
  6
CONTINUOUS
 62
4
 10
770.4303
 20
298.5646
 11
770.4303
 21
301.5646
  0
LINE
  8
0_00
  6
CONTINUOUS
 62
4
 10
769.8302
 20
298.5646
 11
769.8302
 21
301.5646
  0
LINE
  8
0_00
  6
CONTINUOUS
 62
4
 10
770.1302
 20
301.5646
 11
770.1302
 21
298.5646
  0
LINE
  8
0_00
  6
CONTINUOUS
 62
4
 10
791.8802
 20
320.8146
 11
783.3803
 21
320.8146
  0
LINE
  8
0_00
  6
CONTINUOUS
 62
4
 10
791.8802
 20
314.3147
 11
783.3803
 21
314.3147
  0
LINE
  8
0_00
  6
CONTINUOUS
 62
4
 10
748.3803
 20
258.3146
 11
756.8803
 21
258.3146
  0
LINE
  8
0_00
  6
CONTINUOUS
 62
4
 10
748.3803
 20
264.8146
 11
756.8803
 21
264.8146
  0
LINE
  8
0_00
  6
CONTINUOUS
 62
2
 10
740.1302
 20
237.7646
 11
800.1302
 21
237.7646
  0
LINE
  8
0_00
  6
CONTINUOUS
 62
2
 10
785.1302
 20
237.7646
 11
795.1302
 21
227.7646
  0
LINE
  8
0_00
  6
CONTINUOUS
 62
2
 10
787.9587
 20
237.7646
 11
797.9587
 21
227.7646
  0
LINE
  8
0_00
  6
CONTINUOUS
 62
2
 10
790.7871
 20
237.7646
 11
800.1302
 21
228.4215
  0
LINE
  8
0_00
  6
CONTINUOUS
 62
2
 10
793.6155
 20
237.7646
 11
800.1302
 21
231.2499
  0
LINE
  8
0_00
  6
CONTINUOUS
 62
2
 10
796.4440
 20
237.7646
 11
800.1302
 21
234.0783
  0
LINE
  8
0_00
  6
CONTINUOUS
 62
2
 10
799.2724
 20
237.7646
 11
800.1302
 21
236.9068
  0
LINE
  8
0_00
  6
CONTINUOUS
 62
2
 10
782.3018
 20
237.7646
 11
792.3018
 21
227.7646
  0
LINE
  8
0_00
  6
CONTINUOUS
 62
2
 10
779.4734
 20
237.7646
 11
789.4734
 21
227.7646
  0
LINE
  8
0_00
  6
CONTINUOUS
 62
2
 10
776.6451
 20
237.7646
 11
786.6450
 21
227.7646
  0
LINE
  8
0_00
  6
CONTINUOUS
 62
2
 10
773.8165
 20
237.7646
 11
783.8166
 21
227.7646
  0
LINE
  8
0_00
  6
CONTINUOUS
 62
2
 10
770.9881
 20
237.7646
 11
780.9881
 21
227.7646
  0
LINE
  8
0_00
  6
CONTINUOUS
 62
2
 10
768.1597
 20
237.7646
 11
778.1597
 21
227.7646
  0
LINE
  8
0_00
  6
CONTINUOUS
 62
2
 10
765.3313
 20
237.7646
 11
775.3313
 21
227.7646
  0
LINE
  8
0_00
  6
CONTINUOUS
 62
2
 10
762.5029
 20
237.7646
 11
772.5028
 21
227.7646
  0
LINE
  8
0_00
  6
CONTINUOUS
 62
2
 10
759.6744
 20
237.7646
 11
769.6745
 21
227.7646
  0
LINE
  8
0_00
  6
CONTINUOUS
 62
2
 10
756.8460
 20
237.7646
 11
766.8460
 21
227.7646
  0
LINE
  8
0_00
  6
CONTINUOUS
 62
2
 10
754.0176
 20
237.7646
 11
764.0176
 21
227.7646
  0
LINE
  8
0_00
  6
CONTINUOUS
 62
2
 10
751.1891
 20
237.7646
 11
761.1892
 21
227.7646
  0
LINE
  8
0_00
  6
CONTINUOUS
 62
2
 10
748.3607
 20
237.7646
 11
758.3607
 21
227.7646
  0
LINE
  8
0_00
  6
CONTINUOUS
 62
2
 10
745.5323
 20
237.7646
 11
755.5323
 21
227.7646
  0
LINE
  8
0_00
  6
CONTINUOUS
 62
2
 10
742.7038
 20
237.7646
 11
752.7038
 21
227.7646
  0
LINE
  8
0_00
  6
CONTINUOUS
 62
2
 10
740.1302
 20
237.5098
 11
749.8754
 21
227.7646
  0
LINE
  8
0_00
  6
CONTINUOUS
 62
2
 10
740.1302
 20
234.6814
 11
747.0470
 21
227.7646
  0
LINE
  8
0_00
  6
CONTINUOUS
 62
2
 10
740.1302
 20
231.8530
 11
744.2185
 21
227.7646
  0
LINE
  8
0_00
  6
CONTINUOUS
 62
2
 10
740.1302
 20
229.0245
 11
741.3902
 21
227.7646
  0
LINE
  8
15_0F
  6
CENTER1
 62
6
 10
772.5862
 20
261.5646
 11
804.2653
 21
261.5646
  0
LINE
  8
15_0F
  6
CENTER1
 62
6
 10
787.6303
 20
273.7771
 11
787.6303
 21
248.4941
  0
LINE
  8
15_0F
  6
CENTER1
 62
6
 10
752.6303
 20
329.7770
 11
752.6303
 21
304.4941
  0
LINE
  8
15_0F
  6
CENTER1
 62
6
 10
737.5862
 20
317.5646
 11
769.2653
 21
317.5646
  0
LINE
  8
0_00
  6
CONTINUOUS
 62
4
 10
768.4533
 20
287.0647
 11
768.7376
 21
287.0647
  0
LINE
  8
0_00
  6
CONTINUOUS
 62
4
 10
768.6046
 20
285.8146
 11
768.1303
 21
285.8146
  0
LINE
  8
0_00
  6
CONTINUOUS
 62
4
 10
768.1303
 20
284.3146
 11
768.6046
 21
284.3146
  0
LINE
  8
0_00
  6
CONTINUOUS
 62
4
 10
769.3802
 20
283.5390
 11
769.3802
 21
283.0646
  0
LINE
  8
0_00
  6
CONTINUOUS
 62
4
 10
771.8073
 20
287.0647
 11
771.5229
 21
287.0647
  0
LINE
  8
0_00
  6
CONTINUOUS
 62
4
 10
771.6559
 20
285.8146
 11
772.1303
 21
285.8146
  0
LINE
  8
0_00
  6
CONTINUOUS
 62
4
 10
772.1303
 20
284.3146
 11
771.6559
 21
284.3146
  0
LINE
  8
0_00
  6
CONTINUOUS
 62
4
 10
770.8802
 20
283.5390
 11
770.8802
 21
283.0646
  0
LINE
  8
0_00
  6
CONTINUOUS
 62
4
 10
768.1303
 20
285.8146
 11
768.1303
 21
284.3146
  0
LINE
  8
0_00
  6
CONTINUOUS
 62
4
 10
772.1303
 20
284.3146
 11
772.1303
 21
285.8146
  0
LINE
  8
0_00
  6
CONTINUOUS
 62
4
 10
769.9303
 20
281.8147
 11
770.1302
 21
282.0146
  0
LINE
  8
0_00
  6
CONTINUOUS
 62
4
 10
770.3303
 20
281.8147
 11
770.1302
 21
282.0146
  0
LINE
  8
0_00
  6
CONTINUOUS
 62
4
 10
769.3802
 20
283.0646
 11
770.8802
 21
283.0646
  0
LINE
  8
0_00
  6
CONTINUOUS
 62
4
 10
763.3303
 20
289.5646
 11
763.1302
 21
289.3646
  0
LINE
  8
0_00
  6
CONTINUOUS
 62
4
 10
763.3303
 20
289.5646
 11
763.1302
 21
289.7646
  0
LINE
  8
0_00
  6
CONTINUOUS
 62
4
 10
763.1302
 20
288.0646
 11
763.1302
 21
289.3646
  0
LINE
  8
0_00
  6
CONTINUOUS
 62
4
 10
763.1302
 20
289.7646
 11
763.1302
 21
291.0646
  0
LINE
  8
0_00
  6
CONTINUOUS
 62
4
 10
764.2303
 20
288.0646
 11
764.2303
 21
291.0646
  0
LINE
  8
0_00
  6
CONTINUOUS
 62
4
 10
776.9303
 20
289.5646
 11
777.1303
 21
289.3646
  0
LINE
  8
0_00
  6
CONTINUOUS
 62
4
 10
776.9303
 20
289.5646
 11
777.1303
 21
289.7646
  0
LINE
  8
0_00
  6
CONTINUOUS
 62
4
 10
777.1303
 20
288.0646
 11
777.1303
 21
289.3646
  0
LINE
  8
0_00
  6
CONTINUOUS
 62
4
 10
777.1303
 20
289.7646
 11
777.1303
 21
291.0646
  0
LINE
  8
0_00
  6
CONTINUOUS
 62
4
 10
776.0303
 20
288.0646
 11
776.0303
 21
291.0646
  0
LINE
  8
0_00
  6
CONTINUOUS
 62
4
 10
765.8304
 20
281.8147
 11
769.9303
 21
281.8147
  0
LINE
  8
0_00
  6
CONTINUOUS
 62
4
 10
767.1316
 20
282.8646
 11
765.7985
 21
282.8646
  0
LINE
  8
0_00
  6
CONTINUOUS
 62
4
 10
774.4301
 20
281.8147
 11
770.3303
 21
281.8147
  0
LINE
  8
0_00
  6
CONTINUOUS
 62
4
 10
773.1291
 20
282.8646
 11
774.4621
 21
282.8646
  0
LINE
  8
0_00
  6
CONTINUOUS
 62
4
 10
768.4533
 20
292.0646
 11
768.7376
 21
292.0646
  0
LINE
  8
0_00
  6
CONTINUOUS
 62
4
 10
768.6046
 20
293.3146
 11
768.1303
 21
293.3146
  0
LINE
  8
0_00
  6
CONTINUOUS
 62
4
 10
768.1303
 20
294.8146
 11
768.6046
 21
294.8146
  0
LINE
  8
0_00
  6
CONTINUOUS
 62
4
 10
769.3802
 20
295.5902
 11
769.3802
 21
296.0646
  0
LINE
  8
0_00
  6
CONTINUOUS
 62
4
 10
771.8073
 20
292.0646
 11
771.5229
 21
292.0646
  0
LINE
  8
0_00
  6
CONTINUOUS
 62
4
 10
771.6559
 20
293.3146
 11
772.1303
 21
293.3146
  0
LINE
  8
0_00
  6
CONTINUOUS
 62
4
 10
772.1303
 20
294.8146
 11
771.6559
 21
294.8146
  0
LINE
  8
0_00
  6
CONTINUOUS
 62
4
 10
770.8802
 20
295.5902
 11
770.8802
 21
296.0646
  0
LINE
  8
0_00
  6
CONTINUOUS
 62
4
 10
768.1303
 20
293.3146
 11
768.1303
 21
294.8146
  0
LINE
  8
0_00
  6
CONTINUOUS
 62
4
 10
772.1303
 20
294.8146
 11
772.1303
 21
293.3146
  0
LINE
  8
0_00
  6
CONTINUOUS
 62
4
 10
769.9303
 20
297.3146
 11
770.1302
 21
297.1146
  0
LINE
  8
0_00
  6
CONTINUOUS
 62
4
 10
770.3303
 20
297.3146
 11
770.1302
 21
297.1146
  0
LINE
  8
0_00
  6
CONTINUOUS
 62
4
 10
769.3802
 20
296.0646
 11
770.8802
 21
296.0646
  0
LINE
  8
0_00
  6
CONTINUOUS
 62
4
 10
765.8304
 20
297.3146
 11
769.9303
 21
297.3146
  0
LINE
  8
0_00
  6
CONTINUOUS
 62
4
 10
767.1316
 20
296.2646
 11
765.7985
 21
296.2646
  0
LINE
  8
0_00
  6
CONTINUOUS
 62
4
 10
774.4301
 20
297.3146
 11
770.3303
 21
297.3146
  0
LINE
  8
0_00
  6
CONTINUOUS
 62
4
 10
773.1291
 20
296.2646
 11
774.4621
 21
296.2646
  0
LINE
  8
0_00
  6
DASHED
 62
2
 10
269.1841
 20
589.4008
 11
256.3841
 21
589.4008
  0
LINE
  8
0_00
  6
DASHED
 62
2
 10
265.4341
 20
586.0009
 11
265.4341
 21
569.4008
  0
LINE
  8
0_00
  6
DASHED
 62
2
 10
260.1341
 20
586.0009
 11
260.1341
 21
569.4008
  0
LINE
  8
0_00
  6
DASHED
 62
2
 10
269.1841
 20
589.4008
 11
265.7841
 21
586.0009
  0
LINE
  8
0_00
  6
DASHED
 62
2
 10
256.3841
 20
589.4008
 11
259.7841
 21
586.0009
  0
LINE
  8
0_00
  6
DASHED
 62
2
 10
265.7841
 20
586.0009
 11
259.7841
 21
586.0009
  0
LINE
  8
0_00
  6
DASHED
 62
2
 10
265.7841
 20
586.0009
 11
265.7841
 21
569.4008
  0
LINE
  8
0_00
  6
DASHED
 62
2
 10
259.7841
 20
586.0009
 11
259.7841
 21
569.4008
  0
LINE
  8
0_00
  6
DASHED
 62
2
 10
265.7841
 20
569.4008
 11
259.7841
 21
569.4008
  0
LINE
  8
0_00
  6
DASHED
 62
2
 10
242.1841
 20
589.4008
 11
229.3841
 21
589.4008
  0
LINE
  8
0_00
  6
DASHED
 62
2
 10
238.4341
 20
586.0009
 11
238.4341
 21
569.4008
  0
LINE
  8
0_00
  6
DASHED
 62
2
 10
233.1341
 20
586.0009
 11
233.1341
 21
569.4008
  0
LINE
  8
0_00
  6
DASHED
 62
2
 10
242.1841
 20
589.4008
 11
238.7841
 21
586.0009
  0
LINE
  8
0_00
  6
DASHED
 62
2
 10
229.3841
 20
589.4008
 11
232.7841
 21
586.0009
  0
LINE
  8
0_00
  6
DASHED
 62
2
 10
238.7841
 20
586.0009
 11
232.7841
 21
586.0009
  0
LINE
  8
0_00
  6
DASHED
 62
2
 10
238.7841
 20
586.0009
 11
238.7841
 21
569.4008
  0
LINE
  8
0_00
  6
DASHED
 62
2
 10
232.7841
 20
586.0009
 11
232.7841
 21
569.4008
  0
LINE
  8
0_00
  6
DASHED
 62
2
 10
238.7841
 20
569.4008
 11
232.7841
 21
569.4008
  0
LINE
  8
0_00
  6
DASHED
 62
2
 10
199.0341
 20
695.6008
 11
199.0341
 21
683.6008
  0
LINE
  8
0_00
  6
DASHED
 62
2
 10
195.5341
 20
695.6008
 11
195.5341
 21
683.6008
  0
LINE
  8
0_00
  6
DASHED
 62
2
 10
199.2841
 20
695.6008
 11
199.2841
 21
683.6008
  0
LINE
  8
0_00
  6
DASHED
 62
2
 10
195.2841
 20
695.6008
 11
195.2841
 21
683.6008
  0
LINE
  8
0_00
  6
DASHED
 62
2
 10
199.2841
 20
683.6008
 11
195.2841
 21
683.6008
  0
LINE
  8
12_0C
  6
CONTINUOUS
 62
2
 10
193.2841
 20
695.6008
 11
201.2841
 21
695.6008
  0
LINE
  8
12_0C
  6
CONTINUOUS
 62
2
 10
193.2841
 20
696.0009
 11
201.2841
 21
696.0009
  0
LINE
  8
12_0C
  6
CONTINUOUS
 62
2
 10
201.2841
 20
695.6008
 11
201.2841
 21
696.0009
  0
LINE
  8
12_0C
  6
CONTINUOUS
 62
2
 10
193.2841
 20
695.6008
 11
193.2841
 21
696.0009
  0
LINE
  8
0_00
  6
DASHED
 62
2
 10
163.0341
 20
695.6008
 11
163.0341
 21
683.6008
  0
LINE
  8
0_00
  6
DASHED
 62
2
 10
159.5341
 20
695.6008
 11
159.5341
 21
683.6008
  0
LINE
  8
0_00
  6
DASHED
 62
2
 10
163.2841
 20
695.6008
 11
163.2841
 21
683.6008
  0
LINE
  8
0_00
  6
DASHED
 62
2
 10
159.2841
 20
695.6008
 11
159.2841
 21
683.6008
  0
LINE
  8
0_00
  6
DASHED
 62
2
 10
163.2841
 20
683.6008
 11
159.2841
 21
683.6008
  0
LINE
  8
12_0C
  6
CONTINUOUS
 62
2
 10
157.2841
 20
695.6008
 11
165.2841
 21
695.6008
  0
LINE
  8
12_0C
  6
CONTINUOUS
 62
2
 10
157.2841
 20
696.0009
 11
165.2841
 21
696.0009
  0
LINE
  8
12_0C
  6
CONTINUOUS
 62
2
 10
165.2841
 20
695.6008
 11
165.2841
 21
696.0009
  0
LINE
  8
12_0C
  6
CONTINUOUS
 62
2
 10
157.2841
 20
695.6008
 11
157.2841
 21
696.0009
  0
LINE
  8
0_00
  6
CONTINUOUS
 62
4
 10
179.2841
 20
695.7009
 11
178.9841
 21
695.4008
  0
LINE
  8
0_00
  6
CONTINUOUS
 62
4
 10
191.5841
 20
695.4008
 11
179.5841
 21
695.4008
  0
LINE
  8
0_00
  6
CONTINUOUS
 62
4
 10
179.2841
 20
695.7009
 11
179.5841
 21
695.4008
  0
LINE
  8
14_0E
  6
CONTINUOUS
 62
4
 10
192.3603
 20
697.0104
 11
183.2841
 21
697.4008
  0
LINE
  8
0_00
  6
CONTINUOUS
 62
4
 10
179.2841
 20
695.7009
 11
179.5841
 21
695.4008
  0
LINE
  8
0_00
  6
CONTINUOUS
 62
4
 10
166.9841
 20
695.4008
 11
178.9841
 21
695.4008
  0
LINE
  8
0_00
  6
CONTINUOUS
 62
4
 10
179.2841
 20
695.7009
 11
178.9841
 21
695.4008
  0
LINE
  8
14_0E
  6
CONTINUOUS
 62
4
 10
166.2079
 20
697.0104
 11
175.2841
 21
697.4008
  0
LINE
  8
0_00
  6
CONTINUOUS
 62
4
 10
183.2841
 20
697.4008
 11
175.2841
 21
697.4008
  0
LINE
  8
0_00
  6
CONTINUOUS
 62
4
 10
191.5841
 20
695.4008
 11
191.9841
 21
693.9008
  0
LINE
  8
0_00
  6
CONTINUOUS
 62
2
 10
194.7841
 20
695.6008
 11
199.7841
 21
695.6008
  0
LINE
  8
0_00
  6
CONTINUOUS
 62
4
 10
191.9841
 20
693.9008
 11
206.6841
 21
693.9008
  0
LINE
  8
0_00
  6
CONTINUOUS
 62
4
 10
197.2841
 20
694.2009
 11
196.9841
 21
693.9008
  0
LINE
  8
0_00
  6
CONTINUOUS
 62
4
 10
197.2841
 20
694.2009
 11
197.5841
 21
693.9008
  0
LINE
  8
0_00
  6
CONTINUOUS
 62
4
 10
204.6118
 20
695.4008
 11
200.0841
 21
695.4008
  0
LINE
  8
0_00
  6
CONTINUOUS
 62
4
 10
199.7841
 20
695.6008
 11
200.0841
 21
695.4008
  0
LINE
  8
0_00
  6
CONTINUOUS
 62
4
 10
194.4841
 20
695.4008
 11
193.2964
 21
695.4008
  0
LINE
  8
0_00
  6
CONTINUOUS
 62
4
 10
194.7841
 20
695.6008
 11
194.4841
 21
695.4008
  0
LINE
  8
0_00
  6
CONTINUOUS
 62
4
 10
192.6384
 20
696.7835
 11
192.9084
 21
695.7038
  0
LINE
  8
0_00
  6
CONTINUOUS
 62
4
 10
206.6841
 20
693.9008
 11
207.6841
 21
694.9008
  0
LINE
  8
0_00
  6
CONTINUOUS
 62
4
 10
207.6841
 20
694.9008
 11
207.6841
 21
696.2008
  0
LINE
  8
0_00
  6
CONTINUOUS
 62
4
 10
207.6841
 20
695.4008
 11
207.6841
 21
694.9008
  0
LINE
  8
0_00
  6
CONTINUOUS
 62
4
 10
206.7036
 20
698.2788
 11
207.5602
 21
698.3537
  0
LINE
  8
0_00
  6
CONTINUOUS
 62
4
 10
205.5969
 20
699.2861
 11
206.4350
 21
699.3595
  0
LINE
  8
0_00
  6
CONTINUOUS
 62
4
 10
204.6841
 20
698.2900
 11
204.6841
 21
697.8571
  0
LINE
  8
0_00
  6
CONTINUOUS
 62
4
 10
207.8280
 20
698.7129
 11
206.7425
 21
704.0008
  0
LINE
  8
0_00
  6
CONTINUOUS
 62
4
 10
205.9963
 20
703.1600
 11
206.7028
 21
699.7186
  0
LINE
  8
0_00
  6
CONTINUOUS
 62
4
 10
206.6820
 20
704.0008
 11
206.7425
 21
704.0008
  0
LINE
  8
0_00
  6
CONTINUOUS
 62
4
 10
166.9841
 20
695.4008
 11
166.5841
 21
693.9008
  0
LINE
  8
0_00
  6
CONTINUOUS
 62
2
 10
163.7841
 20
695.6008
 11
158.7841
 21
695.6008
  0
LINE
  8
0_00
  6
CONTINUOUS
 62
4
 10
166.5841
 20
693.9008
 11
151.8841
 21
693.9008
  0
LINE
  8
0_00
  6
CONTINUOUS
 62
4
 10
161.2841
 20
694.2009
 11
161.5841
 21
693.9008
  0
LINE
  8
0_00
  6
CONTINUOUS
 62
4
 10
161.2841
 20
694.2009
 11
160.9841
 21
693.9008
  0
LINE
  8
0_00
  6
CONTINUOUS
 62
4
 10
153.9563
 20
695.4008
 11
158.4841
 21
695.4008
  0
LINE
  8
0_00
  6
CONTINUOUS
 62
4
 10
158.7841
 20
695.6008
 11
158.4841
 21
695.4008
  0
LINE
  8
0_00
  6
CONTINUOUS
 62
4
 10
164.0841
 20
695.4008
 11
165.2718
 21
695.4008
  0
LINE
  8
0_00
  6
CONTINUOUS
 62
4
 10
163.7841
 20
695.6008
 11
164.0841
 21
695.4008
  0
LINE
  8
0_00
  6
CONTINUOUS
 62
4
 10
165.9297
 20
696.7835
 11
165.6599
 21
695.7038
  0
LINE
  8
0_00
  6
CONTINUOUS
 62
4
 10
151.8841
 20
693.9008
 11
150.8841
 21
694.9008
  0
LINE
  8
0_00
  6
CONTINUOUS
 62
4
 10
150.8841
 20
694.9008
 11
150.8841
 21
696.2008
  0
LINE
  8
0_00
  6
CONTINUOUS
 62
4
 10
150.8841
 20
695.4008
 11
150.8841
 21
694.9008
  0
LINE
  8
0_00
  6
CONTINUOUS
 62
4
 10
151.8646
 20
698.2788
 11
151.0079
 21
698.3537
  0
LINE
  8
0_00
  6
CONTINUOUS
 62
4
 10
152.9713
 20
699.2861
 11
152.1331
 21
699.3595
  0
LINE
  8
0_00
  6
CONTINUOUS
 62
4
 10
153.8841
 20
698.2900
 11
153.8841
 21
697.8571
  0
LINE
  8
0_00
  6
CONTINUOUS
 62
4
 10
150.7402
 20
698.7129
 11
151.8257
 21
704.0008
  0
LINE
  8
0_00
  6
CONTINUOUS
 62
4
 10
152.5719
 20
703.1600
 11
151.8655
 21
699.7186
  0
LINE
  8
0_00
  6
CONTINUOUS
 62
4
 10
151.8861
 20
704.0008
 11
151.8257
 21
704.0008
  0
LINE
  8
0_00
  6
CONTINUOUS
 62
4
 10
155.7841
 20
695.4008
 11
157.2841
 21
695.4008
  0
LINE
  8
0_00
  6
CONTINUOUS
 62
4
 10
209.2841
 20
731.9228
 11
209.2840
 21
693.1008
  0
LINE
  8
0_00
  6
CONTINUOUS
 62
4
 10
207.8841
 20
731.8981
 11
207.8840
 21
705.5247
  0
LINE
  8
0_00
  6
CONTINUOUS
 62
4
 10
150.6841
 20
731.8981
 11
150.6841
 21
705.5033
  0
LINE
  8
0_00
  6
CONTINUOUS
 62
4
 10
149.2841
 20
731.9228
 11
149.2842
 21
693.0957
  0
LINE
  8
0_00
  6
CONTINUOUS
 62
4
 10
150.6836
 20
696.2747
 11
150.6836
 21
693.1008
  0
LINE
  8
0_00
  6
CONTINUOUS
 62
4
 10
151.7641
 20
698.2301
 11
151.0487
 21
698.2927
  0
LINE
  8
0_00
  6
CONTINUOUS
 62
4
 10
150.6915
 20
698.7702
 11
151.1582
 21
701.0852
  0
LINE
  8
0_00
  6
CONTINUOUS
 62
4
 10
150.9622
 20
701.3247
 11
150.6836
 21
701.3247
  0
LINE
  8
0_00
  6
CONTINUOUS
 62
4
 10
150.6836
 20
701.3247
 11
150.6836
 21
703.7246
  0
LINE
  8
0_00
  6
CONTINUOUS
 62
4
 10
153.3836
 20
704.1246
 11
151.0836
 21
704.1246
  0
LINE
  8
0_00
  6
CONTINUOUS
 62
4
 10
153.6836
 20
705.1246
 11
151.0836
 21
705.1246
  0
LINE
  8
0_00
  6
CONTINUOUS
 62
4
 10
153.3836
 20
704.1246
 11
153.3836
 21
703.9247
  0
LINE
  8
0_00
  6
CONTINUOUS
 62
4
 10
154.1836
 20
704.6246
 11
154.1836
 21
703.5247
  0
LINE
  8
0_00
  6
CONTINUOUS
 62
4
 10
207.8840
 20
693.1008
 11
207.8840
 21
696.2747
  0
LINE
  8
0_00
  6
CONTINUOUS
 62
4
 10
206.8035
 20
698.2301
 11
207.5189
 21
698.2927
  0
LINE
  8
0_00
  6
CONTINUOUS
 62
4
 10
207.8761
 20
698.7702
 11
207.4094
 21
701.0852
  0
LINE
  8
0_00
  6
CONTINUOUS
 62
4
 10
204.3840
 20
704.6246
 11
204.3840
 21
703.5247
  0
LINE
  8
0_00
  6
CONTINUOUS
 62
4
 10
205.1840
 20
704.1246
 11
205.1840
 21
703.9247
  0
LINE
  8
0_00
  6
CONTINUOUS
 62
4
 10
205.1840
 20
704.1246
 11
207.4840
 21
704.1246
  0
LINE
  8
0_00
  6
CONTINUOUS
 62
4
 10
204.8840
 20
705.1246
 11
207.4840
 21
705.1246
  0
LINE
  8
0_00
  6
CONTINUOUS
 62
4
 10
207.8840
 20
701.3247
 11
207.8840
 21
703.7246
  0
LINE
  8
0_00
  6
CONTINUOUS
 62
4
 10
207.6054
 20
701.3247
 11
207.8840
 21
701.3247
  0
LINE
  8
15_0F
  6
CONTINUOUS
 62
6
 10
740.1302
 20
389.3458
 11
740.1302
 21
439.5023
  0
LINE
  8
15_0F
  6
CONTINUOUS
 62
6
 10
800.1302
 20
389.3458
 11
800.1302
 21
439.5023
  0
LINE
  8
15_0F
  6
CONTINUOUS
 62
6
 10
740.1302
 20
433.5023
 11
800.1302
 21
433.5023
  0
LINE
  8
15_0F
  6
CONTINUOUS
 62
6
 10
740.1302
 20
433.5023
 11
747.4663
 21
431.9430
  0
LINE
  8
15_0F
  6
CONTINUOUS
 62
6
 10
740.1302
 20
433.5023
 11
747.4663
 21
435.0616
  0
LINE
  8
15_0F
  6
CONTINUOUS
 62
6
 10
800.1302
 20
433.5023
 11
792.7942
 21
435.0616
  0
LINE
  8
15_0F
  6
CONTINUOUS
 62
6
 10
800.1302
 20
433.5023
 11
792.7942
 21
431.9430
  0
LINE
  8
15_0F
  6
CONTINUOUS
 62
6
 10
723.3350
 20
317.5646
 11
635.6262
 21
317.5646
  0
LINE
  8
15_0F
  6
CONTINUOUS
 62
6
 10
764.0457
 20
261.5646
 11
635.6262
 21
261.5646
  0
LINE
  8
15_0F
  6
CONTINUOUS
 62
6
 10
641.6263
 20
317.5646
 11
641.6263
 21
261.5646
  0
LINE
  8
15_0F
  6
CONTINUOUS
 62
6
 10
641.6263
 20
317.5646
 11
640.0670
 21
310.2285
  0
LINE
  8
15_0F
  6
CONTINUOUS
 62
6
 10
641.6263
 20
317.5646
 11
643.1856
 21
310.2285
  0
LINE
  8
15_0F
  6
CONTINUOUS
 62
6
 10
641.6263
 20
261.5646
 11
643.1856
 21
268.9007
  0
LINE
  8
15_0F
  6
CONTINUOUS
 62
6
 10
641.6263
 20
261.5646
 11
640.0670
 21
268.9007
  0
LINE
  8
15_0F
  6
CONTINUOUS
 62
6
 10
1104.1790
 20
313.0646
 11
1163.6386
 21
313.0646
  0
LINE
  8
15_0F
  6
CONTINUOUS
 62
6
 10
1102.3009
 20
266.0646
 11
1163.6386
 21
266.0646
  0
LINE
  8
15_0F
  6
CONTINUOUS
 62
6
 10
1157.6386
 20
313.0646
 11
1157.6386
 21
266.0646
  0
LINE
  8
15_0F
  6
CONTINUOUS
 62
6
 10
1157.6386
 20
313.0646
 11
1156.0793
 21
305.7285
  0
LINE
  8
15_0F
  6
CONTINUOUS
 62
6
 10
1157.6386
 20
313.0646
 11
1159.1980
 21
305.7285
  0
LINE
  8
15_0F
  6
CONTINUOUS
 62
6
 10
1157.6386
 20
266.0646
 11
1159.1980
 21
273.4007
  0
LINE
  8
15_0F
  6
CONTINUOUS
 62
6
 10
1157.6386
 20
266.0646
 11
1156.0793
 21
273.4007
  0
LINE
  8
15_0F
  6
CONTINUOUS
 62
6
 10
1075.6103
 20
340.2839
 11
1075.6103
 21
459.5023
  0
LINE
  8
15_0F
  6
CONTINUOUS
 62
6
 10
770.1302
 20
453.5023
 11
1075.6103
 21
453.5023
  0
LINE
  8
15_0F
  6
CONTINUOUS
 62
6
 10
770.1302
 20
453.5023
 11
777.4664
 21
451.9430
  0
LINE
  8
15_0F
  6
CONTINUOUS
 62
6
 10
770.1302
 20
453.5023
 11
777.4664
 21
455.0616
  0
LINE
  8
15_0F
  6
CONTINUOUS
 62
6
 10
1075.6103
 20
453.5023
 11
1068.2743
 21
455.0616
  0
LINE
  8
15_0F
  6
CONTINUOUS
 62
6
 10
1075.6103
 20
453.5023
 11
1068.2743
 21
451.9430
  0
LINE
  8
15_0F
  6
CONTINUOUS
 62
6
 10
770.1302
 20
389.3458
 11
770.1302
 21
405.4996
  0
LINE
  8
15_0F
  6
CONTINUOUS
 62
6
 10
770.1302
 20
447.5493
 11
770.1302
 21
459.5023
  0
LINE
  8
15_0F
  6
CONTINUOUS
 62
4
 10
1085.0603
 20
508.8060
 11
1158.8604
 21
508.8060
  0
LINE
  8
0_00
  6
CONTINUOUS
 62
6
 10
209.2841
 20
748.4701
 11
209.2841
 21
772.0779
  0
LINE
  8
0_00
  6
CONTINUOUS
 62
6
 10
149.2841
 20
748.4701
 11
149.2841
 21
772.0779
  0
LINE
  8
0_00
  6
CONTINUOUS
 62
6
 10
149.2841
 20
769.0779
 11
209.2841
 21
769.0779
  0
LINE
  8
0_00
  6
CONTINUOUS
 62
6
 10
149.2841
 20
769.0779
 11
156.6202
 21
767.5185
  0
LINE
  8
0_00
  6
CONTINUOUS
 62
6
 10
149.2841
 20
769.0779
 11
156.6202
 21
770.6373
  0
LINE
  8
0_00
  6
CONTINUOUS
 62
6
 10
209.2841
 20
769.0779
 11
201.9480
 21
770.6373
  0
LINE
  8
0_00
  6
CONTINUOUS
 62
6
 10
209.2841
 20
769.0779
 11
201.9480
 21
767.5185
  0
LINE
  8
0_00
  6
DASHED
 62
2
 10
523.1782
 20
263.7005
 11
510.3782
 21
263.7005
  0
LINE
  8
0_00
  6
DASHED
 62
2
 10
519.4282
 20
260.3005
 11
519.4282
 21
243.7005
  0
LINE
  8
0_00
  6
DASHED
 62
2
 10
514.1283
 20
260.3005
 11
514.1283
 21
243.7005
  0
LINE
  8
0_00
  6
DASHED
 62
2
 10
523.1782
 20
263.7005
 11
519.7782
 21
260.3005
  0
LINE
  8
0_00
  6
DASHED
 62
2
 10
510.3782
 20
263.7005
 11
513.7782
 21
260.3005
  0
LINE
  8
0_00
  6
DASHED
 62
2
 10
519.7782
 20
260.3005
 11
513.7782
 21
260.3005
  0
LINE
  8
0_00
  6
DASHED
 62
2
 10
519.7782
 20
260.3005
 11
519.7782
 21
243.7005
  0
LINE
  8
0_00
  6
DASHED
 62
2
 10
513.7782
 20
260.3005
 11
513.7782
 21
243.7005
  0
LINE
  8
0_00
  6
DASHED
 62
2
 10
519.7782
 20
243.7005
 11
513.7782
 21
243.7005
  0
LINE
  8
0_00
  6
DASHED
 62
2
 10
508.0282
 20
369.9005
 11
508.0282
 21
357.9005
  0
LINE
  8
0_00
  6
DASHED
 62
2
 10
504.5282
 20
369.9005
 11
504.5282
 21
357.9005
  0
LINE
  8
0_00
  6
DASHED
 62
2
 10
508.2782
 20
369.9005
 11
508.2782
 21
357.9005
  0
LINE
  8
0_00
  6
DASHED
 62
2
 10
504.2782
 20
369.9005
 11
504.2782
 21
357.9005
  0
LINE
  8
0_00
  6
DASHED
 62
2
 10
508.2782
 20
357.9005
 11
504.2782
 21
357.9005
  0
LINE
  8
12_0C
  6
DASHED
 62
2
 10
502.2782
 20
369.9005
 11
510.2782
 21
369.9005
  0
LINE
  8
12_0C
  6
DASHED
 62
2
 10
502.2782
 20
370.3005
 11
510.2782
 21
370.3005
  0
LINE
  8
12_0C
  6
DASHED
 62
2
 10
510.2782
 20
369.9005
 11
510.2782
 21
370.3005
  0
LINE
  8
12_0C
  6
DASHED
 62
2
 10
502.2782
 20
369.9005
 11
502.2782
 21
370.3005
  0
LINE
  8
0_00
  6
DASHED
 62
2
 10
529.0283
 20
369.9005
 11
529.0283
 21
357.9005
  0
LINE
  8
0_00
  6
DASHED
 62
2
 10
525.5283
 20
369.9005
 11
525.5283
 21
357.9005
  0
LINE
  8
0_00
  6
DASHED
 62
2
 10
529.2783
 20
369.9005
 11
529.2783
 21
357.9005
  0
LINE
  8
0_00
  6
DASHED
 62
2
 10
525.2782
 20
369.9005
 11
525.2782
 21
357.9005
  0
LINE
  8
0_00
  6
DASHED
 62
2
 10
529.2783
 20
357.9005
 11
525.2782
 21
357.9005
  0
LINE
  8
12_0C
  6
DASHED
 62
2
 10
523.2783
 20
369.9005
 11
531.2783
 21
369.9005
  0
LINE
  8
12_0C
  6
DASHED
 62
2
 10
523.2783
 20
370.3005
 11
531.2783
 21
370.3005
  0
LINE
  8
12_0C
  6
DASHED
 62
2
 10
531.2783
 20
369.9005
 11
531.2783
 21
370.3005
  0
LINE
  8
12_0C
  6
DASHED
 62
2
 10
523.2783
 20
369.9005
 11
523.2783
 21
370.3005
  0
LINE
  8
0_00
  6
CONTINUOUS
 62
3
 10
547.4110
 20
97.2001
 11
547.4110
 21
37.2000
  0
LINE
  8
0_00
  6
CONTINUOUS
 62
7
 10
54.6905
 20
112.2001
 11
1218.5110
 21
112.2001
  0
LINE
  8
0_00
  6
CONTINUOUS
 62
3
 10
1218.5110
 20
851.7001
 11
1218.5110
 21
865.2001
  0
LINE
  8
0_00
  6
CONTINUOUS
 62
7
 10
1218.5110
 20
37.2000
 11
1218.5110
 21
851.7001
  0
LINE
  8
0_00
  6
CONTINUOUS
 62
3
 10
54.6905
 20
851.7001
 11
54.6905
 21
865.2001
  0
LINE
  8
0_00
  6
CONTINUOUS
 62
7
 10
54.6905
 20
37.2000
 11
54.6905
 21
851.7001
  0
LINE
  8
0_00
  6
CONTINUOUS
 62
7
 10
54.6905
 20
851.7001
 11
1218.5110
 21
851.7001
  0
LINE
  8
0_00
  6
CONTINUOUS
 62
7
 10
54.6905
 20
37.2000
 11
1218.5110
 21
37.2000
  0
LINE
  8
0_00
  6
CONTINUOUS
 62
3
 10
39.6905
 20
22.2000
 11
39.6905
 21
865.2001
  0
LINE
  8
0_00
  6
CONTINUOUS
 62
3
 10
1233.5110
 20
22.2000
 11
1233.5110
 21
865.2001
  0
LINE
  8
0_00
  6
CONTINUOUS
 62
3
 10
39.6905
 20
865.2001
 11
1233.5110
 21
865.2001
  0
LINE
  8
0_00
  6
CONTINUOUS
 62
3
 10
1070.6111
 20
37.2000
 11
1070.6111
 21
112.2001
  0
LINE
  8
0_00
  6
CONTINUOUS
 62
3
 10
54.6905
 20
97.2001
 11
812.7610
 21
97.2001
  0
LINE
  8
0_00
  6
CONTINUOUS
 62
7
 10
812.7610
 20
97.2001
 11
1218.5110
 21
97.2001
  0
LINE
  8
0_00
  6
CONTINUOUS
 62
3
 10
1070.6111
 20
67.2000
 11
1218.5110
 21
67.2000
  0
LINE
  8
0_00
  6
CONTINUOUS
 62
3
 10
1100.6111
 20
112.2001
 11
1100.6111
 21
97.2001
  0
LINE
  8
0_00
  6
CONTINUOUS
 62
3
 10
812.7610
 20
37.2000
 11
812.7610
 21
97.2001
  0
LINE
  8
0_00
  6
CONTINUOUS
 62
7
 10
812.7610
 20
97.2001
 11
812.7610
 21
112.2001
  0
LINE
  8
0_00
  6
CONTINUOUS
 62
3
 10
836.7610
 20
97.2001
 11
836.7610
 21
112.2001
  0
LINE
  8
0_00
  6
CONTINUOUS
 62
3
 10
912.5110
 20
37.2000
 11
912.5110
 21
112.2001
  0
LINE
  8
0_00
  6
CONTINUOUS
 62
3
 10
1004.6111
 20
97.2001
 11
1004.6111
 21
112.2001
  0
LINE
  8
0_00
  6
CONTINUOUS
 62
3
 10
1032.2110
 20
37.2000
 11
1032.2110
 21
97.2001
  0
LINE
  8
0_00
  6
CONTINUOUS
 62
3
 10
995.9110
 20
37.2000
 11
995.9110
 21
97.2001
  0
LINE
  8
0_00
  6
CONTINUOUS
 62
3
 10
959.6110
 20
37.2000
 11
959.6110
 21
97.2001
  0
LINE
  8
0_00
  6
CONTINUOUS
 62
3
 10
468.6610
 20
37.2000
 11
468.6610
 21
112.2001
  0
LINE
  8
0_00
  6
CONTINUOUS
 62
3
 10
626.1610
 20
37.2000
 11
626.1610
 21
97.2001
  0
LINE
  8
0_00
  6
CONTINUOUS
 62
3
 10
54.6905
 20
82.2001
 11
468.6610
 21
82.2001
  0
LINE
  8
0_00
  6
CONTINUOUS
 62
3
 10
54.6905
 20
67.2000
 11
912.5110
 21
67.2000
  0
LINE
  8
0_00
  6
CONTINUOUS
 62
3
 10
174.6905
 20
52.2000
 11
468.6610
 21
52.2000
  0
LINE
  8
0_00
  6
CONTINUOUS
 62
7
 10
54.6905
 20
52.2000
 11
174.6905
 21
52.2000
  0
LINE
  8
0_00
  6
CONTINUOUS
 62
3
 10
818.0110
 20
851.7001
 11
818.0110
 21
865.2001
  0
LINE
  8
0_00
  6
CONTINUOUS
 62
3
 10
788.0110
 20
851.7001
 11
788.0110
 21
865.2001
  0
LINE
  8
0_00
  6
CONTINUOUS
 62
3
 10
204.6905
 20
851.7001
 11
204.6905
 21
865.2001
  0
LINE
  8
0_00
  6
CONTINUOUS
 62
3
 10
854.0110
 20
851.7001
 11
854.0110
 21
865.2001
  0
LINE
  8
0_00
  6
CONTINUOUS
 62
3
 10
915.5110
 20
851.7001
 11
915.5110
 21
865.2001
  0
LINE
  8
0_00
  6
CONTINUOUS
 62
3
 10
1146.5110
 20
851.7001
 11
1146.5110
 21
865.2001
  0
LINE
  8
0_00
  6
CONTINUOUS
 62
3
 10
114.6905
 20
112.2001
 11
114.6905
 21
37.2000
  0
LINE
  8
0_00
  6
CONTINUOUS
 62
7
 10
174.6905
 20
112.2001
 11
174.6905
 21
37.2000
  0
LINE
  8
0_00
  6
CONTINUOUS
 62
3
 10
869.7610
 20
67.2000
 11
869.7610
 21
97.2001
  0
LINE
  8
0_00
  6
CONTINUOUS
 62
3
 10
893.7610
 20
112.2001
 11
893.7610
 21
97.2001
  0
LINE
  8
0_00
  6
CONTINUOUS
 62
3
 10
912.5110
 20
82.2001
 11
1070.6111
 21
82.2001
  0
LINE
  8
0_00
  6
CONTINUOUS
 62
3
 10
1076.6111
 20
71.7000
 11
1078.5610
 21
71.7000
  0
LINE
  8
0_00
  6
CONTINUOUS
 62
3
 10
1078.5610
 20
71.7000
 11
1078.5610
 21
91.2000
  0
LINE
  8
0_00
  6
CONTINUOUS
 62
3
 10
1078.5610
 20
91.2000
 11
1076.6111
 21
91.2000
  0
LINE
  8
0_00
  6
CONTINUOUS
 62
3
 10
1076.6111
 20
71.7000
 11
1076.6111
 21
91.2000
  0
LINE
  8
0_00
  6
CONTINUOUS
 62
3
 10
1079.3410
 20
71.7000
 11
1081.2911
 21
71.7000
  0
LINE
  8
0_00
  6
CONTINUOUS
 62
3
 10
1081.2911
 20
71.7000
 11
1081.2911
 21
91.2000
  0
LINE
  8
0_00
  6
CONTINUOUS
 62
3
 10
1081.2911
 20
91.2000
 11
1079.3410
 21
91.2000
  0
LINE
  8
0_00
  6
CONTINUOUS
 62
3
 10
1079.3410
 20
71.7000
 11
1079.3410
 21
91.2000
  0
LINE
  8
0_00
  6
CONTINUOUS
 62
3
 10
1082.0711
 20
71.7000
 11
1084.0210
 21
71.7000
  0
LINE
  8
0_00
  6
CONTINUOUS
 62
3
 10
1084.0210
 20
71.7000
 11
1084.0210
 21
91.2000
  0
LINE
  8
0_00
  6
CONTINUOUS
 62
3
 10
1084.0210
 20
91.2000
 11
1082.0711
 21
91.2000
  0
LINE
  8
0_00
  6
CONTINUOUS
 62
3
 10
1082.0711
 20
71.7000
 11
1082.0711
 21
91.2000
  0
LINE
  8
0_00
  6
CONTINUOUS
 62
3
 10
1084.8010
 20
71.7000
 11
1086.7511
 21
71.7000
  0
LINE
  8
0_00
  6
CONTINUOUS
 62
3
 10
1086.7511
 20
91.2000
 11
1084.8010
 21
91.2000
  0
LINE
  8
0_00
  6
CONTINUOUS
 62
3
 10
1084.8010
 20
71.7000
 11
1084.8010
 21
91.2000
  0
LINE
  8
0_00
  6
CONTINUOUS
 62
3
 10
1092.4061
 20
71.7000
 11
1100.0110
 21
71.7000
  0
LINE
  8
0_00
  6
CONTINUOUS
 62
3
 10
1100.0110
 20
71.7000
 11
1100.0110
 21
73.4550
  0
LINE
  8
0_00
  6
CONTINUOUS
 62
3
 10
1100.0110
 20
73.4550
 11
1092.4061
 21
73.4550
  0
LINE
  8
0_00
  6
CONTINUOUS
 62
3
 10
1092.4061
 20
73.4550
 11
1092.4061
 21
71.7000
  0
LINE
  8
0_00
  6
CONTINUOUS
 62
3
 10
1092.4061
 20
74.2350
 11
1100.0110
 21
74.2350
  0
LINE
  8
0_00
  6
CONTINUOUS
 62
3
 10
1100.0110
 20
74.2350
 11
1100.0110
 21
75.9900
  0
LINE
  8
0_00
  6
CONTINUOUS
 62
3
 10
1100.0110
 20
75.9900
 11
1092.4061
 21
75.9900
  0
LINE
  8
0_00
  6
CONTINUOUS
 62
3
 10
1092.4061
 20
75.9900
 11
1092.4061
 21
74.2350
  0
LINE
  8
0_00
  6
CONTINUOUS
 62
3
 10
1092.4061
 20
76.7700
 11
1100.0110
 21
76.7700
  0
LINE
  8
0_00
  6
CONTINUOUS
 62
3
 10
1100.0110
 20
76.7700
 11
1100.0110
 21
78.5250
  0
LINE
  8
0_00
  6
CONTINUOUS
 62
3
 10
1100.0110
 20
78.5250
 11
1092.4061
 21
78.5250
  0
LINE
  8
0_00
  6
CONTINUOUS
 62
3
 10
1092.4061
 20
78.5250
 11
1092.4061
 21
76.7700
  0
LINE
  8
0_00
  6
CONTINUOUS
 62
3
 10
1092.4061
 20
79.3050
 11
1100.0110
 21
79.3050
  0
LINE
  8
0_00
  6
CONTINUOUS
 62
3
 10
1100.0110
 20
79.3050
 11
1100.0110
 21
81.0600
  0
LINE
  8
0_00
  6
CONTINUOUS
 62
3
 10
1100.0110
 20
81.0600
 11
1092.4061
 21
81.0600
  0
LINE
  8
0_00
  6
CONTINUOUS
 62
3
 10
1092.4061
 20
81.0600
 11
1092.4061
 21
79.3050
  0
LINE
  8
0_00
  6
CONTINUOUS
 62
3
 10
1092.4061
 20
81.8401
 11
1100.0110
 21
81.8401
  0
LINE
  8
0_00
  6
CONTINUOUS
 62
3
 10
1100.0110
 20
81.8401
 11
1100.0110
 21
83.5950
  0
LINE
  8
0_00
  6
CONTINUOUS
 62
3
 10
1100.0110
 20
83.5950
 11
1092.4061
 21
83.5950
  0
LINE
  8
0_00
  6
CONTINUOUS
 62
3
 10
1092.4061
 20
83.5950
 11
1092.4061
 21
81.8401
  0
LINE
  8
0_00
  6
CONTINUOUS
 62
3
 10
1092.4061
 20
84.3751
 11
1100.0110
 21
84.3751
  0
LINE
  8
0_00
  6
CONTINUOUS
 62
3
 10
1100.0110
 20
84.3751
 11
1100.0110
 21
86.1300
  0
LINE
  8
0_00
  6
CONTINUOUS
 62
3
 10
1100.0110
 20
86.1300
 11
1092.4061
 21
86.1300
  0
LINE
  8
0_00
  6
CONTINUOUS
 62
3
 10
1092.4061
 20
86.1300
 11
1092.4061
 21
84.3751
  0
LINE
  8
0_00
  6
CONTINUOUS
 62
3
 10
1092.4061
 20
86.9101
 11
1100.0110
 21
86.9101
  0
LINE
  8
0_00
  6
CONTINUOUS
 62
3
 10
1100.0110
 20
86.9101
 11
1100.0110
 21
88.6650
  0
LINE
  8
0_00
  6
CONTINUOUS
 62
3
 10
1100.0110
 20
88.6650
 11
1092.4061
 21
88.6650
  0
LINE
  8
0_00
  6
CONTINUOUS
 62
3
 10
1092.4061
 20
88.6650
 11
1092.4061
 21
86.9101
  0
LINE
  8
0_00
  6
CONTINUOUS
 62
3
 10
1092.4061
 20
89.4451
 11
1100.0110
 21
89.4451
  0
LINE
  8
0_00
  6
CONTINUOUS
 62
3
 10
1100.0110
 20
89.4451
 11
1100.0110
 21
91.2000
  0
LINE
  8
0_00
  6
CONTINUOUS
 62
3
 10
1100.0110
 20
91.2000
 11
1092.4061
 21
91.2000
  0
LINE
  8
0_00
  6
CONTINUOUS
 62
3
 10
1092.4061
 20
91.2000
 11
1092.4061
 21
89.4451
  0
LINE
  8
0_00
  6
CONTINUOUS
 62
3
 10
1087.5311
 20
71.7000
 11
1087.5311
 21
77.0626
  0
LINE
  8
0_00
  6
CONTINUOUS
 62
3
 10
1088.8375
 20
72.7725
 11
1088.8375
 21
77.0626
  0
LINE
  8
0_00
  6
CONTINUOUS
 62
3
 10
1087.5311
 20
71.7000
 11
1089.6760
 21
71.7000
  0
LINE
  8
0_00
  6
CONTINUOUS
 62
3
 10
1088.8375
 20
72.7725
 11
1089.6760
 21
72.7725
  0
LINE
  8
0_00
  6
CONTINUOUS
 62
3
 10
1089.6050
 20
79.8056
 11
1090.4561
 21
78.1351
  0
LINE
  8
0_00
  6
CONTINUOUS
 62
3
 10
1090.9410
 20
82.5453
 11
1089.6047
 21
79.8055
  0
LINE
  8
0_00
  6
CONTINUOUS
 62
3
 10
1086.7511
 20
85.3501
 11
1086.7511
 21
91.2000
  0
LINE
  8
0_00
  6
CONTINUOUS
 62
3
 10
1086.7511
 20
85.3501
 11
1089.1886
 21
85.3501
  0
LINE
  8
0_00
  6
CONTINUOUS
 62
3
 10
1086.7511
 20
84.1801
 11
1087.8333
 21
84.1801
  0
LINE
  8
0_00
  6
CONTINUOUS
 62
3
 10
1086.7511
 20
78.1351
 11
1090.4561
 21
78.1351
  0
LINE
  8
0_00
  6
CONTINUOUS
 62
3
 10
1086.7511
 20
81.9611
 11
1087.8334
 21
84.1801
  0
LINE
  8
0_00
  6
CONTINUOUS
 62
3
 10
1086.7511
 20
81.9613
 11
1086.7511
 21
84.1801
  0
LINE
  8
0_00
  6
CONTINUOUS
 62
3
 10
1086.7511
 20
78.1351
 11
1086.7511
 21
71.7000
  0
LINE
  8
0_00
  6
CONTINUOUS
 62
3
 10
1076.9110
 20
91.2000
 11
1076.9110
 21
71.7000
  0
LINE
  8
0_00
  6
CONTINUOUS
 62
3
 10
1077.2110
 20
91.2000
 11
1077.2110
 21
71.7000
  0
LINE
  8
0_00
  6
CONTINUOUS
 62
3
 10
1077.5110
 20
91.2000
 11
1077.5110
 21
71.7000
  0
LINE
  8
0_00
  6
CONTINUOUS
 62
3
 10
1077.8109
 20
91.2000
 11
1077.8109
 21
71.7000
  0
LINE
  8
0_00
  6
CONTINUOUS
 62
3
 10
1078.1111
 20
91.2000
 11
1078.1111
 21
71.7000
  0
LINE
  8
0_00
  6
CONTINUOUS
 62
3
 10
1079.6411
 20
91.2000
 11
1079.6411
 21
71.7000
  0
LINE
  8
0_00
  6
CONTINUOUS
 62
3
 10
1079.9410
 20
91.2000
 11
1079.9410
 21
71.7000
  0
LINE
  8
0_00
  6
CONTINUOUS
 62
3
 10
1080.2410
 20
91.2000
 11
1080.2410
 21
71.7000
  0
LINE
  8
0_00
  6
CONTINUOUS
 62
3
 10
1080.5410
 20
91.2000
 11
1080.5410
 21
71.7000
  0
LINE
  8
0_00
  6
CONTINUOUS
 62
3
 10
1080.8410
 20
91.2000
 11
1080.8410
 21
71.7000
  0
LINE
  8
0_00
  6
CONTINUOUS
 62
3
 10
1081.1411
 20
91.2000
 11
1081.1411
 21
71.7000
  0
LINE
  8
0_00
  6
CONTINUOUS
 62
3
 10
1082.3709
 20
91.2000
 11
1082.3709
 21
71.7000
  0
LINE
  8
0_00
  6
CONTINUOUS
 62
3
 10
1082.6711
 20
91.2000
 11
1082.6711
 21
71.7000
  0
LINE
  8
0_00
  6
CONTINUOUS
 62
3
 10
1082.9711
 20
91.2000
 11
1082.9711
 21
71.7000
  0
LINE
  8
0_00
  6
CONTINUOUS
 62
3
 10
1083.2710
 20
91.2000
 11
1083.2710
 21
71.7000
  0
LINE
  8
0_00
  6
CONTINUOUS
 62
3
 10
1083.5711
 20
91.2000
 11
1083.5711
 21
71.7000
  0
LINE
  8
0_00
  6
CONTINUOUS
 62
3
 10
1083.8709
 20
91.2000
 11
1083.8709
 21
71.7000
  0
LINE
  8
0_00
  6
CONTINUOUS
 62
3
 10
1092.4061
 20
72.0001
 11
1100.0110
 21
72.0001
  0
LINE
  8
0_00
  6
CONTINUOUS
 62
3
 10
1092.4061
 20
72.3001
 11
1100.0110
 21
72.3001
  0
LINE
  8
0_00
  6
CONTINUOUS
 62
3
 10
1092.4061
 20
72.6000
 11
1100.0110
 21
72.6000
  0
LINE
  8
0_00
  6
CONTINUOUS
 62
3
 10
1092.4061
 20
72.9000
 11
1100.0110
 21
72.9000
  0
LINE
  8
0_00
  6
CONTINUOUS
 62
3
 10
1092.4061
 20
73.2000
 11
1100.0110
 21
73.2000
  0
LINE
  8
0_00
  6
CONTINUOUS
 62
3
 10
1092.4061
 20
74.5351
 11
1100.0110
 21
74.5351
  0
LINE
  8
0_00
  6
CONTINUOUS
 62
3
 10
1092.4061
 20
74.8351
 11
1100.0110
 21
74.8351
  0
LINE
  8
0_00
  6
CONTINUOUS
 62
3
 10
1092.4061
 20
75.1350
 11
1100.0110
 21
75.1350
  0
LINE
  8
0_00
  6
CONTINUOUS
 62
3
 10
1092.4061
 20
75.4350
 11
1100.0110
 21
75.4350
  0
LINE
  8
0_00
  6
CONTINUOUS
 62
3
 10
1092.4061
 20
75.7350
 11
1100.0110
 21
75.7350
  0
LINE
  8
0_00
  6
CONTINUOUS
 62
3
 10
1092.4061
 20
77.0701
 11
1100.0110
 21
77.0701
  0
LINE
  8
0_00
  6
CONTINUOUS
 62
3
 10
1092.4061
 20
77.3701
 11
1100.0110
 21
77.3701
  0
LINE
  8
0_00
  6
CONTINUOUS
 62
3
 10
1092.4061
 20
77.6700
 11
1100.0110
 21
77.6700
  0
LINE
  8
0_00
  6
CONTINUOUS
 62
3
 10
1092.4061
 20
77.9700
 11
1100.0110
 21
77.9700
  0
LINE
  8
0_00
  6
CONTINUOUS
 62
3
 10
1092.4061
 20
78.2701
 11
1100.0110
 21
78.2701
  0
LINE
  8
0_00
  6
CONTINUOUS
 62
3
 10
1092.4061
 20
79.6051
 11
1100.0110
 21
79.6051
  0
LINE
  8
0_00
  6
CONTINUOUS
 62
3
 10
1092.4061
 20
79.9051
 11
1100.0110
 21
79.9051
  0
LINE
  8
0_00
  6
CONTINUOUS
 62
3
 10
1092.4061
 20
80.2050
 11
1100.0110
 21
80.2050
  0
LINE
  8
0_00
  6
CONTINUOUS
 62
3
 10
1092.4061
 20
80.5050
 11
1100.0110
 21
80.5050
  0
LINE
  8
0_00
  6
CONTINUOUS
 62
3
 10
1092.4061
 20
80.8051
 11
1100.0110
 21
80.8051
  0
LINE
  8
0_00
  6
CONTINUOUS
 62
3
 10
1092.4061
 20
82.1401
 11
1100.0110
 21
82.1401
  0
LINE
  8
0_00
  6
CONTINUOUS
 62
3
 10
1092.4061
 20
82.4401
 11
1100.0110
 21
82.4401
  0
LINE
  8
0_00
  6
CONTINUOUS
 62
3
 10
1092.4061
 20
82.7400
 11
1100.0110
 21
82.7400
  0
LINE
  8
0_00
  6
CONTINUOUS
 62
3
 10
1092.4061
 20
83.0400
 11
1100.0110
 21
83.0400
  0
LINE
  8
0_00
  6
CONTINUOUS
 62
3
 10
1092.4061
 20
83.3401
 11
1100.0110
 21
83.3401
  0
LINE
  8
0_00
  6
CONTINUOUS
 62
3
 10
1100.0110
 20
84.6751
 11
1092.4061
 21
84.6751
  0
LINE
  8
0_00
  6
CONTINUOUS
 62
3
 10
1100.0110
 20
84.9751
 11
1092.4061
 21
84.9751
  0
LINE
  8
0_00
  6
CONTINUOUS
 62
3
 10
1100.0110
 20
85.2750
 11
1092.4061
 21
85.2750
  0
LINE
  8
0_00
  6
CONTINUOUS
 62
3
 10
1100.0110
 20
85.5750
 11
1092.4061
 21
85.5750
  0
LINE
  8
0_00
  6
CONTINUOUS
 62
3
 10
1100.0110
 20
85.8751
 11
1092.4061
 21
85.8751
  0
LINE
  8
0_00
  6
CONTINUOUS
 62
3
 10
1092.4061
 20
87.2101
 11
1100.0110
 21
87.2101
  0
LINE
  8
0_00
  6
CONTINUOUS
 62
3
 10
1092.4061
 20
87.5101
 11
1100.0110
 21
87.5101
  0
LINE
  8
0_00
  6
CONTINUOUS
 62
3
 10
1092.4061
 20
87.8100
 11
1100.0110
 21
87.8100
  0
LINE
  8
0_00
  6
CONTINUOUS
 62
3
 10
1092.4061
 20
88.1100
 11
1100.0110
 21
88.1100
  0
LINE
  8
0_00
  6
CONTINUOUS
 62
3
 10
1092.4061
 20
88.4101
 11
1100.0110
 21
88.4101
  0
LINE
  8
0_00
  6
CONTINUOUS
 62
3
 10
1092.4061
 20
89.7451
 11
1100.0110
 21
89.7451
  0
LINE
  8
0_00
  6
CONTINUOUS
 62
3
 10
1092.4061
 20
90.0451
 11
1100.0110
 21
90.0451
  0
LINE
  8
0_00
  6
CONTINUOUS
 62
3
 10
1092.4061
 20
90.3450
 11
1100.0110
 21
90.3450
  0
LINE
  8
0_00
  6
CONTINUOUS
 62
3
 10
1092.4061
 20
90.6450
 11
1100.0110
 21
90.6450
  0
LINE
  8
0_00
  6
CONTINUOUS
 62
3
 10
1092.4061
 20
90.9451
 11
1100.0110
 21
90.9451
  0
LINE
  8
0_00
  6
CONTINUOUS
 62
3
 10
1085.1010
 20
91.2000
 11
1085.1010
 21
71.7000
  0
LINE
  8
0_00
  6
CONTINUOUS
 62
3
 10
1085.4011
 20
91.2000
 11
1085.4011
 21
71.7000
  0
LINE
  8
0_00
  6
CONTINUOUS
 62
3
 10
1085.7009
 20
91.2000
 11
1085.7009
 21
71.7000
  0
LINE
  8
0_00
  6
CONTINUOUS
 62
3
 10
1086.0008
 20
91.2000
 11
1086.0008
 21
71.7000
  0
LINE
  8
0_00
  6
CONTINUOUS
 62
3
 10
1086.3010
 20
91.2000
 11
1086.3010
 21
71.7000
  0
LINE
  8
0_00
  6
CONTINUOUS
 62
3
 10
1086.6010
 20
91.2000
 11
1086.6010
 21
71.7000
  0
LINE
  8
0_00
  6
CONTINUOUS
 62
3
 10
1087.8311
 20
71.7000
 11
1087.8311
 21
77.0626
  0
LINE
  8
0_00
  6
CONTINUOUS
 62
3
 10
1088.1312
 20
71.7000
 11
1088.1312
 21
77.0626
  0
LINE
  8
0_00
  6
CONTINUOUS
 62
3
 10
1088.4310
 20
71.7000
 11
1088.4310
 21
77.0626
  0
LINE
  8
0_00
  6
CONTINUOUS
 62
3
 10
1088.7309
 20
71.7000
 11
1088.7309
 21
77.0626
  0
LINE
  8
0_00
  6
CONTINUOUS
 62
3
 10
1088.8375
 20
72.4725
 11
1089.6760
 21
72.4725
  0
LINE
  8
0_00
  6
CONTINUOUS
 62
3
 10
1088.8375
 20
72.1725
 11
1089.6760
 21
72.1725
  0
LINE
  8
0_00
  6
CONTINUOUS
 62
3
 10
1088.8375
 20
71.8725
 11
1089.6760
 21
71.8725
  0
LINE
  8
0_00
  6
CONTINUOUS
 62
3
 10
1090.2825
 20
78.4758
 11
1086.7853
 21
78.4758
  0
LINE
  8
0_00
  6
CONTINUOUS
 62
3
 10
1090.1032
 20
78.8278
 11
1086.7853
 21
78.8278
  0
LINE
  8
0_00
  6
CONTINUOUS
 62
3
 10
1089.8939
 20
79.2384
 11
1086.7779
 21
79.2384
  0
LINE
  8
0_00
  6
CONTINUOUS
 62
3
 10
1089.7204
 20
79.5787
 11
1086.7744
 21
79.5787
  0
LINE
  8
0_00
  6
CONTINUOUS
 62
3
 10
1091.0859
 20
83.5262
 11
1089.1502
 21
79.5579
  0
LINE
  8
0_00
  6
CONTINUOUS
 62
3
 10
1090.9896
 20
84.0133
 11
1088.8107
 21
79.5458
  0
LINE
  8
0_00
  6
CONTINUOUS
 62
3
 10
1090.8083
 20
84.3258
 11
1088.4914
 21
79.5758
  0
LINE
  8
0_00
  6
CONTINUOUS
 62
3
 10
1090.6029
 20
84.5893
 11
1088.1454
 21
79.5508
  0
LINE
  8
0_00
  6
CONTINUOUS
 62
3
 10
1090.4008
 20
84.8596
 11
1087.8790
 21
79.6887
  0
LINE
  8
0_00
  6
CONTINUOUS
 62
3
 10
1090.1371
 20
85.0026
 11
1087.4908
 21
79.5774
  0
LINE
  8
0_00
  6
CONTINUOUS
 62
3
 10
1089.8761
 20
85.1521
 11
1087.1534
 21
79.5697
  0
LINE
  8
0_00
  6
CONTINUOUS
 62
3
 10
1089.5665
 20
85.2017
 11
1086.8386
 21
79.6087
  0
LINE
  8
0_00
  6
CONTINUOUS
 62
3
 10
1089.2498
 20
85.2367
 11
1086.7053
 21
80.0197
  0
LINE
  8
0_00
  6
CONTINUOUS
 62
3
 10
1088.9374
 20
85.2802
 11
1086.7329
 21
80.7607
  0
LINE
  8
0_00
  6
CONTINUOUS
 62
3
 10
1088.5957
 20
85.2643
 11
1086.6388
 21
81.2521
  0
LINE
  8
0_00
  6
CONTINUOUS
 62
3
 10
1087.9926
 20
84.4801
 11
1086.7511
 21
84.4801
  0
LINE
  8
0_00
  6
CONTINUOUS
 62
3
 10
1088.2355
 20
84.7801
 11
1086.7511
 21
84.7801
  0
LINE
  8
0_00
  6
CONTINUOUS
 62
3
 10
1088.3496
 20
85.0800
 11
1086.7511
 21
85.0800
  0
LINE
  8
0_00
  6
CONTINUOUS
 62
3
 10
796.2610
 20
852.4893
 11
809.7610
 21
852.4893
  0
LINE
  8
0_00
  6
CONTINUOUS
 62
3
 10
797.1685
 20
854.0609
 11
796.2610
 21
852.4893
  0
LINE
  8
0_00
  6
CONTINUOUS
 62
3
 10
800.8929
 20
860.5119
 11
803.0110
 21
864.1806
  0
LINE
  8
0_00
  6
CONTINUOUS
 62
3
 10
808.8538
 20
854.0609
 11
809.7610
 21
852.4893
  0
LINE
  8
0_00
  6
CONTINUOUS
 62
3
 10
805.1292
 20
860.5119
 11
803.0110
 21
864.1806
  0
LINE
  8
0_00
  6
CONTINUOUS
 62
3
 10
1218.5110
 20
154.2001
 11
1221.5110
 21
154.2001
  0
LINE
  8
0_00
  6
CONTINUOUS
 62
3
 10
1218.5110
 20
175.2001
 11
1221.5110
 21
175.2001
  0
LINE
  8
0_00
  6
CONTINUOUS
 62
3
 10
1218.5110
 20
196.2001
 11
1221.5110
 21
196.2001
  0
LINE
  8
0_00
  6
CONTINUOUS
 62
3
 10
1218.5110
 20
217.2001
 11
1221.5110
 21
217.2001
  0
LINE
  8
0_00
  6
CONTINUOUS
 62
3
 10
1218.5110
 20
238.2001
 11
1221.5110
 21
238.2001
  0
LINE
  8
0_00
  6
CONTINUOUS
 62
3
 10
1218.5110
 20
259.2001
 11
1221.5110
 21
259.2001
  0
LINE
  8
0_00
  6
CONTINUOUS
 62
3
 10
1218.5110
 20
280.2001
 11
1221.5110
 21
280.2001
  0
LINE
  8
0_00
  6
CONTINUOUS
 62
3
 10
1218.5110
 20
301.2001
 11
1221.5110
 21
301.2001
  0
LINE
  8
0_00
  6
CONTINUOUS
 62
3
 10
1218.5110
 20
322.2001
 11
1221.5110
 21
322.2001
  0
LINE
  8
0_00
  6
CONTINUOUS
 62
3
 10
1218.5110
 20
343.2001
 11
1221.5110
 21
343.2001
  0
LINE
  8
0_00
  6
CONTINUOUS
 62
3
 10
1218.5110
 20
364.2001
 11
1221.5110
 21
364.2001
  0
LINE
  8
0_00
  6
CONTINUOUS
 62
3
 10
1218.5110
 20
385.2001
 11
1221.5110
 21
385.2001
  0
LINE
  8
0_00
  6
CONTINUOUS
 62
3
 10
1218.5110
 20
406.2001
 11
1221.5110
 21
406.2001
  0
LINE
  8
0_00
  6
CONTINUOUS
 62
3
 10
1218.5110
 20
427.2001
 11
1221.5110
 21
427.2001
  0
LINE
  8
0_00
  6
CONTINUOUS
 62
3
 10
1218.5110
 20
448.2001
 11
1221.5110
 21
448.2001
  0
LINE
  8
0_00
  6
CONTINUOUS
 62
3
 10
1218.5110
 20
469.2001
 11
1221.5110
 21
469.2001
  0
LINE
  8
0_00
  6
CONTINUOUS
 62
3
 10
1218.5110
 20
490.2001
 11
1221.5110
 21
490.2001
  0
LINE
  8
0_00
  6
CONTINUOUS
 62
3
 10
1218.5110
 20
833.7001
 11
1221.5110
 21
833.7001
  0
LINE
  8
0_00
  6
CONTINUOUS
 62
3
 10
1218.5110
 20
815.7001
 11
1221.5110
 21
815.7001
  0
LINE
  8
0_00
  6
CONTINUOUS
 62
3
 10
1218.5110
 20
797.7001
 11
1221.5110
 21
797.7001
  0
LINE
  8
0_00
  6
CONTINUOUS
 62
3
 10
1218.5110
 20
779.7001
 11
1221.5110
 21
779.7001
  0
LINE
  8
0_00
  6
CONTINUOUS
 62
3
 10
1218.5110
 20
761.7001
 11
1221.5110
 21
761.7001
  0
LINE
  8
0_00
  6
CONTINUOUS
 62
3
 10
1218.5110
 20
743.7001
 11
1221.5110
 21
743.7001
  0
LINE
  8
0_00
  6
CONTINUOUS
 62
3
 10
1218.5110
 20
511.2001
 11
1221.5110
 21
511.2001
  0
LINE
  8
0_00
  6
CONTINUOUS
 62
3
 10
1218.5110
 20
532.2001
 11
1221.5110
 21
532.2001
  0
LINE
  8
0_00
  6
CONTINUOUS
 62
3
 10
1218.5110
 20
553.2001
 11
1221.5110
 21
553.2001
  0
LINE
  8
0_00
  6
CONTINUOUS
 62
3
 10
1218.5110
 20
574.2001
 11
1221.5110
 21
574.2001
  0
LINE
  8
0_00
  6
CONTINUOUS
 62
3
 10
1218.5110
 20
595.2001
 11
1221.5110
 21
595.2001
  0
LINE
  8
0_00
  6
CONTINUOUS
 62
3
 10
1218.5110
 20
616.2001
 11
1221.5110
 21
616.2001
  0
LINE
  8
0_00
  6
CONTINUOUS
 62
3
 10
1218.5110
 20
637.2000
 11
1221.5110
 21
637.2000
  0
LINE
  8
0_00
  6
CONTINUOUS
 62
3
 10
1218.5110
 20
658.2000
 11
1221.5110
 21
658.2000
  0
LINE
  8
0_00
  6
CONTINUOUS
 62
3
 10
1218.5110
 20
679.2000
 11
1221.5110
 21
679.2000
  0
LINE
  8
0_00
  6
CONTINUOUS
 62
3
 10
1218.5110
 20
700.2001
 11
1221.5110
 21
700.2001
  0
LINE
  8
0_00
  6
CONTINUOUS
 62
3
 10
1218.5110
 20
721.2001
 11
1221.5110
 21
721.2001
  0
LINE
  8
0_00
  6
CENTER1
 62
3
 10
881.0410
 20
73.2001
 11
881.0410
 21
91.2001
  0
LINE
  8
0_00
  6
CONTINUOUS
 62
4
 10
891.5411
 20
78.4501
 11
891.5411
 21
85.9501
  0
LINE
  8
0_00
  6
CONTINUOUS
 62
4
 10
905.0410
 20
76.2001
 11
905.0410
 21
88.2001
  0
LINE
  8
0_00
  6
CONTINUOUS
 62
4
 10
891.5411
 20
85.9501
 11
905.0410
 21
88.2001
  0
LINE
  8
0_00
  6
CONTINUOUS
 62
4
 10
891.5411
 20
78.4501
 11
905.0410
 21
76.2001
  0
LINE
  8
0_00
  6
CENTER1
 62
3
 10
872.0411
 20
82.2001
 11
907.3555
 21
82.2001
  0
LINE
  8
0_00
  6
CONTINUOUS
 62
3
 10
1191.5110
 20
37.2000
 11
1191.5110
 21
67.2000
  0
LINE
  8
0_00
  6
CONTINUOUS
 62
3
 10
39.6905
 20
22.2000
 11
1233.5110
 21
22.2000
  0
LINE
  8
0_00
  6
CONTINUOUS
 62
3
 10
1182.5110
 20
865.2001
 11
1182.5110
 21
851.7001
  0
LINE
  8
0_00
  6
CONTINUOUS
 62
3
 10
0.0000
 20
443.7000
 11
39.6905
 21
443.7000
  0
LINE
  8
0_00
  6
CONTINUOUS
 62
3
 10
626.1610
 20
22.2000
 11
626.1610
 21
0.0000
  0
LINE
  8
0_00
  6
CONTINUOUS
 62
3
 10
626.1610
 20
865.2001
 11
626.1610
 21
891.0000
  0
LINE
  8
0_00
  6
CONTINUOUS
 62
3
 10
1233.5110
 20
443.7000
 11
1260.0000
 21
443.7000
  0
LINE
  8
0_00
  6
CONTINUOUS
 62
6
 10
1142.3665
 20
219.5647
 11
1190.6779
 21
219.5647
  0
LINE
  8
0_00
  6
CONTINUOUS
 62
6
 10
1163.6903
 20
289.5646
 11
1190.6779
 21
289.5646
  0
LINE
  8
0_00
  6
CONTINUOUS
 62
6
 10
1187.6779
 20
289.5646
 11
1187.6779
 21
219.5647
  0
LINE
  8
0_00
  6
CONTINUOUS
 62
6
 10
1187.6779
 20
289.5646
 11
1186.1186
 21
282.2285
  0
LINE
  8
0_00
  6
CONTINUOUS
 62
6
 10
1187.6779
 20
289.5646
 11
1189.2372
 21
282.2285
  0
LINE
  8
0_00
  6
CONTINUOUS
 62
6
 10
1187.6779
 20
219.5647
 11
1189.2372
 21
226.9007
  0
LINE
  8
0_00
  6
CONTINUOUS
 62
6
 10
1187.6779
 20
219.5647
 11
1186.1186
 21
226.9007
  0
LINE
  8
0_00
  6
CONTINUOUS
 62
6
 10
179.2841
 20
782.0520
 11
179.2841
 21
795.0779
  0
LINE
  8
0_00
  6
CONTINUOUS
 62
6
 10
179.2841
 20
789.0779
 11
249.2841
 21
789.0779
  0
LINE
  8
0_00
  6
CONTINUOUS
 62
6
 10
179.2841
 20
789.0779
 11
186.6202
 21
787.5186
  0
LINE
  8
0_00
  6
CONTINUOUS
 62
6
 10
179.2841
 20
789.0779
 11
186.6202
 21
790.6371
  0
LINE
  8
0_00
  6
CONTINUOUS
 62
6
 10
249.2841
 20
789.0779
 11
241.9480
 21
790.6371
  0
LINE
  8
0_00
  6
CONTINUOUS
 62
6
 10
249.2841
 20
789.0779
 11
241.9480
 21
787.5186
  0
LINE
  8
0_00
  6
CONTINUOUS
 62
6
 10
249.2841
 20
627.2599
 11
249.2841
 21
646.4612
  0
LINE
  8
0_00
  6
CONTINUOUS
 62
6
 10
249.2841
 20
678.0458
 11
249.2841
 21
749.0897
  0
LINE
  8
0_00
  6
CONTINUOUS
 62
6
 10
249.2841
 20
768.5856
 11
249.2841
 21
795.0779
  0
LINE
  8
0_00
  6
DASHED
 62
2
 10
409.0341
 20
705.3447
 11
409.0341
 21
693.3448
  0
LINE
  8
0_00
  6
DASHED
 62
2
 10
405.5341
 20
705.3447
 11
405.5341
 21
693.3448
  0
LINE
  8
0_00
  6
DASHED
 62
2
 10
409.2841
 20
705.3447
 11
409.2841
 21
693.3448
  0
LINE
  8
0_00
  6
DASHED
 62
2
 10
405.2841
 20
705.3447
 11
405.2841
 21
693.3448
  0
LINE
  8
0_00
  6
DASHED
 62
2
 10
409.2841
 20
693.3448
 11
405.2841
 21
693.3448
  0
LINE
  8
12_0C
  6
CONTINUOUS
 62
2
 10
403.2841
 20
705.3447
 11
411.2841
 21
705.3447
  0
LINE
  8
12_0C
  6
CONTINUOUS
 62
2
 10
403.2841
 20
705.7447
 11
411.2841
 21
705.7447
  0
LINE
  8
12_0C
  6
CONTINUOUS
 62
2
 10
411.2841
 20
705.3447
 11
411.2841
 21
705.7447
  0
LINE
  8
12_0C
  6
CONTINUOUS
 62
2
 10
403.2841
 20
705.3447
 11
403.2841
 21
705.7447
  0
LINE
  8
0_00
  6
DASHED
 62
2
 10
373.0341
 20
705.3447
 11
373.0341
 21
693.3448
  0
LINE
  8
0_00
  6
DASHED
 62
2
 10
369.5341
 20
705.3447
 11
369.5341
 21
693.3448
  0
LINE
  8
0_00
  6
DASHED
 62
2
 10
373.2841
 20
705.3447
 11
373.2841
 21
693.3448
  0
LINE
  8
0_00
  6
DASHED
 62
2
 10
369.2841
 20
705.3447
 11
369.2841
 21
693.3448
  0
LINE
  8
0_00
  6
DASHED
 62
2
 10
373.2841
 20
693.3448
 11
369.2841
 21
693.3448
  0
LINE
  8
12_0C
  6
CONTINUOUS
 62
2
 10
367.2841
 20
705.3447
 11
375.2841
 21
705.3447
  0
LINE
  8
12_0C
  6
CONTINUOUS
 62
2
 10
367.2841
 20
705.7447
 11
375.2841
 21
705.7447
  0
LINE
  8
12_0C
  6
CONTINUOUS
 62
2
 10
375.2841
 20
705.3447
 11
375.2841
 21
705.7447
  0
LINE
  8
12_0C
  6
CONTINUOUS
 62
2
 10
367.2841
 20
705.3447
 11
367.2841
 21
705.7447
  0
LINE
  8
0_00
  6
CONTINUOUS
 62
4
 10
389.2841
 20
705.4448
 11
388.9841
 21
705.1448
  0
LINE
  8
0_00
  6
CONTINUOUS
 62
4
 10
401.5841
 20
705.1448
 11
389.5841
 21
705.1448
  0
LINE
  8
0_00
  6
CONTINUOUS
 62
4
 10
389.2841
 20
705.4448
 11
389.5841
 21
705.1448
  0
LINE
  8
14_0E
  6
CONTINUOUS
 62
4
 10
402.3603
 20
706.7544
 11
393.2841
 21
707.1448
  0
LINE
  8
0_00
  6
CONTINUOUS
 62
4
 10
389.2841
 20
705.4448
 11
389.5841
 21
705.1448
  0
LINE
  8
0_00
  6
CONTINUOUS
 62
4
 10
376.9841
 20
705.1448
 11
388.9841
 21
705.1448
  0
LINE
  8
0_00
  6
CONTINUOUS
 62
4
 10
389.2841
 20
705.4448
 11
388.9841
 21
705.1448
  0
LINE
  8
14_0E
  6
CONTINUOUS
 62
4
 10
376.2079
 20
706.7544
 11
385.2841
 21
707.1448
  0
LINE
  8
0_00
  6
CONTINUOUS
 62
4
 10
393.2841
 20
707.1448
 11
385.2841
 21
707.1448
  0
LINE
  8
0_00
  6
CONTINUOUS
 62
4
 10
401.9841
 20
703.6447
 11
406.9841
 21
703.6447
  0
LINE
  8
0_00
  6
CONTINUOUS
 62
4
 10
401.5841
 20
705.1448
 11
401.9841
 21
703.6447
  0
LINE
  8
0_00
  6
CONTINUOUS
 62
4
 10
404.7841
 20
705.3447
 11
409.7841
 21
705.3447
  0
LINE
  8
0_00
  6
CONTINUOUS
 62
4
 10
407.5841
 20
703.6447
 11
416.6841
 21
703.6447
  0
LINE
  8
0_00
  6
CONTINUOUS
 62
4
 10
407.2841
 20
703.9448
 11
406.9841
 21
703.6447
  0
LINE
  8
0_00
  6
CONTINUOUS
 62
4
 10
407.2841
 20
703.9448
 11
407.5841
 21
703.6447
  0
LINE
  8
0_00
  6
CONTINUOUS
 62
4
 10
414.6119
 20
705.1448
 11
410.0841
 21
705.1448
  0
LINE
  8
0_00
  6
CONTINUOUS
 62
4
 10
409.7841
 20
705.3447
 11
410.0841
 21
705.1448
  0
LINE
  8
0_00
  6
CONTINUOUS
 62
4
 10
404.4841
 20
705.1448
 11
403.2964
 21
705.1448
  0
LINE
  8
0_00
  6
CONTINUOUS
 62
4
 10
404.7841
 20
705.3447
 11
404.4841
 21
705.1448
  0
LINE
  8
0_00
  6
CONTINUOUS
 62
4
 10
402.6384
 20
706.5275
 11
402.9083
 21
705.4478
  0
LINE
  8
0_00
  6
CONTINUOUS
 62
4
 10
416.6841
 20
703.6447
 11
417.6841
 21
704.6447
  0
LINE
  8
0_00
  6
CONTINUOUS
 62
4
 10
417.6841
 20
704.6447
 11
417.6841
 21
705.9448
  0
LINE
  8
0_00
  6
CONTINUOUS
 62
4
 10
417.6841
 20
705.1448
 11
417.6841
 21
704.6447
  0
LINE
  8
0_00
  6
CONTINUOUS
 62
4
 10
416.7036
 20
708.0227
 11
417.5602
 21
708.0976
  0
LINE
  8
0_00
  6
CONTINUOUS
 62
4
 10
415.5970
 20
709.0302
 11
416.4350
 21
709.1034
  0
LINE
  8
0_00
  6
CONTINUOUS
 62
4
 10
414.6841
 20
708.0340
 11
414.6841
 21
707.6010
  0
LINE
  8
0_00
  6
CONTINUOUS
 62
4
 10
417.8280
 20
708.4568
 11
416.7425
 21
713.7448
  0
LINE
  8
0_00
  6
CONTINUOUS
 62
4
 10
415.9964
 20
712.9041
 11
416.7028
 21
709.4626
  0
LINE
  8
0_00
  6
CONTINUOUS
 62
4
 10
416.6820
 20
713.7448
 11
416.7425
 21
713.7448
  0
LINE
  8
0_00
  6
CONTINUOUS
 62
4
 10
419.2847
 20
713.8913
 11
419.2846
 21
704.6835
  0
LINE
  8
0_00
  6
CONTINUOUS
 62
4
 10
417.8846
 20
706.0414
 11
417.8846
 21
703.7008
  0
LINE
  8
0_00
  6
CONTINUOUS
 62
4
 10
417.8847
 20
711.0913
 11
417.8847
 21
713.4874
  0
LINE
  8
0_00
  6
CONTINUOUS
 62
4
 10
415.1847
 20
713.8914
 11
417.4847
 21
713.8914
  0
LINE
  8
0_00
  6
CONTINUOUS
 62
4
 10
414.3847
 20
714.1913
 11
414.3847
 21
713.2913
  0
LINE
  8
0_00
  6
CONTINUOUS
 62
4
 10
415.1847
 20
713.8914
 11
415.1847
 21
713.6913
  0
LINE
  8
0_00
  6
CONTINUOUS
 62
4
 10
416.8041
 20
707.9968
 11
417.5196
 21
708.0594
  0
LINE
  8
0_00
  6
CONTINUOUS
 62
4
 10
417.8768
 20
708.5370
 11
417.4100
 21
710.8518
  0
LINE
  8
0_00
  6
CONTINUOUS
 62
4
 10
417.6061
 20
711.0913
 11
417.8847
 21
711.0913
  0
LINE
  8
0_00
  6
CONTINUOUS
 62
4
 10
415.3847
 20
715.1913
 11
417.9847
 21
715.1912
  0
LINE
  8
0_00
  6
CONTINUOUS
 62
4
 10
376.5841
 20
703.6447
 11
371.5841
 21
703.6447
  0
LINE
  8
0_00
  6
CONTINUOUS
 62
4
 10
376.9841
 20
705.1448
 11
376.5841
 21
703.6447
  0
LINE
  8
0_00
  6
CONTINUOUS
 62
4
 10
373.7841
 20
705.3447
 11
368.7841
 21
705.3447
  0
LINE
  8
0_00
  6
CONTINUOUS
 62
4
 10
370.9841
 20
703.6447
 11
361.8841
 21
703.6447
  0
LINE
  8
0_00
  6
CONTINUOUS
 62
4
 10
371.2841
 20
703.9448
 11
371.5841
 21
703.6447
  0
LINE
  8
0_00
  6
CONTINUOUS
 62
4
 10
371.2841
 20
703.9448
 11
370.9841
 21
703.6447
  0
LINE
  8
0_00
  6
CONTINUOUS
 62
4
 10
363.9563
 20
705.1448
 11
368.4841
 21
705.1448
  0
LINE
  8
0_00
  6
CONTINUOUS
 62
4
 10
368.7841
 20
705.3447
 11
368.4841
 21
705.1448
  0
LINE
  8
0_00
  6
CONTINUOUS
 62
4
 10
374.0841
 20
705.1448
 11
375.2718
 21
705.1448
  0
LINE
  8
0_00
  6
CONTINUOUS
 62
4
 10
373.7841
 20
705.3447
 11
374.0841
 21
705.1448
  0
LINE
  8
0_00
  6
CONTINUOUS
 62
4
 10
375.9298
 20
706.5275
 11
375.6599
 21
705.4478
  0
LINE
  8
0_00
  6
CONTINUOUS
 62
4
 10
361.8841
 20
703.6447
 11
360.8841
 21
704.6447
  0
LINE
  8
0_00
  6
CONTINUOUS
 62
4
 10
360.8841
 20
704.6447
 11
360.8841
 21
705.9448
  0
LINE
  8
0_00
  6
CONTINUOUS
 62
4
 10
360.8841
 20
705.1448
 11
360.8841
 21
704.6447
  0
LINE
  8
0_00
  6
CONTINUOUS
 62
4
 10
361.8646
 20
708.0227
 11
361.0079
 21
708.0976
  0
LINE
  8
0_00
  6
CONTINUOUS
 62
4
 10
362.9713
 20
709.0302
 11
362.1332
 21
709.1034
  0
LINE
  8
0_00
  6
CONTINUOUS
 62
4
 10
363.8841
 20
708.0340
 11
363.8841
 21
707.6010
  0
LINE
  8
0_00
  6
CONTINUOUS
 62
4
 10
360.7402
 20
708.4568
 11
361.8257
 21
713.7448
  0
LINE
  8
0_00
  6
CONTINUOUS
 62
4
 10
362.5719
 20
712.9041
 11
361.8655
 21
709.4626
  0
LINE
  8
0_00
  6
CONTINUOUS
 62
4
 10
361.8861
 20
713.7448
 11
361.8257
 21
713.7448
  0
LINE
  8
0_00
  6
CONTINUOUS
 62
4
 10
359.2835
 20
713.8913
 11
359.2836
 21
704.6835
  0
LINE
  8
0_00
  6
CONTINUOUS
 62
4
 10
360.6836
 20
706.0414
 11
360.6836
 21
703.7008
  0
LINE
  8
0_00
  6
CONTINUOUS
 62
4
 10
360.6835
 20
711.0913
 11
360.6835
 21
713.4874
  0
LINE
  8
0_00
  6
CONTINUOUS
 62
4
 10
363.3835
 20
713.8914
 11
361.0835
 21
713.8914
  0
LINE
  8
0_00
  6
CONTINUOUS
 62
4
 10
364.1835
 20
714.1913
 11
364.1835
 21
713.2913
  0
LINE
  8
0_00
  6
CONTINUOUS
 62
4
 10
363.3835
 20
713.8914
 11
363.3835
 21
713.6913
  0
LINE
  8
0_00
  6
CONTINUOUS
 62
4
 10
361.7640
 20
707.9968
 11
361.0487
 21
708.0594
  0
LINE
  8
0_00
  6
CONTINUOUS
 62
4
 10
360.6914
 20
708.5370
 11
361.1582
 21
710.8518
  0
LINE
  8
0_00
  6
CONTINUOUS
 62
4
 10
360.9621
 20
711.0913
 11
360.6835
 21
711.0913
  0
LINE
  8
0_00
  6
CONTINUOUS
 62
4
 10
363.1835
 20
715.1913
 11
360.5835
 21
715.1912
  0
LINE
  8
0_00
  6
CONTINUOUS
 62
4
 10
365.7841
 20
705.1448
 11
367.2841
 21
705.1448
  0
LINE
  8
0_00
  6
CONTINUOUS
 62
4
 10
414.2841
 20
703.6447
 11
364.2841
 21
703.6447
  0
LINE
  8
0_00
  6
CONTINUOUS
 62
6
 10
404.2841
 20
739.4008
 11
471.9249
 21
739.4008
  0
LINE
  8
0_00
  6
CONTINUOUS
 62
6
 10
434.2941
 20
702.2913
 11
471.9249
 21
702.2913
  0
LINE
  8
0_00
  6
CONTINUOUS
 62
6
 10
465.9250
 20
739.4008
 11
465.9250
 21
702.2913
  0
LINE
  8
0_00
  6
CONTINUOUS
 62
6
 10
465.9250
 20
739.4008
 11
464.3656
 21
732.0647
  0
LINE
  8
0_00
  6
CONTINUOUS
 62
6
 10
465.9250
 20
739.4008
 11
467.4843
 21
732.0647
  0
LINE
  8
0_00
  6
CONTINUOUS
 62
6
 10
465.9250
 20
702.2913
 11
467.4843
 21
709.6274
  0
LINE
  8
0_00
  6
CONTINUOUS
 62
6
 10
465.9250
 20
702.2913
 11
464.3656
 21
709.6274
  0
LINE
  8
0_00
  6
CONTINUOUS
 62
6
 10
374.2841
 20
739.4008
 11
323.8586
 21
739.4008
  0
LINE
  8
0_00
  6
CONTINUOUS
 62
6
 10
329.8586
 20
739.4008
 11
329.8586
 21
603.3243
  0
LINE
  8
0_00
  6
CONTINUOUS
 62
6
 10
329.8586
 20
739.4008
 11
328.2992
 21
732.0647
  0
LINE
  8
0_00
  6
CONTINUOUS
 62
6
 10
329.8586
 20
739.4008
 11
331.4179
 21
732.0647
  0
LINE
  8
0_00
  6
CONTINUOUS
 62
6
 10
349.2841
 20
733.1030
 11
349.2841
 21
784.8218
  0
LINE
  8
0_00
  6
CONTINUOUS
 62
6
 10
349.2841
 20
778.8218
 11
429.2841
 21
778.8218
  0
LINE
  8
0_00
  6
CONTINUOUS
 62
6
 10
349.2841
 20
778.8218
 11
356.6202
 21
777.2625
  0
LINE
  8
0_00
  6
CONTINUOUS
 62
6
 10
349.2841
 20
778.8218
 11
356.6202
 21
780.3811
  0
LINE
  8
0_00
  6
CONTINUOUS
 62
6
 10
429.2841
 20
778.8218
 11
421.9480
 21
780.3811
  0
LINE
  8
0_00
  6
CONTINUOUS
 62
6
 10
429.2841
 20
778.8218
 11
421.9480
 21
777.2625
  0
LINE
  8
0_00
  6
CONTINUOUS
 62
6
 10
429.2841
 20
733.1030
 11
429.2841
 21
745.8651
  0
LINE
  8
0_00
  6
CONTINUOUS
 62
6
 10
429.2841
 20
766.2017
 11
429.2841
 21
784.8218
  0
LINE
  8
0_00
  6
CONTINUOUS
 62
6
 10
1059.6103
 20
325.5647
 11
1059.6103
 21
439.5023
  0
LINE
  8
0_00
  6
CONTINUOUS
 62
6
 10
1091.6104
 20
325.5647
 11
1091.6104
 21
439.5023
  0
LINE
  8
0_00
  6
CONTINUOUS
 62
6
 10
1059.6103
 20
433.5023
 11
1091.6104
 21
433.5023
  0
LINE
  8
0_00
  6
CONTINUOUS
 62
6
 10
1030.2103
 20
433.5023
 11
1059.6103
 21
433.5023
  0
LINE
  8
0_00
  6
CONTINUOUS
 62
6
 10
1059.6103
 20
433.5023
 11
1052.2743
 21
435.0616
  0
LINE
  8
0_00
  6
CONTINUOUS
 62
6
 10
1059.6103
 20
433.5023
 11
1052.2743
 21
431.9430
  0
LINE
  8
0_00
  6
CONTINUOUS
 62
6
 10
1109.6104
 20
433.5023
 11
1091.6104
 21
433.5023
  0
LINE
  8
0_00
  6
CONTINUOUS
 62
6
 10
1091.6104
 20
433.5023
 11
1098.9465
 21
431.9430
  0
LINE
  8
0_00
  6
CONTINUOUS
 62
6
 10
1091.6104
 20
433.5023
 11
1098.9465
 21
435.0616
  0
LINE
  8
0_00
  6
CONTINUOUS
 62
6
 10
1176.0040
 20
726.2044
 11
1203.5439
 21
726.2044
  0
LINE
  8
0_00
  6
CONTINUOUS
 62
6
 10
1176.0040
 20
688.7043
 11
1203.5439
 21
688.7043
  0
LINE
  8
0_00
  6
CONTINUOUS
 62
6
 10
1197.5440
 20
726.2044
 11
1197.5440
 21
688.7043
  0
LINE
  8
0_00
  6
CONTINUOUS
 62
6
 10
1197.5440
 20
744.2043
 11
1197.5440
 21
726.2044
  0
LINE
  8
0_00
  6
CONTINUOUS
 62
6
 10
1197.5440
 20
726.2044
 11
1199.1033
 21
733.5405
  0
LINE
  8
0_00
  6
CONTINUOUS
 62
6
 10
1197.5440
 20
726.2044
 11
1195.9846
 21
733.5405
  0
LINE
  8
0_00
  6
CONTINUOUS
 62
6
 10
1197.5440
 20
670.7043
 11
1197.5440
 21
688.7043
  0
LINE
  8
0_00
  6
CONTINUOUS
 62
6
 10
1197.5440
 20
688.7043
 11
1195.9846
 21
681.3683
  0
LINE
  8
0_00
  6
CONTINUOUS
 62
6
 10
1197.5440
 20
688.7043
 11
1199.1033
 21
681.3683
  0
LINE
  8
0_00
  6
CONTINUOUS
 62
6
 10
134.9836
 20
692.4008
 11
88.9244
 21
692.4008
  0
LINE
  8
0_00
  6
CONTINUOUS
 62
6
 10
149.2841
 20
739.4008
 11
88.9244
 21
739.4008
  0
LINE
  8
0_00
  6
CONTINUOUS
 62
6
 10
94.9244
 20
739.4008
 11
94.9244
 21
692.4008
  0
LINE
  8
0_00
  6
CONTINUOUS
 62
6
 10
94.9244
 20
739.4008
 11
93.3651
 21
732.0647
  0
LINE
  8
0_00
  6
CONTINUOUS
 62
6
 10
94.9244
 20
739.4008
 11
96.4837
 21
732.0647
  0
LINE
  8
0_00
  6
CONTINUOUS
 62
6
 10
94.9244
 20
692.4008
 11
96.4837
 21
699.7370
  0
LINE
  8
0_00
  6
CONTINUOUS
 62
6
 10
94.9244
 20
692.4008
 11
93.3651
 21
699.7370
  0
LINE
  8
15_0F
  6
CONTINUOUS
 62
4
 10
613.6490
 20
144.9447
 11
658.6491
 21
144.9447
  0
LINE
  8
15_0F
  6
CONTINUOUS
 62
4
 10
71.4766
 20
302.8197
 11
116.4766
 21
302.8197
  0
LINE
  8
0_00
  6
DASHED
 62
2
 10
605.1548
 20
705.9008
 11
605.1548
 21
693.9008
  0
LINE
  8
0_00
  6
DASHED
 62
2
 10
601.6548
 20
705.9008
 11
601.6548
 21
693.9008
  0
LINE
  8
0_00
  6
DASHED
 62
2
 10
605.4048
 20
705.9008
 11
605.4048
 21
693.9008
  0
LINE
  8
0_00
  6
DASHED
 62
2
 10
601.4048
 20
705.9008
 11
601.4048
 21
693.9008
  0
LINE
  8
0_00
  6
DASHED
 62
2
 10
605.4048
 20
693.9008
 11
601.4048
 21
693.9008
  0
LINE
  8
12_0C
  6
CONTINUOUS
 62
2
 10
599.4048
 20
705.9008
 11
607.4048
 21
705.9008
  0
LINE
  8
12_0C
  6
CONTINUOUS
 62
2
 10
599.4048
 20
706.3008
 11
607.4048
 21
706.3008
  0
LINE
  8
12_0C
  6
CONTINUOUS
 62
2
 10
607.4048
 20
705.9008
 11
607.4048
 21
706.3008
  0
LINE
  8
12_0C
  6
CONTINUOUS
 62
2
 10
599.4048
 20
705.9008
 11
599.4048
 21
706.3008
  0
LINE
  8
0_00
  6
DASHED
 62
2
 10
569.1548
 20
705.9008
 11
569.1548
 21
693.9008
  0
LINE
  8
0_00
  6
DASHED
 62
2
 10
565.6548
 20
705.9008
 11
565.6548
 21
693.9008
  0
LINE
  8
0_00
  6
DASHED
 62
2
 10
569.4048
 20
705.9008
 11
569.4048
 21
693.9008
  0
LINE
  8
0_00
  6
DASHED
 62
2
 10
565.4048
 20
705.9008
 11
565.4048
 21
693.9008
  0
LINE
  8
0_00
  6
DASHED
 62
2
 10
569.4048
 20
693.9008
 11
565.4048
 21
693.9008
  0
LINE
  8
12_0C
  6
CONTINUOUS
 62
2
 10
563.4048
 20
705.9008
 11
571.4048
 21
705.9008
  0
LINE
  8
12_0C
  6
CONTINUOUS
 62
2
 10
563.4048
 20
706.3008
 11
571.4048
 21
706.3008
  0
LINE
  8
12_0C
  6
CONTINUOUS
 62
2
 10
571.4048
 20
705.9008
 11
571.4048
 21
706.3008
  0
LINE
  8
12_0C
  6
CONTINUOUS
 62
2
 10
563.4048
 20
705.9008
 11
563.4048
 21
706.3008
  0
LINE
  8
0_00
  6
CONTINUOUS
 62
6
 10
570.4048
 20
739.4008
 11
519.9793
 21
739.4008
  0
LINE
  8
0_00
  6
CONTINUOUS
 62
6
 10
525.9793
 20
739.4008
 11
525.9793
 21
603.3243
  0
LINE
  8
0_00
  6
CONTINUOUS
 62
6
 10
525.9793
 20
739.4008
 11
524.4200
 21
732.0647
  0
LINE
  8
0_00
  6
CONTINUOUS
 62
6
 10
525.9793
 20
739.4008
 11
527.5386
 21
732.0647
  0
LINE
  8
0_00
  6
CONTINUOUS
 62
4
 10
574.9032
 20
706.6008
 11
572.9031
 21
706.6008
  0
LINE
  8
0_00
  6
CONTINUOUS
 62
4
 10
574.9032
 20
706.6008
 11
574.9032
 21
705.8008
  0
LINE
  8
0_00
  6
CONTINUOUS
 62
4
 10
572.9031
 20
706.6008
 11
572.9031
 21
705.0008
  0
LINE
  8
0_00
  6
CONTINUOUS
 62
4
 10
595.9032
 20
706.6008
 11
597.9031
 21
706.6008
  0
LINE
  8
0_00
  6
CONTINUOUS
 62
4
 10
595.9032
 20
706.6008
 11
595.9032
 21
705.8008
  0
LINE
  8
0_00
  6
CONTINUOUS
 62
4
 10
597.9031
 20
706.6008
 11
597.9031
 21
705.0008
  0
LINE
  8
0_00
  6
CONTINUOUS
 62
4
 10
559.0031
 20
706.5008
 11
559.0031
 21
700.9962
  0
LINE
  8
0_00
  6
CONTINUOUS
 62
4
 10
611.8031
 20
706.5008
 11
611.8031
 21
700.9962
  0
LINE
  8
0_00
  6
CONTINUOUS
 62
4
 10
560.1031
 20
705.9008
 11
560.1031
 21
709.3925
  0
LINE
  8
0_00
  6
CONTINUOUS
 62
4
 10
610.7032
 20
705.9008
 11
610.7032
 21
709.3925
  0
LINE
  8
0_00
  6
CONTINUOUS
 62
4
 10
611.8031
 20
707.7008
 11
611.8031
 21
709.3008
  0
LINE
  8
0_00
  6
CONTINUOUS
 62
4
 10
612.4031
 20
707.7008
 11
611.8031
 21
707.7008
  0
LINE
  8
0_00
  6
CONTINUOUS
 62
4
 10
612.4031
 20
706.5008
 11
611.8031
 21
706.5008
  0
LINE
  8
0_00
  6
CONTINUOUS
 62
4
 10
585.4032
 20
681.7008
 11
585.1046
 21
681.4024
  0
LINE
  8
0_00
  6
CONTINUOUS
 62
4
 10
585.4032
 20
681.7008
 11
585.7016
 21
681.4024
  0
LINE
  8
0_00
  6
CONTINUOUS
 62
4
 10
560.6032
 20
705.4008
 11
564.6031
 21
705.4008
  0
LINE
  8
0_00
  6
CONTINUOUS
 62
4
 10
560.1031
 20
704.3008
 11
564.6031
 21
704.3008
  0
LINE
  8
0_00
  6
CONTINUOUS
 62
4
 10
605.9031
 20
703.9008
 11
564.9031
 21
703.9008
  0
LINE
  8
0_00
  6
CONTINUOUS
 62
4
 10
603.7031
 20
705.9008
 11
603.4032
 21
705.6009
  0
LINE
  8
0_00
  6
CONTINUOUS
 62
4
 10
605.9031
 20
705.9008
 11
603.7031
 21
705.9008
  0
LINE
  8
0_00
  6
CONTINUOUS
 62
4
 10
606.2031
 20
705.4008
 11
605.9031
 21
705.9008
  0
LINE
  8
0_00
  6
CONTINUOUS
 62
4
 10
603.1031
 20
705.9008
 11
603.4032
 21
705.6009
  0
LINE
  8
0_00
  6
CONTINUOUS
 62
4
 10
600.9032
 20
705.9008
 11
603.1031
 21
705.9008
  0
LINE
  8
0_00
  6
CONTINUOUS
 62
4
 10
610.2031
 20
705.4008
 11
606.2031
 21
705.4008
  0
LINE
  8
0_00
  6
CONTINUOUS
 62
4
 10
585.1031
 20
705.0008
 11
585.4032
 21
704.7008
  0
LINE
  8
0_00
  6
CONTINUOUS
 62
4
 10
585.7031
 20
705.0008
 11
585.4032
 21
704.7008
  0
LINE
  8
0_00
  6
CONTINUOUS
 62
4
 10
612.7467
 20
709.3834
 11
611.8031
 21
709.3008
  0
LINE
  8
0_00
  6
CONTINUOUS
 62
4
 10
611.6160
 20
710.3887
 11
612.1805
 21
710.4380
  0
LINE
  8
0_00
  6
CONTINUOUS
 62
4
 10
613.1929
 20
709.9820
 11
612.8338
 21
711.7314
  0
LINE
  8
0_00
  6
CONTINUOUS
 62
4
 10
611.9522
 20
711.5504
 11
612.1805
 21
710.4380
  0
LINE
  8
0_00
  6
CONTINUOUS
 62
4
 10
610.3031
 20
715.4299
 11
611.4714
 21
714.2616
  0
LINE
  8
0_00
  6
CONTINUOUS
 62
4
 10
609.6960
 20
714.7642
 11
610.8351
 21
713.6251
  0
LINE
  8
0_00
  6
CONTINUOUS
 62
4
 10
559.0031
 20
707.7008
 11
559.0031
 21
709.3008
  0
LINE
  8
0_00
  6
CONTINUOUS
 62
4
 10
558.4032
 20
707.7008
 11
559.0031
 21
707.7008
  0
LINE
  8
0_00
  6
CONTINUOUS
 62
4
 10
558.4032
 20
706.5008
 11
559.0031
 21
706.5008
  0
LINE
  8
0_00
  6
CONTINUOUS
 62
4
 10
558.0596
 20
709.3834
 11
559.0031
 21
709.3008
  0
LINE
  8
0_00
  6
CONTINUOUS
 62
4
 10
559.1902
 20
710.3887
 11
558.6257
 21
710.4380
  0
LINE
  8
0_00
  6
CONTINUOUS
 62
4
 10
557.6133
 20
709.9820
 11
557.9724
 21
711.7314
  0
LINE
  8
0_00
  6
CONTINUOUS
 62
4
 10
558.8540
 20
711.5504
 11
558.6257
 21
710.4380
  0
LINE
  8
0_00
  6
CONTINUOUS
 62
4
 10
560.5031
 20
715.4299
 11
559.3348
 21
714.2616
  0
LINE
  8
0_00
  6
CONTINUOUS
 62
4
 10
561.4032
 20
715.9508
 11
561.4032
 21
715.4713
  0
LINE
  8
0_00
  6
CONTINUOUS
 62
4
 10
560.5031
 20
715.9508
 11
560.5031
 21
715.4299
  0
LINE
  8
0_00
  6
CONTINUOUS
 62
4
 10
561.1102
 20
714.7642
 11
559.9712
 21
713.6251
  0
LINE
  8
0_00
  6
CONTINUOUS
 62
4
 10
585.7031
 20
705.0008
 11
596.9031
 21
705.0008
  0
LINE
  8
0_00
  6
CONTINUOUS
 62
4
 10
597.9031
 20
705.0008
 11
600.6031
 21
705.0008
  0
LINE
  8
0_00
  6
CONTINUOUS
 62
4
 10
570.2031
 20
705.0008
 11
572.9031
 21
705.0008
  0
LINE
  8
0_00
  6
CONTINUOUS
 62
4
 10
573.9031
 20
705.0008
 11
585.1031
 21
705.0008
  0
LINE
  8
0_00
  6
CONTINUOUS
 62
4
 10
609.4032
 20
715.9508
 11
609.4032
 21
715.4713
  0
LINE
  8
0_00
  6
CONTINUOUS
 62
4
 10
610.3031
 20
715.9508
 11
610.3031
 21
715.4299
  0
LINE
  8
15_0F
  6
CONTINUOUS
 62
4
 10
560.1031
 20
704.3008
 11
560.1031
 21
700.7014
  0
LINE
  8
0_00
  6
CONTINUOUS
 62
4
 10
610.7032
 20
704.3008
 11
606.2031
 21
704.3008
  0
LINE
  8
0_00
  6
CONTINUOUS
 62
4
 10
606.2031
 20
704.3008
 11
605.9031
 21
703.9008
  0
LINE
  8
15_0F
  6
CONTINUOUS
 62
4
 10
610.7032
 20
704.3008
 11
610.7032
 21
700.7014
  0
LINE
  8
0_00
  6
CONTINUOUS
 62
4
 10
600.6031
 20
705.0008
 11
600.9032
 21
705.9008
  0
LINE
  8
15_0F
  6
CONTINUOUS
 62
4
 10
573.9031
 20
705.8008
 11
574.9032
 21
705.8008
  0
LINE
  8
15_0F
  6
CONTINUOUS
 62
4
 10
573.9031
 20
705.8008
 11
573.9031
 21
705.0008
  0
LINE
  8
15_0F
  6
CONTINUOUS
 62
4
 10
596.9031
 20
705.8008
 11
595.9032
 21
705.8008
  0
LINE
  8
15_0F
  6
CONTINUOUS
 62
4
 10
596.9031
 20
705.8008
 11
596.9031
 21
705.0008
  0
LINE
  8
15_0F
  6
CONTINUOUS
 62
4
 10
559.0031
 20
700.9962
 11
558.4912
 21
700.1095
  0
LINE
  8
15_0F
  6
CONTINUOUS
 62
4
 10
560.1031
 20
700.7014
 11
559.5902
 21
699.8130
  0
LINE
  8
15_0F
  6
CONTINUOUS
 62
4
 10
611.8031
 20
700.9962
 11
612.3150
 21
700.1095
  0
LINE
  8
15_0F
  6
CONTINUOUS
 62
4
 10
610.7032
 20
700.7014
 11
611.2160
 21
699.8130
  0
LINE
  8
15_0F
  6
CONTINUOUS
 62
4
 10
578.3739
 20
683.4008
 11
592.4323
 21
683.4008
  0
LINE
  8
0_00
  6
CONTINUOUS
 62
4
 10
567.1031
 20
705.9008
 11
567.4031
 21
705.6009
  0
LINE
  8
0_00
  6
CONTINUOUS
 62
4
 10
564.9031
 20
705.9008
 11
567.1031
 21
705.9008
  0
LINE
  8
0_00
  6
CONTINUOUS
 62
4
 10
564.6031
 20
705.4008
 11
564.9031
 21
705.9008
  0
LINE
  8
0_00
  6
CONTINUOUS
 62
4
 10
567.7031
 20
705.9008
 11
567.4031
 21
705.6009
  0
LINE
  8
0_00
  6
CONTINUOUS
 62
4
 10
569.9031
 20
705.9008
 11
567.7031
 21
705.9008
  0
LINE
  8
0_00
  6
CONTINUOUS
 62
4
 10
564.6031
 20
704.3008
 11
564.9031
 21
703.9008
  0
LINE
  8
0_00
  6
CONTINUOUS
 62
4
 10
570.2031
 20
705.0008
 11
569.9031
 21
705.9008
  0
LINE
  8
0_00
  6
CONTINUOUS
 62
4
 10
607.0031
 20
717.6270
 11
611.5630
 21
717.6270
  0
LINE
  8
0_00
  6
CONTINUOUS
 62
4
 10
607.3031
 20
716.6192
 11
607.3031
 21
715.8270
  0
LINE
  8
0_00
  6
CONTINUOUS
 62
4
 10
606.5031
 20
717.1270
 11
606.5031
 21
715.8270
  0
LINE
  8
0_00
  6
CONTINUOUS
 62
4
 10
612.4671
 20
701.6667
 11
612.3375
 21
702.2983
  0
LINE
  8
0_00
  6
CONTINUOUS
 62
4
 10
604.4916
 20
728.7822
 11
605.0543
 21
729.3450
  0
LINE
  8
0_00
  6
CONTINUOUS
 62
4
 10
603.7845
 20
729.4893
 11
604.3472
 21
730.0520
  0
LINE
  8
0_00
  6
CONTINUOUS
 62
4
 10
612.4968
 20
716.6277
 11
607.5108
 21
716.8190
  0
LINE
  8
0_00
  6
CONTINUOUS
 62
4
 10
613.1803
 20
711.5277
 11
613.0745
 21
711.5277
  0
LINE
  8
0_00
  6
CONTINUOUS
 62
4
 10
613.0788
 20
713.0277
 11
612.8467
 21
713.0277
  0
LINE
  8
0_00
  6
CONTINUOUS
 62
4
 10
612.6509
 20
712.7871
 11
612.8787
 21
711.6872
  0
LINE
  8
0_00
  6
CONTINUOUS
 62
4
 10
613.1861
 20
709.4270
 11
612.0759
 21
709.3299
  0
LINE
  8
0_00
  6
CONTINUOUS
 62
4
 10
563.8044
 20
717.6258
 11
559.2446
 21
717.6254
  0
LINE
  8
0_00
  6
CONTINUOUS
 62
4
 10
563.5045
 20
716.6179
 11
563.5045
 21
715.8257
  0
LINE
  8
0_00
  6
CONTINUOUS
 62
4
 10
564.3044
 20
717.1257
 11
564.3045
 21
715.8257
  0
LINE
  8
0_00
  6
CONTINUOUS
 62
4
 10
558.3413
 20
701.6651
 11
558.4709
 21
702.2968
  0
LINE
  8
0_00
  6
CONTINUOUS
 62
4
 10
566.3152
 20
728.7811
 11
565.7525
 21
729.3437
  0
LINE
  8
0_00
  6
CONTINUOUS
 62
4
 10
567.0223
 20
729.4883
 11
566.4595
 21
730.0509
  0
LINE
  8
0_00
  6
CONTINUOUS
 62
4
 10
558.3108
 20
716.6261
 11
563.2968
 21
716.8178
  0
LINE
  8
0_00
  6
CONTINUOUS
 62
4
 10
557.6277
 20
711.5261
 11
557.7334
 21
711.5261
  0
LINE
  8
0_00
  6
CONTINUOUS
 62
4
 10
557.7290
 20
713.0260
 11
557.9610
 21
713.0261
  0
LINE
  8
0_00
  6
CONTINUOUS
 62
4
 10
558.1569
 20
712.7856
 11
557.9292
 21
711.6856
  0
LINE
  8
0_00
  6
CONTINUOUS
 62
4
 10
557.6219
 20
709.4253
 11
558.7321
 21
709.3283
  0
LINE
  8
15_0F
  6
CONTINUOUS
 62
4
 10
388.6320
 20
145.1458
 11
448.0320
 21
145.1458
  0
LINE
  8
0_00
  6
CONTINUOUS
 62
6
 10
728.1291
 20
751.6302
 11
728.1291
 21
775.4795
  0
LINE
  8
0_00
  6
CONTINUOUS
 62
6
 10
738.6290
 20
751.6302
 11
738.6290
 21
775.4795
  0
LINE
  8
0_00
  6
CONTINUOUS
 62
6
 10
728.1291
 20
769.4795
 11
738.6290
 21
769.4795
  0
LINE
  8
0_00
  6
CONTINUOUS
 62
6
 10
698.7290
 20
769.4795
 11
728.1291
 21
769.4795
  0
LINE
  8
0_00
  6
CONTINUOUS
 62
6
 10
728.1291
 20
769.4795
 11
720.7929
 21
771.0389
  0
LINE
  8
0_00
  6
CONTINUOUS
 62
6
 10
728.1291
 20
769.4795
 11
720.7929
 21
767.9201
  0
LINE
  8
0_00
  6
CONTINUOUS
 62
6
 10
756.6290
 20
769.4795
 11
738.6290
 21
769.4795
  0
LINE
  8
0_00
  6
CONTINUOUS
 62
6
 10
738.6290
 20
769.4795
 11
745.9651
 21
767.9201
  0
LINE
  8
0_00
  6
CONTINUOUS
 62
6
 10
738.6290
 20
769.4795
 11
745.9651
 21
771.0389
  0
LINE
  8
13_0D
  6
CONTINUOUS
 62
6
 10
162.4631
 20
474.4008
 11
70.4244
 21
474.4008
  0
LINE
  8
13_0D
  6
CONTINUOUS
 62
6
 10
162.4631
 20
489.4008
 11
70.4244
 21
489.4008
  0
LINE
  8
13_0D
  6
CONTINUOUS
 62
6
 10
74.9244
 20
474.4008
 11
74.9244
 21
489.4008
  0
LINE
  8
13_0D
  6
CONTINUOUS
 62
6
 10
74.9244
 20
442.0009
 11
74.9244
 21
474.4008
  0
LINE
  8
13_0D
  6
CONTINUOUS
 62
6
 10
74.9244
 20
474.4008
 11
73.3651
 21
467.0647
  0
LINE
  8
13_0D
  6
CONTINUOUS
 62
6
 10
74.9244
 20
474.4008
 11
76.4837
 21
467.0647
  0
LINE
  8
13_0D
  6
CONTINUOUS
 62
6
 10
149.2841
 20
739.4008
 11
70.4244
 21
739.4008
  0
LINE
  8
13_0D
  6
CONTINUOUS
 62
6
 10
74.9244
 20
489.4008
 11
74.9244
 21
739.4008
  0
LINE
  8
13_0D
  6
CONTINUOUS
 62
6
 10
74.9244
 20
489.4008
 11
76.4837
 21
496.7369
  0
LINE
  8
13_0D
  6
CONTINUOUS
 62
6
 10
74.9244
 20
489.4008
 11
73.3651
 21
496.7369
  0
LINE
  8
13_0D
  6
CONTINUOUS
 62
6
 10
74.9244
 20
739.4008
 11
73.3651
 21
732.0647
  0
LINE
  8
13_0D
  6
CONTINUOUS
 62
6
 10
74.9244
 20
739.4008
 11
76.4837
 21
732.0647
  0
LINE
  8
13_0D
  6
CONTINUOUS
 62
6
 10
162.4631
 20
434.4022
 11
90.4244
 21
434.4022
  0
LINE
  8
13_0D
  6
CONTINUOUS
 62
6
 10
162.4631
 20
489.4008
 11
90.4244
 21
489.4008
  0
LINE
  8
13_0D
  6
CONTINUOUS
 62
6
 10
94.9244
 20
489.4008
 11
94.9244
 21
434.4022
  0
LINE
  8
13_0D
  6
CONTINUOUS
 62
6
 10
94.9244
 20
489.4008
 11
93.3651
 21
482.0647
  0
LINE
  8
13_0D
  6
CONTINUOUS
 62
6
 10
94.9244
 20
489.4008
 11
96.4837
 21
482.0647
  0
LINE
  8
13_0D
  6
CONTINUOUS
 62
6
 10
94.9244
 20
434.4022
 11
96.4837
 21
441.7383
  0
LINE
  8
13_0D
  6
CONTINUOUS
 62
6
 10
94.9244
 20
434.4022
 11
93.3651
 21
441.7383
  0
LINE
  8
0_00
  6
CONTINUOUS
 62
6
 10
221.2841
 20
413.2338
 11
221.2841
 21
353.9796
  0
LINE
  8
0_00
  6
CONTINUOUS
 62
6
 10
277.2841
 20
413.2338
 11
277.2841
 21
353.9796
  0
LINE
  8
0_00
  6
CONTINUOUS
 62
6
 10
221.2841
 20
359.9795
 11
277.2841
 21
359.9795
  0
LINE
  8
0_00
  6
CONTINUOUS
 62
6
 10
221.2841
 20
359.9795
 11
228.6202
 21
358.4202
  0
LINE
  8
0_00
  6
CONTINUOUS
 62
6
 10
221.2841
 20
359.9795
 11
228.6202
 21
361.5389
  0
LINE
  8
0_00
  6
CONTINUOUS
 62
6
 10
277.2841
 20
359.9795
 11
269.9480
 21
361.5389
  0
LINE
  8
0_00
  6
CONTINUOUS
 62
6
 10
277.2841
 20
359.9795
 11
269.9480
 21
358.4202
  0
LINE
  8
0_00
  6
CONTINUOUS
 62
4
 10
249.0841
 20
487.9008
 11
187.0871
 21
487.9008
  0
LINE
  8
0_00
  6
CONTINUOUS
 62
4
 10
249.4841
 20
487.9008
 11
311.4811
 21
487.9008
  0
LINE
  8
0_00
  6
CONTINUOUS
 62
4
 10
311.4811
 20
489.4008
 11
187.0871
 21
489.4008
  0
LINE
  8
0_00
  6
CONTINUOUS
 62
4
 10
249.0841
 20
487.9008
 11
249.2841
 21
488.1009
  0
LINE
  8
0_00
  6
CONTINUOUS
 62
4
 10
249.2841
 20
488.1009
 11
249.4841
 21
487.9008
  0
LINE
  8
14_0E
  6
CONTINUOUS
 62
4
 10
166.7842
 20
481.2114
 11
167.0030
 21
449.8785
  0
LINE
  8
0_00
  6
CONTINUOUS
 62
4
 10
168.8007
 20
435.8917
 11
168.7307
 21
445.9143
  0
LINE
  8
0_00
  6
CONTINUOUS
 62
4
 10
170.1021
 20
435.7008
 11
170.0270
 21
446.4448
  0
LINE
  8
0_00
  6
CONTINUOUS
 62
4
 10
168.2577
 20
470.6878
 11
168.5598
 21
470.3899
  0
LINE
  8
0_00
  6
CONTINUOUS
 62
4
 10
168.2619
 20
470.0878
 11
168.5598
 21
470.3899
  0
LINE
  8
0_00
  6
CONTINUOUS
 62
4
 10
171.9360
 20
450.9073
 11
172.1429
 21
451.2715
  0
LINE
  8
0_00
  6
CONTINUOUS
 62
4
 10
172.1429
 20
451.2715
 11
170.8386
 21
452.0124
  0
LINE
  8
0_00
  6
CONTINUOUS
 62
4
 10
170.8386
 20
452.0124
 11
170.6318
 21
451.6482
  0
LINE
  8
0_00
  6
CONTINUOUS
 62
4
 10
169.4986
 20
451.3361
 11
169.1344
 21
451.5429
  0
LINE
  8
0_00
  6
CONTINUOUS
 62
4
 10
169.1344
 20
451.5429
 11
168.3935
 21
450.2387
  0
LINE
  8
0_00
  6
CONTINUOUS
 62
4
 10
168.3935
 20
450.2387
 11
168.7577
 21
450.0318
  0
LINE
  8
0_00
  6
CONTINUOUS
 62
4
 10
169.0698
 20
448.8986
 11
168.8629
 21
448.5344
  0
LINE
  8
0_00
  6
CONTINUOUS
 62
4
 10
168.8629
 20
448.5344
 11
170.1671
 21
447.7935
  0
LINE
  8
0_00
  6
CONTINUOUS
 62
4
 10
170.1671
 20
447.7935
 11
170.3740
 21
448.1577
  0
LINE
  8
0_00
  6
CONTINUOUS
 62
4
 10
173.2721
 20
450.7285
 11
172.9194
 21
450.1078
  0
LINE
  8
0_00
  6
CONTINUOUS
 62
4
 10
171.2117
 20
447.1016
 11
171.5643
 21
447.7224
  0
LINE
  8
0_00
  6
CONTINUOUS
 62
4
 10
171.8717
 20
487.1835
 11
185.4905
 21
489.2787
  0
LINE
  8
0_00
  6
CONTINUOUS
 62
4
 10
168.1843
 20
481.2065
 11
168.2577
 21
470.6878
  0
LINE
  8
0_00
  6
CONTINUOUS
 62
4
 10
168.2619
 20
470.0878
 11
168.3157
 21
462.3880
  0
LINE
  8
0_00
  6
CONTINUOUS
 62
4
 10
168.3394
 20
458.9881
 11
168.3725
 21
454.2516
  0
LINE
  8
0_00
  6
CONTINUOUS
 62
4
 10
172.0000
 20
485.6856
 11
185.7185
 21
487.7962
  0
LINE
  8
0_00
  6
CONTINUOUS
 62
4
 10
326.6964
 20
487.1835
 11
313.0777
 21
489.2787
  0
LINE
  8
0_00
  6
CONTINUOUS
 62
4
 10
326.5682
 20
485.6856
 11
312.8497
 21
487.7962
  0
LINE
  8
14_0E
  6
CONTINUOUS
 62
4
 10
331.7840
 20
481.2114
 11
331.5652
 21
449.8785
  0
LINE
  8
0_00
  6
CONTINUOUS
 62
4
 10
330.3839
 20
481.2065
 11
330.3105
 21
470.6878
  0
LINE
  8
0_00
  6
CONTINUOUS
 62
4
 10
330.3062
 20
470.0878
 11
330.2525
 21
462.3880
  0
LINE
  8
0_00
  6
CONTINUOUS
 62
4
 10
330.2287
 20
458.9881
 11
330.1957
 21
454.2516
  0
LINE
  8
0_00
  6
CONTINUOUS
 62
4
 10
330.3105
 20
470.6878
 11
330.0084
 21
470.3899
  0
LINE
  8
0_00
  6
CONTINUOUS
 62
4
 10
330.3062
 20
470.0878
 11
330.0084
 21
470.3899
  0
LINE
  8
0_00
  6
CONTINUOUS
 62
4
 10
171.2611
 20
434.4088
 11
170.3111
 21
434.4023
  0
LINE
  8
0_00
  6
CONTINUOUS
 62
4
 10
170.1021
 20
435.7008
 11
171.2520
 21
435.7088
  0
LINE
  8
0_00
  6
CONTINUOUS
 62
4
 10
329.7675
 20
435.8917
 11
329.8375
 21
445.9143
  0
LINE
  8
0_00
  6
CONTINUOUS
 62
4
 10
328.4661
 20
435.7008
 11
328.5411
 21
446.4448
  0
LINE
  8
0_00
  6
CONTINUOUS
 62
4
 10
326.6322
 20
450.9073
 11
326.4253
 21
451.2715
  0
LINE
  8
0_00
  6
CONTINUOUS
 62
4
 10
326.4253
 20
451.2715
 11
327.7295
 21
452.0124
  0
LINE
  8
0_00
  6
CONTINUOUS
 62
4
 10
327.7295
 20
452.0124
 11
327.9364
 21
451.6482
  0
LINE
  8
0_00
  6
CONTINUOUS
 62
4
 10
329.0696
 20
451.3361
 11
329.4338
 21
451.5429
  0
LINE
  8
0_00
  6
CONTINUOUS
 62
4
 10
329.4338
 20
451.5429
 11
330.1747
 21
450.2387
  0
LINE
  8
0_00
  6
CONTINUOUS
 62
4
 10
330.1747
 20
450.2387
 11
329.8105
 21
450.0318
  0
LINE
  8
0_00
  6
CONTINUOUS
 62
4
 10
329.4984
 20
448.8986
 11
329.7053
 21
448.5344
  0
LINE
  8
0_00
  6
CONTINUOUS
 62
4
 10
329.7053
 20
448.5344
 11
328.4010
 21
447.7935
  0
LINE
  8
0_00
  6
CONTINUOUS
 62
4
 10
328.4010
 20
447.7935
 11
328.1942
 21
448.1577
  0
LINE
  8
0_00
  6
CONTINUOUS
 62
4
 10
325.2961
 20
450.7285
 11
325.6488
 21
450.1078
  0
LINE
  8
0_00
  6
CONTINUOUS
 62
4
 10
327.3565
 20
447.1016
 11
327.0039
 21
447.7224
  0
LINE
  8
0_00
  6
CONTINUOUS
 62
4
 10
327.3071
 20
434.4088
 11
328.2571
 21
434.4023
  0
LINE
  8
0_00
  6
CONTINUOUS
 62
4
 10
328.4661
 20
435.7008
 11
327.3162
 21
435.7088
  0
LINE
  8
0_00
  6
CONTINUOUS
 62
4
 10
169.3226
 20
461.3950
 11
170.6226
 21
461.4041
  0
LINE
  8
0_00
  6
CONTINUOUS
 62
4
 10
169.3324
 20
459.9950
 11
170.6324
 21
460.0041
  0
LINE
  8
0_00
  6
CONTINUOUS
 62
4
 10
329.2456
 20
461.3950
 11
327.9456
 21
461.4041
  0
LINE
  8
0_00
  6
CONTINUOUS
 62
4
 10
329.2358
 20
459.9950
 11
327.9358
 21
460.0041
  0
LINE
  8
0_00
  6
CONTINUOUS
 62
4
 10
203.9841
 20
474.4008
 11
294.5841
 21
474.4008
  0
LINE
  8
0_00
  6
CONTINUOUS
 62
4
 10
293.0841
 20
477.9008
 11
249.5841
 21
477.9008
  0
LINE
  8
0_00
  6
CONTINUOUS
 62
4
 10
248.9841
 20
477.9008
 11
233.9841
 21
477.9008
  0
LINE
  8
0_00
  6
CONTINUOUS
 62
4
 10
233.9841
 20
477.9008
 11
205.4841
 21
477.9008
  0
LINE
  8
0_00
  6
CONTINUOUS
 62
4
 10
249.2841
 20
477.6009
 11
248.9841
 21
477.9008
  0
LINE
  8
0_00
  6
CONTINUOUS
 62
4
 10
249.2841
 20
477.6009
 11
249.5841
 21
477.9008
  0
LINE
  8
0_00
  6
CONTINUOUS
 62
4
 10
311.0841
 20
485.6009
 11
295.0841
 21
485.6009
  0
LINE
  8
0_00
  6
CONTINUOUS
 62
4
 10
293.5841
 20
485.3009
 11
293.5841
 21
484.2009
  0
LINE
  8
0_00
  6
CONTINUOUS
 62
4
 10
293.0841
 20
481.7008
 11
293.0841
 21
477.9008
  0
LINE
  8
0_00
  6
CONTINUOUS
 62
4
 10
295.0841
 20
485.8008
 11
294.0841
 21
485.8008
  0
LINE
  8
0_00
  6
CONTINUOUS
 62
4
 10
295.0841
 20
485.8008
 11
295.0841
 21
485.6009
  0
LINE
  8
0_00
  6
CONTINUOUS
 62
4
 10
311.0841
 20
485.8008
 11
311.0841
 21
485.6009
  0
LINE
  8
0_00
  6
CONTINUOUS
 62
4
 10
312.5841
 20
485.3009
 11
312.5841
 21
483.3008
  0
LINE
  8
0_00
  6
CONTINUOUS
 62
4
 10
312.0841
 20
485.8008
 11
311.0841
 21
485.8008
  0
LINE
  8
0_00
  6
CONTINUOUS
 62
4
 10
296.5841
 20
481.6009
 11
296.5841
 21
476.4008
  0
LINE
  8
0_00
  6
CONTINUOUS
 62
4
 10
308.5841
 20
482.6008
 11
297.5841
 21
482.6008
  0
LINE
  8
0_00
  6
CONTINUOUS
 62
4
 10
309.5841
 20
481.6009
 11
309.5841
 21
480.8009
  0
LINE
  8
0_00
  6
CONTINUOUS
 62
4
 10
293.5841
 20
484.2009
 11
290.5841
 21
484.2009
  0
LINE
  8
0_00
  6
CONTINUOUS
 62
4
 10
290.2841
 20
483.9008
 11
290.2841
 21
482.0008
  0
LINE
  8
0_00
  6
CONTINUOUS
 62
4
 10
290.5841
 20
481.7008
 11
293.0841
 21
481.7008
  0
LINE
  8
0_00
  6
CONTINUOUS
 62
4
 10
329.0841
 20
461.5008
 11
328.4841
 21
461.5008
  0
LINE
  8
0_00
  6
CONTINUOUS
 62
4
 10
322.0682
 20
483.3008
 11
312.5841
 21
483.3008
  0
LINE
  8
0_00
  6
CONTINUOUS
 62
4
 10
321.7535
 20
480.3008
 11
310.0841
 21
480.3008
  0
LINE
  8
0_00
  6
CONTINUOUS
 62
4
 10
325.4585
 20
480.6700
 11
330.0528
 21
462.7491
  0
LINE
  8
0_00
  6
CONTINUOUS
 62
4
 10
322.7062
 20
479.6049
 11
326.8727
 21
466.5499
  0
LINE
  8
0_00
  6
CONTINUOUS
 62
4
 10
327.0551
 20
465.9783
 11
328.4841
 21
461.5008
  0
LINE
  8
0_00
  6
CONTINUOUS
 62
4
 10
187.4841
 20
485.6009
 11
203.4841
 21
485.6009
  0
LINE
  8
0_00
  6
CONTINUOUS
 62
4
 10
204.9841
 20
485.3009
 11
204.9841
 21
484.2009
  0
LINE
  8
0_00
  6
CONTINUOUS
 62
4
 10
205.4841
 20
481.7008
 11
205.4841
 21
477.9008
  0
LINE
  8
0_00
  6
CONTINUOUS
 62
4
 10
203.4841
 20
485.8008
 11
204.4841
 21
485.8008
  0
LINE
  8
0_00
  6
CONTINUOUS
 62
4
 10
203.4841
 20
485.8008
 11
203.4841
 21
485.6009
  0
LINE
  8
0_00
  6
CONTINUOUS
 62
4
 10
187.4841
 20
485.8008
 11
187.4841
 21
485.6009
  0
LINE
  8
0_00
  6
CONTINUOUS
 62
4
 10
185.9841
 20
485.3009
 11
185.9841
 21
483.3008
  0
LINE
  8
0_00
  6
CONTINUOUS
 62
4
 10
186.4841
 20
485.8008
 11
187.4841
 21
485.8008
  0
LINE
  8
0_00
  6
CONTINUOUS
 62
4
 10
201.9841
 20
481.6009
 11
201.9841
 21
476.4008
  0
LINE
  8
0_00
  6
CONTINUOUS
 62
4
 10
189.9841
 20
482.6008
 11
200.9841
 21
482.6008
  0
LINE
  8
0_00
  6
CONTINUOUS
 62
4
 10
188.9841
 20
481.6009
 11
188.9841
 21
480.8009
  0
LINE
  8
0_00
  6
CONTINUOUS
 62
4
 10
204.9841
 20
484.2009
 11
207.9841
 21
484.2009
  0
LINE
  8
0_00
  6
CONTINUOUS
 62
4
 10
208.2841
 20
483.9008
 11
208.2841
 21
482.0008
  0
LINE
  8
0_00
  6
CONTINUOUS
 62
4
 10
207.9841
 20
481.7008
 11
205.4841
 21
481.7008
  0
LINE
  8
0_00
  6
CONTINUOUS
 62
4
 10
169.4841
 20
461.5008
 11
170.0841
 21
461.5008
  0
LINE
  8
0_00
  6
CONTINUOUS
 62
4
 10
176.5000
 20
483.3008
 11
185.9841
 21
483.3008
  0
LINE
  8
0_00
  6
CONTINUOUS
 62
4
 10
176.8146
 20
480.3008
 11
188.4841
 21
480.3008
  0
LINE
  8
0_00
  6
CONTINUOUS
 62
4
 10
173.1096
 20
480.6700
 11
168.5154
 21
462.7491
  0
LINE
  8
0_00
  6
CONTINUOUS
 62
4
 10
175.8620
 20
479.6049
 11
170.0841
 21
461.5008
  0
LINE
  8
0_00
  6
CONTINUOUS
 62
4
 10
326.8727
 20
466.5499
 11
326.6781
 21
466.1729
  0
LINE
  8
0_00
  6
CONTINUOUS
 62
4
 10
326.6781
 20
466.1729
 11
327.0551
 21
465.9783
  0
LINE
  8
0_00
  6
CONTINUOUS
 62
2
 10
195.1841
 20
485.6009
 11
197.4841
 21
487.9008
  0
LINE
  8
0_00
  6
CONTINUOUS
 62
2
 10
193.7699
 20
485.6009
 11
196.0699
 21
487.9008
  0
LINE
  8
0_00
  6
CONTINUOUS
 62
2
 10
192.3557
 20
485.6009
 11
194.6557
 21
487.9008
  0
LINE
  8
0_00
  6
CONTINUOUS
 62
2
 10
190.9415
 20
485.6009
 11
193.2415
 21
487.9008
  0
LINE
  8
0_00
  6
CONTINUOUS
 62
2
 10
189.5273
 20
485.6009
 11
191.8272
 21
487.9008
  0
LINE
  8
0_00
  6
CONTINUOUS
 62
2
 10
188.1130
 20
485.6009
 11
190.4130
 21
487.9008
  0
LINE
  8
0_00
  6
CONTINUOUS
 62
2
 10
187.4841
 20
486.3861
 11
188.9988
 21
487.9008
  0
LINE
  8
0_00
  6
CONTINUOUS
 62
2
 10
187.4841
 20
487.8003
 11
187.5846
 21
487.9008
  0
LINE
  8
0_00
  6
CONTINUOUS
 62
2
 10
196.5983
 20
485.6009
 11
197.4841
 21
486.4866
  0
LINE
  8
0_00
  6
CONTINUOUS
 62
2
 10
195.4250
 20
487.9008
 11
197.4841
 21
485.8418
  0
LINE
  8
0_00
  6
CONTINUOUS
 62
2
 10
194.0108
 20
487.9008
 11
196.3108
 21
485.6009
  0
LINE
  8
0_00
  6
CONTINUOUS
 62
2
 10
192.5966
 20
487.9008
 11
194.8966
 21
485.6009
  0
LINE
  8
0_00
  6
CONTINUOUS
 62
2
 10
191.1824
 20
487.9008
 11
193.4824
 21
485.6009
  0
LINE
  8
0_00
  6
CONTINUOUS
 62
2
 10
189.7682
 20
487.9008
 11
192.0682
 21
485.6009
  0
LINE
  8
0_00
  6
CONTINUOUS
 62
2
 10
188.3540
 20
487.9008
 11
190.6540
 21
485.6009
  0
LINE
  8
0_00
  6
CONTINUOUS
 62
2
 10
187.4841
 20
487.3565
 11
189.2397
 21
485.6009
  0
LINE
  8
0_00
  6
CONTINUOUS
 62
2
 10
187.4841
 20
485.9423
 11
187.8255
 21
485.6009
  0
LINE
  8
0_00
  6
CONTINUOUS
 62
2
 10
196.8392
 20
487.9008
 11
197.4841
 21
487.2560
  0
LINE
  8
5_05
  6
CONTINUOUS
 62
2
 10
187.4841
 20
487.9008
 11
187.4841
 21
485.6009
  0
LINE
  8
5_05
  6
CONTINUOUS
 62
2
 10
197.4841
 20
487.9008
 11
197.4841
 21
485.6009
  0
LINE
  8
5_05
  6
CONTINUOUS
 62
2
 10
301.0841
 20
487.9008
 11
301.0841
 21
485.6009
  0
LINE
  8
5_05
  6
CONTINUOUS
 62
2
 10
311.0841
 20
487.9008
 11
311.0841
 21
485.6009
  0
LINE
  8
0_00
  6
CONTINUOUS
 62
2
 10
308.7841
 20
485.6009
 11
311.0841
 21
487.9008
  0
LINE
  8
0_00
  6
CONTINUOUS
 62
2
 10
307.3699
 20
485.6009
 11
309.6699
 21
487.9008
  0
LINE
  8
0_00
  6
CONTINUOUS
 62
2
 10
305.9557
 20
485.6009
 11
308.2557
 21
487.9008
  0
LINE
  8
0_00
  6
CONTINUOUS
 62
2
 10
304.5415
 20
485.6009
 11
306.8415
 21
487.9008
  0
LINE
  8
0_00
  6
CONTINUOUS
 62
2
 10
303.1273
 20
485.6009
 11
305.4272
 21
487.9008
  0
LINE
  8
0_00
  6
CONTINUOUS
 62
2
 10
301.7130
 20
485.6009
 11
304.0130
 21
487.9008
  0
LINE
  8
0_00
  6
CONTINUOUS
 62
2
 10
301.0841
 20
486.3861
 11
302.5988
 21
487.9008
  0
LINE
  8
0_00
  6
CONTINUOUS
 62
2
 10
301.0841
 20
487.8003
 11
301.1846
 21
487.9008
  0
LINE
  8
0_00
  6
CONTINUOUS
 62
2
 10
310.1983
 20
485.6009
 11
311.0841
 21
486.4866
  0
LINE
  8
0_00
  6
CONTINUOUS
 62
2
 10
309.0250
 20
487.9008
 11
311.0841
 21
485.8418
  0
LINE
  8
0_00
  6
CONTINUOUS
 62
2
 10
307.6108
 20
487.9008
 11
309.9108
 21
485.6009
  0
LINE
  8
0_00
  6
CONTINUOUS
 62
2
 10
306.1966
 20
487.9008
 11
308.4966
 21
485.6009
  0
LINE
  8
0_00
  6
CONTINUOUS
 62
2
 10
304.7824
 20
487.9008
 11
307.0824
 21
485.6009
  0
LINE
  8
0_00
  6
CONTINUOUS
 62
2
 10
303.3682
 20
487.9008
 11
305.6681
 21
485.6009
  0
LINE
  8
0_00
  6
CONTINUOUS
 62
2
 10
301.9540
 20
487.9008
 11
304.2540
 21
485.6009
  0
LINE
  8
0_00
  6
CONTINUOUS
 62
2
 10
301.0841
 20
487.3565
 11
302.8397
 21
485.6009
  0
LINE
  8
0_00
  6
CONTINUOUS
 62
2
 10
301.0841
 20
485.9423
 11
301.4255
 21
485.6009
  0
LINE
  8
0_00
  6
CONTINUOUS
 62
2
 10
310.4393
 20
487.9008
 11
311.0841
 21
487.2560
  0
LINE
  8
0_00
  6
CONTINUOUS
 62
4
 10
291.2841
 20
480.2008
 11
291.2841
 21
477.9008
  0
LINE
  8
0_00
  6
CONTINUOUS
 62
4
 10
291.2841
 20
477.9008
 11
264.2841
 21
477.9008
  0
LINE
  8
0_00
  6
CONTINUOUS
 62
4
 10
234.2841
 20
477.9008
 11
207.2841
 21
477.9008
  0
LINE
  8
0_00
  6
CONTINUOUS
 62
4
 10
260.5093
 20
484.2009
 11
238.0589
 21
484.2009
  0
LINE
  8
0_00
  6
CONTINUOUS
 62
4
 10
291.2841
 20
480.2008
 11
264.2841
 21
480.2008
  0
LINE
  8
0_00
  6
CONTINUOUS
 62
4
 10
234.2841
 20
480.2008
 11
207.2841
 21
480.2008
  0
LINE
  8
0_00
  6
CONTINUOUS
 62
4
 10
291.2841
 20
480.2008
 11
291.2841
 21
477.9008
  0
LINE
  8
0_00
  6
CONTINUOUS
 62
4
 10
207.2841
 20
480.2008
 11
207.2841
 21
477.9008
  0
LINE
  8
0_00
  6
CONTINUOUS
 62
4
 10
264.2841
 20
480.2008
 11
262.4597
 21
483.1198
  0
LINE
  8
0_00
  6
CONTINUOUS
 62
4
 10
236.1085
 20
483.1198
 11
234.2841
 21
480.2008
  0
LINE
  8
0_00
  6
CONTINUOUS
 62
4
 10
262.3337
 20
478.9818
 11
260.5093
 21
481.9008
  0
LINE
  8
0_00
  6
CONTINUOUS
 62
4
 10
238.0589
 20
481.9008
 11
236.2345
 21
478.9818
  0
LINE
  8
0_00
  6
CONTINUOUS
 62
4
 10
260.5093
 20
481.9008
 11
238.0589
 21
481.9008
  0
LINE
  8
0_00
  6
CONTINUOUS
 62
4
 10
249.2841
 20
481.9008
 11
249.2841
 21
484.2009
  0
LINE
  8
0_00
  6
CONTINUOUS
 62
4
 10
260.5093
 20
484.2009
 11
238.0589
 21
484.2009
  0
LINE
  8
0_00
  6
CONTINUOUS
 62
4
 10
260.5093
 20
484.2009
 11
238.0589
 21
484.2009
  0
LINE
  8
0_00
  6
CONTINUOUS
 62
4
 10
206.0341
 20
487.4008
 11
206.0341
 21
484.2009
  0
LINE
  8
0_00
  6
CONTINUOUS
 62
4
 10
292.5341
 20
487.4008
 11
292.5341
 21
484.2009
  0
LINE
  8
0_00
  6
CONTINUOUS
 62
4
 10
292.5341
 20
484.2009
 11
206.0341
 21
484.2009
  0
LINE
  8
0_00
  6
CONTINUOUS
 62
4
 10
292.5341
 20
487.4008
 11
206.0341
 21
487.4008
  0
LINE
  8
0_00
  6
CONTINUOUS
 62
2
 10
206.0341
 20
487.4008
 11
206.0341
 21
487.7008
  0
LINE
  8
0_00
  6
CONTINUOUS
 62
2
 10
292.5341
 20
487.4008
 11
292.5341
 21
487.7008
  0
LINE
  8
0_00
  6
CONTINUOUS
 62
2
 10
292.5341
 20
487.7008
 11
206.0341
 21
487.7008
  0
LINE
  8
0_00
  6
CONTINUOUS
 62
4
 10
234.5790
 20
489.9008
 11
234.0790
 21
489.4008
  0
LINE
  8
0_00
  6
CONTINUOUS
 62
4
 10
231.7506
 20
489.9008
 11
231.2506
 21
489.4008
  0
LINE
  8
0_00
  6
CONTINUOUS
 62
4
 10
228.9222
 20
489.9008
 11
228.4221
 21
489.4008
  0
LINE
  8
0_00
  6
CONTINUOUS
 62
4
 10
237.4074
 20
489.9008
 11
236.9074
 21
489.4008
  0
LINE
  8
0_00
  6
CONTINUOUS
 62
4
 10
240.2359
 20
489.9008
 11
239.7359
 21
489.4008
  0
LINE
  8
0_00
  6
CONTINUOUS
 62
4
 10
243.0643
 20
489.9008
 11
242.5643
 21
489.4008
  0
LINE
  8
0_00
  6
CONTINUOUS
 62
4
 10
245.8927
 20
489.9008
 11
245.3927
 21
489.4008
  0
LINE
  8
0_00
  6
CONTINUOUS
 62
4
 10
248.7212
 20
489.9008
 11
248.2212
 21
489.4008
  0
LINE
  8
0_00
  6
CONTINUOUS
 62
4
 10
251.5496
 20
489.9008
 11
251.0496
 21
489.4008
  0
LINE
  8
0_00
  6
CONTINUOUS
 62
4
 10
254.3780
 20
489.9008
 11
253.8780
 21
489.4008
  0
LINE
  8
0_00
  6
CONTINUOUS
 62
4
 10
257.2064
 20
489.9008
 11
256.7064
 21
489.4008
  0
LINE
  8
0_00
  6
CONTINUOUS
 62
4
 10
260.0349
 20
489.9008
 11
259.5349
 21
489.4008
  0
LINE
  8
0_00
  6
CONTINUOUS
 62
4
 10
262.8633
 20
489.9008
 11
262.3633
 21
489.4008
  0
LINE
  8
0_00
  6
CONTINUOUS
 62
4
 10
265.6917
 20
489.9008
 11
265.1917
 21
489.4008
  0
LINE
  8
0_00
  6
CONTINUOUS
 62
4
 10
268.5201
 20
489.9008
 11
268.0201
 21
489.4008
  0
LINE
  8
0_00
  6
CONTINUOUS
 62
4
 10
271.2841
 20
489.8363
 11
270.8486
 21
489.4008
  0
LINE
  8
0_00
  6
DASHED
 62
2
 10
223.7841
 20
480.2008
 11
223.7841
 21
434.5309
  0
LINE
  8
0_00
  6
CONTINUOUS
 62
2
 10
215.3841
 20
480.2008
 11
227.1841
 21
480.2008
  0
LINE
  8
0_00
  6
CONTINUOUS
 62
2
 10
227.1841
 20
480.5485
 11
227.1841
 21
480.2008
  0
LINE
  8
0_00
  6
DASHED
 62
2
 10
223.0341
 20
480.2008
 11
223.0341
 21
433.2319
  0
LINE
  8
0_00
  6
DASHED
 62
2
 10
221.2841
 20
430.2009
 11
223.7841
 21
434.5309
  0
LINE
  8
0_00
  6
DASHED
 62
2
 10
218.7841
 20
480.2008
 11
218.7841
 21
434.5309
  0
LINE
  8
0_00
  6
CONTINUOUS
 62
2
 10
215.3841
 20
480.5485
 11
215.3841
 21
480.2008
  0
LINE
  8
0_00
  6
DASHED
 62
2
 10
219.5341
 20
480.2008
 11
219.5341
 21
433.2319
  0
LINE
  8
0_00
  6
DASHED
 62
2
 10
221.2841
 20
430.2009
 11
218.7841
 21
434.5309
  0
LINE
  8
0_00
  6
CONTINUOUS
 62
2
 10
215.3841
 20
480.5485
 11
227.1841
 21
480.5485
  0
LINE
  8
0_00
  6
DASHED
 62
2
 10
274.7841
 20
480.2008
 11
274.7841
 21
434.5309
  0
LINE
  8
0_00
  6
CONTINUOUS
 62
2
 10
283.1841
 20
480.2008
 11
271.3841
 21
480.2008
  0
LINE
  8
0_00
  6
CONTINUOUS
 62
2
 10
271.3841
 20
480.5485
 11
271.3841
 21
480.2008
  0
LINE
  8
0_00
  6
DASHED
 62
2
 10
275.5341
 20
480.2008
 11
275.5341
 21
433.2319
  0
LINE
  8
0_00
  6
DASHED
 62
2
 10
277.2841
 20
430.2009
 11
274.7841
 21
434.5309
  0
LINE
  8
0_00
  6
DASHED
 62
2
 10
279.7841
 20
480.2008
 11
279.7841
 21
434.5309
  0
LINE
  8
0_00
  6
CONTINUOUS
 62
2
 10
283.1841
 20
480.5485
 11
283.1841
 21
480.2008
  0
LINE
  8
0_00
  6
DASHED
 62
2
 10
279.0341
 20
480.2008
 11
279.0341
 21
433.2319
  0
LINE
  8
0_00
  6
DASHED
 62
2
 10
277.2841
 20
430.2009
 11
279.7841
 21
434.5309
  0
LINE
  8
0_00
  6
CONTINUOUS
 62
2
 10
283.1841
 20
480.5485
 11
271.3841
 21
480.5485
  0
LINE
  8
12_0C
  6
DASHED
 62
2
 10
229.2843
 20
577.1007
 11
229.2843
 21
554.2207
  0
LINE
  8
12_0C
  6
DASHED
 62
2
 10
229.7843
 20
577.1007
 11
229.7843
 21
544.4008
  0
LINE
  8
12_0C
  6
DASHED
 62
2
 10
233.2843
 20
577.1007
 11
233.2843
 21
554.2207
  0
LINE
  8
12_0C
  6
DASHED
 62
2
 10
232.7843
 20
577.1007
 11
232.7843
 21
544.4008
  0
LINE
  8
12_0C
  6
DASHED
 62
2
 10
229.2843
 20
554.2207
 11
229.7843
 21
549.8390
  0
LINE
  8
12_0C
  6
DASHED
 62
2
 10
233.2843
 20
554.2207
 11
232.7843
 21
549.8390
  0
LINE
  8
12_0C
  6
DASHED
 62
2
 10
229.7843
 20
544.4008
 11
232.7843
 21
544.4008
  0
LINE
  8
12_0C
  6
DASHED
 62
2
 10
233.2843
 20
554.2207
 11
229.7843
 21
549.8390
  0
LINE
  8
12_0C
  6
DASHED
 62
2
 10
229.2843
 20
577.1007
 11
233.2843
 21
577.1007
  0
LINE
  8
12_0C
  6
DASHED
 62
2
 10
227.2843
 20
579.4008
 11
227.2843
 21
579.1008
  0
LINE
  8
12_0C
  6
DASHED
 62
2
 10
227.2843
 20
579.1008
 11
229.2843
 21
577.1007
  0
LINE
  8
12_0C
  6
DASHED
 62
2
 10
235.2843
 20
579.4008
 11
235.2843
 21
579.1008
  0
LINE
  8
12_0C
  6
DASHED
 62
2
 10
235.2843
 20
579.4008
 11
227.2843
 21
579.4008
  0
LINE
  8
12_0C
  6
DASHED
 62
2
 10
235.2843
 20
579.1008
 11
227.2843
 21
579.1008
  0
LINE
  8
12_0C
  6
DASHED
 62
2
 10
235.2843
 20
579.1008
 11
233.2843
 21
577.1007
  0
LINE
  8
12_0C
  6
DASHED
 62
2
 10
242.7843
 20
577.1007
 11
242.7843
 21
554.2207
  0
LINE
  8
12_0C
  6
DASHED
 62
2
 10
243.2843
 20
577.1007
 11
243.2843
 21
544.4008
  0
LINE
  8
12_0C
  6
DASHED
 62
2
 10
246.7843
 20
577.1007
 11
246.7843
 21
554.2207
  0
LINE
  8
12_0C
  6
DASHED
 62
2
 10
246.2843
 20
577.1007
 11
246.2843
 21
544.4008
  0
LINE
  8
12_0C
  6
DASHED
 62
2
 10
242.7843
 20
554.2207
 11
243.2843
 21
549.8390
  0
LINE
  8
12_0C
  6
DASHED
 62
2
 10
246.7843
 20
554.2207
 11
246.2843
 21
549.8390
  0
LINE
  8
12_0C
  6
DASHED
 62
2
 10
243.2843
 20
544.4008
 11
246.2843
 21
544.4008
  0
LINE
  8
12_0C
  6
DASHED
 62
2
 10
246.7843
 20
554.2207
 11
243.2843
 21
549.8390
  0
LINE
  8
12_0C
  6
DASHED
 62
2
 10
242.7843
 20
577.1007
 11
246.7843
 21
577.1007
  0
LINE
  8
12_0C
  6
DASHED
 62
2
 10
240.7843
 20
579.4008
 11
240.7843
 21
579.1008
  0
LINE
  8
12_0C
  6
DASHED
 62
2
 10
240.7843
 20
579.1008
 11
242.7843
 21
577.1007
  0
LINE
  8
12_0C
  6
DASHED
 62
2
 10
248.7843
 20
579.4008
 11
248.7843
 21
579.1008
  0
LINE
  8
12_0C
  6
DASHED
 62
2
 10
248.7843
 20
579.4008
 11
240.7843
 21
579.4008
  0
LINE
  8
12_0C
  6
DASHED
 62
2
 10
248.7843
 20
579.1008
 11
240.7843
 21
579.1008
  0
LINE
  8
12_0C
  6
DASHED
 62
2
 10
248.7843
 20
579.1008
 11
246.7843
 21
577.1007
  0
LINE
  8
12_0C
  6
DASHED
 62
2
 10
251.7843
 20
577.1007
 11
251.7843
 21
554.2207
  0
LINE
  8
12_0C
  6
DASHED
 62
2
 10
252.2843
 20
577.1007
 11
252.2843
 21
544.4008
  0
LINE
  8
12_0C
  6
DASHED
 62
2
 10
255.7843
 20
577.1007
 11
255.7843
 21
554.2207
  0
LINE
  8
12_0C
  6
DASHED
 62
2
 10
255.2843
 20
577.1007
 11
255.2843
 21
544.4008
  0
LINE
  8
12_0C
  6
DASHED
 62
2
 10
251.7843
 20
554.2207
 11
252.2843
 21
549.8390
  0
LINE
  8
12_0C
  6
DASHED
 62
2
 10
255.7843
 20
554.2207
 11
255.2843
 21
549.8390
  0
LINE
  8
12_0C
  6
DASHED
 62
2
 10
252.2843
 20
544.4008
 11
255.2843
 21
544.4008
  0
LINE
  8
12_0C
  6
DASHED
 62
2
 10
255.7843
 20
554.2207
 11
252.2843
 21
549.8390
  0
LINE
  8
12_0C
  6
DASHED
 62
2
 10
251.7843
 20
577.1007
 11
255.7843
 21
577.1007
  0
LINE
  8
12_0C
  6
DASHED
 62
2
 10
249.7843
 20
579.4008
 11
249.7843
 21
579.1008
  0
LINE
  8
12_0C
  6
DASHED
 62
2
 10
249.7843
 20
579.1008
 11
251.7843
 21
577.1007
  0
LINE
  8
12_0C
  6
DASHED
 62
2
 10
257.7843
 20
579.4008
 11
257.7843
 21
579.1008
  0
LINE
  8
12_0C
  6
DASHED
 62
2
 10
257.7843
 20
579.4008
 11
249.7843
 21
579.4008
  0
LINE
  8
12_0C
  6
DASHED
 62
2
 10
257.7843
 20
579.1008
 11
249.7843
 21
579.1008
  0
LINE
  8
12_0C
  6
DASHED
 62
2
 10
257.7843
 20
579.1008
 11
255.7843
 21
577.1007
  0
LINE
  8
12_0C
  6
DASHED
 62
2
 10
265.2843
 20
577.1007
 11
265.2843
 21
554.2207
  0
LINE
  8
12_0C
  6
DASHED
 62
2
 10
265.7843
 20
577.1007
 11
265.7843
 21
544.4008
  0
LINE
  8
12_0C
  6
DASHED
 62
2
 10
269.2843
 20
577.1007
 11
269.2843
 21
554.2207
  0
LINE
  8
12_0C
  6
DASHED
 62
2
 10
268.7843
 20
577.1007
 11
268.7843
 21
544.4008
  0
LINE
  8
12_0C
  6
DASHED
 62
2
 10
265.2843
 20
554.2207
 11
265.7843
 21
549.8390
  0
LINE
  8
12_0C
  6
DASHED
 62
2
 10
269.2843
 20
554.2207
 11
268.7843
 21
549.8390
  0
LINE
  8
12_0C
  6
DASHED
 62
2
 10
265.7843
 20
544.4008
 11
268.7843
 21
544.4008
  0
LINE
  8
12_0C
  6
DASHED
 62
2
 10
269.2843
 20
554.2207
 11
265.7843
 21
549.8390
  0
LINE
  8
12_0C
  6
DASHED
 62
2
 10
265.2843
 20
577.1007
 11
269.2843
 21
577.1007
  0
LINE
  8
12_0C
  6
DASHED
 62
2
 10
263.2843
 20
579.4008
 11
263.2843
 21
579.1008
  0
LINE
  8
12_0C
  6
DASHED
 62
2
 10
263.2843
 20
579.1008
 11
265.2843
 21
577.1007
  0
LINE
  8
12_0C
  6
DASHED
 62
2
 10
271.2843
 20
579.4008
 11
271.2843
 21
579.1008
  0
LINE
  8
12_0C
  6
DASHED
 62
2
 10
271.2843
 20
579.4008
 11
263.2843
 21
579.4008
  0
LINE
  8
12_0C
  6
DASHED
 62
2
 10
271.2843
 20
579.1008
 11
263.2843
 21
579.1008
  0
LINE
  8
12_0C
  6
DASHED
 62
2
 10
271.2843
 20
579.1008
 11
269.2843
 21
577.1007
  0
LINE
  8
12_0C
  6
CONTINUOUS
 62
2
 10
227.7841
 20
483.2308
 11
227.7841
 21
484.2009
  0
LINE
  8
12_0C
  6
CONTINUOUS
 62
2
 10
234.7841
 20
483.2308
 11
234.7841
 21
484.2009
  0
LINE
  8
12_0C
  6
CONTINUOUS
 62
2
 10
233.2841
 20
484.2009
 11
233.2841
 21
504.3808
  0
LINE
  8
12_0C
  6
CONTINUOUS
 62
2
 10
232.7841
 20
484.2009
 11
232.7841
 21
508.7626
  0
LINE
  8
12_0C
  6
CONTINUOUS
 62
2
 10
229.2841
 20
484.2009
 11
229.2841
 21
504.3808
  0
LINE
  8
12_0C
  6
CONTINUOUS
 62
2
 10
229.7841
 20
484.2009
 11
229.7841
 21
508.7626
  0
LINE
  8
12_0C
  6
CONTINUOUS
 62
2
 10
233.2841
 20
504.3808
 11
232.7341
 21
509.2008
  0
LINE
  8
12_0C
  6
CONTINUOUS
 62
2
 10
229.2841
 20
504.3808
 11
229.8341
 21
509.2008
  0
LINE
  8
12_0C
  6
CONTINUOUS
 62
2
 10
232.7341
 20
509.2008
 11
229.8341
 21
509.2008
  0
LINE
  8
0_00
  6
CONTINUOUS
 62
2
 10
234.7841
 20
484.2009
 11
227.7841
 21
484.2009
  0
LINE
  8
12_0C
  6
CONTINUOUS
 62
2
 10
263.7841
 20
483.2308
 11
263.7841
 21
484.2009
  0
LINE
  8
12_0C
  6
CONTINUOUS
 62
2
 10
270.7841
 20
483.2308
 11
270.7841
 21
484.2009
  0
LINE
  8
12_0C
  6
CONTINUOUS
 62
2
 10
269.2841
 20
484.2009
 11
269.2841
 21
504.3808
  0
LINE
  8
12_0C
  6
CONTINUOUS
 62
2
 10
268.7841
 20
484.2009
 11
268.7841
 21
508.7626
  0
LINE
  8
12_0C
  6
CONTINUOUS
 62
2
 10
265.2841
 20
484.2009
 11
265.2841
 21
504.3808
  0
LINE
  8
12_0C
  6
CONTINUOUS
 62
2
 10
265.7841
 20
484.2009
 11
265.7841
 21
508.7626
  0
LINE
  8
12_0C
  6
CONTINUOUS
 62
2
 10
269.2841
 20
504.3808
 11
268.7341
 21
509.2008
  0
LINE
  8
12_0C
  6
CONTINUOUS
 62
2
 10
265.2841
 20
504.3808
 11
265.8341
 21
509.2008
  0
LINE
  8
12_0C
  6
CONTINUOUS
 62
2
 10
268.7341
 20
509.2008
 11
265.8341
 21
509.2008
  0
LINE
  8
0_00
  6
CONTINUOUS
 62
2
 10
270.7841
 20
484.2009
 11
263.7841
 21
484.2009
  0
LINE
  8
0_00
  6
CONTINUOUS
 62
6
 10
267.2843
 20
554.9410
 11
286.0645
 21
573.7212
  0
LINE
  8
0_00
  6
CONTINUOUS
 62
6
 10
267.2843
 20
554.9410
 11
273.5743
 21
559.0258
  0
LINE
  8
0_00
  6
CONTINUOUS
 62
6
 10
267.2843
 20
554.9410
 11
271.3691
 21
561.2310
  0
LINE
  8
0_00
  6
CONTINUOUS
 62
6
 10
286.0645
 20
573.7212
 11
356.8645
 21
573.7212
  0
LINE
  8
0_00
  6
CONTINUOUS
 62
4
 10
500.7782
 20
250.9172
 11
500.7782
 21
247.7005
  0
LINE
  8
0_00
  6
CONTINUOUS
 62
4
 10
532.7783
 20
247.7005
 11
500.7782
 21
247.7005
  0
LINE
  8
0_00
  6
CONTINUOUS
 62
4
 10
500.7782
 20
250.9172
 11
500.7782
 21
247.7005
  0
LINE
  8
0_00
  6
CONTINUOUS
 62
4
 10
532.7783
 20
250.9172
 11
532.7783
 21
247.7005
  0
LINE
  8
0_00
  6
DASHED
 62
2
 10
500.7782
 20
248.7005
 11
532.7783
 21
248.7005
  0
LINE
  8
0_00
  6
DASHED
 62
2
 10
502.2782
 20
247.7005
 11
502.2782
 21
248.7005
  0
LINE
  8
0_00
  6
DASHED
 62
2
 10
531.2783
 20
247.7005
 11
531.2783
 21
248.7005
  0
LINE
  8
0_00
  6
DASHED
 62
2
 10
530.7783
 20
247.7005
 11
530.7783
 21
248.7005
  0
LINE
  8
0_00
  6
DASHED
 62
2
 10
502.7782
 20
247.7005
 11
502.7782
 21
248.7005
  0
LINE
  8
0_00
  6
CONTINUOUS
 62
4
 10
500.7782
 20
253.7005
 11
532.7783
 21
253.7005
  0
LINE
  8
0_00
  6
CONTINUOUS
 62
4
 10
500.7782
 20
250.9172
 11
500.7782
 21
253.7005
  0
LINE
  8
0_00
  6
CONTINUOUS
 62
4
 10
532.7783
 20
253.7005
 11
532.7783
 21
250.9172
  0
LINE
  8
12_0C
  6
DASHED
 62
2
 10
525.2782
 20
251.4005
 11
525.2782
 21
228.5205
  0
LINE
  8
12_0C
  6
DASHED
 62
2
 10
525.7783
 20
251.4005
 11
525.7783
 21
218.7005
  0
LINE
  8
12_0C
  6
DASHED
 62
2
 10
529.2783
 20
251.4005
 11
529.2783
 21
228.5205
  0
LINE
  8
12_0C
  6
DASHED
 62
2
 10
528.7782
 20
251.4005
 11
528.7782
 21
218.7005
  0
LINE
  8
12_0C
  6
DASHED
 62
2
 10
525.2782
 20
228.5205
 11
525.7783
 21
224.1387
  0
LINE
  8
12_0C
  6
DASHED
 62
2
 10
529.2783
 20
228.5205
 11
528.7782
 21
224.1387
  0
LINE
  8
12_0C
  6
DASHED
 62
2
 10
525.7783
 20
218.7005
 11
528.7782
 21
218.7005
  0
LINE
  8
12_0C
  6
DASHED
 62
2
 10
529.2783
 20
228.5205
 11
525.7783
 21
224.1387
  0
LINE
  8
12_0C
  6
DASHED
 62
2
 10
525.2782
 20
251.4005
 11
529.2783
 21
251.4005
  0
LINE
  8
12_0C
  6
DASHED
 62
2
 10
523.2783
 20
253.7005
 11
523.2783
 21
253.4005
  0
LINE
  8
12_0C
  6
DASHED
 62
2
 10
523.2783
 20
253.4005
 11
525.2782
 21
251.4005
  0
LINE
  8
12_0C
  6
DASHED
 62
2
 10
531.2783
 20
253.7005
 11
531.2783
 21
253.4005
  0
LINE
  8
12_0C
  6
DASHED
 62
2
 10
531.2783
 20
253.7005
 11
523.2783
 21
253.7005
  0
LINE
  8
12_0C
  6
DASHED
 62
2
 10
531.2783
 20
253.4005
 11
523.2783
 21
253.4005
  0
LINE
  8
12_0C
  6
DASHED
 62
2
 10
531.2783
 20
253.4005
 11
529.2783
 21
251.4005
  0
LINE
  8
12_0C
  6
DASHED
 62
2
 10
504.2782
 20
251.4005
 11
504.2782
 21
228.5205
  0
LINE
  8
12_0C
  6
DASHED
 62
2
 10
504.7782
 20
251.4005
 11
504.7782
 21
218.7005
  0
LINE
  8
12_0C
  6
DASHED
 62
2
 10
508.2782
 20
251.4005
 11
508.2782
 21
228.5205
  0
LINE
  8
12_0C
  6
DASHED
 62
2
 10
507.7782
 20
251.4005
 11
507.7782
 21
218.7005
  0
LINE
  8
12_0C
  6
DASHED
 62
2
 10
504.2782
 20
228.5205
 11
504.7782
 21
224.1387
  0
LINE
  8
12_0C
  6
DASHED
 62
2
 10
508.2782
 20
228.5205
 11
507.7782
 21
224.1387
  0
LINE
  8
12_0C
  6
DASHED
 62
2
 10
504.7782
 20
218.7005
 11
507.7782
 21
218.7005
  0
LINE
  8
12_0C
  6
DASHED
 62
2
 10
508.2782
 20
228.5205
 11
504.7782
 21
224.1387
  0
LINE
  8
12_0C
  6
DASHED
 62
2
 10
504.2782
 20
251.4005
 11
508.2782
 21
251.4005
  0
LINE
  8
12_0C
  6
DASHED
 62
2
 10
502.2782
 20
253.7005
 11
502.2782
 21
253.4005
  0
LINE
  8
12_0C
  6
DASHED
 62
2
 10
502.2782
 20
253.4005
 11
504.2782
 21
251.4005
  0
LINE
  8
12_0C
  6
DASHED
 62
2
 10
510.2782
 20
253.7005
 11
510.2782
 21
253.4005
  0
LINE
  8
12_0C
  6
DASHED
 62
2
 10
510.2782
 20
253.7005
 11
502.2782
 21
253.7005
  0
LINE
  8
12_0C
  6
DASHED
 62
2
 10
510.2782
 20
253.4005
 11
502.2782
 21
253.4005
  0
LINE
  8
12_0C
  6
DASHED
 62
2
 10
510.2782
 20
253.4005
 11
508.2782
 21
251.4005
  0
LINE
  8
13_0D
  6
CONTINUOUS
 62
6
 10
227.7841
 20
524.4441
 11
270.7841
 21
524.4441
  0
LINE
  8
13_0D
  6
CONTINUOUS
 62
6
 10
303.1841
 20
524.4441
 11
270.7841
 21
524.4441
  0
LINE
  8
13_0D
  6
CONTINUOUS
 62
6
 10
270.7841
 20
524.4441
 11
278.1202
 21
522.8848
  0
LINE
  8
13_0D
  6
CONTINUOUS
 62
6
 10
270.7841
 20
524.4441
 11
278.1202
 21
526.0034
  0
LINE
  8
13_0D
  6
CONTINUOUS
 62
6
 10
212.7841
 20
524.4441
 11
227.7841
 21
524.4441
  0
LINE
  8
13_0D
  6
CONTINUOUS
 62
6
 10
227.7841
 20
524.4441
 11
220.4480
 21
526.0034
  0
LINE
  8
13_0D
  6
CONTINUOUS
 62
6
 10
227.7841
 20
524.4441
 11
220.4480
 21
522.8848
  0
LINE
  8
13_0D
  6
CONTINUOUS
 62
6
 10
502.7782
 20
189.8827
 11
502.7782
 21
164.9795
  0
LINE
  8
13_0D
  6
CONTINUOUS
 62
6
 10
530.7783
 20
189.8827
 11
530.7783
 21
164.9795
  0
LINE
  8
13_0D
  6
CONTINUOUS
 62
6
 10
502.7782
 20
169.4795
 11
530.7783
 21
169.4795
  0
LINE
  8
13_0D
  6
CONTINUOUS
 62
6
 10
563.1782
 20
169.4795
 11
530.7783
 21
169.4795
  0
LINE
  8
13_0D
  6
CONTINUOUS
 62
6
 10
530.7783
 20
169.4795
 11
538.1143
 21
167.9202
  0
LINE
  8
13_0D
  6
CONTINUOUS
 62
6
 10
530.7783
 20
169.4795
 11
538.1143
 21
171.0389
  0
LINE
  8
13_0D
  6
CONTINUOUS
 62
6
 10
487.7782
 20
169.4795
 11
502.7782
 21
169.4795
  0
LINE
  8
13_0D
  6
CONTINUOUS
 62
6
 10
502.7782
 20
169.4795
 11
495.4421
 21
171.0389
  0
LINE
  8
13_0D
  6
CONTINUOUS
 62
6
 10
502.7782
 20
169.4795
 11
495.4421
 21
167.9202
  0
LINE
  8
0_00
  6
CONTINUOUS
 62
6
 10
227.7841
 20
529.7391
 11
208.3711
 21
549.1522
  0
LINE
  8
0_00
  6
CONTINUOUS
 62
6
 10
227.7841
 20
529.7391
 11
223.6993
 21
536.0292
  0
LINE
  8
0_00
  6
CONTINUOUS
 62
6
 10
227.7841
 20
529.7391
 11
221.4940
 21
533.8239
  0
LINE
  8
0_00
  6
CONTINUOUS
 62
6
 10
208.3711
 20
549.1522
 11
101.5711
 21
549.1522
  0
LINE
  8
13_0D
  6
CONTINUOUS
 62
6
 10
787.6303
 20
278.2771
 11
787.6303
 21
418.0023
  0
LINE
  8
13_0D
  6
CONTINUOUS
 62
6
 10
752.6303
 20
334.2771
 11
752.6303
 21
418.0023
  0
LINE
  8
13_0D
  6
CONTINUOUS
 62
6
 10
752.6303
 20
413.5023
 11
787.6303
 21
413.5023
  0
LINE
  8
13_0D
  6
CONTINUOUS
 62
6
 10
752.6303
 20
413.5023
 11
759.9664
 21
411.9429
  0
LINE
  8
13_0D
  6
CONTINUOUS
 62
6
 10
752.6303
 20
413.5023
 11
759.9664
 21
415.0616
  0
LINE
  8
13_0D
  6
CONTINUOUS
 62
6
 10
787.6303
 20
413.5023
 11
780.2943
 21
415.0616
  0
LINE
  8
13_0D
  6
CONTINUOUS
 62
6
 10
787.6303
 20
413.5023
 11
780.2943
 21
411.9429
  0
LINE
  8
15_0F
  6
CONTINUOUS
 62
6
 10
743.5617
 20
346.8646
 11
706.0210
 21
391.5518
  0
LINE
  8
15_0F
  6
CONTINUOUS
 62
6
 10
743.5617
 20
346.8646
 11
740.0368
 21
353.4847
  0
LINE
  8
15_0F
  6
CONTINUOUS
 62
6
 10
743.5617
 20
346.8646
 11
737.6490
 21
351.4787
  0
LINE
  8
15_0F
  6
CONTINUOUS
 62
6
 10
706.0210
 20
391.5518
 11
661.0210
 21
391.5518
  0
LINE
  8
15_0F
  6
CONTINUOUS
 62
6
 10
740.4710
 20
298.2743
 11
713.4105
 21
331.8672
  0
LINE
  8
15_0F
  6
CONTINUOUS
 62
6
 10
740.4710
 20
298.2743
 11
737.0833
 21
304.9656
  0
LINE
  8
15_0F
  6
CONTINUOUS
 62
6
 10
740.4710
 20
298.2743
 11
734.6546
 21
303.0092
  0
LINE
  8
15_0F
  6
CONTINUOUS
 62
6
 10
713.4105
 20
331.8672
 11
639.6105
 21
331.8672
  0
LINE
  8
15_0F
  6
CONTINUOUS
 62
6
 10
214.1743
 20
479.8944
 11
196.0509
 21
502.3929
  0
LINE
  8
15_0F
  6
CONTINUOUS
 62
6
 10
214.1743
 20
479.8944
 11
210.7866
 21
486.5857
  0
LINE
  8
15_0F
  6
CONTINUOUS
 62
6
 10
214.1743
 20
479.8944
 11
208.3579
 21
484.6293
  0
LINE
  8
15_0F
  6
CONTINUOUS
 62
6
 10
196.0509
 20
502.3929
 11
122.2509
 21
502.3929
  0
LINE
  8
13_0D
  6
CONTINUOUS
 62
6
 10
614.4048
 20
724.2045
 11
614.4048
 21
783.5779
  0
LINE
  8
13_0D
  6
CONTINUOUS
 62
6
 10
556.4048
 20
725.6457
 11
556.4048
 21
783.5779
  0
LINE
  8
13_0D
  6
CONTINUOUS
 62
6
 10
556.4048
 20
779.0779
 11
614.4048
 21
779.0779
  0
LINE
  8
13_0D
  6
CONTINUOUS
 62
6
 10
556.4048
 20
779.0779
 11
563.7409
 21
777.5186
  0
LINE
  8
13_0D
  6
CONTINUOUS
 62
6
 10
556.4048
 20
779.0779
 11
563.7409
 21
780.6372
  0
LINE
  8
13_0D
  6
CONTINUOUS
 62
6
 10
614.4048
 20
779.0779
 11
607.0687
 21
780.6372
  0
LINE
  8
13_0D
  6
CONTINUOUS
 62
6
 10
614.4048
 20
779.0779
 11
607.0687
 21
777.5186
  0
ARC
  8
0_00
  6
CONTINUOUS
 62
2
 10
1075.6103
 20
303.0646
 40
2.4500
 50
45.0000
 51
58.5444
  0
ARC
  8
0_00
  6
CONTINUOUS
 62
2
 10
1075.6103
 20
303.0646
 40
2.4500
 50
121.3667
 51
135.0000
  0
ARC
  8
0_00
  6
CONTINUOUS
 62
2
 10
1075.6103
 20
303.0646
 40
2.4500
 50
211.4556
 51
225.0000
  0
ARC
  8
0_00
  6
CONTINUOUS
 62
2
 10
1075.6103
 20
303.0646
 40
2.4500
 50
135.0000
 51
148.6333
  0
ARC
  8
0_00
  6
CONTINUOUS
 62
2
 10
1075.6103
 20
303.0646
 40
2.4500
 50
31.4556
 51
45.0000
  0
ARC
  8
0_00
  6
CONTINUOUS
 62
2
 10
1075.6103
 20
303.0646
 40
2.4500
 50
315.0000
 51
328.6334
  0
ARC
  8
0_00
  6
CONTINUOUS
 62
2
 10
1075.6103
 20
303.0646
 40
2.4500
 50
225.0000
 51
238.5444
  0
ARC
  8
0_00
  6
CONTINUOUS
 62
2
 10
1075.6103
 20
303.0646
 40
2.4500
 50
301.3667
 51
315.0000
  0
CIRCLE
  8
0_00
  6
CONTINUOUS
 62
2
 10
1075.6103
 20
303.0646
 40
5.9000
  0
ARC
  8
0_00
  6
CONTINUOUS
 62
2
 10
1075.6103
 20
276.0646
 40
2.4500
 50
45.0000
 51
58.5444
  0
ARC
  8
0_00
  6
CONTINUOUS
 62
2
 10
1075.6103
 20
276.0646
 40
2.4500
 50
121.3667
 51
135.0000
  0
ARC
  8
0_00
  6
CONTINUOUS
 62
2
 10
1075.6103
 20
276.0646
 40
2.4500
 50
211.4556
 51
225.0000
  0
ARC
  8
0_00
  6
CONTINUOUS
 62
2
 10
1075.6103
 20
276.0646
 40
2.4500
 50
135.0000
 51
148.6333
  0
ARC
  8
0_00
  6
CONTINUOUS
 62
2
 10
1075.6103
 20
276.0646
 40
2.4500
 50
31.4556
 51
45.0000
  0
ARC
  8
0_00
  6
CONTINUOUS
 62
2
 10
1075.6103
 20
276.0646
 40
2.4500
 50
315.0000
 51
328.6334
  0
ARC
  8
0_00
  6
CONTINUOUS
 62
2
 10
1075.6103
 20
276.0646
 40
2.4500
 50
225.0000
 51
238.5444
  0
ARC
  8
0_00
  6
CONTINUOUS
 62
2
 10
1075.6103
 20
276.0646
 40
2.4500
 50
301.3667
 51
315.0000
  0
CIRCLE
  8
0_00
  6
CONTINUOUS
 62
2
 10
1075.6103
 20
276.0646
 40
5.9000
  0
ARC
  8
0_00
  6
CONTINUOUS
 62
4
 10
1064.1104
 20
268.5646
 40
2.5000
 50
180.0000
 51
270.0000
  0
ARC
  8
0_00
  6
CONTINUOUS
 62
4
 10
1064.1104
 20
310.5646
 40
2.5000
 50
90.0000
 51
180.0000
  0
ARC
  8
0_00
  6
CONTINUOUS
 62
4
 10
1064.1104
 20
268.5646
 40
2.5000
 50
270.0000
 51
360.0000
  0
ARC
  8
0_00
  6
CONTINUOUS
 62
4
 10
1064.1104
 20
310.5646
 40
2.5000
 50
0.0000
 51
90.0000
  0
ARC
  8
0_00
  6
CONTINUOUS
 62
4
 10
1062.1103
 20
268.5646
 40
2.5000
 50
180.0000
 51
270.0000
  0
ARC
  8
0_00
  6
CONTINUOUS
 62
4
 10
1062.1103
 20
310.5646
 40
2.5000
 50
90.0000
 51
180.0000
  0
ARC
  8
0_00
  6
CONTINUOUS
 62
4
 10
1087.1104
 20
268.5646
 40
2.5000
 50
270.0000
 51
360.0000
  0
ARC
  8
0_00
  6
CONTINUOUS
 62
4
 10
1087.1104
 20
310.5646
 40
2.5000
 50
0.0000
 51
90.0000
  0
ARC
  8
0_00
  6
CONTINUOUS
 62
4
 10
1087.1104
 20
268.5646
 40
2.5000
 50
180.0000
 51
270.0000
  0
ARC
  8
0_00
  6
CONTINUOUS
 62
4
 10
1087.1104
 20
310.5646
 40
2.5000
 50
90.0000
 51
180.0000
  0
ARC
  8
0_00
  6
CONTINUOUS
 62
4
 10
1089.1103
 20
268.5646
 40
2.5000
 50
270.0000
 51
360.0000
  0
ARC
  8
0_00
  6
CONTINUOUS
 62
4
 10
1089.1103
 20
310.5646
 40
2.5000
 50
0.0000
 51
90.0000
  0
ARC
  8
3_03
  6
CONTINUOUS
 62
4
 10
728.1291
 20
695.9643
 40
30.3450
 50
89.8197
 51
97.0407
  0
ARC
  8
3_03
  6
CONTINUOUS
 62
4
 10
724.5290
 20
725.1129
 40
0.9750
 50
97.0407
 51
180.0000
  0
ARC
  8
3_03
  6
CONTINUOUS
 62
4
 10
732.7040
 20
726.2342
 40
0.0750
 50
0.0000
 51
90.0000
  0
ARC
  8
3_03
  6
CONTINUOUS
 62
4
 10
732.7040
 20
719.1844
 40
0.0750
 50
270.0000
 51
360.0000
  0
ARC
  8
3_03
  6
CONTINUOUS
 62
4
 10
723.6291
 20
719.1844
 40
0.0750
 50
180.0000
 51
270.0000
  0
ARC
  8
0_00
  6
CONTINUOUS
 62
4
 10
523.2783
 20
266.2005
 40
2.5000
 50
270.0000
 51
360.0000
  0
ARC
  8
0_00
  6
CONTINUOUS
 62
4
 10
510.2782
 20
266.2005
 40
2.5000
 50
180.0000
 51
270.0000
  0
ARC
  8
0_00
  6
CONTINUOUS
 62
4
 10
510.2782
 20
352.7005
 40
2.5000
 50
90.0000
 51
180.0000
  0
ARC
  8
0_00
  6
CONTINUOUS
 62
4
 10
523.2783
 20
352.7005
 40
2.5000
 50
0.0000
 51
90.0000
  0
ARC
  8
0_00
  6
CONTINUOUS
 62
4
 10
415.7841
 20
687.9321
 40
5.0000
 50
180.0000
 51
229.0338
  0
ARC
  8
0_00
  6
CONTINUOUS
 62
4
 10
104.2975
 20
423.8118
 40
375.0000
 50
34.0115
 51
45.3615
  0
ARC
  8
0_00
  6
CONTINUOUS
 62
4
 10
84.6988
 20
306.6086
 40
500.0000
 50
44.1641
 51
49.0337
  0
ARC
  8
0_00
  6
CONTINUOUS
 62
4
 10
215.7841
 20
586.9013
 40
10.0000
 50
0.0000
 51
28.2628
  0
ARC
  8
0_00
  6
CONTINUOUS
 62
4
 10
262.7841
 20
596.0132
 40
10.0000
 50
0.0000
 51
37.6262
  0
ARC
  8
0_00
  6
CONTINUOUS
 62
4
 10
205.7841
 20
678.1881
 40
5.0000
 50
180.0000
 51
229.0338
  0
ARC
  8
0_00
  6
CONTINUOUS
 62
4
 10
-105.7025
 20
414.0679
 40
375.0000
 50
28.2628
 51
45.3615
  0
ARC
  8
0_00
  6
CONTINUOUS
 62
4
 10
-125.3012
 20
296.8647
 40
500.0000
 50
37.6262
 51
49.0337
  0
ARC
  8
0_00
  6
CONTINUOUS
 62
4
 10
215.7841
 20
586.9013
 40
10.0000
 50
0.0000
 51
28.2628
  0
ARC
  8
0_00
  6
CONTINUOUS
 62
4
 10
262.7841
 20
596.0132
 40
10.0000
 50
0.0000
 51
37.6262
  0
ARC
  8
0_00
  6
CONTINUOUS
 62
4
 10
215.7841
 20
586.9013
 40
10.0000
 50
0.0000
 51
28.2628
  0
ARC
  8
0_00
  6
CONTINUOUS
 62
4
 10
262.7841
 20
596.0132
 40
10.0000
 50
0.0000
 51
37.6262
  0
ARC
  8
0_00
  6
CONTINUOUS
 62
4
 10
733.6040
 20
703.2995
 40
1.5000
 50
0.0000
 51
28.2628
  0
ARC
  8
0_00
  6
CONTINUOUS
 62
4
 10
682.4412
 20
659.7940
 40
75.0000
 50
37.6262
 51
49.0337
  0
ARC
  8
0_00
  6
CONTINUOUS
 62
4
 10
740.6540
 20
704.6663
 40
1.5000
 50
0.0000
 51
37.6262
  0
ARC
  8
0_00
  6
CONTINUOUS
 62
4
 10
685.3810
 20
677.3745
 40
56.2500
 50
28.2628
 51
45.3615
  0
ARC
  8
0_00
  6
CONTINUOUS
 62
4
 10
732.1040
 20
716.9924
 40
0.7500
 50
180.0000
 51
229.0338
  0
ARC
  8
0_00
  6
CONTINUOUS
 62
4
 10
611.9048
 20
688.1881
 40
5.0000
 50
180.0000
 51
229.0338
  0
ARC
  8
0_00
  6
CONTINUOUS
 62
4
 10
300.4182
 20
424.0679
 40
375.0000
 50
34.0115
 51
45.3615
  0
ARC
  8
0_00
  6
CONTINUOUS
 62
4
 10
280.8195
 20
306.8647
 40
500.0000
 50
44.1641
 51
49.0337
  0
ARC
  8
0_00
  6
CONTINUOUS
 62
2
 10
173.3341
 20
453.4008
 40
8.4500
 50
314.7603
 51
405.2397
  0
ARC
  8
0_00
  6
CONTINUOUS
 62
2
 10
325.2341
 20
453.4008
 40
8.4500
 50
134.7603
 51
225.2397
  0
ARC
  8
0_00
  6
CONTINUOUS
 62
4
 10
1090.1104
 20
267.5646
 40
2.5000
 50
270.0000
 51
360.0000
  0
ARC
  8
0_00
  6
CONTINUOUS
 62
4
 10
1090.1104
 20
311.5646
 40
2.5000
 50
0.0000
 51
90.0000
  0
ARC
  8
0_00
  6
CONTINUOUS
 62
4
 10
1061.1104
 20
311.5646
 40
2.5000
 50
90.0000
 51
180.0000
  0
ARC
  8
0_00
  6
CONTINUOUS
 62
4
 10
1061.1104
 20
267.5646
 40
2.5000
 50
180.0000
 51
270.0000
  0
ARC
  8
16_10
  6
CONTINUOUS
 62
4
 10
726.8540
 20
687.7975
 40
1.2600
 50
98.4358
 51
181.8837
  0
ARC
  8
16_10
  6
CONTINUOUS
 62
4
 10
726.7039
 20
682.9444
 40
0.9900
 50
181.8837
 51
223.9454
  0
ARC
  8
16_10
  6
CONTINUOUS
 62
4
 10
726.5919
 20
680.7394
 40
0.5850
 50
181.8837
 51
271.8837
  0
ARC
  8
16_10
  6
CONTINUOUS
 62
4
 10
753.8876
 20
687.7109
 40
1.2600
 50
52.0455
 51
85.6846
  0
ARC
  8
16_10
  6
CONTINUOUS
 62
4
 10
730.6528
 20
687.6833
 40
0.9750
 50
98.4358
 51
181.8837
  0
ARC
  8
16_10
  6
CONTINUOUS
 62
4
 10
729.8004
 20
682.2827
 40
0.2700
 50
1.8837
 51
45.3477
  0
ARC
  8
16_10
  6
CONTINUOUS
 62
4
 10
730.4540
 20
682.9444
 40
0.6600
 50
181.8837
 51
225.3477
  0
ARC
  8
16_10
  6
CONTINUOUS
 62
4
 10
730.3429
 20
680.7094
 40
0.2550
 50
181.8837
 51
271.8837
  0
ARC
  8
16_10
  6
CONTINUOUS
 62
4
 10
730.8856
 20
680.6372
 40
0.3450
 50
271.8837
 51
328.0013
  0
ARC
  8
0_00
  6
CONTINUOUS
 62
4
 10
777.1040
 20
704.0793
 40
0.3750
 50
270.0000
 51
360.0000
  0
ARC
  8
0_00
  6
CONTINUOUS
 62
4
 10
775.1539
 20
704.0793
 40
0.3750
 50
180.0000
 51
270.0000
  0
ARC
  8
0_00
  6
CONTINUOUS
 62
4
 10
775.1539
 20
717.0544
 40
0.3750
 50
90.0000
 51
180.0000
  0
ARC
  8
0_00
  6
CONTINUOUS
 62
4
 10
777.1040
 20
717.0544
 40
0.3750
 50
0.0000
 51
90.0000
  0
ARC
  8
0_00
  6
CONTINUOUS
 62
4
 10
932.1040
 20
704.0793
 40
0.3750
 50
270.0000
 51
360.0000
  0
ARC
  8
0_00
  6
CONTINUOUS
 62
4
 10
930.1540
 20
704.0793
 40
0.3750
 50
180.0000
 51
270.0000
  0
ARC
  8
0_00
  6
CONTINUOUS
 62
4
 10
930.1540
 20
717.0544
 40
0.3750
 50
90.0000
 51
180.0000
  0
ARC
  8
0_00
  6
CONTINUOUS
 62
4
 10
932.1040
 20
717.0544
 40
0.3750
 50
0.0000
 51
90.0000
  0
ARC
  8
0_00
  6
CONTINUOUS
 62
4
 10
1087.1040
 20
704.0793
 40
0.3750
 50
270.0000
 51
360.0000
  0
ARC
  8
0_00
  6
CONTINUOUS
 62
4
 10
1085.1541
 20
704.0793
 40
0.3750
 50
180.0000
 51
270.0000
  0
ARC
  8
0_00
  6
CONTINUOUS
 62
4
 10
1085.1541
 20
717.0544
 40
0.3750
 50
90.0000
 51
180.0000
  0
ARC
  8
0_00
  6
CONTINUOUS
 62
4
 10
1087.1040
 20
717.0544
 40
0.3750
 50
0.0000
 51
90.0000
  0
ARC
  8
0_00
  6
CONTINUOUS
 62
2
 10
752.6303
 20
317.5646
 40
2.4500
 50
45.0000
 51
58.5444
  0
ARC
  8
0_00
  6
CONTINUOUS
 62
2
 10
752.6303
 20
317.5646
 40
2.4500
 50
121.3667
 51
135.0000
  0
ARC
  8
0_00
  6
CONTINUOUS
 62
2
 10
752.6303
 20
317.5646
 40
2.4500
 50
211.4556
 51
225.0000
  0
ARC
  8
0_00
  6
CONTINUOUS
 62
2
 10
752.6303
 20
317.5646
 40
2.4500
 50
135.0000
 51
148.6333
  0
ARC
  8
0_00
  6
CONTINUOUS
 62
2
 10
752.6303
 20
317.5646
 40
2.4500
 50
31.4556
 51
45.0000
  0
ARC
  8
0_00
  6
CONTINUOUS
 62
2
 10
752.6303
 20
317.5646
 40
2.4500
 50
315.0000
 51
328.6334
  0
ARC
  8
0_00
  6
CONTINUOUS
 62
2
 10
752.6303
 20
317.5646
 40
2.4500
 50
225.0000
 51
238.5444
  0
ARC
  8
0_00
  6
CONTINUOUS
 62
2
 10
752.6303
 20
317.5646
 40
2.4500
 50
301.3667
 51
315.0000
  0
CIRCLE
  8
0_00
  6
CONTINUOUS
 62
2
 10
752.6303
 20
317.5646
 40
5.9000
  0
ARC
  8
0_00
  6
CONTINUOUS
 62
4
 10
743.1302
 20
328.5646
 40
3.0000
 50
138.1897
 51
180.0000
  0
ARC
  8
0_00
  6
CONTINUOUS
 62
4
 10
797.1302
 20
328.5646
 40
3.0000
 50
0.0000
 51
41.8103
  0
ARC
  8
0_00
  6
CONTINUOUS
 62
4
 10
798.6302
 20
289.5646
 40
0.5000
 50
131.5931
 51
228.4069
  0
ARC
  8
0_00
  6
CONTINUOUS
 62
4
 10
741.6302
 20
289.5646
 40
0.5000
 50
311.5931
 51
408.4069
  0
ARC
  8
0_00
  6
CONTINUOUS
 62
4
 10
770.1302
 20
329.0647
 40
0.5000
 50
222.8383
 51
317.1617
  0
ARC
  8
0_00
  6
CONTINUOUS
 62
4
 10
743.1302
 20
250.5646
 40
3.0000
 50
180.0000
 51
221.8103
  0
ARC
  8
0_00
  6
CONTINUOUS
 62
4
 10
797.1302
 20
250.5646
 40
3.0000
 50
318.1897
 51
360.0000
  0
ARC
  8
0_00
  6
CONTINUOUS
 62
4
 10
770.1302
 20
250.0646
 40
0.5000
 50
42.8383
 51
137.1617
  0
CIRCLE
  8
0_00
  6
CONTINUOUS
 62
2
 10
770.1302
 20
285.0646
 40
2.0000
  0
CIRCLE
  8
0_00
  6
CONTINUOUS
 62
2
 10
770.1302
 20
294.0646
 40
2.0000
  0
ARC
  8
0_00
  6
CONTINUOUS
 62
2
 10
787.6303
 20
261.5646
 40
2.4500
 50
225.0000
 51
238.5444
  0
ARC
  8
0_00
  6
CONTINUOUS
 62
2
 10
787.6303
 20
261.5646
 40
2.4500
 50
301.3667
 51
315.0000
  0
ARC
  8
0_00
  6
CONTINUOUS
 62
2
 10
787.6303
 20
261.5646
 40
2.4500
 50
31.4556
 51
45.0000
  0
ARC
  8
0_00
  6
CONTINUOUS
 62
2
 10
787.6303
 20
261.5646
 40
2.4500
 50
315.0000
 51
328.6334
  0
ARC
  8
0_00
  6
CONTINUOUS
 62
2
 10
787.6303
 20
261.5646
 40
2.4500
 50
211.4556
 51
225.0000
  0
ARC
  8
0_00
  6
CONTINUOUS
 62
2
 10
787.6303
 20
261.5646
 40
2.4500
 50
135.0000
 51
148.6333
  0
ARC
  8
0_00
  6
CONTINUOUS
 62
2
 10
787.6303
 20
261.5646
 40
2.4500
 50
45.0000
 51
58.5444
  0
ARC
  8
0_00
  6
CONTINUOUS
 62
2
 10
787.6303
 20
261.5646
 40
2.4500
 50
121.3667
 51
135.0000
  0
CIRCLE
  8
0_00
  6
CONTINUOUS
 62
2
 10
787.6303
 20
261.5646
 40
5.9000
  0
ARC
  8
0_00
  6
CONTINUOUS
 62
4
 10
756.8803
 20
317.5646
 40
3.2500
 50
282.9377
 51
437.0623
  0
ARC
  8
0_00
  6
CONTINUOUS
 62
4
 10
748.3803
 20
317.5646
 40
3.2500
 50
102.9377
 51
257.0623
  0
ARC
  8
0_00
  6
CONTINUOUS
 62
4
 10
783.3803
 20
317.5646
 40
3.2500
 50
90.0000
 51
270.0000
  0
ARC
  8
0_00
  6
CONTINUOUS
 62
4
 10
791.8802
 20
317.5646
 40
3.2500
 50
270.0000
 51
450.0000
  0
ARC
  8
0_00
  6
CONTINUOUS
 62
4
 10
756.8803
 20
261.5646
 40
3.2500
 50
270.0000
 51
450.0000
  0
ARC
  8
0_00
  6
CONTINUOUS
 62
4
 10
748.3803
 20
261.5646
 40
3.2500
 50
90.0000
 51
270.0000
  0
ARC
  8
0_00
  6
CONTINUOUS
 62
4
 10
783.3803
 20
261.5646
 40
3.2500
 50
102.9377
 51
257.0623
  0
ARC
  8
0_00
  6
CONTINUOUS
 62
4
 10
791.8802
 20
261.5646
 40
3.2500
 50
282.9377
 51
437.0623
  0
ARC
  8
0_00
  6
CONTINUOUS
 62
4
 10
770.1302
 20
285.0646
 40
1.7000
 50
206.1790
 51
243.8210
  0
ARC
  8
0_00
  6
CONTINUOUS
 62
4
 10
770.1302
 20
285.0646
 40
3.2500
 50
163.3985
 51
212.3582
  0
ARC
  8
0_00
  6
CONTINUOUS
 62
4
 10
767.1316
 20
283.1646
 40
0.3000
 50
270.0000
 51
392.3582
  0
ARC
  8
0_00
  6
CONTINUOUS
 62
4
 10
768.4533
 20
285.5646
 40
1.5000
 50
90.0000
 51
163.3985
  0
ARC
  8
0_00
  6
CONTINUOUS
 62
4
 10
770.1302
 20
285.0646
 40
1.7000
 50
131.2509
 51
153.8210
  0
ARC
  8
0_00
  6
CONTINUOUS
 62
4
 10
770.1302
 20
285.0646
 40
1.7000
 50
296.1790
 51
333.8210
  0
ARC
  8
0_00
  6
CONTINUOUS
 62
4
 10
770.1302
 20
285.0646
 40
3.2500
 50
327.6418
 51
376.6016
  0
ARC
  8
0_00
  6
CONTINUOUS
 62
4
 10
771.8073
 20
285.5646
 40
1.5000
 50
16.6015
 51
90.0000
  0
ARC
  8
0_00
  6
CONTINUOUS
 62
4
 10
770.1302
 20
285.0646
 40
1.7000
 50
26.1790
 51
48.7491
  0
ARC
  8
0_00
  6
CONTINUOUS
 62
4
 10
768.7376
 20
286.6526
 40
0.4121
 50
311.2509
 51
450.0000
  0
ARC
  8
0_00
  6
CONTINUOUS
 62
4
 10
771.5229
 20
286.6526
 40
0.4121
 50
90.0000
 51
228.7491
  0
ARC
  8
0_00
  6
CONTINUOUS
 62
4
 10
774.6302
 20
288.0646
 40
11.5000
 50
180.0000
 51
208.3594
  0
ARC
  8
0_00
  6
CONTINUOUS
 62
4
 10
765.8304
 20
283.3146
 40
1.5000
 50
208.3594
 51
270.0000
  0
ARC
  8
0_00
  6
CONTINUOUS
 62
4
 10
774.6302
 20
291.0646
 40
11.5000
 50
151.6406
 51
180.0000
  0
ARC
  8
0_00
  6
CONTINUOUS
 62
4
 10
774.6302
 20
288.0646
 40
10.4000
 50
180.0000
 51
209.0222
  0
ARC
  8
0_00
  6
CONTINUOUS
 62
4
 10
765.7985
 20
283.1646
 40
0.3000
 50
209.0222
 51
270.0000
  0
ARC
  8
0_00
  6
CONTINUOUS
 62
4
 10
774.6302
 20
291.0646
 40
10.4000
 50
150.9778
 51
180.0000
  0
ARC
  8
0_00
  6
CONTINUOUS
 62
4
 10
765.6302
 20
288.0646
 40
11.5000
 50
331.6407
 51
360.0000
  0
ARC
  8
0_00
  6
CONTINUOUS
 62
4
 10
765.6302
 20
291.0646
 40
11.5000
 50
0.0000
 51
28.3593
  0
ARC
  8
0_00
  6
CONTINUOUS
 62
4
 10
765.6302
 20
288.0646
 40
10.4000
 50
330.9778
 51
360.0000
  0
ARC
  8
0_00
  6
CONTINUOUS
 62
4
 10
765.6302
 20
291.0646
 40
10.4000
 50
0.0000
 51
29.0222
  0
ARC
  8
0_00
  6
CONTINUOUS
 62
4
 10
773.1291
 20
283.1646
 40
0.3000
 50
147.6418
 51
270.0000
  0
ARC
  8
0_00
  6
CONTINUOUS
 62
4
 10
774.4301
 20
283.3146
 40
1.5000
 50
270.0000
 51
331.6407
  0
ARC
  8
0_00
  6
CONTINUOUS
 62
4
 10
774.4621
 20
283.1646
 40
0.3000
 50
270.0000
 51
330.9778
  0
ARC
  8
0_00
  6
CONTINUOUS
 62
4
 10
770.1302
 20
294.0646
 40
1.7000
 50
116.1790
 51
153.8210
  0
ARC
  8
0_00
  6
CONTINUOUS
 62
4
 10
770.1302
 20
294.0646
 40
3.2500
 50
147.6418
 51
196.6015
  0
ARC
  8
0_00
  6
CONTINUOUS
 62
4
 10
767.1316
 20
295.9646
 40
0.3000
 50
327.6418
 51
450.0000
  0
ARC
  8
0_00
  6
CONTINUOUS
 62
4
 10
768.4533
 20
293.5646
 40
1.5000
 50
196.6015
 51
270.0000
  0
ARC
  8
0_00
  6
CONTINUOUS
 62
4
 10
770.1302
 20
294.0646
 40
1.7000
 50
206.1790
 51
228.7491
  0
ARC
  8
0_00
  6
CONTINUOUS
 62
4
 10
770.1302
 20
294.0646
 40
1.7000
 50
26.1790
 51
63.8210
  0
ARC
  8
0_00
  6
CONTINUOUS
 62
4
 10
770.1302
 20
294.0646
 40
3.2500
 50
343.3984
 51
392.3582
  0
ARC
  8
0_00
  6
CONTINUOUS
 62
4
 10
771.8073
 20
293.5646
 40
1.5000
 50
270.0000
 51
343.3984
  0
ARC
  8
0_00
  6
CONTINUOUS
 62
4
 10
770.1302
 20
294.0646
 40
1.7000
 50
311.2509
 51
333.8210
  0
ARC
  8
0_00
  6
CONTINUOUS
 62
4
 10
768.7376
 20
292.4767
 40
0.4121
 50
270.0000
 51
408.7491
  0
ARC
  8
0_00
  6
CONTINUOUS
 62
4
 10
771.5229
 20
292.4767
 40
0.4121
 50
131.2509
 51
270.0000
  0
ARC
  8
0_00
  6
CONTINUOUS
 62
4
 10
765.8304
 20
295.8146
 40
1.5000
 50
90.0000
 51
151.6406
  0
ARC
  8
0_00
  6
CONTINUOUS
 62
4
 10
765.7985
 20
295.9646
 40
0.3000
 50
90.0000
 51
150.9778
  0
ARC
  8
0_00
  6
CONTINUOUS
 62
4
 10
773.1291
 20
295.9646
 40
0.3000
 50
90.0000
 51
212.3582
  0
ARC
  8
0_00
  6
CONTINUOUS
 62
4
 10
774.4301
 20
295.8146
 40
1.5000
 50
28.3593
 51
90.0000
  0
ARC
  8
0_00
  6
CONTINUOUS
 62
4
 10
774.4621
 20
295.9646
 40
0.3000
 50
29.0222
 51
90.0000
  0
ARC
  8
0_00
  6
DASHED
 62
2
 10
262.7841
 20
575.4723
 40
15.3286
 50
65.3218
 51
114.6782
  0
ARC
  8
0_00
  6
DASHED
 62
2
 10
235.7841
 20
575.4723
 40
15.3286
 50
65.3218
 51
114.6782
  0
ARC
  8
12_0C
  6
CONTINUOUS
 62
2
 10
197.2841
 20
692.7403
 40
5.1605
 50
39.1846
 51
140.8154
  0
ARC
  8
12_0C
  6
CONTINUOUS
 62
2
 10
161.2841
 20
692.7403
 40
5.1605
 50
39.1846
 51
140.8154
  0
ARC
  8
0_00
  6
CONTINUOUS
 62
4
 10
193.2964
 20
695.8008
 40
0.4000
 50
194.0363
 51
270.0000
  0
ARC
  8
0_00
  6
CONTINUOUS
 62
4
 10
192.3474
 20
696.7107
 40
0.3000
 50
14.0362
 51
87.5372
  0
ARC
  8
0_00
  6
CONTINUOUS
 62
4
 10
204.6118
 20
696.0009
 40
0.6000
 50
270.0000
 51
388.8667
  0
ARC
  8
0_00
  6
CONTINUOUS
 62
4
 10
207.5341
 20
698.6526
 40
0.3000
 50
275.0000
 51
371.6000
  0
ARC
  8
0_00
  6
CONTINUOUS
 62
4
 10
206.7341
 20
697.9301
 40
0.3500
 50
95.0000
 51
185.0988
  0
ARC
  8
0_00
  6
CONTINUOUS
 62
4
 10
205.6841
 20
698.2900
 40
1.0000
 50
95.0000
 51
180.0000
  0
ARC
  8
0_00
  6
CONTINUOUS
 62
4
 10
206.4089
 20
699.6583
 40
0.3000
 50
275.0000
 51
371.6000
  0
ARC
  8
0_00
  6
CONTINUOUS
 62
4
 10
206.6820
 20
703.3008
 40
0.7000
 50
90.0000
 51
191.6000
  0
ARC
  8
0_00
  6
CONTINUOUS
 62
4
 10
208.3776
 20
698.0768
 40
2.0000
 50
185.0988
 51
249.7122
  0
ARC
  8
0_00
  6
CONTINUOUS
 62
4
 10
208.3776
 20
698.0768
 40
3.7000
 50
183.4043
 51
208.8667
  0
ARC
  8
0_00
  6
CONTINUOUS
 62
4
 10
165.2718
 20
695.8008
 40
0.4000
 50
270.0000
 51
345.9637
  0
ARC
  8
0_00
  6
CONTINUOUS
 62
4
 10
166.2208
 20
696.7107
 40
0.3000
 50
92.4628
 51
165.9637
  0
ARC
  8
0_00
  6
CONTINUOUS
 62
4
 10
153.9563
 20
696.0009
 40
0.6000
 50
151.1333
 51
270.0000
  0
ARC
  8
0_00
  6
CONTINUOUS
 62
4
 10
151.0341
 20
698.6526
 40
0.3000
 50
168.4000
 51
265.0000
  0
ARC
  8
0_00
  6
CONTINUOUS
 62
4
 10
151.8341
 20
697.9301
 40
0.3500
 50
354.9012
 51
445.0000
  0
ARC
  8
0_00
  6
CONTINUOUS
 62
4
 10
152.8841
 20
698.2900
 40
1.0000
 50
0.0000
 51
85.0000
  0
ARC
  8
0_00
  6
CONTINUOUS
 62
4
 10
152.1593
 20
699.6583
 40
0.3000
 50
168.4000
 51
265.0000
  0
ARC
  8
0_00
  6
CONTINUOUS
 62
4
 10
151.8861
 20
703.3008
 40
0.7000
 50
348.4000
 51
450.0000
  0
ARC
  8
0_00
  6
CONTINUOUS
 62
4
 10
150.1906
 20
698.0768
 40
2.0000
 50
290.2878
 51
354.9012
  0
ARC
  8
0_00
  6
CONTINUOUS
 62
4
 10
150.1906
 20
698.0768
 40
3.7000
 50
331.1333
 51
356.5957
  0
ARC
  8
0_00
  6
CONTINUOUS
 62
4
 10
179.2841
 20
537.8009
 40
201.6000
 50
82.9521
 51
97.0479
  0
ARC
  8
0_00
  6
CONTINUOUS
 62
4
 10
155.2841
 20
731.9228
 40
6.0000
 50
97.0479
 51
180.0001
  0
ARC
  8
0_00
  6
CONTINUOUS
 62
4
 10
203.2841
 20
731.9228
 40
6.0000
 50
359.9999
 51
442.9521
  0
ARC
  8
14_0E
  6
CONTINUOUS
 62
4
 10
179.2841
 20
537.8009
 40
200.0000
 50
82.8930
 51
97.1069
  0
ARC
  8
14_0E
  6
CONTINUOUS
 62
4
 10
155.0841
 20
731.8981
 40
4.4000
 50
97.1069
 51
180.0000
  0
ARC
  8
14_0E
  6
CONTINUOUS
 62
4
 10
203.4841
 20
731.8981
 40
4.4000
 50
0.0000
 51
82.8930
  0
ARC
  8
0_00
  6
CONTINUOUS
 62
4
 10
149.9836
 20
693.1008
 40
0.7000
 50
180.0001
 51
360.0001
  0
ARC
  8
14_0E
  6
CONTINUOUS
 62
4
 10
150.1130
 20
698.1915
 40
2.0000
 50
286.5774
 51
349.1683
  0
ARC
  8
0_00
  6
CONTINUOUS
 62
4
 10
151.7336
 20
697.8815
 40
0.3500
 50
349.1683
 51
445.0000
  0
ARC
  8
0_00
  6
CONTINUOUS
 62
4
 10
151.0836
 20
698.6912
 40
0.4000
 50
168.6000
 51
265.0000
  0
ARC
  8
0_00
  6
CONTINUOUS
 62
4
 10
150.9622
 20
701.1247
 40
0.2000
 50
348.6000
 51
450.0000
  0
ARC
  8
0_00
  6
CONTINUOUS
 62
4
 10
151.0836
 20
703.7246
 40
0.4000
 50
90.0000
 51
180.0000
  0
ARC
  8
0_00
  6
CONTINUOUS
 62
4
 10
151.0836
 20
705.5247
 40
0.4000
 50
183.0566
 51
270.0000
  0
ARC
  8
0_00
  6
CONTINUOUS
 62
4
 10
153.9836
 20
703.9247
 40
0.6000
 50
180.0000
 51
270.0000
  0
ARC
  8
0_00
  6
CONTINUOUS
 62
4
 10
153.6836
 20
704.6246
 40
0.5000
 50
0.0000
 51
90.0000
  0
ARC
  8
0_00
  6
CONTINUOUS
 62
4
 10
153.9836
 20
703.5247
 40
0.2000
 50
270.0000
 51
360.0000
  0
ARC
  8
0_00
  6
CONTINUOUS
 62
4
 10
208.5840
 20
693.1008
 40
0.7000
 50
179.9999
 51
359.9999
  0
ARC
  8
14_0E
  6
CONTINUOUS
 62
4
 10
208.4546
 20
698.1915
 40
2.0000
 50
190.8317
 51
253.4226
  0
ARC
  8
0_00
  6
CONTINUOUS
 62
4
 10
206.8340
 20
697.8815
 40
0.3500
 50
95.0000
 51
190.8317
  0
ARC
  8
0_00
  6
CONTINUOUS
 62
4
 10
207.4840
 20
698.6912
 40
0.4000
 50
275.0000
 51
371.4000
  0
ARC
  8
0_00
  6
CONTINUOUS
 62
4
 10
204.8840
 20
704.6246
 40
0.5000
 50
90.0000
 51
180.0000
  0
ARC
  8
0_00
  6
CONTINUOUS
 62
4
 10
204.5840
 20
703.5247
 40
0.2000
 50
180.0000
 51
270.0000
  0
ARC
  8
0_00
  6
CONTINUOUS
 62
4
 10
204.5840
 20
703.9247
 40
0.6000
 50
270.0000
 51
360.0000
  0
ARC
  8
0_00
  6
CONTINUOUS
 62
4
 10
207.4840
 20
705.5247
 40
0.4000
 50
270.0000
 51
359.9999
  0
ARC
  8
0_00
  6
CONTINUOUS
 62
4
 10
207.4840
 20
703.7246
 40
0.4000
 50
0.0000
 51
90.0000
  0
ARC
  8
0_00
  6
CONTINUOUS
 62
4
 10
207.6054
 20
701.1247
 40
0.2000
 50
90.0000
 51
191.4000
  0
ARC
  8
0_00
  6
CONTINUOUS
 62
2
 10
516.7783
 20
249.7719
 40
15.3286
 50
65.3218
 51
114.6782
  0
ARC
  8
12_0C
  6
DASHED
 62
2
 10
506.2782
 20
367.0400
 40
5.1605
 50
39.1846
 51
140.8154
  0
ARC
  8
12_0C
  6
DASHED
 62
2
 10
527.2783
 20
367.0400
 40
5.1605
 50
39.1846
 51
140.8154
  0
ARC
  8
0_00
  6
CONTINUOUS
 62
3
 10
1089.6760
 20
72.2363
 40
0.5362
 50
270.0000
 51
450.0000
  0
ARC
  8
0_00
  6
CONTINUOUS
 62
3
 10
1088.1842
 20
77.0626
 40
0.6532
 50
0.0000
 51
180.0000
  0
ARC
  8
0_00
  6
CONTINUOUS
 62
3
 10
1089.1886
 20
83.4001
 40
1.9500
 50
333.9999
 51
450.0000
  0
CIRCLE
  8
0_00
  6
CONTINUOUS
 62
3
 10
1090.0660
 20
87.3000
 40
1.5600
  0
ARC
  8
0_00
  6
CONTINUOUS
 62
3
 10
1088.2811
 20
77.0626
 40
0.4500
 50
0.0000
 51
180.0000
  0
ARC
  8
0_00
  6
CONTINUOUS
 62
3
 10
1088.2811
 20
77.0626
 40
0.1500
 50
0.0000
 51
180.0000
  0
ARC
  8
0_00
  6
CONTINUOUS
 62
3
 10
1089.6760
 20
72.1725
 40
0.3000
 50
270.0000
 51
450.0000
  0
CIRCLE
  8
0_00
  6
CONTINUOUS
 62
3
 10
1090.0660
 20
87.3000
 40
1.3244
  0
CIRCLE
  8
0_00
  6
CONTINUOUS
 62
3
 10
1090.0660
 20
87.3000
 40
1.0256
  0
CIRCLE
  8
0_00
  6
CONTINUOUS
 62
3
 10
1090.0660
 20
87.3000
 40
0.7027
  0
CIRCLE
  8
0_00
  6
CONTINUOUS
 62
3
 10
1090.0660
 20
87.3000
 40
0.3440
  0
CIRCLE
  8
0_00
  6
CONTINUOUS
 62
3
 10
1090.0660
 20
87.3000
 40
0.1699
  0
CIRCLE
  8
0_00
  6
CONTINUOUS
 62
4
 10
881.0410
 20
82.2001
 40
3.7500
  0
CIRCLE
  8
0_00
  6
CONTINUOUS
 62
4
 10
881.0410
 20
82.2001
 40
6.0000
  0
ARC
  8
12_0C
  6
CONTINUOUS
 62
2
 10
407.2841
 20
702.4842
 40
5.1605
 50
39.1846
 51
140.8154
  0
ARC
  8
12_0C
  6
CONTINUOUS
 62
2
 10
371.2841
 20
702.4842
 40
5.1605
 50
39.1846
 51
140.8154
  0
ARC
  8
0_00
  6
CONTINUOUS
 62
4
 10
403.2964
 20
705.5448
 40
0.4000
 50
194.0363
 51
270.0000
  0
ARC
  8
0_00
  6
CONTINUOUS
 62
4
 10
402.3474
 20
706.4547
 40
0.3000
 50
14.0362
 51
87.5372
  0
ARC
  8
0_00
  6
CONTINUOUS
 62
4
 10
414.6119
 20
705.7447
 40
0.6000
 50
270.0000
 51
388.8667
  0
ARC
  8
0_00
  6
CONTINUOUS
 62
4
 10
417.5341
 20
708.3966
 40
0.3000
 50
275.0000
 51
371.6000
  0
ARC
  8
0_00
  6
CONTINUOUS
 62
4
 10
416.7341
 20
707.6741
 40
0.3500
 50
95.0000
 51
185.0988
  0
ARC
  8
0_00
  6
CONTINUOUS
 62
4
 10
415.6841
 20
708.0340
 40
1.0000
 50
95.0000
 51
180.0000
  0
ARC
  8
0_00
  6
CONTINUOUS
 62
4
 10
416.4089
 20
709.4023
 40
0.3000
 50
275.0000
 51
371.6000
  0
ARC
  8
0_00
  6
CONTINUOUS
 62
4
 10
416.6820
 20
713.0448
 40
0.7000
 50
90.0000
 51
191.6000
  0
ARC
  8
0_00
  6
CONTINUOUS
 62
4
 10
418.3775
 20
707.8207
 40
2.0000
 50
185.0988
 51
249.7122
  0
ARC
  8
0_00
  6
CONTINUOUS
 62
4
 10
418.3775
 20
707.8207
 40
3.7000
 50
183.4043
 51
208.8667
  0
ARC
  8
0_00
  6
CONTINUOUS
 62
4
 10
419.7846
 20
704.6835
 40
0.5000
 50
179.9995
 51
296.3368
  0
ARC
  8
0_00
  6
CONTINUOUS
 62
4
 10
417.4847
 20
713.4913
 40
0.4000
 50
359.4403
 51
449.9995
  0
ARC
  8
0_00
  6
CONTINUOUS
 62
4
 10
414.5847
 20
713.2913
 40
0.2000
 50
179.9995
 51
269.9996
  0
ARC
  8
0_00
  6
CONTINUOUS
 62
4
 10
414.5847
 20
713.6913
 40
0.6000
 50
269.9996
 51
359.9996
  0
ARC
  8
0_00
  6
CONTINUOUS
 62
4
 10
416.8347
 20
707.6481
 40
0.3500
 50
94.9995
 51
190.8312
  0
ARC
  8
14_0E
  6
CONTINUOUS
 62
4
 10
418.4553
 20
707.9582
 40
2.0000
 50
190.8312
 51
253.4221
  0
ARC
  8
0_00
  6
CONTINUOUS
 62
4
 10
417.4847
 20
708.4579
 40
0.4000
 50
274.9996
 51
371.3995
  0
ARC
  8
0_00
  6
CONTINUOUS
 62
4
 10
417.6061
 20
710.8914
 40
0.2000
 50
89.9995
 51
191.3996
  0
ARC
  8
0_00
  6
CONTINUOUS
 62
4
 10
415.3847
 20
714.1913
 40
1.0000
 50
89.9995
 51
179.9995
  0
ARC
  8
0_00
  6
CONTINUOUS
 62
4
 10
417.9847
 20
713.8914
 40
1.3000
 50
359.9996
 51
449.9995
  0
ARC
  8
0_00
  6
CONTINUOUS
 62
4
 10
389.2841
 20
679.4008
 40
60.0000
 50
56.5252
 51
123.4747
  0
ARC
  8
0_00
  6
CONTINUOUS
 62
4
 10
413.8841
 20
716.6030
 40
15.4000
 50
292.7488
 51
416.5252
  0
ARC
  8
0_00
  6
CONTINUOUS
 62
4
 10
419.2941
 20
703.7008
 40
1.4095
 50
179.9994
 51
292.7488
  0
ARC
  8
0_00
  6
CONTINUOUS
 62
4
 10
413.8841
 20
716.6030
 40
13.8000
 50
296.3368
 51
416.5252
  0
ARC
  8
0_00
  6
CONTINUOUS
 62
4
 10
389.2841
 20
679.4008
 40
58.4000
 50
56.5252
 51
123.4747
  0
ARC
  8
0_00
  6
CONTINUOUS
 62
4
 10
375.2718
 20
705.5448
 40
0.4000
 50
270.0000
 51
345.9637
  0
ARC
  8
0_00
  6
CONTINUOUS
 62
4
 10
376.2208
 20
706.4547
 40
0.3000
 50
92.4628
 51
165.9637
  0
ARC
  8
0_00
  6
CONTINUOUS
 62
4
 10
363.9563
 20
705.7447
 40
0.6000
 50
151.1333
 51
270.0000
  0
ARC
  8
0_00
  6
CONTINUOUS
 62
4
 10
361.0341
 20
708.3966
 40
0.3000
 50
168.4000
 51
265.0000
  0
ARC
  8
0_00
  6
CONTINUOUS
 62
4
 10
361.8341
 20
707.6741
 40
0.3500
 50
354.9012
 51
445.0000
  0
ARC
  8
0_00
  6
CONTINUOUS
 62
4
 10
362.8841
 20
708.0340
 40
1.0000
 50
0.0000
 51
85.0000
  0
ARC
  8
0_00
  6
CONTINUOUS
 62
4
 10
362.1593
 20
709.4023
 40
0.3000
 50
168.4000
 51
265.0000
  0
ARC
  8
0_00
  6
CONTINUOUS
 62
4
 10
361.8861
 20
713.0448
 40
0.7000
 50
348.4000
 51
450.0000
  0
ARC
  8
0_00
  6
CONTINUOUS
 62
4
 10
360.1906
 20
707.8207
 40
2.0000
 50
290.2878
 51
354.9012
  0
ARC
  8
0_00
  6
CONTINUOUS
 62
4
 10
360.1906
 20
707.8207
 40
3.7000
 50
331.1333
 51
356.5957
  0
ARC
  8
0_00
  6
CONTINUOUS
 62
4
 10
358.7836
 20
704.6835
 40
0.5000
 50
243.6632
 51
360.0004
  0
ARC
  8
0_00
  6
CONTINUOUS
 62
4
 10
361.0835
 20
713.4913
 40
0.4000
 50
89.9999
 51
180.5597
  0
ARC
  8
0_00
  6
CONTINUOUS
 62
4
 10
363.9835
 20
713.2913
 40
0.2000
 50
270.0005
 51
360.0004
  0
ARC
  8
0_00
  6
CONTINUOUS
 62
4
 10
363.9835
 20
713.6913
 40
0.6000
 50
180.0005
 51
270.0005
  0
ARC
  8
0_00
  6
CONTINUOUS
 62
4
 10
361.7335
 20
707.6481
 40
0.3500
 50
349.1688
 51
445.0004
  0
ARC
  8
14_0E
  6
CONTINUOUS
 62
4
 10
360.1129
 20
707.9582
 40
2.0000
 50
286.5779
 51
349.1688
  0
ARC
  8
0_00
  6
CONTINUOUS
 62
4
 10
361.0835
 20
708.4579
 40
0.4000
 50
168.6004
 51
265.0005
  0
ARC
  8
0_00
  6
CONTINUOUS
 62
4
 10
360.9621
 20
710.8914
 40
0.2000
 50
348.6005
 51
450.0004
  0
ARC
  8
0_00
  6
CONTINUOUS
 62
4
 10
363.1835
 20
714.1913
 40
1.0000
 50
0.0004
 51
90.0004
  0
ARC
  8
0_00
  6
CONTINUOUS
 62
4
 10
360.5835
 20
713.8914
 40
1.3000
 50
90.0004
 51
180.0005
  0
ARC
  8
0_00
  6
CONTINUOUS
 62
4
 10
364.6841
 20
716.6030
 40
15.4000
 50
123.4747
 51
247.2512
  0
ARC
  8
0_00
  6
CONTINUOUS
 62
4
 10
359.2741
 20
703.7008
 40
1.4095
 50
247.2512
 51
360.0006
  0
ARC
  8
0_00
  6
CONTINUOUS
 62
4
 10
364.6841
 20
716.6030
 40
13.8000
 50
123.4747
 51
243.6632
  0
ARC
  8
12_0C
  6
CONTINUOUS
 62
2
 10
603.4048
 20
703.0403
 40
5.1605
 50
39.1846
 51
140.8154
  0
ARC
  8
12_0C
  6
CONTINUOUS
 62
2
 10
567.4048
 20
703.0403
 40
5.1605
 50
39.1846
 51
140.8154
  0
ARC
  8
0_00
  6
CONTINUOUS
 62
4
 10
612.4031
 20
707.1009
 40
0.6000
 50
270.0000
 51
450.0000
  0
ARC
  8
0_00
  6
CONTINUOUS
 62
4
 10
585.4032
 20
710.4008
 40
29.0000
 50
201.7076
 51
269.4103
  0
ARC
  8
0_00
  6
CONTINUOUS
 62
4
 10
585.4032
 20
710.4008
 40
29.0000
 50
270.5897
 51
338.2924
  0
ARC
  8
0_00
  6
CONTINUOUS
 62
4
 10
560.6032
 20
705.9008
 40
0.5000
 50
180.0000
 51
270.0000
  0
ARC
  8
0_00
  6
CONTINUOUS
 62
4
 10
610.2031
 20
705.9008
 40
0.5000
 50
270.0000
 51
360.0000
  0
ARC
  8
0_00
  6
CONTINUOUS
 62
4
 10
612.7031
 20
709.8815
 40
0.5000
 50
275.0000
 51
371.6000
  0
ARC
  8
0_00
  6
CONTINUOUS
 62
4
 10
611.7031
 20
709.3925
 40
1.0000
 50
95.0000
 51
180.0000
  0
ARC
  8
0_00
  6
CONTINUOUS
 62
4
 10
607.9359
 20
710.7260
 40
5.0000
 50
11.6000
 51
45.0000
  0
ARC
  8
0_00
  6
CONTINUOUS
 62
4
 10
607.9359
 20
710.7260
 40
4.1000
 50
11.6000
 51
45.0000
  0
ARC
  8
0_00
  6
CONTINUOUS
 62
4
 10
558.4032
 20
707.1009
 40
0.6000
 50
90.0000
 51
270.0000
  0
ARC
  8
0_00
  6
CONTINUOUS
 62
4
 10
558.1032
 20
709.8815
 40
0.5000
 50
168.4000
 51
265.0000
  0
ARC
  8
0_00
  6
CONTINUOUS
 62
4
 10
560.9531
 20
715.9508
 40
0.4500
 50
0.0000
 51
180.0000
  0
ARC
  8
0_00
  6
CONTINUOUS
 62
4
 10
559.1031
 20
709.3925
 40
1.0000
 50
0.0000
 51
85.0000
  0
ARC
  8
0_00
  6
CONTINUOUS
 62
4
 10
562.8703
 20
710.7260
 40
5.0000
 50
135.0000
 51
168.4000
  0
ARC
  8
0_00
  6
CONTINUOUS
 62
4
 10
562.8703
 20
710.7260
 40
4.1000
 50
135.0000
 51
168.4000
  0
ARC
  8
0_00
  6
CONTINUOUS
 62
4
 10
560.4031
 20
715.4713
 40
1.0000
 50
315.0000
 51
360.0000
  0
ARC
  8
0_00
  6
CONTINUOUS
 62
4
 10
609.8531
 20
715.9508
 40
0.4500
 50
0.0000
 51
180.0000
  0
ARC
  8
0_00
  6
CONTINUOUS
 62
4
 10
610.4031
 20
715.4713
 40
1.0000
 50
180.0000
 51
225.0000
  0
ARC
  8
15_0F
  6
CONTINUOUS
 62
4
 10
585.4032
 20
710.4008
 40
27.9000
 50
202.3023
 51
255.4075
  0
ARC
  8
15_0F
  6
CONTINUOUS
 62
4
 10
585.4032
 20
710.4008
 40
27.9000
 50
284.5926
 51
337.6978
  0
ARC
  8
15_0F
  6
CONTINUOUS
 62
4
 10
558.9242
 20
699.8595
 40
0.5000
 50
150.0000
 51
201.7076
  0
ARC
  8
15_0F
  6
CONTINUOUS
 62
4
 10
611.8820
 20
699.8595
 40
0.5000
 50
338.2924
 51
390.0000
  0
ARC
  8
0_00
  6
CONTINUOUS
 62
4
 10
611.5630
 20
717.9270
 40
0.3000
 50
270.0000
 51
397.7143
  0
ARC
  8
0_00
  6
CONTINUOUS
 62
4
 10
607.0031
 20
717.1270
 40
0.5000
 50
90.0000
 51
180.0000
  0
ARC
  8
0_00
  6
CONTINUOUS
 62
4
 10
585.4032
 20
710.4008
 40
29.0000
 50
342.4088
 51
449.9966
  0
ARC
  8
0_00
  6
CONTINUOUS
 62
4
 10
612.7610
 20
701.7270
 40
0.3000
 50
191.6000
 51
342.4088
  0
ARC
  8
0_00
  6
CONTINUOUS
 62
4
 10
585.4032
 20
710.4008
 40
27.5000
 50
46.4693
 51
89.9727
  0
ARC
  8
0_00
  6
CONTINUOUS
 62
4
 10
585.4032
 20
710.4008
 40
27.5000
 50
16.2813
 51
43.5307
  0
ARC
  8
0_00
  6
CONTINUOUS
 62
4
 10
585.4032
 20
710.4008
 40
27.8000
 50
5.4220
 51
12.9434
  0
ARC
  8
0_00
  6
CONTINUOUS
 62
4
 10
585.4032
 20
710.4008
 40
27.8000
 50
357.9926
 51
362.3232
  0
ARC
  8
0_00
  6
CONTINUOUS
 62
4
 10
585.4032
 20
710.4008
 40
27.8000
 50
345.9079
 51
353.8593
  0
ARC
  8
0_00
  6
CONTINUOUS
 62
4
 10
615.2762
 20
702.9016
 40
3.0000
 50
165.9079
 51
191.6000
  0
ARC
  8
0_00
  6
CONTINUOUS
 62
4
 10
585.4032
 20
710.4008
 40
26.5000
 50
43.9189
 51
46.0811
  0
ARC
  8
0_00
  6
CONTINUOUS
 62
4
 10
605.1957
 20
729.2035
 40
0.2000
 50
43.5307
 51
135.0000
  0
ARC
  8
0_00
  6
CONTINUOUS
 62
4
 10
604.2058
 20
730.1934
 40
0.2000
 50
315.0000
 51
406.4693
  0
ARC
  8
0_00
  6
CONTINUOUS
 62
4
 10
607.5031
 20
716.6192
 40
0.2000
 50
87.8021
 51
180.0000
  0
ARC
  8
0_00
  6
CONTINUOUS
 62
4
 10
606.9031
 20
715.8270
 40
0.4000
 50
180.0000
 51
360.0000
  0
ARC
  8
0_00
  6
CONTINUOUS
 62
4
 10
613.0745
 20
711.7278
 40
0.2000
 50
191.7000
 51
270.0000
  0
ARC
  8
0_00
  6
CONTINUOUS
 62
4
 10
612.8467
 20
712.8277
 40
0.2000
 50
90.0000
 51
191.7000
  0
ARC
  8
0_00
  6
CONTINUOUS
 62
4
 10
612.0933
 20
709.1306
 40
0.2000
 50
95.0000
 51
195.1391
  0
ARC
  8
13_0D
  6
CONTINUOUS
 62
4
 10
614.7962
 20
709.8619
 40
3.0000
 50
195.1391
 51
234.2555
  0
ARC
  8
0_00
  6
CONTINUOUS
 62
4
 10
559.2446
 20
717.9254
 40
0.3000
 50
142.2891
 51
270.0034
  0
ARC
  8
0_00
  6
CONTINUOUS
 62
4
 10
563.8044
 20
717.1257
 40
0.5000
 50
0.0034
 51
90.0034
  0
ARC
  8
0_00
  6
CONTINUOUS
 62
4
 10
585.4048
 20
710.4008
 40
29.0000
 50
90.0000
 51
197.5946
  0
ARC
  8
0_00
  6
CONTINUOUS
 62
4
 10
558.0475
 20
701.7253
 40
0.3000
 50
197.5946
 51
348.4034
  0
ARC
  8
0_00
  6
CONTINUOUS
 62
4
 10
585.4048
 20
710.4008
 40
27.5000
 50
90.0307
 51
133.5341
  0
ARC
  8
0_00
  6
CONTINUOUS
 62
4
 10
585.4048
 20
710.4008
 40
27.5000
 50
136.4727
 51
163.7221
  0
ARC
  8
0_00
  6
CONTINUOUS
 62
4
 10
585.4048
 20
710.4008
 40
27.8000
 50
167.0600
 51
174.5814
  0
ARC
  8
0_00
  6
CONTINUOUS
 62
4
 10
585.4048
 20
710.4008
 40
27.8000
 50
177.6802
 51
182.0108
  0
ARC
  8
0_00
  6
CONTINUOUS
 62
4
 10
585.4048
 20
710.4008
 40
27.8000
 50
186.1442
 51
194.0955
  0
ARC
  8
0_00
  6
CONTINUOUS
 62
4
 10
555.5322
 20
702.8998
 40
3.0000
 50
348.4034
 51
374.0955
  0
ARC
  8
0_00
  6
CONTINUOUS
 62
4
 10
585.4048
 20
710.4008
 40
26.5000
 50
133.9223
 51
136.0845
  0
ARC
  8
0_00
  6
CONTINUOUS
 62
4
 10
565.6111
 20
729.2023
 40
0.2000
 50
45.0034
 51
136.4727
  0
ARC
  8
0_00
  6
CONTINUOUS
 62
4
 10
566.6009
 20
730.1924
 40
0.2000
 50
133.5341
 51
225.0034
  0
ARC
  8
0_00
  6
CONTINUOUS
 62
4
 10
563.3044
 20
716.6179
 40
0.2000
 50
0.0034
 51
92.2013
  0
ARC
  8
0_00
  6
CONTINUOUS
 62
4
 10
563.9046
 20
715.8257
 40
0.4000
 50
180.0034
 51
360.0034
  0
ARC
  8
0_00
  6
CONTINUOUS
 62
4
 10
557.7334
 20
711.7261
 40
0.2000
 50
270.0034
 51
348.3034
  0
ARC
  8
0_00
  6
CONTINUOUS
 62
4
 10
557.9610
 20
712.8261
 40
0.2000
 50
348.3034
 51
450.0034
  0
ARC
  8
0_00
  6
CONTINUOUS
 62
4
 10
558.7147
 20
709.1290
 40
0.2000
 50
344.8643
 51
445.0034
  0
ARC
  8
13_0D
  6
CONTINUOUS
 62
4
 10
556.0119
 20
709.8601
 40
3.0000
 50
305.7479
 51
344.8643
  0
ARC
  8
0_00
  6
CONTINUOUS
 62
4
 10
166.7307
 20
445.9003
 40
2.0000
 50
0.4000
 51
46.6979
  0
ARC
  8
0_00
  6
CONTINUOUS
 62
4
 10
170.5029
 20
449.9030
 40
3.5000
 50
180.4000
 51
226.6979
  0
ARC
  8
0_00
  6
CONTINUOUS
 62
4
 10
170.5029
 20
449.9030
 40
3.5000
 50
41.8470
 51
104.5490
  0
ARC
  8
0_00
  6
CONTINUOUS
 62
4
 10
169.3725
 20
454.2587
 40
1.0000
 50
180.4000
 51
284.5490
  0
ARC
  8
0_00
  6
CONTINUOUS
 62
4
 10
172.1418
 20
451.3706
 40
1.3000
 50
330.4000
 51
401.8470
  0
ARC
  8
0_00
  6
CONTINUOUS
 62
4
 10
170.5029
 20
449.9030
 40
1.7500
 50
10.5841
 51
35.0231
  0
ARC
  8
0_00
  6
CONTINUOUS
 62
4
 10
170.5029
 20
449.9030
 40
1.7500
 50
175.7769
 51
215.0231
  0
ARC
  8
0_00
  6
CONTINUOUS
 62
4
 10
170.5029
 20
449.9030
 40
1.7500
 50
85.7769
 51
125.0231
  0
ARC
  8
0_00
  6
CONTINUOUS
 62
4
 10
172.5926
 20
450.2934
 40
0.3759
 50
190.5841
 51
330.4000
  0
ARC
  8
0_00
  6
CONTINUOUS
 62
4
 10
170.0814
 20
447.7437
 40
1.3000
 50
267.6053
 51
330.4000
  0
ARC
  8
0_00
  6
CONTINUOUS
 62
4
 10
170.5029
 20
449.9030
 40
1.7500
 50
265.7769
 51
290.2159
  0
ARC
  8
0_00
  6
CONTINUOUS
 62
4
 10
171.2375
 20
447.9080
 40
0.3759
 50
330.4000
 51
470.2159
  0
ARC
  8
0_00
  6
CONTINUOUS
 62
4
 10
187.0871
 20
478.9008
 40
10.5000
 50
90.0000
 51
98.7462
  0
ARC
  8
0_00
  6
CONTINUOUS
 62
4
 10
172.7841
 20
481.2533
 40
6.0000
 50
98.7462
 51
180.4000
  0
ARC
  8
0_00
  6
CONTINUOUS
 62
4
 10
187.0871
 20
478.9008
 40
9.0000
 50
90.0000
 51
98.7462
  0
ARC
  8
0_00
  6
CONTINUOUS
 62
4
 10
172.6842
 20
481.2379
 40
4.5000
 50
98.7462
 51
180.4000
  0
ARC
  8
0_00
  6
CONTINUOUS
 62
4
 10
311.4811
 20
478.9008
 40
10.5000
 50
81.2538
 51
90.0000
  0
ARC
  8
0_00
  6
CONTINUOUS
 62
4
 10
311.4811
 20
478.9008
 40
9.0000
 50
81.2538
 51
90.0000
  0
ARC
  8
0_00
  6
CONTINUOUS
 62
4
 10
325.7841
 20
481.2533
 40
6.0000
 50
359.6000
 51
441.2538
  0
ARC
  8
0_00
  6
CONTINUOUS
 62
4
 10
325.8839
 20
481.2379
 40
4.5000
 50
359.6000
 51
441.2538
  0
ARC
  8
0_00
  6
CONTINUOUS
 62
4
 10
171.2566
 20
435.0589
 40
0.6500
 50
270.4000
 51
450.4000
  0
ARC
  8
14_0E
  6
CONTINUOUS
 62
4
 10
170.3006
 20
435.9022
 40
1.5000
 50
180.4000
 51
270.4000
  0
ARC
  8
0_00
  6
CONTINUOUS
 62
4
 10
331.8374
 20
445.9003
 40
2.0000
 50
133.3021
 51
179.6000
  0
ARC
  8
0_00
  6
CONTINUOUS
 62
4
 10
328.0653
 20
449.9030
 40
3.5000
 50
313.3021
 51
359.6000
  0
ARC
  8
0_00
  6
CONTINUOUS
 62
4
 10
328.0653
 20
449.9030
 40
3.5000
 50
75.4510
 51
138.1530
  0
ARC
  8
0_00
  6
CONTINUOUS
 62
4
 10
329.1957
 20
454.2587
 40
1.0000
 50
255.4510
 51
359.6000
  0
ARC
  8
0_00
  6
CONTINUOUS
 62
4
 10
326.4264
 20
451.3706
 40
1.3000
 50
138.1530
 51
209.6000
  0
ARC
  8
0_00
  6
CONTINUOUS
 62
4
 10
328.0653
 20
449.9030
 40
1.7500
 50
144.9769
 51
169.4159
  0
ARC
  8
0_00
  6
CONTINUOUS
 62
4
 10
328.0653
 20
449.9030
 40
1.7500
 50
324.9769
 51
364.2231
  0
ARC
  8
0_00
  6
CONTINUOUS
 62
4
 10
328.0653
 20
449.9030
 40
1.7500
 50
54.9769
 51
94.2231
  0
ARC
  8
0_00
  6
CONTINUOUS
 62
4
 10
325.9756
 20
450.2934
 40
0.3759
 50
209.6000
 51
349.4159
  0
ARC
  8
0_00
  6
CONTINUOUS
 62
4
 10
328.4868
 20
447.7437
 40
1.3000
 50
209.6000
 51
272.3947
  0
ARC
  8
0_00
  6
CONTINUOUS
 62
4
 10
328.0653
 20
449.9030
 40
1.7500
 50
249.7841
 51
274.2231
  0
ARC
  8
0_00
  6
CONTINUOUS
 62
4
 10
327.3307
 20
447.9080
 40
0.3759
 50
69.7841
 51
209.6000
  0
ARC
  8
0_00
  6
CONTINUOUS
 62
4
 10
327.3117
 20
435.0589
 40
0.6500
 50
89.6000
 51
269.6000
  0
ARC
  8
14_0E
  6
CONTINUOUS
 62
4
 10
328.2675
 20
435.9022
 40
1.5000
 50
269.6000
 51
359.6000
  0
ARC
  8
0_00
  6
CONTINUOUS
 62
4
 10
169.3157
 20
462.3950
 40
1.0000
 50
180.4000
 51
270.4000
  0
ARC
  8
0_00
  6
CONTINUOUS
 62
4
 10
169.3394
 20
458.9951
 40
1.0000
 50
90.4000
 51
180.4000
  0
ARC
  8
0_00
  6
CONTINUOUS
 62
4
 10
170.6275
 20
460.7041
 40
0.7000
 50
270.4000
 51
450.4000
  0
ARC
  8
0_00
  6
CONTINUOUS
 62
4
 10
329.2525
 20
462.3950
 40
1.0000
 50
269.6000
 51
359.6000
  0
ARC
  8
0_00
  6
CONTINUOUS
 62
4
 10
329.2288
 20
458.9951
 40
1.0000
 50
359.6000
 51
449.6000
  0
ARC
  8
0_00
  6
CONTINUOUS
 62
4
 10
327.9407
 20
460.7041
 40
0.7000
 50
89.6000
 51
269.6000
  0
ARC
  8
0_00
  6
CONTINUOUS
 62
4
 10
294.0841
 20
485.3009
 40
0.5000
 50
90.0000
 51
180.0000
  0
ARC
  8
0_00
  6
CONTINUOUS
 62
4
 10
312.0841
 20
485.3009
 40
0.5000
 50
0.0000
 51
90.0000
  0
ARC
  8
0_00
  6
CONTINUOUS
 62
4
 10
294.5841
 20
476.4008
 40
2.0000
 50
270.0000
 51
360.0000
  0
ARC
  8
0_00
  6
CONTINUOUS
 62
4
 10
297.5841
 20
481.6009
 40
1.0000
 50
90.0000
 51
180.0000
  0
ARC
  8
0_00
  6
CONTINUOUS
 62
4
 10
308.5841
 20
481.6009
 40
1.0000
 50
0.0000
 51
90.0000
  0
ARC
  8
0_00
  6
CONTINUOUS
 62
4
 10
290.5841
 20
483.9008
 40
0.3000
 50
90.0000
 51
180.0000
  0
ARC
  8
0_00
  6
CONTINUOUS
 62
4
 10
290.5841
 20
482.0008
 40
0.3000
 50
180.0000
 51
270.0000
  0
ARC
  8
0_00
  6
CONTINUOUS
 62
4
 10
329.0841
 20
462.5008
 40
1.0000
 50
270.0000
 51
374.3788
  0
ARC
  8
0_00
  6
CONTINUOUS
 62
4
 10
310.0841
 20
480.8009
 40
0.5000
 50
180.0000
 51
270.0000
  0
ARC
  8
0_00
  6
CONTINUOUS
 62
4
 10
322.0682
 20
479.8009
 40
3.5000
 50
14.3788
 51
90.0000
  0
ARC
  8
0_00
  6
CONTINUOUS
 62
4
 10
321.7535
 20
479.3008
 40
1.0000
 50
17.7004
 51
90.0000
  0
ARC
  8
0_00
  6
CONTINUOUS
 62
4
 10
204.4841
 20
485.3009
 40
0.5000
 50
0.0000
 51
90.0000
  0
ARC
  8
0_00
  6
CONTINUOUS
 62
4
 10
186.4841
 20
485.3009
 40
0.5000
 50
90.0000
 51
180.0000
  0
ARC
  8
0_00
  6
CONTINUOUS
 62
4
 10
203.9841
 20
476.4008
 40
2.0000
 50
180.0000
 51
270.0000
  0
ARC
  8
0_00
  6
CONTINUOUS
 62
4
 10
200.9841
 20
481.6009
 40
1.0000
 50
0.0000
 51
90.0000
  0
ARC
  8
0_00
  6
CONTINUOUS
 62
4
 10
189.9841
 20
481.6009
 40
1.0000
 50
90.0000
 51
180.0000
  0
ARC
  8
0_00
  6
CONTINUOUS
 62
4
 10
207.9841
 20
483.9008
 40
0.3000
 50
0.0000
 51
90.0000
  0
ARC
  8
0_00
  6
CONTINUOUS
 62
4
 10
207.9841
 20
482.0008
 40
0.3000
 50
270.0000
 51
360.0000
  0
ARC
  8
0_00
  6
CONTINUOUS
 62
4
 10
169.4841
 20
462.5008
 40
1.0000
 50
165.6212
 51
270.0000
  0
ARC
  8
0_00
  6
CONTINUOUS
 62
4
 10
188.4841
 20
480.8009
 40
0.5000
 50
270.0000
 51
360.0000
  0
ARC
  8
0_00
  6
CONTINUOUS
 62
4
 10
176.5000
 20
479.8009
 40
3.5000
 50
90.0000
 51
165.6212
  0
ARC
  8
0_00
  6
CONTINUOUS
 62
4
 10
176.8146
 20
479.3008
 40
1.0000
 50
90.0000
 51
162.2996
  0
ARC
  8
0_00
  6
CONTINUOUS
 62
4
 10
260.5093
 20
481.9008
 40
2.3000
 50
32.0054
 51
90.0000
  0
ARC
  8
0_00
  6
CONTINUOUS
 62
4
 10
238.0589
 20
481.9008
 40
2.3000
 50
90.0000
 51
147.9946
  0
ARC
  8
0_00
  6
CONTINUOUS
 62
4
 10
264.2841
 20
480.2008
 40
2.3000
 50
212.0054
 51
270.0000
  0
ARC
  8
0_00
  6
CONTINUOUS
 62
4
 10
234.2841
 20
480.2008
 40
2.3000
 50
270.0000
 51
327.9946
  0
ARC
  8
0_00
  6
CONTINUOUS
 62
2
 10
221.2841
 20
475.6008
 40
7.7000
 50
39.9831
 51
140.0169
  0
ARC
  8
0_00
  6
CONTINUOUS
 62
2
 10
277.2841
 20
475.6008
 40
7.7000
 50
39.9831
 51
140.0169
  0
ARC
  8
12_0C
  6
CONTINUOUS
 62
2
 10
229.0841
 20
483.2308
 40
1.3000
 50
180.0000
 51
253.3778
  0
ARC
  8
12_0C
  6
CONTINUOUS
 62
2
 10
231.2841
 20
490.6008
 40
9.0000
 50
253.3790
 51
286.6667
  0
ARC
  8
12_0C
  6
CONTINUOUS
 62
2
 10
233.4841
 20
483.2308
 40
1.3000
 50
286.6222
 51
360.0000
  0
ARC
  8
12_0C
  6
CONTINUOUS
 62
2
 10
265.0841
 20
483.2308
 40
1.3000
 50
180.0000
 51
253.3778
  0
ARC
  8
12_0C
  6
CONTINUOUS
 62
2
 10
267.2841
 20
490.6008
 40
9.0000
 50
253.3790
 51
286.6667
  0
ARC
  8
12_0C
  6
CONTINUOUS
 62
2
 10
269.4841
 20
483.2308
 40
1.3000
 50
286.6222
 51
360.0000
  0
TEXT
  8
15_0F
 62
7
 10
201.1241
 20
100.7827
 40
7.50
 41
1.00
 50
0.0000
  1
１）Ｈ、Ｌ、ＬＣは発注寸法とする。
  0
TEXT
  8
15_0F
 62
7
 10
201.1241
 20
85.7827
 40
7.50
 41
1.00
 50
0.0000
  1
　　（躯体寸法発注の場合、Ｌは標準割付寸法、ＬＣは標準寸法とする。）
  0
TEXT
  8
15_0F
 62
7
 10
704.3110
 20
74.7000
 40
7.50
 41
1.00
 50
0.0000
  1
納まり図
  0
TEXT
  8
15_0F
 62
7
 10
576.0610
 20
71.7000
 40
7.50
 41
1.00
 50
0.0000
  1
手すり付笠木
  0
TEXT
  8
15_0F
 62
7
 10
511.7110
 20
41.7000
 40
7.50
 41
1.00
 50
0.0000
  1
木造
  0
TEXT
  8
15_0F
 62
7
 10
511.7110
 20
71.7000
 40
7.50
 41
1.00
 50
0.0000
  1
低層
  0
TEXT
  8
15_0F
 62
7
 10
552.1879
 20
42.8739
 40
6.00
 41
1.00
 50
0.0000
  1
ＫＡＭ、ＤＡＭ、ＭＡＭ型
  0
TEXT
  8
15_0F
 62
7
 10
824.1611
 20
70.2000
 40
7.50
 41
1.00
 50
0.0000
  1
１
  0
TEXT
  8
15_0F
 62
7
 10
852.6611
 20
70.2000
 40
7.50
 41
1.00
 50
0.0000
  1
３
  0
TEXT
  8
0_00
 62
7
 10
1159.6467
 20
182.5918
 40
7.50
 41
1.00
 50
0.0000
  1
笠木カバー芯
  0
TEXT
  8
0_00
 62
7
 10
253.2746
 20
664.6309
 40
7.50
 41
1.00
 50
0.0000
  1
デザイン柱
  0
TEXT
  8
0_00
 62
7
 10
139.0310
 20
627.9476
 40
7.50
 41
1.00
 50
0.0000
  1
丸さら小ねじ
  0
TEXT
  8
0_00
 62
7
 10
142.4773
 20
613.9086
 40
7.50
 41
1.00
 50
0.0000
  1
Ｍ６×１６
  0
TEXT
  8
0_00
 62
7
 10
129.5672
 20
602.2579
 40
7.50
 41
1.00
 50
0.0000
  1
下穴コーキング処理
  0
TEXT
  8
15_0F
 62
7
 10
701.8089
 20
792.4795
 40
7.50
 41
1.00
 50
0.0000
  1
２２０≦ＬＣ［２５０］≦４５５
  0
TEXT
  8
15_0F
 62
7
 10
850.0290
 20
792.4795
 40
7.50
 41
1.00
 50
0.0000
  1
Ｌ
  0
TEXT
  8
15_0F
 62
7
 10
972.6291
 20
792.4795
 40
7.50
 41
1.00
 50
0.0000
  1
１７５≦Ｌ≦１３６５
  0
TEXT
  8
15_0F
 62
7
 10
1123.2914
 20
792.4795
 40
7.50
 41
1.00
 50
0.0000
  1
Ｌ
  0
TEXT
  8
0_00
 62
2
 10
84.2841
 20
800.0786
 40
12.00
 41
1.00
 50
0.0000
  1
屋外側
  0
TEXT
  8
0_00
 62
2
 10
265.4841
 20
800.0786
 40
12.00
 41
1.00
 50
0.0000
  1
建物側
  0
TEXT
  8
15_0F
 62
7
 10
158.1148
 20
816.1847
 40
7.50
 41
1.00
 50
0.0000
  1
［ＫＡＭ型］
  0
TEXT
  8
15_0F
 62
7
 10
368.1147
 20
816.1847
 40
7.50
 41
1.00
 50
0.0000
  1
［DＡＭ型］
  0
TEXT
  8
0_00
 62
7
 10
228.0973
 20
755.5255
 40
7.50
 41
1.00
 50
0.0000
  1
Ｋ型笠木カバー
  0
TEXT
  8
0_00
 62
7
 10
433.0046
 20
752.2461
 40
7.50
 41
1.00
 50
0.0000
  1
Ｄ型笠木カバー
  0
TEXT
  8
0_00
 62
7
 10
441.4709
 20
325.0739
 40
7.50
 41
1.00
 50
0.0000
  1
デザイン柱
  0
TEXT
  8
15_0F
 62
7
 10
663.8385
 20
53.3556
 40
7.50
 41
1.00
 50
0.0000
  1
トップレール手すり［直線部］納まり図
  0
TEXT
  8
15_0F
 62
7
 10
660.2642
 20
39.3011
 40
7.50
 41
1.00
 50
0.0000
  1
（外向デザイン柱、Ｈ＝２５０、３００）
  0
TEXT
  8
0_00
 62
7
 10
354.0811
 20
499.8747
 40
7.50
 41
1.00
 50
0.0000
  1
ブラケット
  0
TEXT
  8
15_0F
 62
7
 10
921.3946
 20
737.2417
 40
7.50
 41
1.00
 50
0.0000
  1
Ａ
  0
TEXT
  8
15_0F
 62
7
 10
1121.0244
 20
649.0196
 40
7.50
 41
1.00
 50
0.0000
  1
Ｂ
  0
TEXT
  8
15_0F
 62
7
 10
921.3946
 20
662.7457
 40
7.50
 41
1.00
 50
0.0000
  1
Ａ
  0
TEXT
  8
15_0F
 62
7
 10
891.6925
 20
649.0196
 40
7.50
 41
1.00
 50
0.0000
  1
Ｂ
  0
TEXT
  8
15_0F
 62
7
 10
564.2355
 20
816.1847
 40
7.50
 41
1.00
 50
0.0000
  1
［ＭＡＭ型］
  0
TEXT
  8
0_00
 62
7
 10
629.1253
 20
752.5021
 40
7.50
 41
1.00
 50
0.0000
  1
Ｍ型笠木カバー
  0
TEXT
  8
15_0F
 62
7
 10
201.0905
 20
70.2001
 40
7.50
 41
1.00
 50
0.0000
  1
２）［　］内寸法は標準寸法とする。
  0
TEXT
  8
15_0F
 62
7
 10
70.5796
 20
365.1448
 40
7.50
 41
1.00
 50
0.0000
  1
下穴コーキング処理
  0
TEXT
  8
15_0F
 62
7
 10
80.8568
 20
405.1825
 40
7.50
 41
1.00
 50
0.0000
  1
タッピンねじ・トラス
  0
TEXT
  8
15_0F
 62
7
 10
82.3502
 20
392.5563
 40
7.50
 41
1.00
 50
0.0000
  1
φ５×５０（１種）
  0
TEXT
  8
15_0F
 62
7
 10
67.0862
 20
377.7710
 40
7.50
 41
1.00
 50
0.0000
  1
下穴（φ３）現場加工
  0
TEXT
  8
13_0D
 62
7
 10
173.6841
 20
301.4796
 40
7.50
 41
1.00
 50
0.0000
  1
Ａ（笠木幅）＝１５０、１６５、１８０、　　
  0
TEXT
  8
13_0D
 62
7
 10
184.4841
 20
289.4796
 40
6.75
 41
0.75
 50
0.0000
  1
           １９５、２１０
  0
TEXT
  8
13_0D
 62
7
 10
138.8841
 20
341.4795
 40
6.75
 41
0.75
 50
0.0000
  1
10
  0
TEXT
  8
13_0D
 62
7
 10
174.4341
 20
329.4796
 40
6.75
 41
0.75
 50
0.0000
  1
n
  0
TEXT
  8
13_0D
 62
7
 10
195.2841
 20
341.4795
 40
7.50
 41
1.00
 50
0.0000
  1
躯体寸法（推奨寸法：Ａ－３０）
  0
TEXT
  8
13_0D
 62
7
 10
316.9341
 20
329.4796
 40
6.75
 41
0.75
 50
0.0000
  1
n
  0
TEXT
  8
13_0D
 62
7
 10
345.2841
 20
341.4795
 40
6.75
 41
0.75
 50
0.0000
  1
10
  0
TEXT
  8
13_0D
 62
7
 10
195.2841
 20
329.4796
 40
7.50
 41
1.00
 50
0.0000
  1
　　　　（最大寸法：Ａ－２０）
  0
TEXT
  8
0_00
 62
7
 10
292.8804
 20
563.0472
 40
7.50
 41
1.00
 50
0.0000
  1
φ４×３５Ｇ－５
  0
TEXT
  8
15_0F
 62
7
 10
762.9303
 20
436.5023
 40
6.75
 41
0.75
 50
0.0000
  1
60
  0
TEXT
  8
15_0F
 62
7
 10
638.6263
 20
281.0308
 40
6.75
 41
0.75
 50
90.0000
  1
56
  0
TEXT
  8
15_0F
 62
7
 10
1154.6386
 20
282.3646
 40
6.75
 41
0.75
 50
90.0000
  1
47
  0
TEXT
  8
15_0F
 62
7
 10
858.0703
 20
456.5023
 40
7.50
 41
1.00
 50
0.0000
  1
１７５≦Ｌ（柱スパン寸法）≦１３６５
  0
TEXT
  8
15_0F
 62
7
 10
1085.9603
 20
509.7059
 40
7.50
 41
1.00
 50
0.0000
  1
外観姿図（１：２０）
  0
TEXT
  8
0_00
 62
7
 10
172.0841
 20
772.0779
 40
6.75
 41
0.75
 50
0.0000
  1
60
  0
TEXT
  8
0_00
 62
7
 10
70.2905
 20
40.2001
 40
7.50
 41
1.00
 50
0.0000
  1
適用製品
  0
TEXT
  8
0_00
 62
7
 10
130.2905
 20
40.2001
 40
7.50
 41
1.00
 50
0.0000
  1
適用日付
  0
TEXT
  8
0_00
 62
7
 10
178.5905
 20
100.2001
 40
7.50
 41
1.00
 50
0.0000
  1
記事
  0
TEXT
  8
0_00
 62
7
 10
472.5611
 20
85.2001
 40
7.50
 41
1.00
 50
0.0000
  1
階層仕様
  0
TEXT
  8
0_00
 62
7
 10
472.5611
 20
55.2000
 40
7.50
 41
1.00
 50
0.0000
  1
適用躯体
  0
TEXT
  8
0_00
 62
7
 10
630.0610
 20
85.2001
 40
7.50
 41
1.00
 50
0.0000
  1
名　称
  0
TEXT
  8
0_00
 62
7
 10
630.0610
 20
55.2000
 40
7.50
 41
1.00
 50
0.0000
  1
図　名
  0
TEXT
  8
0_00
 62
7
 10
814.9368
 20
100.2458
 40
7.50
 41
1.00
 50
0.0000
  1
Ｎｏ．
  0
TEXT
  8
0_00
 62
7
 10
1123.5610
 20
100.2001
 40
7.50
 41
1.00
 50
0.0000
  1
適　　　　　　　　用
  0
TEXT
  8
0_00
 62
7
 10
1078.4111
 20
100.2001
 40
7.50
 41
1.00
 50
0.0000
  1
個数
  0
TEXT
  8
0_00
 62
7
 10
1023.2110
 20
100.2001
 40
7.50
 41
1.00
 50
0.0000
  1
材　　質
  0
TEXT
  8
0_00
 62
7
 10
926.1610
 20
100.2001
 40
7.50
 41
1.00
 50
0.0000
  1
部　　　品　　　名
  0
TEXT
  8
0_00
 62
7
 10
895.9360
 20
100.2001
 40
7.50
 41
1.00
 50
0.0000
  1
品番
  0
TEXT
  8
0_00
 62
7
 10
850.8611
 20
100.2001
 40
7.50
 41
1.00
 50
0.0000
  1
図　　番
  0
TEXT
  8
0_00
 62
7
 10
816.6610
 20
85.2001
 40
7.50
 41
1.00
 50
0.0000
  1
尺度
  0
TEXT
  8
0_00
 62
7
 10
816.6610
 20
55.2000
 40
7.50
 41
1.00
 50
0.0000
  1
日付
  0
TEXT
  8
0_00
 62
7
 10
928.3942
 20
85.2001
 40
7.50
 41
1.00
 50
0.0000
  1
承認
  0
TEXT
  8
0_00
 62
7
 10
970.5611
 20
85.2001
 40
7.50
 41
1.00
 50
0.0000
  1
検図
  0
TEXT
  8
0_00
 62
7
 10
1006.8610
 20
85.2001
 40
7.50
 41
1.00
 50
0.0000
  1
設計
  0
TEXT
  8
0_00
 62
7
 10
1044.2110
 20
85.2001
 40
7.50
 41
1.00
 50
0.0000
  1
製図
  0
TEXT
  8
0_00
 62
7
 10
1074.5110
 20
55.2000
 40
7.50
 41
1.00
 50
0.0000
  1
図番
  0
TEXT
  8
0_00
 62
2
 10
1103.9219
 20
74.2350
 40
12.00
 41
1.00
 50
0.0000
  1
文化シヤッター株式会社
  0
TEXT
  8
0_00
 62
7
 10
200.7905
 20
862.9501
 40
7.50
 41
1.00
 50
180.0000
  1
図番
  0
TEXT
  8
0_00
 62
7
 10
799.0510
 20
854.0169
 40
6.00
 41
1.00
 50
0.0000
  1
ＮＯ
  0
TEXT
  8
0_00
 62
7
 10
825.2111
 20
853.9501
 40
7.50
 41
1.00
 50
0.0000
  1
個　数
  0
TEXT
  8
0_00
 62
7
 10
870.3611
 20
853.9501
 40
7.50
 41
1.00
 50
0.0000
  1
日　　付
  0
TEXT
  8
0_00
 62
7
 10
984.2111
 20
853.9501
 40
7.50
 41
1.00
 50
0.0000
  1
訂　　　正　　　記　　　事
  0
TEXT
  8
0_00
 62
7
 10
838.4111
 20
70.2000
 40
6.75
 41
0.75
 50
0.0000
  1
:
  0
TEXT
  8
0_00
 62
7
 10
1137.8712
 20
26.7000
 40
6.00
 41
1.00
 50
0.0000
  1
ＪＩＳ　Ａ－３
  0
TEXT
  8
0_00
 62
7
 10
1179.4986
 20
26.6983
 40
6.00
 41
1.00
 50
0.0000
  1
（２９７×４２０）
  0
TEXT
  8
0_00
 62
7
 10
1153.1111
 20
853.9501
 40
7.50
 41
1.00
 50
0.0000
  1
担　当
  0
TEXT
  8
0_00
 62
7
 10
1189.1111
 20
853.9501
 40
7.50
 41
1.00
 50
0.0000
  1
承　認
  0
TEXT
  8
0_00
 62
7
 10
551.3111
 20
85.2001
 40
7.50
 41
1.00
 50
0.0000
  1
機種名
  0
TEXT
  8
0_00
 62
7
 10
551.3111
 20
55.2000
 40
7.50
 41
1.00
 50
0.0000
  1
型　式
  0
TEXT
  8
0_00
 62
7
 10
1184.6779
 20
246.6146
 40
6.75
 41
0.75
 50
90.0000
  1
70
  0
TEXT
  8
0_00
 62
7
 10
207.0841
 20
792.0779
 40
6.75
 41
0.75
 50
0.0000
  1
70
  0
TEXT
  8
0_00
 62
7
 10
462.9249
 20
713.6461
 40
6.75
 41
0.75
 50
90.0000
  1
37
  0
TEXT
  8
0_00
 62
7
 10
326.8586
 20
630.0235
 40
7.50
 41
1.00
 50
90.0000
  1
Ｈ＝２５０、３００
  0
TEXT
  8
0_00
 62
7
 10
382.8984
 20
781.8218
 40
6.75
 41
0.75
 50
0.0000
  1
80
  0
TEXT
  8
0_00
 62
7
 10
1036.2103
 20
436.5023
 40
6.75
 41
0.75
 50
0.0000
  1
32
  0
TEXT
  8
0_00
 62
7
 10
1194.5440
 20
703.8544
 40
6.75
 41
0.75
 50
90.0000
  1
H
  0
TEXT
  8
0_00
 62
7
 10
91.9244
 20
708.7008
 40
6.75
 41
0.75
 50
90.0000
  1
47
  0
TEXT
  8
15_0F
 62
7
 10
614.5491
 20
145.8447
 40
7.50
 41
1.00
 50
0.0000
  1
Ｂ－Ｂ矢視図
  0
TEXT
  8
15_0F
 62
7
 10
72.3766
 20
303.7197
 40
7.50
 41
1.00
 50
0.0000
  1
Ａ－Ａ矢視図
  0
TEXT
  8
0_00
 62
7
 10
522.9793
 20
630.0235
 40
7.50
 41
1.00
 50
90.0000
  1
Ｈ＝２５０、３００
  0
TEXT
  8
15_0F
 62
7
 10
389.5320
 20
146.0458
 40
7.50
 41
1.00
 50
0.0000
  1
デザイン柱内観図
  0
TEXT
  8
0_00
 62
7
 10
704.7290
 20
772.4795
 40
6.75
 41
0.75
 50
0.0000
  1
70
  0
TEXT
  8
13_0D
 62
7
 10
73.4244
 20
446.5008
 40
6.75
 41
0.75
 50
90.0000
  1
15
  0
TEXT
  8
13_0D
 62
7
 10
73.4244
 20
528.0009
 40
7.50
 41
1.00
 50
90.0000
  1
Ｈ（トップレール手すり高さ寸法）＝２５０、３００
  0
TEXT
  8
13_0D
 62
7
 10
93.4244
 20
453.0974
 40
6.75
 41
0.75
 50
90.0000
  1
55
  0
TEXT
  8
0_00
 62
7
 10
242.0841
 20
362.9796
 40
6.75
 41
0.75
 50
0.0000
  1
56
  0
TEXT
  8
0_00
 62
7
 10
289.0645
 20
575.2212
 40
7.50
 41
1.00
 50
0.0000
  1
タッピンねじ・さら
  0
TEXT
  8
13_0D
 62
7
 10
284.2841
 20
525.9441
 40
6.75
 41
0.75
 50
0.0000
  1
43
  0
TEXT
  8
13_0D
 62
7
 10
544.2783
 20
170.9795
 40
6.75
 41
0.75
 50
0.0000
  1
28
  0
TEXT
  8
0_00
 62
7
 10
104.5711
 20
550.6522
 40
7.50
 41
1.00
 50
0.0000
  1
デザイン柱手すり付笠木セット
  0
TEXT
  8
13_0D
 62
7
 10
761.9341
 20
415.0023
 40
6.75
 41
0.75
 50
0.0000
  1
35
  0
TEXT
  8
15_0F
 62
7
 10
665.5210
 20
393.9517
 40
7.50
 41
1.00
 50
0.0000
  1
ブラケット
  0
TEXT
  8
15_0F
 62
7
 10
644.1105
 20
334.2672
 40
7.50
 41
1.00
 50
0.0000
  1
トップレールベース
  0
TEXT
  8
15_0F
 62
7
 10
126.7509
 20
504.7929
 40
7.50
 41
1.00
 50
0.0000
  1
トップレールベース
  0
TEXT
  8
13_0D
 62
7
 10
574.6048
 20
780.5779
 40
6.75
 41
0.75
 50
0.0000
  1
φ58
  0
POINT
  8
0_00
 62
4
 10
225.7841
 20
589.4008
  0
POINT
  8
0_00
 62
4
 10
225.7841
 20
589.4008
  0
POINT
  8
0_00
 62
4
 10
225.7841
 20
589.4008
  0
POINT
  8
0_00
 62
5
 10
0.0000
 20
0.0000
  0
POINT
  8
0_00
 62
5
 10
733.6682
 20
24.5135
  0
POINT
  8
13_0D
 62
6
 10
176.7841
 20
339.9796
  0
POINT
  8
13_0D
 62
6
 10
321.7841
 20
339.9796
  0
POINT
  8
13_0D
 62
6
 10
321.7841
 20
339.9796
  0
POINT
  8
0_00
 62
4
 10
179.2841
 20
693.9008
  0
POINT
  8
0_00
 62
2
 10
24.0905
 20
14.9991
  0
POINT
  8
0_00
 62
2
 10
24.0905
 20
14.9991
  0
POINT
  8
0_00
 62
2
 10
84.6905
 20
59.7001
  0
POINT
  8
0_00
 62
2
 10
84.6905
 20
74.7001
  0
POINT
  8
0_00
 62
2
 10
84.6905
 20
89.7001
  0
POINT
  8
0_00
 62
2
 10
84.6905
 20
104.7001
  0
POINT
  8
0_00
 62
2
 10
518.9110
 20
76.2000
  0
POINT
  8
0_00
 62
2
 10
518.9110
 20
46.2000
  0
POINT
  8
0_00
 62
2
 10
718.7110
 20
79.2000
  0
POINT
  8
0_00
 62
2
 10
718.7110
 20
49.2000
  0
POINT
  8
0_00
 62
2
 10
1097.7610
 20
52.2000
  0
POINT
  8
0_00
 62
2
 10
1014.0610
 20
59.7001
  0
POINT
  8
0_00
 62
2
 10
144.6905
 20
59.7001
  0
POINT
  8
0_00
 62
2
 10
144.6905
 20
74.7001
  0
POINT
  8
0_00
 62
2
 10
144.6905
 20
89.7001
  0
POINT
  8
0_00
 62
2
 10
144.6905
 20
104.7001
  0
POINT
  8
0_00
 62
2
 10
856.2610
 20
74.7000
  0
POINT
  8
0_00
 62
2
 10
827.7610
 20
74.7000
  0
POINT
  8
0_00
 62
2
 10
204.6905
 20
104.7001
  0
POINT
  8
0_00
 62
2
 10
204.6905
 20
89.7001
  0
POINT
  8
0_00
 62
2
 10
204.6905
 20
74.7001
  0
POINT
  8
0_00
 62
2
 10
204.6905
 20
59.7001
  0
POINT
  8
0_00
 62
2
 10
204.6905
 20
44.7001
  0
POINT
  8
0_00
 62
2
 10
1051.4110
 20
59.7001
  0
POINT
  8
0_00
 62
2
 10
84.6905
 20
44.7001
  0
POINT
  8
0_00
 62
2
 10
144.6905
 20
44.7001
  0
POINT
  8
0_00
 62
2
 10
174.6905
 20
858.4501
  0
POINT
  8
0_00
 62
2
 10
862.6360
 20
49.2000
  0
POINT
  8
0_00
 62
2
 10
597.6610
 20
76.2000
  0
POINT
  8
0_00
 62
2
 10
597.6610
 20
46.2000
  0
POINT
  8
0_00
 62
5
 10
249.2841
 20
474.4008
  0
POINT
  8
0_00
 62
5
 10
249.2841
 20
474.4008
  0
POINT
  8
0_00
 62
2
 10
221.2841
 20
480.2008
  0
POINT
  8
0_00
 62
2
 10
221.2841
 20
480.2008
  0
POINT
  8
0_00
 62
2
 10
221.2841
 20
480.2008
  0
POINT
  8
0_00
 62
2
 10
277.2841
 20
480.2008
  0
POINT
  8
0_00
 62
2
 10
277.2841
 20
480.2008
  0
POINT
  8
0_00
 62
2
 10
277.2841
 20
480.2008
  0
POINT
  8
0_00
 62
2
 10
231.2843
 20
579.4008
  0
POINT
  8
0_00
 62
2
 10
244.7843
 20
579.4008
  0
POINT
  8
0_00
 62
2
 10
253.7843
 20
579.4008
  0
POINT
  8
0_00
 62
2
 10
267.2843
 20
579.4008
  0
POINT
  8
0_00
 62
2
 10
231.2841
 20
484.2009
  0
POINT
  8
0_00
 62
2
 10
267.2841
 20
484.2009
  0
POINT
  8
0_00
 62
2
 10
527.2783
 20
253.7005
  0
POINT
  8
0_00
 62
2
 10
506.2782
 20
253.7005
  0
ENDSEC
  0
EOF
