999
  
  0
SECTION
  2
HEADER
  9
$EXTMIN
 10
0
 20
0
  9
$EXTMAX
 10
1260
 20
888
  9
$LTSCALE
 40
3.00
  9
$PDMODE
 70
33
  9
$PDSIZE
 40
1.80
  0
ENDSEC
  0
SECTION
  2
TABLES
  0
TABLE
  2
LTYPE
 70
9
  0
LTYPE
  2
CONTINUOUS
 70
64
  3
実線
 72
65
 73
0
 40
0.00
  0
LTYPE
  2
DASHED
 70
64
  3
__  __  __  __  __  __  __ 
 72
65
 73
2
 40
1.00
 49
0.50
 49
-0.50
  0
LTYPE
  2
HIDDEN1
 70
64
  3
____    ____    ____    ___
 72
65
 73
2
 40
2.20
 49
1.20
 49
-1.00
  0
LTYPE
  2
HIDDEN2
 70
64
  3
______  ______  ______  ___
 72
65
 73
2
 40
4.50
 49
3.50
 49
-1.00
  0
LTYPE
  2
CENTER1
 70
64
  3
_______ _ _______ _ _______
 72
65
 73
4
 40
20.00
 49
17.00
 49
-1.00
 49
1.00
 49
-1.00
  0
LTYPE
  2
CENTER2
 70
64
  3
___________  __  __________
 72
65
 73
4
 40
40.00
 49
34.00
 49
-2.00
 49
2.00
 49
-2.00
  0
LTYPE
  2
PHANTOM1
 70
64
  3
______ _ _ ______ _ _ _____
 72
65
 73
6
 40
20.00
 49
15.00
 49
-1.00
 49
1.00
 49
-1.00
 49
1.00
 49
-1.00
  0
LTYPE
  2
PHANTOM2
 70
64
  3
__________  _  _  _________
 72
65
 73
6
 40
40.00
 49
30.00
 49
-2.00
 49
2.00
 49
-2.00
 49
2.00
 49
-2.00
  0
LTYPE
  2
DOT
 70
64
  3
 .  .  .  .  .  .  .  .  . 
 72
65
 73
2
 40
1.00
 49
0.00
 49
-1.00
  0
ENDTAB
  0
TABLE
  2
STYLE
 70
1
  0
STYLE
  2
STANDARD
 70
64
 40
0.0
 41
1.0
 42
0.0
 50
0.0
 71
0
  3
ROMANS
  4
BIGFONT
  0
ENDTAB
  0
TABLE
  2
LAYER
 70
8
  0
LAYER
  2
0_00
 70
64
 62
7
  6
CONTINUOUS
  0
LAYER
  2
2_02
 70
64
 62
7
  6
CONTINUOUS
  0
LAYER
  2
3_03
 70
64
 62
7
  6
CONTINUOUS
  0
LAYER
  2
12_0C
 70
64
 62
7
  6
CONTINUOUS
  0
LAYER
  2
13_0D
 70
64
 62
7
  6
CONTINUOUS
  0
LAYER
  2
14_0E
 70
64
 62
7
  6
CONTINUOUS
  0
LAYER
  2
15_0F
 70
64
 62
7
  6
CONTINUOUS
  0
LAYER
  2
16_10
 70
64
 62
7
  6
CONTINUOUS
  0
ENDTAB
  0
ENDSEC
  0
SECTION
  2
ENTITIES
  0
LINE
  8
0_00
  6
CENTER1
 62
6
 10
295.2000
 20
733.4567
 11
295.2000
 21
319.6791
  0
LINE
  8
0_00
  6
CONTINUOUS
 62
4
 10
273.7000
 20
426.8066
 11
273.7000
 21
680.3066
  0
LINE
  8
0_00
  6
CONTINUOUS
 62
4
 10
316.7000
 20
426.8066
 11
316.7000
 21
680.3066
  0
LINE
  8
0_00
  6
CENTER1
 62
6
 10
586.5419
 20
744.9200
 11
586.5419
 21
689.0071
  0
LINE
  8
0_00
  6
CONTINUOUS
 62
2
 10
796.1018
 20
755.9032
 11
796.1018
 21
676.4073
  0
LINE
  8
0_00
  6
CONTINUOUS
 62
2
 10
796.1018
 20
755.9032
 11
780.3124
 21
755.9032
  0
LINE
  8
0_00
  6
CONTINUOUS
 62
2
 10
780.3124
 20
755.9032
 11
787.6485
 21
754.3439
  0
LINE
  8
0_00
  6
CONTINUOUS
 62
2
 10
780.3124
 20
755.9032
 11
787.6485
 21
757.4626
  0
LINE
  8
0_00
  6
CONTINUOUS
 62
2
 10
796.1018
 20
676.4073
 11
780.3124
 21
676.4073
  0
LINE
  8
0_00
  6
CONTINUOUS
 62
2
 10
780.3124
 20
676.4073
 11
787.6485
 21
674.8479
  0
LINE
  8
0_00
  6
CONTINUOUS
 62
2
 10
780.3124
 20
676.4073
 11
787.6485
 21
677.9666
  0
LINE
  8
0_00
  6
CONTINUOUS
 62
2
 10
743.5124
 20
693.6364
 11
856.4156
 21
693.6364
  0
LINE
  8
0_00
  6
CONTINUOUS
 62
2
 10
856.4156
 20
693.6364
 11
856.4156
 21
714.2478
  0
LINE
  8
0_00
  6
CONTINUOUS
 62
2
 10
856.4156
 20
714.2478
 11
972.8442
 21
714.2478
  0
LINE
  8
0_00
  6
CONTINUOUS
 62
2
 10
972.8442
 20
714.2478
 11
972.8442
 21
669.8553
  0
LINE
  8
0_00
  6
CONTINUOUS
 62
2
 10
972.8442
 20
669.8553
 11
974.4036
 21
677.1914
  0
LINE
  8
0_00
  6
CONTINUOUS
 62
2
 10
972.8442
 20
669.8553
 11
971.2850
 21
677.1914
  0
LINE
  8
0_00
  6
CONTINUOUS
 62
2
 10
743.5124
 20
693.6364
 11
743.5124
 21
669.8553
  0
LINE
  8
0_00
  6
CONTINUOUS
 62
2
 10
743.5124
 20
669.8553
 11
745.0718
 21
677.1914
  0
LINE
  8
0_00
  6
CONTINUOUS
 62
2
 10
743.5124
 20
669.8553
 11
741.9531
 21
677.1914
  0
LINE
  8
0_00
  6
CENTER1
 62
6
 10
624.0419
 20
744.9200
 11
624.0419
 21
689.0071
  0
LINE
  8
0_00
  6
CENTER1
 62
6
 10
1089.0419
 20
744.9200
 11
1089.0419
 21
689.0071
  0
LINE
  8
0_00
  6
CENTER1
 62
6
 10
934.0421
 20
744.9200
 11
934.0421
 21
689.0071
  0
LINE
  8
0_00
  6
CENTER1
 62
6
 10
779.0419
 20
744.9200
 11
779.0419
 21
689.0071
  0
LINE
  8
0_00
  6
CENTER1
 62
6
 10
554.2717
 20
296.0623
 11
1141.3225
 21
296.0623
  0
LINE
  8
0_00
  6
CENTER1
 62
6
 10
668.5040
 20
393.4236
 11
668.5040
 21
196.5612
  0
LINE
  8
0_00
  6
CONTINUOUS
 62
2
 10
873.1285
 20
396.5777
 11
847.3913
 21
300.5252
  0
LINE
  8
0_00
  6
CONTINUOUS
 62
2
 10
868.4698
 20
396.5777
 11
841.8800
 21
297.3432
  0
LINE
  8
0_00
  6
CONTINUOUS
 62
2
 10
865.7682
 20
290.9424
 11
837.7908
 21
186.5296
  0
LINE
  8
0_00
  6
CONTINUOUS
 62
2
 10
842.4496
 20
186.5296
 11
871.2795
 21
294.1244
  0
LINE
  8
0_00
  6
CONTINUOUS
 62
2
 10
847.3913
 20
300.5252
 11
871.2795
 21
294.1244
  0
LINE
  8
0_00
  6
CONTINUOUS
 62
2
 10
865.7682
 20
290.9424
 11
841.8800
 21
297.3432
  0
LINE
  8
0_00
  6
CENTER1
 62
6
 10
1053.9841
 20
331.7816
 11
1053.9841
 21
259.7602
  0
LINE
  8
0_00
  6
CONTINUOUS
 62
4
 10
295.2000
 20
682.6065
 11
294.9000
 21
682.3065
  0
LINE
  8
0_00
  6
CONTINUOUS
 62
4
 10
307.5000
 20
682.3065
 11
295.5000
 21
682.3065
  0
LINE
  8
0_00
  6
CONTINUOUS
 62
4
 10
295.2000
 20
682.6065
 11
295.5000
 21
682.3065
  0
LINE
  8
14_0E
  6
CONTINUOUS
 62
4
 10
308.2762
 20
683.9162
 11
299.2000
 21
684.3066
  0
LINE
  8
0_00
  6
CONTINUOUS
 62
4
 10
295.2000
 20
682.6065
 11
295.5000
 21
682.3065
  0
LINE
  8
0_00
  6
CONTINUOUS
 62
4
 10
282.9000
 20
682.3065
 11
294.9000
 21
682.3065
  0
LINE
  8
0_00
  6
CONTINUOUS
 62
4
 10
295.2000
 20
682.6065
 11
294.9000
 21
682.3065
  0
LINE
  8
14_0E
  6
CONTINUOUS
 62
4
 10
282.1238
 20
683.9162
 11
291.2000
 21
684.3066
  0
LINE
  8
0_00
  6
CONTINUOUS
 62
4
 10
299.2000
 20
684.3066
 11
291.2000
 21
684.3066
  0
LINE
  8
0_00
  6
CONTINUOUS
 62
4
 10
307.5000
 20
682.3065
 11
307.9000
 21
680.8065
  0
LINE
  8
0_00
  6
CONTINUOUS
 62
4
 10
310.7000
 20
682.5066
 11
315.7000
 21
682.5066
  0
LINE
  8
0_00
  6
CONTINUOUS
 62
4
 10
307.9000
 20
680.8065
 11
322.6000
 21
680.8065
  0
LINE
  8
0_00
  6
CONTINUOUS
 62
4
 10
313.2000
 20
681.1065
 11
312.9000
 21
680.8065
  0
LINE
  8
0_00
  6
CONTINUOUS
 62
4
 10
313.2000
 20
681.1065
 11
313.5000
 21
680.8065
  0
LINE
  8
0_00
  6
CONTINUOUS
 62
4
 10
320.5277
 20
682.3065
 11
316.0000
 21
682.3065
  0
LINE
  8
0_00
  6
CONTINUOUS
 62
4
 10
315.7000
 20
682.5066
 11
316.0000
 21
682.3065
  0
LINE
  8
0_00
  6
CONTINUOUS
 62
4
 10
310.4000
 20
682.3065
 11
309.2123
 21
682.3065
  0
LINE
  8
0_00
  6
CONTINUOUS
 62
4
 10
310.7000
 20
682.5066
 11
310.4000
 21
682.3065
  0
LINE
  8
0_00
  6
CONTINUOUS
 62
4
 10
308.5543
 20
683.6892
 11
308.8242
 21
682.6096
  0
LINE
  8
0_00
  6
CONTINUOUS
 62
4
 10
322.6000
 20
680.8065
 11
323.6000
 21
681.8065
  0
LINE
  8
0_00
  6
CONTINUOUS
 62
4
 10
323.6000
 20
681.8065
 11
323.6000
 21
683.1066
  0
LINE
  8
0_00
  6
CONTINUOUS
 62
4
 10
323.6000
 20
682.3065
 11
323.6000
 21
681.8065
  0
LINE
  8
0_00
  6
CONTINUOUS
 62
4
 10
322.6195
 20
685.1846
 11
323.4761
 21
685.2594
  0
LINE
  8
0_00
  6
CONTINUOUS
 62
4
 10
321.5129
 20
686.1919
 11
322.3509
 21
686.2653
  0
LINE
  8
0_00
  6
CONTINUOUS
 62
4
 10
320.6000
 20
685.1957
 11
320.6000
 21
684.7628
  0
LINE
  8
0_00
  6
CONTINUOUS
 62
4
 10
323.7439
 20
685.6187
 11
322.6584
 21
690.9066
  0
LINE
  8
0_00
  6
CONTINUOUS
 62
4
 10
321.9122
 20
690.0658
 11
322.6187
 21
686.6244
  0
LINE
  8
0_00
  6
CONTINUOUS
 62
4
 10
322.5979
 20
690.9066
 11
322.6584
 21
690.9066
  0
LINE
  8
0_00
  6
CONTINUOUS
 62
4
 10
282.9000
 20
682.3065
 11
282.5000
 21
680.8065
  0
LINE
  8
0_00
  6
CONTINUOUS
 62
4
 10
279.7000
 20
682.5066
 11
274.7000
 21
682.5066
  0
LINE
  8
0_00
  6
CONTINUOUS
 62
4
 10
282.5000
 20
680.8065
 11
267.8000
 21
680.8065
  0
LINE
  8
0_00
  6
CONTINUOUS
 62
4
 10
277.2000
 20
681.1065
 11
277.5000
 21
680.8065
  0
LINE
  8
0_00
  6
CONTINUOUS
 62
4
 10
277.2000
 20
681.1065
 11
276.9000
 21
680.8065
  0
LINE
  8
0_00
  6
CONTINUOUS
 62
4
 10
269.8722
 20
682.3065
 11
274.4000
 21
682.3065
  0
LINE
  8
0_00
  6
CONTINUOUS
 62
4
 10
274.7000
 20
682.5066
 11
274.4000
 21
682.3065
  0
LINE
  8
0_00
  6
CONTINUOUS
 62
4
 10
280.0000
 20
682.3065
 11
281.1877
 21
682.3065
  0
LINE
  8
0_00
  6
CONTINUOUS
 62
4
 10
279.7000
 20
682.5066
 11
280.0000
 21
682.3065
  0
LINE
  8
0_00
  6
CONTINUOUS
 62
4
 10
281.8457
 20
683.6892
 11
281.5757
 21
682.6096
  0
LINE
  8
0_00
  6
CONTINUOUS
 62
4
 10
267.8000
 20
680.8065
 11
266.8000
 21
681.8065
  0
LINE
  8
0_00
  6
CONTINUOUS
 62
4
 10
266.8000
 20
681.8065
 11
266.8000
 21
683.1066
  0
LINE
  8
0_00
  6
CONTINUOUS
 62
4
 10
266.8000
 20
682.3065
 11
266.8000
 21
681.8065
  0
LINE
  8
0_00
  6
CONTINUOUS
 62
4
 10
267.7805
 20
685.1846
 11
266.9239
 21
685.2594
  0
LINE
  8
0_00
  6
CONTINUOUS
 62
4
 10
268.8872
 20
686.1919
 11
268.0491
 21
686.2653
  0
LINE
  8
0_00
  6
CONTINUOUS
 62
4
 10
269.8000
 20
685.1957
 11
269.8000
 21
684.7628
  0
LINE
  8
0_00
  6
CONTINUOUS
 62
4
 10
266.6561
 20
685.6187
 11
267.7416
 21
690.9066
  0
LINE
  8
0_00
  6
CONTINUOUS
 62
4
 10
268.4878
 20
690.0658
 11
267.7813
 21
686.6244
  0
LINE
  8
0_00
  6
CONTINUOUS
 62
4
 10
267.8021
 20
690.9066
 11
267.7416
 21
690.9066
  0
LINE
  8
0_00
  6
CONTINUOUS
 62
4
 10
271.7000
 20
682.3065
 11
273.2000
 21
682.3065
  0
LINE
  8
0_00
  6
CONTINUOUS
 62
4
 10
286.7000
 20
691.6066
 11
303.7000
 21
691.6066
  0
LINE
  8
0_00
  6
CONTINUOUS
 62
4
 10
291.0000
 20
694.1066
 11
299.4000
 21
694.1066
  0
LINE
  8
0_00
  6
CONTINUOUS
 62
4
 10
300.0000
 20
694.1066
 11
303.7000
 21
694.1066
  0
LINE
  8
0_00
  6
CONTINUOUS
 62
4
 10
319.7000
 20
685.7065
 11
319.7000
 21
682.8066
  0
LINE
  8
14_0E
  6
CONTINUOUS
 62
4
 10
305.7000
 20
689.6066
 11
305.7000
 21
685.0066
  0
LINE
  8
0_00
  6
CONTINUOUS
 62
4
 10
308.2000
 20
689.6066
 11
308.2000
 21
688.2065
  0
LINE
  8
0_00
  6
CONTINUOUS
 62
4
 10
317.7000
 20
685.7065
 11
317.7000
 21
682.3065
  0
LINE
  8
0_00
  6
CONTINUOUS
 62
4
 10
317.7000
 20
682.3065
 11
319.2000
 21
682.3065
  0
LINE
  8
0_00
  6
CONTINUOUS
 62
4
 10
299.4000
 20
694.1066
 11
299.7000
 21
693.8066
  0
LINE
  8
0_00
  6
CONTINUOUS
 62
4
 10
299.7000
 20
693.8066
 11
300.0000
 21
694.1066
  0
LINE
  8
0_00
  6
CONTINUOUS
 62
4
 10
308.2000
 20
688.2065
 11
312.9000
 21
688.2065
  0
LINE
  8
0_00
  6
CONTINUOUS
 62
4
 10
313.5000
 20
688.2065
 11
317.2000
 21
688.2065
  0
LINE
  8
0_00
  6
CONTINUOUS
 62
4
 10
307.7000
 20
685.7065
 11
317.7000
 21
685.7065
  0
LINE
  8
0_00
  6
CONTINUOUS
 62
4
 10
307.7000
 20
685.7065
 11
307.7000
 21
685.0066
  0
LINE
  8
0_00
  6
CONTINUOUS
 62
4
 10
312.9000
 20
688.2065
 11
313.2000
 21
687.9066
  0
LINE
  8
0_00
  6
CONTINUOUS
 62
4
 10
313.2000
 20
687.9066
 11
313.5000
 21
688.2065
  0
LINE
  8
0_00
  6
CONTINUOUS
 62
4
 10
290.4000
 20
694.1066
 11
286.7000
 21
694.1066
  0
LINE
  8
0_00
  6
CONTINUOUS
 62
4
 10
291.0000
 20
694.1066
 11
290.7000
 21
693.8066
  0
LINE
  8
0_00
  6
CONTINUOUS
 62
4
 10
290.7000
 20
693.8066
 11
290.4000
 21
694.1066
  0
LINE
  8
0_00
  6
CONTINUOUS
 62
4
 10
270.7000
 20
685.7065
 11
270.7000
 21
682.8066
  0
LINE
  8
14_0E
  6
CONTINUOUS
 62
4
 10
284.7000
 20
689.6066
 11
284.7000
 21
685.0066
  0
LINE
  8
0_00
  6
CONTINUOUS
 62
4
 10
282.2000
 20
689.6066
 11
282.2000
 21
688.2065
  0
LINE
  8
0_00
  6
CONTINUOUS
 62
4
 10
272.7000
 20
685.7065
 11
272.7000
 21
682.3065
  0
LINE
  8
0_00
  6
CONTINUOUS
 62
4
 10
272.7000
 20
682.3065
 11
271.2000
 21
682.3065
  0
LINE
  8
0_00
  6
CONTINUOUS
 62
4
 10
282.2000
 20
688.2065
 11
277.5000
 21
688.2065
  0
LINE
  8
0_00
  6
CONTINUOUS
 62
4
 10
276.9000
 20
688.2065
 11
273.2000
 21
688.2065
  0
LINE
  8
0_00
  6
CONTINUOUS
 62
4
 10
282.7000
 20
685.7065
 11
272.7000
 21
685.7065
  0
LINE
  8
0_00
  6
CONTINUOUS
 62
4
 10
282.7000
 20
685.7065
 11
282.7000
 21
685.0066
  0
LINE
  8
0_00
  6
CONTINUOUS
 62
4
 10
277.5000
 20
688.2065
 11
277.2000
 21
687.9066
  0
LINE
  8
0_00
  6
CONTINUOUS
 62
4
 10
277.2000
 20
687.9066
 11
276.9000
 21
688.2065
  0
LINE
  8
0_00
  6
CONTINUOUS
 62
4
 10
325.2000
 20
718.8286
 11
325.1999
 21
680.0066
  0
LINE
  8
0_00
  6
CONTINUOUS
 62
4
 10
323.8000
 20
718.8037
 11
323.8000
 21
692.4304
  0
LINE
  8
0_00
  6
CONTINUOUS
 62
4
 10
266.6000
 20
718.8037
 11
266.6001
 21
692.4091
  0
LINE
  8
0_00
  6
CONTINUOUS
 62
4
 10
265.2000
 20
718.8286
 11
265.2001
 21
680.0014
  0
LINE
  8
0_00
  6
CONTINUOUS
 62
4
 10
266.5995
 20
683.1804
 11
266.5995
 21
680.0066
  0
LINE
  8
0_00
  6
CONTINUOUS
 62
4
 10
267.6800
 20
685.1358
 11
266.9646
 21
685.1985
  0
LINE
  8
0_00
  6
CONTINUOUS
 62
4
 10
266.6074
 20
685.6761
 11
267.0741
 21
687.9908
  0
LINE
  8
0_00
  6
CONTINUOUS
 62
4
 10
266.8781
 20
688.2304
 11
266.5995
 21
688.2304
  0
LINE
  8
0_00
  6
CONTINUOUS
 62
4
 10
266.5995
 20
688.2304
 11
266.5995
 21
690.6303
  0
LINE
  8
0_00
  6
CONTINUOUS
 62
4
 10
269.2995
 20
691.0304
 11
266.9995
 21
691.0304
  0
LINE
  8
0_00
  6
CONTINUOUS
 62
4
 10
269.5995
 20
692.0304
 11
266.9995
 21
692.0304
  0
LINE
  8
0_00
  6
CONTINUOUS
 62
4
 10
269.2995
 20
691.0304
 11
269.2995
 21
690.8304
  0
LINE
  8
0_00
  6
CONTINUOUS
 62
4
 10
270.0995
 20
691.5304
 11
270.0995
 21
690.4304
  0
LINE
  8
0_00
  6
CONTINUOUS
 62
4
 10
323.7999
 20
680.0066
 11
323.7999
 21
683.1804
  0
LINE
  8
0_00
  6
CONTINUOUS
 62
4
 10
322.7194
 20
685.1358
 11
323.4348
 21
685.1985
  0
LINE
  8
0_00
  6
CONTINUOUS
 62
4
 10
323.7921
 20
685.6761
 11
323.3253
 21
687.9908
  0
LINE
  8
0_00
  6
CONTINUOUS
 62
4
 10
320.2999
 20
691.5304
 11
320.2999
 21
690.4304
  0
LINE
  8
0_00
  6
CONTINUOUS
 62
4
 10
321.0999
 20
691.0304
 11
321.0999
 21
690.8304
  0
LINE
  8
0_00
  6
CONTINUOUS
 62
4
 10
321.0999
 20
691.0304
 11
323.3999
 21
691.0304
  0
LINE
  8
0_00
  6
CONTINUOUS
 62
4
 10
320.7999
 20
692.0304
 11
323.3999
 21
692.0304
  0
LINE
  8
0_00
  6
CONTINUOUS
 62
4
 10
323.7999
 20
688.2304
 11
323.7999
 21
690.6303
  0
LINE
  8
0_00
  6
CONTINUOUS
 62
4
 10
323.5213
 20
688.2304
 11
323.7999
 21
688.2304
  0
LINE
  8
0_00
  6
CONTINUOUS
 62
4
 10
591.1919
 20
733.0692
 11
1121.8920
 21
733.0692
  0
LINE
  8
0_00
  6
CONTINUOUS
 62
4
 10
591.1919
 20
740.1192
 11
1121.8920
 21
740.1192
  0
LINE
  8
3_03
  6
CONTINUOUS
 62
4
 10
591.1169
 20
740.2240
 11
586.6374
 21
740.2240
  0
LINE
  8
3_03
  6
CONTINUOUS
 62
4
 10
582.0419
 20
733.0242
 11
591.1169
 21
733.0242
  0
LINE
  8
3_03
  6
CONTINUOUS
 62
4
 10
591.1919
 20
733.0692
 11
591.1919
 21
740.1491
  0
LINE
  8
3_03
  6
CONTINUOUS
 62
4
 10
581.9669
 20
739.0277
 11
581.9669
 21
733.0992
  0
LINE
  8
15_0F
  6
DASHED
 62
2
 10
307.2000
 20
683.9625
 11
307.2000
 21
682.3065
  0
LINE
  8
15_0F
  6
DASHED
 62
2
 10
283.2000
 20
683.9625
 11
283.2000
 21
682.3065
  0
LINE
  8
15_0F
  6
CONTINUOUS
 62
4
 10
302.9500
 20
689.3066
 11
302.9500
 21
684.1453
  0
LINE
  8
15_0F
  6
CONTINUOUS
 62
4
 10
287.4500
 20
689.3066
 11
287.4500
 21
684.1453
  0
LINE
  8
15_0F
  6
DASHED
 62
2
 10
287.4500
 20
682.3065
 11
287.4500
 21
684.1453
  0
LINE
  8
15_0F
  6
CONTINUOUS
 62
4
 10
287.4500
 20
682.3065
 11
287.4500
 21
680.8065
  0
LINE
  8
15_0F
  6
DASHED
 62
2
 10
287.4500
 20
421.0613
 11
287.4500
 21
680.8065
  0
LINE
  8
15_0F
  6
DASHED
 62
2
 10
302.9500
 20
682.3065
 11
302.9500
 21
684.1453
  0
LINE
  8
15_0F
  6
CONTINUOUS
 62
4
 10
302.9500
 20
682.3065
 11
302.9500
 21
680.8065
  0
LINE
  8
15_0F
  6
DASHED
 62
2
 10
302.9500
 20
420.5200
 11
302.9500
 21
680.8065
  0
LINE
  8
15_0F
  6
CONTINUOUS
 62
4
 10
287.4500
 20
689.3066
 11
302.9500
 21
689.3066
  0
LINE
  8
15_0F
  6
CONTINUOUS
 62
4
 10
272.7000
 20
680.3066
 11
317.7000
 21
680.3066
  0
LINE
  8
15_0F
  6
CONTINUOUS
 62
4
 10
317.7000
 20
680.8065
 11
317.7000
 21
680.3066
  0
LINE
  8
15_0F
  6
CONTINUOUS
 62
4
 10
272.7000
 20
680.8065
 11
272.7000
 21
680.3066
  0
LINE
  8
0_00
  6
CONTINUOUS
 62
4
 10
199.0000
 20
782.4129
 11
230.2000
 21
782.4129
  0
LINE
  8
0_00
  6
CONTINUOUS
 62
4
 10
230.2000
 20
782.4129
 11
230.2000
 21
796.8128
  0
LINE
  8
0_00
  6
CONTINUOUS
 62
4
 10
199.0000
 20
796.8128
 11
230.2000
 21
796.8128
  0
LINE
  8
0_00
  6
CONTINUOUS
 62
4
 10
199.0000
 20
782.4129
 11
199.0000
 21
796.8128
  0
LINE
  8
0_00
  6
CONTINUOUS
 62
4
 10
360.2000
 20
782.4129
 11
391.4000
 21
782.4129
  0
LINE
  8
0_00
  6
CONTINUOUS
 62
4
 10
391.4000
 20
782.4129
 11
391.4000
 21
796.8128
  0
LINE
  8
0_00
  6
CONTINUOUS
 62
4
 10
360.2000
 20
796.8128
 11
391.4000
 21
796.8128
  0
LINE
  8
0_00
  6
CONTINUOUS
 62
4
 10
360.2000
 20
782.4129
 11
360.2000
 21
796.8128
  0
LINE
  8
15_0F
  6
CONTINUOUS
 62
6
 10
221.2594
 20
411.3066
 11
115.3665
 21
411.3066
  0
LINE
  8
15_0F
  6
CONTINUOUS
 62
6
 10
121.3665
 20
411.3066
 11
121.3665
 21
426.3066
  0
LINE
  8
15_0F
  6
CONTINUOUS
 62
6
 10
257.7000
 20
726.3066
 11
115.3665
 21
726.3066
  0
LINE
  8
15_0F
  6
CONTINUOUS
 62
6
 10
121.3665
 20
426.3066
 11
121.3665
 21
726.3066
  0
LINE
  8
15_0F
  6
CONTINUOUS
 62
6
 10
121.3665
 20
426.3066
 11
122.9258
 21
433.6426
  0
LINE
  8
15_0F
  6
CONTINUOUS
 62
6
 10
121.3665
 20
426.3066
 11
119.8071
 21
433.6426
  0
LINE
  8
15_0F
  6
CONTINUOUS
 62
6
 10
121.3665
 20
726.3066
 11
119.8071
 21
718.9705
  0
LINE
  8
15_0F
  6
CONTINUOUS
 62
6
 10
121.3665
 20
726.3066
 11
122.9258
 21
718.9705
  0
LINE
  8
15_0F
  6
CONTINUOUS
 62
6
 10
121.3665
 20
373.9066
 11
121.3665
 21
411.3066
  0
LINE
  8
15_0F
  6
CONTINUOUS
 62
6
 10
121.3665
 20
411.3066
 11
119.8071
 21
403.9705
  0
LINE
  8
15_0F
  6
CONTINUOUS
 62
6
 10
121.3665
 20
411.3066
 11
122.9258
 21
403.9705
  0
LINE
  8
15_0F
  6
CONTINUOUS
 62
6
 10
380.0000
 20
680.3066
 11
380.0000
 21
680.8065
  0
LINE
  8
15_0F
  6
CONTINUOUS
 62
6
 10
220.1170
 20
426.3066
 11
115.3665
 21
426.3066
  0
LINE
  8
15_0F
  6
CONTINUOUS
 62
6
 10
247.7000
 20
726.3066
 11
159.0000
 21
726.3066
  0
LINE
  8
15_0F
  6
CONTINUOUS
 62
6
 10
323.2541
 20
723.2574
 11
337.6315
 21
738.8376
  0
LINE
  8
15_0F
  6
CONTINUOUS
 62
6
 10
323.2541
 20
723.2574
 11
329.3752
 21
727.5913
  0
LINE
  8
15_0F
  6
CONTINUOUS
 62
6
 10
323.2541
 20
723.2574
 11
327.0833
 21
729.7063
  0
LINE
  8
15_0F
  6
CONTINUOUS
 62
6
 10
337.6315
 20
738.8376
 11
397.0315
 21
738.8376
  0
LINE
  8
15_0F
  6
CONTINUOUS
 62
6
 10
283.0075
 20
417.3066
 11
258.6511
 21
441.6630
  0
LINE
  8
15_0F
  6
CONTINUOUS
 62
6
 10
283.0075
 20
417.3066
 11
278.9227
 21
423.5966
  0
LINE
  8
15_0F
  6
CONTINUOUS
 62
6
 10
283.0075
 20
417.3066
 11
276.7175
 21
421.3914
  0
LINE
  8
15_0F
  6
CONTINUOUS
 62
6
 10
258.6511
 20
441.6630
 11
184.8511
 21
441.6630
  0
LINE
  8
15_0F
  6
CONTINUOUS
 62
6
 10
668.5040
 20
460.0000
 11
1053.9841
 21
460.0000
  0
LINE
  8
15_0F
  6
CONTINUOUS
 62
6
 10
668.5040
 20
460.0000
 11
675.8401
 21
458.4407
  0
LINE
  8
15_0F
  6
CONTINUOUS
 62
6
 10
668.5040
 20
460.0000
 11
675.8401
 21
461.5593
  0
LINE
  8
15_0F
  6
CONTINUOUS
 62
6
 10
1053.9841
 20
460.0000
 11
1046.6480
 21
461.5593
  0
LINE
  8
15_0F
  6
CONTINUOUS
 62
6
 10
1053.9841
 20
460.0000
 11
1046.6480
 21
458.4407
  0
LINE
  8
15_0F
  6
CONTINUOUS
 62
6
 10
668.5040
 20
397.4276
 11
668.5040
 21
414.8467
  0
LINE
  8
15_0F
  6
CONTINUOUS
 62
6
 10
668.5040
 20
454.2884
 11
668.5040
 21
466.0000
  0
LINE
  8
0_00
  6
CENTER1
 62
6
 10
299.7000
 20
698.7289
 11
299.7000
 21
660.7784
  0
LINE
  8
0_00
  6
CENTER1
 62
6
 10
290.7000
 20
698.7289
 11
290.7000
 21
660.7784
  0
LINE
  8
0_00
  6
CENTER1
 62
6
 10
456.6492
 20
733.4567
 11
456.6492
 21
597.8363
  0
LINE
  8
0_00
  6
CONTINUOUS
 62
4
 10
435.1492
 20
612.6120
 11
435.1492
 21
689.0655
  0
LINE
  8
0_00
  6
CONTINUOUS
 62
4
 10
478.1492
 20
612.6120
 11
478.1492
 21
689.0655
  0
LINE
  8
15_0F
  6
DASHED
 62
2
 10
448.8993
 20
612.6120
 11
448.8993
 21
689.5654
  0
LINE
  8
15_0F
  6
DASHED
 62
2
 10
464.3992
 20
612.6120
 11
464.3992
 21
689.5654
  0
LINE
  8
0_00
  6
CONTINUOUS
 62
4
 10
456.6492
 20
691.3655
 11
456.3492
 21
691.0654
  0
LINE
  8
0_00
  6
CONTINUOUS
 62
4
 10
456.6492
 20
691.3655
 11
456.9493
 21
691.0654
  0
LINE
  8
14_0E
  6
CONTINUOUS
 62
4
 10
469.7254
 20
692.6751
 11
460.6492
 21
693.0655
  0
LINE
  8
0_00
  6
CONTINUOUS
 62
4
 10
456.6492
 20
691.3655
 11
456.9493
 21
691.0654
  0
LINE
  8
0_00
  6
CONTINUOUS
 62
4
 10
456.6492
 20
691.3655
 11
456.3492
 21
691.0654
  0
LINE
  8
14_0E
  6
CONTINUOUS
 62
4
 10
443.5731
 20
692.6751
 11
452.6492
 21
693.0655
  0
LINE
  8
0_00
  6
CONTINUOUS
 62
4
 10
460.6492
 20
693.0655
 11
452.6492
 21
693.0655
  0
LINE
  8
0_00
  6
CONTINUOUS
 62
4
 10
472.1492
 20
691.2655
 11
477.1492
 21
691.2655
  0
LINE
  8
0_00
  6
CONTINUOUS
 62
4
 10
471.8492
 20
691.0654
 11
470.6616
 21
691.0654
  0
LINE
  8
0_00
  6
CONTINUOUS
 62
4
 10
472.1492
 20
691.2655
 11
471.8492
 21
691.0654
  0
LINE
  8
0_00
  6
CONTINUOUS
 62
4
 10
470.0036
 20
692.4481
 11
470.2735
 21
691.3684
  0
LINE
  8
0_00
  6
CONTINUOUS
 62
4
 10
441.1492
 20
691.2655
 11
436.1493
 21
691.2655
  0
LINE
  8
0_00
  6
CONTINUOUS
 62
4
 10
436.1493
 20
691.2655
 11
435.8492
 21
691.0654
  0
LINE
  8
0_00
  6
CONTINUOUS
 62
4
 10
441.4492
 20
691.0654
 11
442.6369
 21
691.0654
  0
LINE
  8
0_00
  6
CONTINUOUS
 62
4
 10
441.1492
 20
691.2655
 11
441.4492
 21
691.0654
  0
LINE
  8
0_00
  6
CONTINUOUS
 62
4
 10
443.2949
 20
692.4481
 11
443.0250
 21
691.3684
  0
LINE
  8
0_00
  6
CONTINUOUS
 62
4
 10
433.1492
 20
691.0654
 11
434.6492
 21
691.0654
  0
LINE
  8
0_00
  6
CONTINUOUS
 62
4
 10
448.1493
 20
700.3655
 11
465.1492
 21
700.3655
  0
LINE
  8
0_00
  6
CONTINUOUS
 62
4
 10
452.4493
 20
702.8655
 11
460.8493
 21
702.8655
  0
LINE
  8
0_00
  6
CONTINUOUS
 62
4
 10
461.4492
 20
702.8655
 11
465.1492
 21
702.8655
  0
LINE
  8
0_00
  6
CONTINUOUS
 62
4
 10
481.1493
 20
694.4655
 11
481.1493
 21
691.5655
  0
LINE
  8
14_0E
  6
CONTINUOUS
 62
4
 10
467.1492
 20
698.3654
 11
467.1492
 21
693.7655
  0
LINE
  8
0_00
  6
CONTINUOUS
 62
4
 10
469.6492
 20
698.3654
 11
469.6492
 21
696.9655
  0
LINE
  8
0_00
  6
CONTINUOUS
 62
4
 10
479.1492
 20
694.4655
 11
479.1492
 21
691.0654
  0
LINE
  8
0_00
  6
CONTINUOUS
 62
4
 10
479.1492
 20
691.0654
 11
480.6492
 21
691.0654
  0
LINE
  8
0_00
  6
CONTINUOUS
 62
4
 10
460.8493
 20
702.8655
 11
461.1492
 21
702.5654
  0
LINE
  8
0_00
  6
CONTINUOUS
 62
4
 10
461.1492
 20
702.5654
 11
461.4492
 21
702.8655
  0
LINE
  8
0_00
  6
CONTINUOUS
 62
4
 10
469.6492
 20
696.9655
 11
474.3492
 21
696.9655
  0
LINE
  8
0_00
  6
CONTINUOUS
 62
4
 10
474.9493
 20
696.9655
 11
478.6492
 21
696.9655
  0
LINE
  8
0_00
  6
CONTINUOUS
 62
4
 10
469.1493
 20
694.4655
 11
479.1492
 21
694.4655
  0
LINE
  8
0_00
  6
CONTINUOUS
 62
4
 10
469.1493
 20
694.4655
 11
469.1493
 21
693.7655
  0
LINE
  8
0_00
  6
CONTINUOUS
 62
4
 10
474.3492
 20
696.9655
 11
474.6492
 21
696.6655
  0
LINE
  8
0_00
  6
CONTINUOUS
 62
4
 10
474.6492
 20
696.6655
 11
474.9493
 21
696.9655
  0
LINE
  8
0_00
  6
CONTINUOUS
 62
4
 10
451.8492
 20
702.8655
 11
448.1493
 21
702.8655
  0
LINE
  8
0_00
  6
CONTINUOUS
 62
4
 10
452.4493
 20
702.8655
 11
452.1492
 21
702.5654
  0
LINE
  8
0_00
  6
CONTINUOUS
 62
4
 10
452.1492
 20
702.5654
 11
451.8492
 21
702.8655
  0
LINE
  8
0_00
  6
CONTINUOUS
 62
4
 10
432.1492
 20
694.4655
 11
432.1492
 21
691.5655
  0
LINE
  8
14_0E
  6
CONTINUOUS
 62
4
 10
446.1492
 20
698.3654
 11
446.1492
 21
693.7655
  0
LINE
  8
0_00
  6
CONTINUOUS
 62
4
 10
443.6492
 20
698.3654
 11
443.6492
 21
696.9655
  0
LINE
  8
0_00
  6
CONTINUOUS
 62
4
 10
434.1492
 20
694.4655
 11
434.1492
 21
691.0654
  0
LINE
  8
0_00
  6
CONTINUOUS
 62
4
 10
434.1492
 20
691.0654
 11
432.6492
 21
691.0654
  0
LINE
  8
0_00
  6
CONTINUOUS
 62
4
 10
443.6492
 20
696.9655
 11
438.9492
 21
696.9655
  0
LINE
  8
0_00
  6
CONTINUOUS
 62
4
 10
438.3493
 20
696.9655
 11
434.6492
 21
696.9655
  0
LINE
  8
0_00
  6
CONTINUOUS
 62
4
 10
444.1492
 20
694.4655
 11
434.1492
 21
694.4655
  0
LINE
  8
0_00
  6
CONTINUOUS
 62
4
 10
444.1492
 20
694.4655
 11
444.1492
 21
693.7655
  0
LINE
  8
0_00
  6
CONTINUOUS
 62
4
 10
438.9492
 20
696.9655
 11
438.6492
 21
696.6655
  0
LINE
  8
0_00
  6
CONTINUOUS
 62
4
 10
438.6492
 20
696.6655
 11
438.3493
 21
696.9655
  0
LINE
  8
15_0F
  6
DASHED
 62
2
 10
444.6492
 20
692.7214
 11
444.6492
 21
691.0654
  0
LINE
  8
15_0F
  6
CONTINUOUS
 62
4
 10
464.3992
 20
698.3215
 11
464.3992
 21
692.9041
  0
LINE
  8
15_0F
  6
CONTINUOUS
 62
4
 10
448.8993
 20
698.3215
 11
448.8993
 21
692.9041
  0
LINE
  8
15_0F
  6
DASHED
 62
2
 10
448.8993
 20
691.0654
 11
448.8993
 21
692.9041
  0
LINE
  8
15_0F
  6
CONTINUOUS
 62
4
 10
448.8993
 20
691.0654
 11
448.8993
 21
689.5654
  0
LINE
  8
15_0F
  6
DASHED
 62
2
 10
464.3992
 20
691.0654
 11
464.3992
 21
692.9041
  0
LINE
  8
15_0F
  6
CONTINUOUS
 62
4
 10
464.3992
 20
691.0654
 11
464.3992
 21
689.5654
  0
LINE
  8
15_0F
  6
CONTINUOUS
 62
4
 10
448.8993
 20
698.3215
 11
464.3992
 21
698.3215
  0
LINE
  8
15_0F
  6
CONTINUOUS
 62
4
 10
434.1492
 20
689.0655
 11
479.1492
 21
689.0655
  0
LINE
  8
15_0F
  6
CONTINUOUS
 62
4
 10
479.1492
 20
689.5654
 11
479.1492
 21
689.0655
  0
LINE
  8
15_0F
  6
CONTINUOUS
 62
4
 10
434.1492
 20
689.5654
 11
434.1492
 21
689.0655
  0
LINE
  8
15_0F
  6
DASHED
 62
2
 10
468.6492
 20
692.7214
 11
468.6492
 21
691.0654
  0
LINE
  8
0_00
  6
CENTER1
 62
6
 10
461.1492
 20
710.4654
 11
461.1492
 21
667.8655
  0
LINE
  8
0_00
  6
CENTER1
 62
6
 10
452.1492
 20
710.4654
 11
452.1492
 21
667.8655
  0
LINE
  8
15_0F
  6
CONTINUOUS
 62
6
 10
276.3476
 20
687.8876
 11
268.1490
 21
702.0880
  0
LINE
  8
15_0F
  6
CONTINUOUS
 62
6
 10
276.3476
 20
687.8876
 11
274.0299
 21
695.0206
  0
LINE
  8
15_0F
  6
CONTINUOUS
 62
6
 10
276.3476
 20
687.8876
 11
271.3291
 21
693.4612
  0
LINE
  8
15_0F
  6
CONTINUOUS
 62
6
 10
178.7939
 20
702.0880
 11
268.1490
 21
702.0880
  0
LINE
  8
15_0F
  6
CONTINUOUS
 62
6
 10
479.7506
 20
720.9061
 11
494.1279
 21
736.4864
  0
LINE
  8
15_0F
  6
CONTINUOUS
 62
6
 10
479.7506
 20
720.9061
 11
485.8716
 21
725.2400
  0
LINE
  8
15_0F
  6
CONTINUOUS
 62
6
 10
479.7506
 20
720.9061
 11
483.5797
 21
727.3550
  0
LINE
  8
15_0F
  6
CONTINUOUS
 62
6
 10
494.1279
 20
736.4864
 11
558.5279
 21
736.4864
  0
LINE
  8
0_00
  6
CONTINUOUS
 62
6
 10
372.0004
 20
409.6417
 11
386.7381
 21
424.3793
  0
LINE
  8
0_00
  6
CONTINUOUS
 62
6
 10
372.0004
 20
409.6417
 11
378.2905
 21
413.7265
  0
LINE
  8
0_00
  6
CONTINUOUS
 62
6
 10
372.0004
 20
409.6417
 11
376.0852
 21
415.9317
  0
LINE
  8
0_00
  6
CONTINUOUS
 62
6
 10
386.7381
 20
424.3793
 11
431.7381
 21
424.3793
  0
LINE
  8
0_00
  6
CONTINUOUS
 62
4
 10
456.6492
 20
691.3655
 11
456.3492
 21
691.0654
  0
LINE
  8
0_00
  6
CONTINUOUS
 62
4
 10
468.9493
 20
691.0654
 11
456.9493
 21
691.0654
  0
LINE
  8
0_00
  6
CONTINUOUS
 62
4
 10
456.6492
 20
691.3655
 11
456.9493
 21
691.0654
  0
LINE
  8
14_0E
  6
CONTINUOUS
 62
4
 10
469.7254
 20
692.6751
 11
460.6492
 21
693.0655
  0
LINE
  8
0_00
  6
CONTINUOUS
 62
4
 10
456.6492
 20
691.3655
 11
456.9493
 21
691.0654
  0
LINE
  8
0_00
  6
CONTINUOUS
 62
4
 10
444.3492
 20
691.0654
 11
456.3492
 21
691.0654
  0
LINE
  8
0_00
  6
CONTINUOUS
 62
4
 10
456.6492
 20
691.3655
 11
456.3492
 21
691.0654
  0
LINE
  8
14_0E
  6
CONTINUOUS
 62
4
 10
443.5731
 20
692.6751
 11
452.6492
 21
693.0655
  0
LINE
  8
0_00
  6
CONTINUOUS
 62
4
 10
460.6492
 20
693.0655
 11
452.6492
 21
693.0655
  0
LINE
  8
0_00
  6
CONTINUOUS
 62
4
 10
469.3493
 20
689.5654
 11
474.3492
 21
689.5654
  0
LINE
  8
0_00
  6
CONTINUOUS
 62
4
 10
468.9493
 20
691.0654
 11
469.3493
 21
689.5654
  0
LINE
  8
0_00
  6
CONTINUOUS
 62
4
 10
472.1492
 20
691.2655
 11
477.1492
 21
691.2655
  0
LINE
  8
0_00
  6
CONTINUOUS
 62
4
 10
474.9492
 20
689.5654
 11
484.0492
 21
689.5654
  0
LINE
  8
0_00
  6
CONTINUOUS
 62
4
 10
474.6492
 20
689.8655
 11
474.3492
 21
689.5654
  0
LINE
  8
0_00
  6
CONTINUOUS
 62
4
 10
474.6492
 20
689.8655
 11
474.9492
 21
689.5654
  0
LINE
  8
0_00
  6
CONTINUOUS
 62
4
 10
481.9770
 20
691.0654
 11
477.4492
 21
691.0654
  0
LINE
  8
0_00
  6
CONTINUOUS
 62
4
 10
477.1492
 20
691.2655
 11
477.4492
 21
691.0654
  0
LINE
  8
0_00
  6
CONTINUOUS
 62
4
 10
471.8492
 20
691.0654
 11
470.6616
 21
691.0654
  0
LINE
  8
0_00
  6
CONTINUOUS
 62
4
 10
472.1492
 20
691.2655
 11
471.8492
 21
691.0654
  0
LINE
  8
0_00
  6
CONTINUOUS
 62
4
 10
470.0036
 20
692.4481
 11
470.2735
 21
691.3684
  0
LINE
  8
0_00
  6
CONTINUOUS
 62
4
 10
484.0492
 20
689.5654
 11
485.0492
 21
690.5654
  0
LINE
  8
0_00
  6
CONTINUOUS
 62
4
 10
485.0492
 20
690.5654
 11
485.0492
 21
691.8655
  0
LINE
  8
0_00
  6
CONTINUOUS
 62
4
 10
485.0492
 20
691.0654
 11
485.0492
 21
690.5654
  0
LINE
  8
0_00
  6
CONTINUOUS
 62
4
 10
484.0687
 20
693.9434
 11
484.9254
 21
694.0184
  0
LINE
  8
0_00
  6
CONTINUOUS
 62
4
 10
482.9621
 20
694.9508
 11
483.8002
 21
695.0241
  0
LINE
  8
0_00
  6
CONTINUOUS
 62
4
 10
482.0493
 20
693.9546
 11
482.0493
 21
693.5217
  0
LINE
  8
0_00
  6
CONTINUOUS
 62
4
 10
485.1931
 20
694.3776
 11
484.1077
 21
699.6655
  0
LINE
  8
0_00
  6
CONTINUOUS
 62
4
 10
483.3615
 20
698.8247
 11
484.0679
 21
695.3833
  0
LINE
  8
0_00
  6
CONTINUOUS
 62
4
 10
484.0472
 20
699.6655
 11
484.1077
 21
699.6655
  0
LINE
  8
0_00
  6
CONTINUOUS
 62
4
 10
486.6498
 20
699.8120
 11
486.6497
 21
690.6042
  0
LINE
  8
0_00
  6
CONTINUOUS
 62
4
 10
485.2497
 20
691.9621
 11
485.2497
 21
689.6215
  0
LINE
  8
0_00
  6
CONTINUOUS
 62
4
 10
485.2498
 20
697.0120
 11
485.2498
 21
699.4081
  0
LINE
  8
0_00
  6
CONTINUOUS
 62
4
 10
482.5498
 20
699.8120
 11
484.8499
 21
699.8120
  0
LINE
  8
0_00
  6
CONTINUOUS
 62
4
 10
481.7498
 20
700.1121
 11
481.7498
 21
699.2120
  0
LINE
  8
0_00
  6
CONTINUOUS
 62
4
 10
482.5498
 20
699.8120
 11
482.5498
 21
699.6120
  0
LINE
  8
0_00
  6
CONTINUOUS
 62
4
 10
484.1693
 20
693.9175
 11
484.8846
 21
693.9801
  0
LINE
  8
0_00
  6
CONTINUOUS
 62
4
 10
485.2419
 20
694.4576
 11
484.7752
 21
696.7724
  0
LINE
  8
0_00
  6
CONTINUOUS
 62
4
 10
484.9712
 20
697.0120
 11
485.2498
 21
697.0120
  0
LINE
  8
0_00
  6
CONTINUOUS
 62
4
 10
482.7499
 20
701.1120
 11
485.3498
 21
701.1120
  0
LINE
  8
0_00
  6
CONTINUOUS
 62
4
 10
443.9492
 20
689.5654
 11
438.9492
 21
689.5654
  0
LINE
  8
0_00
  6
CONTINUOUS
 62
4
 10
444.3492
 20
691.0654
 11
443.9492
 21
689.5654
  0
LINE
  8
0_00
  6
CONTINUOUS
 62
4
 10
441.1492
 20
691.2655
 11
436.1493
 21
691.2655
  0
LINE
  8
0_00
  6
CONTINUOUS
 62
4
 10
438.3493
 20
689.5654
 11
429.2493
 21
689.5654
  0
LINE
  8
0_00
  6
CONTINUOUS
 62
4
 10
438.6492
 20
689.8655
 11
438.9492
 21
689.5654
  0
LINE
  8
0_00
  6
CONTINUOUS
 62
4
 10
438.6492
 20
689.8655
 11
438.3493
 21
689.5654
  0
LINE
  8
0_00
  6
CONTINUOUS
 62
4
 10
431.3215
 20
691.0654
 11
435.8492
 21
691.0654
  0
LINE
  8
0_00
  6
CONTINUOUS
 62
4
 10
436.1493
 20
691.2655
 11
435.8492
 21
691.0654
  0
LINE
  8
0_00
  6
CONTINUOUS
 62
4
 10
441.4492
 20
691.0654
 11
442.6369
 21
691.0654
  0
LINE
  8
0_00
  6
CONTINUOUS
 62
4
 10
441.1492
 20
691.2655
 11
441.4492
 21
691.0654
  0
LINE
  8
0_00
  6
CONTINUOUS
 62
4
 10
443.2949
 20
692.4481
 11
443.0250
 21
691.3684
  0
LINE
  8
0_00
  6
CONTINUOUS
 62
4
 10
429.2493
 20
689.5654
 11
428.2492
 21
690.5654
  0
LINE
  8
0_00
  6
CONTINUOUS
 62
4
 10
428.2492
 20
690.5654
 11
428.2492
 21
691.8655
  0
LINE
  8
0_00
  6
CONTINUOUS
 62
4
 10
428.2492
 20
691.0654
 11
428.2492
 21
690.5654
  0
LINE
  8
0_00
  6
CONTINUOUS
 62
4
 10
429.2298
 20
693.9434
 11
428.3731
 21
694.0184
  0
LINE
  8
0_00
  6
CONTINUOUS
 62
4
 10
430.3364
 20
694.9508
 11
429.4983
 21
695.0241
  0
LINE
  8
0_00
  6
CONTINUOUS
 62
4
 10
431.2492
 20
693.9546
 11
431.2492
 21
693.5217
  0
LINE
  8
0_00
  6
CONTINUOUS
 62
4
 10
428.1054
 20
694.3776
 11
429.1908
 21
699.6655
  0
LINE
  8
0_00
  6
CONTINUOUS
 62
4
 10
429.9370
 20
698.8247
 11
429.2306
 21
695.3833
  0
LINE
  8
0_00
  6
CONTINUOUS
 62
4
 10
429.2513
 20
699.6655
 11
429.1908
 21
699.6655
  0
LINE
  8
0_00
  6
CONTINUOUS
 62
4
 10
426.6487
 20
699.8120
 11
426.6487
 21
690.6042
  0
LINE
  8
0_00
  6
CONTINUOUS
 62
4
 10
428.0487
 20
691.9621
 11
428.0487
 21
689.6215
  0
LINE
  8
0_00
  6
CONTINUOUS
 62
4
 10
428.0486
 20
697.0120
 11
428.0486
 21
699.4081
  0
LINE
  8
0_00
  6
CONTINUOUS
 62
4
 10
430.7487
 20
699.8120
 11
428.4486
 21
699.8120
  0
LINE
  8
0_00
  6
CONTINUOUS
 62
4
 10
431.5486
 20
700.1121
 11
431.5486
 21
699.2120
  0
LINE
  8
0_00
  6
CONTINUOUS
 62
4
 10
430.7487
 20
699.8120
 11
430.7487
 21
699.6120
  0
LINE
  8
0_00
  6
CONTINUOUS
 62
4
 10
429.1292
 20
693.9175
 11
428.4138
 21
693.9801
  0
LINE
  8
0_00
  6
CONTINUOUS
 62
4
 10
428.0566
 20
694.4576
 11
428.5233
 21
696.7724
  0
LINE
  8
0_00
  6
CONTINUOUS
 62
4
 10
428.3273
 20
697.0120
 11
428.0486
 21
697.0120
  0
LINE
  8
0_00
  6
CONTINUOUS
 62
4
 10
430.5486
 20
701.1120
 11
427.9487
 21
701.1120
  0
LINE
  8
0_00
  6
CONTINUOUS
 62
4
 10
433.1492
 20
691.0654
 11
434.6492
 21
691.0654
  0
LINE
  8
0_00
  6
CONTINUOUS
 62
4
 10
225.2000
 20
396.3066
 11
365.2000
 21
396.3066
  0
LINE
  8
0_00
  6
CONTINUOUS
 62
4
 10
347.7000
 20
396.3066
 11
347.7000
 21
299.0274
  0
LINE
  8
0_00
  6
CONTINUOUS
 62
4
 10
242.7000
 20
396.3066
 11
242.7000
 21
299.0274
  0
LINE
  8
0_00
  6
CONTINUOUS
 62
4
 10
347.7000
 20
346.3066
 11
242.7000
 21
346.3066
  0
LINE
  8
0_00
  6
CONTINUOUS
 62
4
 10
242.7000
 20
346.3066
 11
347.7000
 21
396.3066
  0
LINE
  8
0_00
  6
CONTINUOUS
 62
4
 10
353.2000
 20
396.3066
 11
353.2000
 21
299.0274
  0
LINE
  8
0_00
  6
CONTINUOUS
 62
2
 10
349.5333
 20
396.3066
 11
349.5333
 21
299.0274
  0
LINE
  8
0_00
  6
CONTINUOUS
 62
2
 10
351.3667
 20
396.3066
 11
351.3667
 21
299.0274
  0
LINE
  8
0_00
  6
CONTINUOUS
 62
4
 10
237.2000
 20
396.3066
 11
237.2000
 21
299.0274
  0
LINE
  8
0_00
  6
CONTINUOUS
 62
2
 10
240.8667
 20
396.3066
 11
240.8667
 21
299.0274
  0
LINE
  8
0_00
  6
CONTINUOUS
 62
2
 10
239.0333
 20
396.3066
 11
239.0333
 21
299.0274
  0
LINE
  8
0_00
  6
CONTINUOUS
 62
4
 10
365.2000
 20
411.3066
 11
365.2000
 21
396.3066
  0
LINE
  8
0_00
  6
CONTINUOUS
 62
4
 10
365.2000
 20
384.3066
 11
365.2000
 21
299.0274
  0
LINE
  8
0_00
  6
CONTINUOUS
 62
4
 10
225.2000
 20
384.3066
 11
237.2000
 21
384.3066
  0
LINE
  8
0_00
  6
CONTINUOUS
 62
4
 10
353.2000
 20
384.3066
 11
365.2000
 21
384.3066
  0
LINE
  8
0_00
  6
CONTINUOUS
 62
4
 10
225.2000
 20
411.3066
 11
225.2000
 21
396.3066
  0
LINE
  8
0_00
  6
CONTINUOUS
 62
4
 10
225.2000
 20
384.3066
 11
225.2000
 21
299.0274
  0
LINE
  8
0_00
  6
CONTINUOUS
 62
6
 10
226.3654
 20
396.3066
 11
225.7566
 21
395.6978
  0
LINE
  8
0_00
  6
CONTINUOUS
 62
6
 10
229.1938
 20
396.3066
 11
226.8622
 21
393.9749
  0
LINE
  8
0_00
  6
CONTINUOUS
 62
6
 10
232.0223
 20
396.3066
 11
227.5591
 21
391.8434
  0
LINE
  8
0_00
  6
CONTINUOUS
 62
6
 10
234.8507
 20
396.3066
 11
227.6082
 21
389.0641
  0
LINE
  8
0_00
  6
CONTINUOUS
 62
6
 10
237.2000
 20
395.8275
 11
225.6791
 21
384.3066
  0
LINE
  8
0_00
  6
CONTINUOUS
 62
6
 10
237.2000
 20
392.9991
 11
228.5075
 21
384.3066
  0
LINE
  8
0_00
  6
CONTINUOUS
 62
6
 10
237.2000
 20
390.1706
 11
231.3359
 21
384.3066
  0
LINE
  8
0_00
  6
CONTINUOUS
 62
6
 10
237.2000
 20
387.3422
 11
234.1644
 21
384.3066
  0
LINE
  8
0_00
  6
CONTINUOUS
 62
6
 10
237.2000
 20
384.5137
 11
236.9928
 21
384.3066
  0
LINE
  8
0_00
  6
CONTINUOUS
 62
6
 10
354.1330
 20
396.3066
 11
353.2000
 21
395.3735
  0
LINE
  8
0_00
  6
CONTINUOUS
 62
6
 10
356.9615
 20
396.3066
 11
353.2000
 21
392.5451
  0
LINE
  8
0_00
  6
CONTINUOUS
 62
6
 10
359.7899
 20
396.3066
 11
353.2000
 21
389.7167
  0
LINE
  8
0_00
  6
CONTINUOUS
 62
6
 10
362.6183
 20
396.3066
 11
353.2000
 21
386.8883
  0
LINE
  8
0_00
  6
CONTINUOUS
 62
6
 10
364.0902
 20
394.9500
 11
353.4468
 21
384.3066
  0
LINE
  8
0_00
  6
CONTINUOUS
 62
6
 10
362.7113
 20
390.7427
 11
356.2752
 21
384.3066
  0
LINE
  8
0_00
  6
CONTINUOUS
 62
6
 10
362.9730
 20
388.1760
 11
359.1036
 21
384.3066
  0
LINE
  8
0_00
  6
CONTINUOUS
 62
6
 10
363.7867
 20
386.1612
 11
361.9320
 21
384.3066
  0
LINE
  8
0_00
  6
CONTINUOUS
 62
6
 10
364.9833
 20
384.5295
 11
364.7604
 21
384.3066
  0
LINE
  8
0_00
  6
CONTINUOUS
 62
4
 10
225.2000
 20
411.3066
 11
365.2000
 21
411.3066
  0
LINE
  8
0_00
  6
CONTINUOUS
 62
2
 10
231.3359
 20
384.3066
 11
225.2000
 21
378.1706
  0
LINE
  8
0_00
  6
CONTINUOUS
 62
2
 10
234.1644
 20
384.3066
 11
225.2000
 21
375.3422
  0
LINE
  8
0_00
  6
CONTINUOUS
 62
2
 10
237.2000
 20
354.8153
 11
225.2000
 21
342.8153
  0
LINE
  8
0_00
  6
CONTINUOUS
 62
2
 10
237.2000
 20
351.9869
 11
225.2000
 21
339.9869
  0
LINE
  8
0_00
  6
CONTINUOUS
 62
2
 10
237.2000
 20
319.4600
 11
225.2000
 21
307.4600
  0
LINE
  8
0_00
  6
CONTINUOUS
 62
2
 10
237.2000
 20
316.6315
 11
225.2000
 21
304.6315
  0
LINE
  8
0_00
  6
CONTINUOUS
 62
2
 10
359.3359
 20
384.3066
 11
353.2000
 21
378.1706
  0
LINE
  8
0_00
  6
CONTINUOUS
 62
2
 10
362.1644
 20
384.3066
 11
353.2000
 21
375.3422
  0
LINE
  8
0_00
  6
CONTINUOUS
 62
2
 10
365.2000
 20
354.8153
 11
353.2000
 21
342.8153
  0
LINE
  8
0_00
  6
CONTINUOUS
 62
2
 10
365.2000
 20
351.9869
 11
353.2000
 21
339.9869
  0
LINE
  8
0_00
  6
CONTINUOUS
 62
2
 10
365.2000
 20
319.4600
 11
353.2000
 21
307.4600
  0
LINE
  8
0_00
  6
CONTINUOUS
 62
2
 10
365.2000
 20
316.6315
 11
353.2000
 21
304.6315
  0
LINE
  8
0_00
  6
PHANTOM1
 62
2
 10
367.7000
 20
411.3066
 11
367.7000
 21
299.0274
  0
LINE
  8
0_00
  6
PHANTOM1
 62
2
 10
222.7000
 20
411.3066
 11
222.7000
 21
299.0274
  0
LINE
  8
0_00
  6
CONTINUOUS
 62
4
 10
365.2000
 20
411.3066
 11
225.2000
 21
396.3066
  0
LINE
  8
0_00
  6
CONTINUOUS
 62
4
 10
339.5000
 20
422.2066
 11
339.5000
 21
421.1066
  0
LINE
  8
0_00
  6
CONTINUOUS
 62
4
 10
341.0000
 20
422.7066
 11
340.0000
 21
422.7066
  0
LINE
  8
0_00
  6
CONTINUOUS
 62
4
 10
341.0000
 20
422.7066
 11
341.0000
 21
422.5066
  0
LINE
  8
0_00
  6
CONTINUOUS
 62
4
 10
339.5000
 20
421.1066
 11
336.5000
 21
421.1066
  0
LINE
  8
0_00
  6
CONTINUOUS
 62
4
 10
336.2000
 20
420.8066
 11
336.2000
 21
418.9066
  0
LINE
  8
0_00
  6
CONTINUOUS
 62
4
 10
336.5000
 20
418.6066
 11
339.0000
 21
418.6066
  0
LINE
  8
0_00
  6
CONTINUOUS
 62
4
 10
233.4000
 20
422.5066
 11
249.4000
 21
422.5066
  0
LINE
  8
0_00
  6
CONTINUOUS
 62
4
 10
250.9000
 20
422.2066
 11
250.9000
 21
421.1066
  0
LINE
  8
0_00
  6
CONTINUOUS
 62
4
 10
249.4000
 20
422.7066
 11
250.4000
 21
422.7066
  0
LINE
  8
0_00
  6
CONTINUOUS
 62
4
 10
249.4000
 20
422.7066
 11
249.4000
 21
422.5066
  0
LINE
  8
0_00
  6
CONTINUOUS
 62
4
 10
233.4000
 20
422.7066
 11
233.4000
 21
422.5066
  0
LINE
  8
0_00
  6
CONTINUOUS
 62
4
 10
231.9000
 20
422.2066
 11
231.9000
 21
420.2066
  0
LINE
  8
0_00
  6
CONTINUOUS
 62
4
 10
232.4000
 20
422.7066
 11
233.4000
 21
422.7066
  0
LINE
  8
0_00
  6
CONTINUOUS
 62
4
 10
235.9000
 20
419.5066
 11
246.9000
 21
419.5066
  0
LINE
  8
0_00
  6
CONTINUOUS
 62
4
 10
250.9000
 20
421.1066
 11
253.9000
 21
421.1066
  0
LINE
  8
0_00
  6
CONTINUOUS
 62
4
 10
254.2000
 20
420.8066
 11
254.2000
 21
418.9066
  0
LINE
  8
0_00
  6
CONTINUOUS
 62
4
 10
253.9000
 20
418.6066
 11
251.4000
 21
418.6066
  0
LINE
  8
0_00
  6
CONTINUOUS
 62
4
 10
317.7000
 20
426.8066
 11
317.7000
 21
426.3066
  0
LINE
  8
0_00
  6
CONTINUOUS
 62
4
 10
272.7000
 20
426.8066
 11
272.7000
 21
426.3066
  0
LINE
  8
0_00
  6
CONTINUOUS
 62
4
 10
316.7000
 20
426.3066
 11
317.2000
 21
426.8066
  0
LINE
  8
0_00
  6
CONTINUOUS
 62
4
 10
313.8716
 20
426.3066
 11
314.3716
 21
426.8066
  0
LINE
  8
0_00
  6
CONTINUOUS
 62
4
 10
311.0432
 20
426.3066
 11
311.5432
 21
426.8066
  0
LINE
  8
0_00
  6
CONTINUOUS
 62
4
 10
308.2147
 20
426.3066
 11
308.7147
 21
426.8066
  0
LINE
  8
0_00
  6
CONTINUOUS
 62
4
 10
305.3863
 20
426.3066
 11
305.8863
 21
426.8066
  0
LINE
  8
0_00
  6
CONTINUOUS
 62
4
 10
302.5579
 20
426.3066
 11
303.0579
 21
426.8066
  0
LINE
  8
0_00
  6
CONTINUOUS
 62
4
 10
299.7294
 20
426.3066
 11
300.2294
 21
426.8066
  0
LINE
  8
0_00
  6
CONTINUOUS
 62
4
 10
296.9010
 20
426.3066
 11
297.4010
 21
426.8066
  0
LINE
  8
0_00
  6
CONTINUOUS
 62
4
 10
294.0726
 20
426.3066
 11
294.5726
 21
426.8066
  0
LINE
  8
0_00
  6
CONTINUOUS
 62
4
 10
291.2441
 20
426.3066
 11
291.7441
 21
426.8066
  0
LINE
  8
0_00
  6
CONTINUOUS
 62
4
 10
288.4157
 20
426.3066
 11
288.9158
 21
426.8066
  0
LINE
  8
0_00
  6
CONTINUOUS
 62
4
 10
285.5873
 20
426.3066
 11
286.0873
 21
426.8066
  0
LINE
  8
0_00
  6
CONTINUOUS
 62
4
 10
282.7589
 20
426.3066
 11
283.2589
 21
426.8066
  0
LINE
  8
0_00
  6
CONTINUOUS
 62
4
 10
279.9305
 20
426.3066
 11
280.4305
 21
426.8066
  0
LINE
  8
0_00
  6
CONTINUOUS
 62
4
 10
277.1020
 20
426.3066
 11
277.6020
 21
426.8066
  0
LINE
  8
0_00
  6
CONTINUOUS
 62
4
 10
274.2736
 20
426.3066
 11
274.7736
 21
426.8066
  0
LINE
  8
0_00
  6
CONTINUOUS
 62
4
 10
272.7000
 20
426.8066
 11
317.7000
 21
426.8066
  0
LINE
  8
0_00
  6
CONTINUOUS
 62
4
 10
306.4252
 20
421.1066
 11
283.9747
 21
421.1066
  0
LINE
  8
0_00
  6
CONTINUOUS
 62
4
 10
306.4252
 20
418.8066
 11
283.9747
 21
418.8066
  0
LINE
  8
0_00
  6
CONTINUOUS
 62
4
 10
297.2000
 20
418.8066
 11
297.2000
 21
421.1066
  0
LINE
  8
0_00
  6
CONTINUOUS
 62
4
 10
293.2000
 20
421.1066
 11
293.2000
 21
418.8066
  0
LINE
  8
0_00
  6
CONTINUOUS
 62
4
 10
295.2000
 20
418.8066
 11
295.2000
 21
421.1066
  0
LINE
  8
0_00
  6
CONTINUOUS
 62
2
 10
233.4000
 20
422.5066
 11
233.4000
 21
424.8066
  0
LINE
  8
0_00
  6
CONTINUOUS
 62
2
 10
235.7000
 20
422.5066
 11
233.4000
 21
424.8066
  0
LINE
  8
0_00
  6
CONTINUOUS
 62
2
 10
237.9627
 20
422.5066
 11
235.6628
 21
424.8066
  0
LINE
  8
0_00
  6
CONTINUOUS
 62
2
 10
240.2255
 20
422.5066
 11
237.9255
 21
424.8066
  0
LINE
  8
0_00
  6
CONTINUOUS
 62
2
 10
242.4882
 20
422.5066
 11
240.1882
 21
424.8066
  0
LINE
  8
0_00
  6
CONTINUOUS
 62
2
 10
243.4000
 20
423.8575
 11
242.4510
 21
424.8066
  0
LINE
  8
0_00
  6
CONTINUOUS
 62
2
 10
233.4372
 20
422.5066
 11
233.4000
 21
422.5438
  0
LINE
  8
0_00
  6
CONTINUOUS
 62
2
 10
235.7372
 20
424.8066
 11
233.4372
 21
422.5066
  0
LINE
  8
0_00
  6
CONTINUOUS
 62
2
 10
237.9999
 20
424.8066
 11
235.7000
 21
422.5066
  0
LINE
  8
0_00
  6
CONTINUOUS
 62
2
 10
240.2627
 20
424.8066
 11
237.9627
 21
422.5066
  0
LINE
  8
0_00
  6
CONTINUOUS
 62
2
 10
242.5254
 20
424.8066
 11
240.2255
 21
422.5066
  0
LINE
  8
0_00
  6
CONTINUOUS
 62
2
 10
243.4000
 20
423.4184
 11
242.4882
 21
422.5066
  0
LINE
  8
0_00
  6
CONTINUOUS
 62
2
 10
233.4745
 20
424.8066
 11
233.4000
 21
424.7321
  0
LINE
  8
0_00
  6
CONTINUOUS
 62
2
 10
243.4000
 20
422.5066
 11
243.4000
 21
424.8066
  0
LINE
  8
0_00
  6
CONTINUOUS
 62
4
 10
306.4252
 20
421.1066
 11
283.9747
 21
421.1066
  0
LINE
  8
0_00
  6
CONTINUOUS
 62
4
 10
251.9500
 20
424.3066
 11
251.9500
 21
421.1066
  0
LINE
  8
0_00
  6
CONTINUOUS
 62
4
 10
338.4500
 20
424.3066
 11
338.4500
 21
421.1066
  0
LINE
  8
0_00
  6
CONTINUOUS
 62
4
 10
338.4500
 20
421.1066
 11
251.9500
 21
421.1066
  0
LINE
  8
0_00
  6
CONTINUOUS
 62
4
 10
297.2000
 20
421.1066
 11
297.2000
 21
424.3066
  0
LINE
  8
0_00
  6
CONTINUOUS
 62
4
 10
293.2000
 20
421.1066
 11
293.2000
 21
424.3066
  0
LINE
  8
0_00
  6
CONTINUOUS
 62
4
 10
338.4500
 20
424.3066
 11
251.9500
 21
424.3066
  0
LINE
  8
0_00
  6
CONTINUOUS
 62
2
 10
251.9500
 20
424.3066
 11
251.9500
 21
424.6066
  0
LINE
  8
0_00
  6
CONTINUOUS
 62
2
 10
338.4500
 20
424.3066
 11
338.4500
 21
424.6066
  0
LINE
  8
0_00
  6
CONTINUOUS
 62
2
 10
338.4500
 20
424.6066
 11
251.9500
 21
424.6066
  0
LINE
  8
0_00
  6
CONTINUOUS
 62
4
 10
249.9000
 20
411.3066
 11
340.5000
 21
411.3066
  0
LINE
  8
0_00
  6
CONTINUOUS
 62
4
 10
339.0000
 20
414.8066
 11
295.5000
 21
414.8066
  0
LINE
  8
0_00
  6
CONTINUOUS
 62
4
 10
294.9000
 20
414.8066
 11
279.9000
 21
414.8066
  0
LINE
  8
0_00
  6
CONTINUOUS
 62
4
 10
279.9000
 20
414.8066
 11
251.4000
 21
414.8066
  0
LINE
  8
0_00
  6
CONTINUOUS
 62
4
 10
295.2000
 20
414.5066
 11
294.9000
 21
414.8066
  0
LINE
  8
0_00
  6
CONTINUOUS
 62
4
 10
295.2000
 20
414.5066
 11
295.5000
 21
414.8066
  0
LINE
  8
0_00
  6
CONTINUOUS
 62
4
 10
357.0000
 20
422.5066
 11
341.0000
 21
422.5066
  0
LINE
  8
0_00
  6
CONTINUOUS
 62
4
 10
339.0000
 20
418.6066
 11
339.0000
 21
414.8066
  0
LINE
  8
0_00
  6
CONTINUOUS
 62
4
 10
357.0000
 20
422.7066
 11
357.0000
 21
422.5066
  0
LINE
  8
0_00
  6
CONTINUOUS
 62
4
 10
358.5000
 20
422.2066
 11
358.5000
 21
420.2066
  0
LINE
  8
0_00
  6
CONTINUOUS
 62
4
 10
358.0000
 20
422.7066
 11
357.0000
 21
422.7066
  0
LINE
  8
0_00
  6
CONTINUOUS
 62
4
 10
342.5000
 20
418.5066
 11
342.5000
 21
413.3066
  0
LINE
  8
0_00
  6
CONTINUOUS
 62
4
 10
354.5000
 20
419.5066
 11
343.5000
 21
419.5066
  0
LINE
  8
0_00
  6
CONTINUOUS
 62
4
 10
355.5000
 20
418.5066
 11
355.5000
 21
417.7066
  0
LINE
  8
0_00
  6
CONTINUOUS
 62
4
 10
375.0000
 20
398.4066
 11
374.4000
 21
398.4066
  0
LINE
  8
0_00
  6
CONTINUOUS
 62
4
 10
367.9841
 20
420.2066
 11
358.5000
 21
420.2066
  0
LINE
  8
0_00
  6
CONTINUOUS
 62
4
 10
367.6695
 20
417.2066
 11
356.0000
 21
417.2066
  0
LINE
  8
0_00
  6
CONTINUOUS
 62
4
 10
371.3744
 20
417.5757
 11
375.9687
 21
399.6549
  0
LINE
  8
0_00
  6
CONTINUOUS
 62
4
 10
368.6221
 20
416.5106
 11
372.7886
 21
403.4557
  0
LINE
  8
0_00
  6
CONTINUOUS
 62
4
 10
372.9710
 20
402.8840
 11
374.4000
 21
398.4066
  0
LINE
  8
0_00
  6
CONTINUOUS
 62
4
 10
251.4000
 20
418.6066
 11
251.4000
 21
414.8066
  0
LINE
  8
0_00
  6
CONTINUOUS
 62
4
 10
247.9000
 20
418.5066
 11
247.9000
 21
413.3066
  0
LINE
  8
0_00
  6
CONTINUOUS
 62
4
 10
234.9000
 20
418.5066
 11
234.9000
 21
417.7066
  0
LINE
  8
0_00
  6
CONTINUOUS
 62
4
 10
215.4000
 20
398.4066
 11
216.0000
 21
398.4066
  0
LINE
  8
0_00
  6
CONTINUOUS
 62
4
 10
222.4159
 20
420.2066
 11
231.9000
 21
420.2066
  0
LINE
  8
0_00
  6
CONTINUOUS
 62
4
 10
222.7305
 20
417.2066
 11
234.4000
 21
417.2066
  0
LINE
  8
0_00
  6
CONTINUOUS
 62
4
 10
219.0255
 20
417.5757
 11
214.4313
 21
399.6549
  0
LINE
  8
0_00
  6
CONTINUOUS
 62
4
 10
221.7779
 20
416.5106
 11
216.0000
 21
398.4066
  0
LINE
  8
0_00
  6
CONTINUOUS
 62
4
 10
372.7886
 20
403.4557
 11
372.5940
 21
403.0786
  0
LINE
  8
0_00
  6
CONTINUOUS
 62
4
 10
372.5940
 20
403.0786
 11
372.9710
 21
402.8840
  0
LINE
  8
0_00
  6
CENTER1
 62
3
 10
323.2000
 20
424.9115
 11
323.2000
 21
362.7020
  0
LINE
  8
0_00
  6
CENTER1
 62
3
 10
267.2000
 20
423.2905
 11
267.2000
 21
362.7020
  0
LINE
  8
0_00
  6
DASHED
 62
2
 10
325.7000
 20
417.1066
 11
325.7000
 21
371.4367
  0
LINE
  8
0_00
  6
CONTINUOUS
 62
2
 10
317.3000
 20
417.1066
 11
329.1000
 21
417.1066
  0
LINE
  8
0_00
  6
CONTINUOUS
 62
2
 10
329.1000
 20
417.4543
 11
329.1000
 21
417.1066
  0
LINE
  8
0_00
  6
DASHED
 62
2
 10
324.9500
 20
417.1066
 11
324.9500
 21
370.1377
  0
LINE
  8
0_00
  6
DASHED
 62
2
 10
323.2000
 20
367.1066
 11
325.7000
 21
371.4367
  0
LINE
  8
0_00
  6
DASHED
 62
2
 10
320.7000
 20
417.1066
 11
320.7000
 21
371.4367
  0
LINE
  8
0_00
  6
CONTINUOUS
 62
2
 10
317.3000
 20
417.4543
 11
317.3000
 21
417.1066
  0
LINE
  8
0_00
  6
DASHED
 62
2
 10
321.4500
 20
417.1066
 11
321.4500
 21
370.1377
  0
LINE
  8
0_00
  6
DASHED
 62
2
 10
323.2000
 20
367.1066
 11
320.7000
 21
371.4367
  0
LINE
  8
0_00
  6
CONTINUOUS
 62
2
 10
317.3000
 20
417.4543
 11
329.1000
 21
417.4543
  0
LINE
  8
0_00
  6
DASHED
 62
2
 10
264.7000
 20
417.1066
 11
264.7000
 21
371.4367
  0
LINE
  8
0_00
  6
CONTINUOUS
 62
2
 10
273.1000
 20
417.1066
 11
261.3000
 21
417.1066
  0
LINE
  8
0_00
  6
CONTINUOUS
 62
2
 10
261.3000
 20
417.4543
 11
261.3000
 21
417.1066
  0
LINE
  8
0_00
  6
DASHED
 62
2
 10
265.4500
 20
417.1066
 11
265.4500
 21
370.1377
  0
LINE
  8
0_00
  6
DASHED
 62
2
 10
267.2000
 20
367.1066
 11
264.7000
 21
371.4367
  0
LINE
  8
0_00
  6
DASHED
 62
2
 10
269.7000
 20
417.1066
 11
269.7000
 21
371.4367
  0
LINE
  8
0_00
  6
CONTINUOUS
 62
2
 10
273.1000
 20
417.4543
 11
273.1000
 21
417.1066
  0
LINE
  8
0_00
  6
DASHED
 62
2
 10
268.9500
 20
417.1066
 11
268.9500
 21
370.1377
  0
LINE
  8
0_00
  6
DASHED
 62
2
 10
267.2000
 20
367.1066
 11
269.7000
 21
371.4367
  0
LINE
  8
0_00
  6
CONTINUOUS
 62
2
 10
273.1000
 20
417.4543
 11
261.3000
 21
417.4543
  0
LINE
  8
0_00
  6
CONTINUOUS
 62
4
 10
337.2000
 20
414.8066
 11
310.2000
 21
414.8066
  0
LINE
  8
0_00
  6
CONTINUOUS
 62
4
 10
280.2000
 20
414.8066
 11
253.2000
 21
414.8066
  0
LINE
  8
0_00
  6
CONTINUOUS
 62
4
 10
337.2000
 20
417.1066
 11
310.2000
 21
417.1066
  0
LINE
  8
0_00
  6
CONTINUOUS
 62
4
 10
280.2000
 20
417.1066
 11
253.2000
 21
417.1066
  0
LINE
  8
0_00
  6
CONTINUOUS
 62
4
 10
337.2000
 20
417.1066
 11
337.2000
 21
414.8066
  0
LINE
  8
0_00
  6
CONTINUOUS
 62
4
 10
253.2000
 20
417.1066
 11
253.2000
 21
414.8066
  0
LINE
  8
0_00
  6
CONTINUOUS
 62
4
 10
310.2000
 20
417.1066
 11
308.3757
 21
420.0256
  0
LINE
  8
0_00
  6
CONTINUOUS
 62
4
 10
282.0244
 20
420.0256
 11
280.2000
 21
417.1066
  0
LINE
  8
0_00
  6
CONTINUOUS
 62
4
 10
308.2496
 20
415.8875
 11
306.4252
 21
418.8066
  0
LINE
  8
0_00
  6
CONTINUOUS
 62
4
 10
283.9747
 20
418.8066
 11
282.1504
 21
415.8875
  0
LINE
  8
0_00
  6
CONTINUOUS
 62
2
 10
357.0000
 20
422.5066
 11
357.0000
 21
424.8066
  0
LINE
  8
0_00
  6
CONTINUOUS
 62
2
 10
353.5686
 20
422.5066
 11
355.8686
 21
424.8066
  0
LINE
  8
0_00
  6
CONTINUOUS
 62
2
 10
351.3059
 20
422.5066
 11
353.6059
 21
424.8066
  0
LINE
  8
0_00
  6
CONTINUOUS
 62
2
 10
349.0432
 20
422.5066
 11
351.3431
 21
424.8066
  0
LINE
  8
0_00
  6
CONTINUOUS
 62
2
 10
347.0000
 20
422.7262
 11
349.0804
 21
424.8066
  0
LINE
  8
0_00
  6
CONTINUOUS
 62
2
 10
355.8314
 20
422.5066
 11
357.0000
 21
423.6752
  0
LINE
  8
0_00
  6
CONTINUOUS
 62
2
 10
356.9628
 20
422.5066
 11
357.0000
 21
422.5438
  0
LINE
  8
0_00
  6
CONTINUOUS
 62
2
 10
354.6628
 20
424.8066
 11
356.9628
 21
422.5066
  0
LINE
  8
0_00
  6
CONTINUOUS
 62
2
 10
352.4000
 20
424.8066
 11
354.7000
 21
422.5066
  0
LINE
  8
0_00
  6
CONTINUOUS
 62
2
 10
350.1373
 20
424.8066
 11
352.4373
 21
422.5066
  0
LINE
  8
0_00
  6
CONTINUOUS
 62
2
 10
347.8746
 20
424.8066
 11
350.1745
 21
422.5066
  0
LINE
  8
0_00
  6
CONTINUOUS
 62
2
 10
347.0000
 20
423.4184
 11
347.9118
 21
422.5066
  0
LINE
  8
0_00
  6
CONTINUOUS
 62
2
 10
356.9255
 20
424.8066
 11
357.0000
 21
424.7321
  0
LINE
  8
0_00
  6
CONTINUOUS
 62
2
 10
347.0000
 20
422.5066
 11
347.0000
 21
424.8066
  0
LINE
  8
15_0F
  6
CONTINUOUS
 62
6
 10
215.4136
 20
339.6882
 11
123.7727
 21
339.6882
  0
LINE
  8
13_0D
  6
CONTINUOUS
 62
6
 10
222.7000
 20
292.4031
 11
222.7000
 21
273.9193
  0
LINE
  8
13_0D
  6
CONTINUOUS
 62
6
 10
212.7000
 20
278.4193
 11
222.7000
 21
278.4193
  0
LINE
  8
13_0D
  6
CONTINUOUS
 62
6
 10
180.3000
 20
278.4193
 11
212.7000
 21
278.4193
  0
LINE
  8
13_0D
  6
CONTINUOUS
 62
6
 10
212.7000
 20
278.4193
 11
205.3639
 21
279.9786
  0
LINE
  8
13_0D
  6
CONTINUOUS
 62
6
 10
212.7000
 20
278.4193
 11
205.3639
 21
276.8599
  0
LINE
  8
13_0D
  6
CONTINUOUS
 62
6
 10
225.2000
 20
292.4031
 11
225.2000
 21
273.9193
  0
LINE
  8
13_0D
  6
CONTINUOUS
 62
6
 10
222.7000
 20
278.4193
 11
225.2000
 21
278.4193
  0
LINE
  8
13_0D
  6
CONTINUOUS
 62
6
 10
365.2000
 20
292.4031
 11
365.2000
 21
273.9193
  0
LINE
  8
13_0D
  6
CONTINUOUS
 62
6
 10
225.2000
 20
278.4193
 11
365.2000
 21
278.4193
  0
LINE
  8
13_0D
  6
CONTINUOUS
 62
6
 10
225.2000
 20
278.4193
 11
232.5361
 21
276.8599
  0
LINE
  8
13_0D
  6
CONTINUOUS
 62
6
 10
225.2000
 20
278.4193
 11
232.5361
 21
279.9786
  0
LINE
  8
13_0D
  6
CONTINUOUS
 62
6
 10
365.2000
 20
278.4193
 11
357.8639
 21
279.9786
  0
LINE
  8
13_0D
  6
CONTINUOUS
 62
6
 10
365.2000
 20
278.4193
 11
357.8639
 21
276.8599
  0
LINE
  8
13_0D
  6
CONTINUOUS
 62
6
 10
367.7000
 20
292.4031
 11
367.7000
 21
273.9193
  0
LINE
  8
13_0D
  6
CONTINUOUS
 62
6
 10
365.2000
 20
278.4193
 11
367.7000
 21
278.4193
  0
LINE
  8
13_0D
  6
CONTINUOUS
 62
6
 10
367.7000
 20
278.4193
 11
377.7000
 21
278.4193
  0
LINE
  8
13_0D
  6
CONTINUOUS
 62
6
 10
410.1000
 20
278.4193
 11
377.7000
 21
278.4193
  0
LINE
  8
13_0D
  6
CONTINUOUS
 62
6
 10
377.7000
 20
278.4193
 11
385.0361
 21
276.8599
  0
LINE
  8
13_0D
  6
CONTINUOUS
 62
6
 10
377.7000
 20
278.4193
 11
385.0361
 21
279.9786
  0
LINE
  8
13_0D
  6
CONTINUOUS
 62
6
 10
212.7000
 20
371.8802
 11
212.7000
 21
233.9193
  0
LINE
  8
13_0D
  6
CONTINUOUS
 62
6
 10
377.7000
 20
371.8802
 11
377.7000
 21
233.9193
  0
LINE
  8
13_0D
  6
CONTINUOUS
 62
6
 10
212.7000
 20
238.4193
 11
377.7000
 21
238.4193
  0
LINE
  8
13_0D
  6
CONTINUOUS
 62
6
 10
212.7000
 20
238.4193
 11
220.0361
 21
236.8599
  0
LINE
  8
13_0D
  6
CONTINUOUS
 62
6
 10
212.7000
 20
238.4193
 11
220.0361
 21
239.9786
  0
LINE
  8
13_0D
  6
CONTINUOUS
 62
6
 10
377.7000
 20
238.4193
 11
370.3639
 21
239.9786
  0
LINE
  8
13_0D
  6
CONTINUOUS
 62
6
 10
377.7000
 20
238.4193
 11
370.3639
 21
236.8599
  0
LINE
  8
0_00
  6
CONTINUOUS
 62
4
 10
576.0419
 20
560.1194
 11
1137.0419
 21
560.1194
  0
LINE
  8
0_00
  6
CONTINUOUS
 62
4
 10
578.2559
 20
686.8692
 11
1134.8282
 21
686.8692
  0
LINE
  8
0_00
  6
CONTINUOUS
 62
4
 10
578.8040
 20
695.1192
 11
1134.2799
 21
695.1192
  0
LINE
  8
15_0F
  6
CONTINUOUS
 62
4
 10
1128.3645
 20
213.5623
 11
849.6930
 21
213.5623
  0
LINE
  8
15_0F
  6
CONTINUOUS
 62
4
 10
868.3013
 20
378.5623
 11
1128.3645
 21
378.5623
  0
LINE
  8
0_00
  6
CONTINUOUS
 62
4
 10
1042.4842
 20
317.5623
 11
1053.6841
 21
317.5623
  0
LINE
  8
0_00
  6
CONTINUOUS
 62
4
 10
1039.9841
 20
315.0623
 11
1039.9841
 21
296.3623
  0
LINE
  8
0_00
  6
CONTINUOUS
 62
4
 10
1053.9841
 20
317.2623
 11
1053.6841
 21
317.5623
  0
LINE
  8
0_00
  6
CONTINUOUS
 62
4
 10
1050.6841
 20
316.3624
 11
1046.7738
 21
316.3624
  0
LINE
  8
0_00
  6
CONTINUOUS
 62
4
 10
1040.2841
 20
296.0623
 11
1039.9841
 21
296.3623
  0
LINE
  8
0_00
  6
CONTINUOUS
 62
4
 10
1041.1841
 20
299.3623
 11
1041.1841
 21
310.7726
  0
LINE
  8
0_00
  6
CONTINUOUS
 62
4
 10
1053.9841
 20
315.5623
 11
1051.4842
 21
315.5623
  0
LINE
  8
0_00
  6
CONTINUOUS
 62
4
 10
1050.6841
 20
316.3624
 11
1051.4842
 21
315.5623
  0
LINE
  8
0_00
  6
CONTINUOUS
 62
4
 10
1040.2841
 20
296.0623
 11
1039.9841
 21
295.7623
  0
LINE
  8
0_00
  6
CONTINUOUS
 62
4
 10
1040.2841
 20
296.0623
 11
1039.9841
 21
296.3623
  0
LINE
  8
0_00
  6
CONTINUOUS
 62
4
 10
1041.9841
 20
296.0623
 11
1041.9841
 21
298.5623
  0
LINE
  8
0_00
  6
CONTINUOUS
 62
4
 10
1041.1841
 20
299.3623
 11
1041.9841
 21
298.5623
  0
LINE
  8
0_00
  6
CONTINUOUS
 62
4
 10
1065.4841
 20
317.5623
 11
1054.2840
 21
317.5623
  0
LINE
  8
0_00
  6
CONTINUOUS
 62
4
 10
1067.9842
 20
315.0623
 11
1067.9842
 21
296.3623
  0
LINE
  8
0_00
  6
CONTINUOUS
 62
4
 10
1053.9841
 20
317.2623
 11
1054.2840
 21
317.5623
  0
LINE
  8
0_00
  6
CONTINUOUS
 62
4
 10
1057.2840
 20
316.3624
 11
1061.1943
 21
316.3624
  0
LINE
  8
0_00
  6
CONTINUOUS
 62
4
 10
1067.6841
 20
296.0623
 11
1067.9842
 21
296.3623
  0
LINE
  8
0_00
  6
CONTINUOUS
 62
4
 10
1066.7840
 20
299.3623
 11
1066.7840
 21
310.7726
  0
LINE
  8
0_00
  6
CONTINUOUS
 62
4
 10
1053.9841
 20
315.5623
 11
1056.4841
 21
315.5623
  0
LINE
  8
0_00
  6
CONTINUOUS
 62
4
 10
1057.2840
 20
316.3624
 11
1056.4841
 21
315.5623
  0
LINE
  8
0_00
  6
CONTINUOUS
 62
4
 10
1067.6841
 20
296.0623
 11
1067.9842
 21
295.7623
  0
LINE
  8
0_00
  6
CONTINUOUS
 62
4
 10
1067.6841
 20
296.0623
 11
1067.9842
 21
296.3623
  0
LINE
  8
0_00
  6
CONTINUOUS
 62
4
 10
1065.9841
 20
296.0623
 11
1065.9841
 21
298.5623
  0
LINE
  8
0_00
  6
CONTINUOUS
 62
4
 10
1066.7840
 20
299.3623
 11
1065.9841
 21
298.5623
  0
LINE
  8
0_00
  6
CONTINUOUS
 62
4
 10
1042.4842
 20
274.5623
 11
1053.6841
 21
274.5623
  0
LINE
  8
0_00
  6
CONTINUOUS
 62
4
 10
1039.9841
 20
277.0623
 11
1039.9841
 21
295.7623
  0
LINE
  8
0_00
  6
CONTINUOUS
 62
4
 10
1053.9841
 20
274.8623
 11
1053.6841
 21
274.5623
  0
LINE
  8
0_00
  6
CONTINUOUS
 62
4
 10
1050.6841
 20
275.7623
 11
1046.7738
 21
275.7623
  0
LINE
  8
0_00
  6
CONTINUOUS
 62
4
 10
1040.2841
 20
296.0623
 11
1039.9841
 21
295.7623
  0
LINE
  8
0_00
  6
CONTINUOUS
 62
4
 10
1041.1841
 20
292.7623
 11
1041.1841
 21
281.3521
  0
LINE
  8
0_00
  6
CONTINUOUS
 62
4
 10
1053.9841
 20
276.5623
 11
1051.4842
 21
276.5623
  0
LINE
  8
0_00
  6
CONTINUOUS
 62
4
 10
1050.6841
 20
275.7623
 11
1051.4842
 21
276.5623
  0
LINE
  8
0_00
  6
CONTINUOUS
 62
4
 10
1040.2841
 20
296.0623
 11
1039.9841
 21
296.3623
  0
LINE
  8
0_00
  6
CONTINUOUS
 62
4
 10
1040.2841
 20
296.0623
 11
1039.9841
 21
295.7623
  0
LINE
  8
0_00
  6
CONTINUOUS
 62
4
 10
1041.9841
 20
296.0623
 11
1041.9841
 21
293.5623
  0
LINE
  8
0_00
  6
CONTINUOUS
 62
4
 10
1041.1841
 20
292.7623
 11
1041.9841
 21
293.5623
  0
LINE
  8
0_00
  6
CONTINUOUS
 62
4
 10
1065.4841
 20
274.5623
 11
1054.2840
 21
274.5623
  0
LINE
  8
0_00
  6
CONTINUOUS
 62
4
 10
1067.9842
 20
277.0623
 11
1067.9842
 21
295.7623
  0
LINE
  8
0_00
  6
CONTINUOUS
 62
4
 10
1053.9841
 20
274.8623
 11
1054.2840
 21
274.5623
  0
LINE
  8
0_00
  6
CONTINUOUS
 62
4
 10
1057.2840
 20
275.7623
 11
1061.1943
 21
275.7623
  0
LINE
  8
0_00
  6
CONTINUOUS
 62
4
 10
1067.6841
 20
296.0623
 11
1067.9842
 21
295.7623
  0
LINE
  8
0_00
  6
CONTINUOUS
 62
4
 10
1066.7840
 20
292.7623
 11
1066.7840
 21
281.3521
  0
LINE
  8
0_00
  6
CONTINUOUS
 62
4
 10
1053.9841
 20
276.5623
 11
1056.4841
 21
276.5623
  0
LINE
  8
0_00
  6
CONTINUOUS
 62
4
 10
1057.2840
 20
275.7623
 11
1056.4841
 21
276.5623
  0
LINE
  8
0_00
  6
CONTINUOUS
 62
4
 10
1067.6841
 20
296.0623
 11
1067.9842
 21
296.3623
  0
LINE
  8
0_00
  6
CONTINUOUS
 62
4
 10
1067.6841
 20
296.0623
 11
1067.9842
 21
295.7623
  0
LINE
  8
0_00
  6
CONTINUOUS
 62
4
 10
1065.9841
 20
296.0623
 11
1065.9841
 21
293.5623
  0
LINE
  8
0_00
  6
CONTINUOUS
 62
4
 10
1066.7840
 20
292.7623
 11
1065.9841
 21
293.5623
  0
LINE
  8
0_00
  6
CONTINUOUS
 62
4
 10
1066.0931
 20
314.6108
 11
1066.4286
 21
314.9462
  0
LINE
  8
0_00
  6
CONTINUOUS
 62
4
 10
1066.4286
 20
314.9462
 11
1065.3680
 21
316.0069
  0
LINE
  8
0_00
  6
CONTINUOUS
 62
4
 10
1065.3680
 20
316.0069
 11
1065.0325
 21
315.6715
  0
LINE
  8
0_00
  6
CONTINUOUS
 62
4
 10
1063.9357
 20
315.6715
 11
1063.6003
 21
316.0069
  0
LINE
  8
0_00
  6
CONTINUOUS
 62
4
 10
1063.6003
 20
316.0069
 11
1062.5395
 21
314.9462
  0
LINE
  8
0_00
  6
CONTINUOUS
 62
4
 10
1062.5395
 20
314.9462
 11
1062.8750
 21
314.6108
  0
LINE
  8
0_00
  6
CONTINUOUS
 62
4
 10
1065.0325
 20
312.4533
 11
1065.3680
 21
312.1178
  0
LINE
  8
0_00
  6
CONTINUOUS
 62
4
 10
1065.3680
 20
312.1178
 11
1066.4286
 21
313.1785
  0
LINE
  8
0_00
  6
CONTINUOUS
 62
4
 10
1066.4286
 20
313.1785
 11
1066.0931
 21
313.5139
  0
LINE
  8
0_00
  6
CONTINUOUS
 62
4
 10
1041.8750
 20
314.6108
 11
1041.5395
 21
314.9462
  0
LINE
  8
0_00
  6
CONTINUOUS
 62
4
 10
1041.5395
 20
314.9462
 11
1042.6003
 21
316.0069
  0
LINE
  8
0_00
  6
CONTINUOUS
 62
4
 10
1042.6003
 20
316.0069
 11
1042.9357
 21
315.6715
  0
LINE
  8
0_00
  6
CONTINUOUS
 62
4
 10
1044.0325
 20
315.6715
 11
1044.3680
 21
316.0069
  0
LINE
  8
0_00
  6
CONTINUOUS
 62
4
 10
1044.3680
 20
316.0069
 11
1045.4286
 21
314.9462
  0
LINE
  8
0_00
  6
CONTINUOUS
 62
4
 10
1045.4286
 20
314.9462
 11
1045.0931
 21
314.6108
  0
LINE
  8
0_00
  6
CONTINUOUS
 62
4
 10
1042.9357
 20
312.4533
 11
1042.6003
 21
312.1178
  0
LINE
  8
0_00
  6
CONTINUOUS
 62
4
 10
1042.6003
 20
312.1178
 11
1041.5395
 21
313.1785
  0
LINE
  8
0_00
  6
CONTINUOUS
 62
4
 10
1041.5395
 20
313.1785
 11
1041.8750
 21
313.5139
  0
LINE
  8
0_00
  6
CONTINUOUS
 62
4
 10
1066.0931
 20
277.5139
 11
1066.4286
 21
277.1785
  0
LINE
  8
0_00
  6
CONTINUOUS
 62
4
 10
1066.4286
 20
277.1785
 11
1065.3680
 21
276.1178
  0
LINE
  8
0_00
  6
CONTINUOUS
 62
4
 10
1065.3680
 20
276.1178
 11
1065.0325
 21
276.4532
  0
LINE
  8
0_00
  6
CONTINUOUS
 62
4
 10
1063.9357
 20
276.4532
 11
1063.6003
 21
276.1178
  0
LINE
  8
0_00
  6
CONTINUOUS
 62
4
 10
1063.6003
 20
276.1178
 11
1062.5395
 21
277.1785
  0
LINE
  8
0_00
  6
CONTINUOUS
 62
4
 10
1062.5395
 20
277.1785
 11
1062.8750
 21
277.5139
  0
LINE
  8
0_00
  6
CONTINUOUS
 62
4
 10
1065.0325
 20
279.6714
 11
1065.3680
 21
280.0069
  0
LINE
  8
0_00
  6
CONTINUOUS
 62
4
 10
1065.3680
 20
280.0069
 11
1066.4286
 21
278.9462
  0
LINE
  8
0_00
  6
CONTINUOUS
 62
4
 10
1066.4286
 20
278.9462
 11
1066.0931
 21
278.6108
  0
LINE
  8
0_00
  6
CONTINUOUS
 62
4
 10
1041.8750
 20
277.5139
 11
1041.5395
 21
277.1785
  0
LINE
  8
0_00
  6
CONTINUOUS
 62
4
 10
1041.5395
 20
277.1785
 11
1042.6003
 21
276.1178
  0
LINE
  8
0_00
  6
CONTINUOUS
 62
4
 10
1042.6003
 20
276.1178
 11
1042.9357
 21
276.4532
  0
LINE
  8
0_00
  6
CONTINUOUS
 62
4
 10
1044.0325
 20
276.4532
 11
1044.3680
 21
276.1178
  0
LINE
  8
0_00
  6
CONTINUOUS
 62
4
 10
1044.3680
 20
276.1178
 11
1045.4286
 21
277.1785
  0
LINE
  8
0_00
  6
CONTINUOUS
 62
4
 10
1045.4286
 20
277.1785
 11
1045.0931
 21
277.5139
  0
LINE
  8
0_00
  6
CONTINUOUS
 62
4
 10
1042.9357
 20
279.6714
 11
1042.6003
 21
280.0069
  0
LINE
  8
0_00
  6
CONTINUOUS
 62
4
 10
1042.6003
 20
280.0069
 11
1041.5395
 21
278.9462
  0
LINE
  8
0_00
  6
CONTINUOUS
 62
4
 10
1041.5395
 20
278.9462
 11
1041.8750
 21
278.6108
  0
LINE
  8
0_00
  6
CONTINUOUS
 62
4
 10
1066.6915
 20
311.0623
 11
1065.7341
 21
311.0623
  0
LINE
  8
0_00
  6
CONTINUOUS
 62
4
 10
1042.2341
 20
311.0623
 11
1041.2766
 21
311.0623
  0
LINE
  8
0_00
  6
CONTINUOUS
 62
4
 10
1053.6841
 20
287.0623
 11
1054.2840
 21
287.0623
  0
LINE
  8
0_00
  6
CONTINUOUS
 62
4
 10
1053.6841
 20
308.0623
 11
1054.2840
 21
308.0623
  0
LINE
  8
0_00
  6
CONTINUOUS
 62
4
 10
1053.6841
 20
305.0623
 11
1054.2840
 21
305.0623
  0
LINE
  8
0_00
  6
CONTINUOUS
 62
4
 10
1054.2840
 20
305.0623
 11
1054.2840
 21
308.0623
  0
LINE
  8
0_00
  6
CONTINUOUS
 62
4
 10
1053.6841
 20
305.0623
 11
1053.6841
 21
308.0623
  0
LINE
  8
0_00
  6
CONTINUOUS
 62
4
 10
1053.9841
 20
308.0623
 11
1053.9841
 21
305.0623
  0
LINE
  8
0_00
  6
CONTINUOUS
 62
4
 10
1065.4841
 20
318.5623
 11
1042.4842
 21
318.5623
  0
LINE
  8
0_00
  6
CONTINUOUS
 62
4
 10
1038.9841
 20
315.0623
 11
1038.9841
 21
277.0623
  0
LINE
  8
0_00
  6
CONTINUOUS
 62
4
 10
1068.9841
 20
277.0623
 11
1068.9841
 21
315.0623
  0
LINE
  8
15_0F
  6
CONTINUOUS
 62
4
 10
863.6426
 20
378.5623
 11
564.6749
 21
378.5623
  0
LINE
  8
0_00
  6
CONTINUOUS
 62
4
 10
698.5040
 20
376.8623
 11
638.5039
 21
376.8623
  0
LINE
  8
0_00
  6
CONTINUOUS
 62
4
 10
638.5039
 20
371.5623
 11
698.5040
 21
371.5623
  0
LINE
  8
0_00
  6
CONTINUOUS
 62
4
 10
638.5039
 20
359.3623
 11
698.5040
 21
359.3623
  0
LINE
  8
0_00
  6
CONTINUOUS
 62
4
 10
638.5039
 20
357.8623
 11
698.5040
 21
357.8623
  0
LINE
  8
0_00
  6
CONTINUOUS
 62
2
 10
638.5039
 20
347.8623
 11
698.5040
 21
347.8623
  0
LINE
  8
0_00
  6
CONTINUOUS
 62
2
 10
688.5040
 20
357.8623
 11
698.5040
 21
347.8623
  0
LINE
  8
0_00
  6
CONTINUOUS
 62
2
 10
691.3324
 20
357.8623
 11
698.5040
 21
350.6908
  0
LINE
  8
0_00
  6
CONTINUOUS
 62
2
 10
694.1608
 20
357.8623
 11
698.5040
 21
353.5192
  0
LINE
  8
0_00
  6
CONTINUOUS
 62
2
 10
696.9893
 20
357.8623
 11
698.5040
 21
356.3476
  0
LINE
  8
0_00
  6
CONTINUOUS
 62
2
 10
685.6755
 20
357.8623
 11
695.6755
 21
347.8623
  0
LINE
  8
0_00
  6
CONTINUOUS
 62
2
 10
682.8471
 20
357.8623
 11
692.8472
 21
347.8623
  0
LINE
  8
0_00
  6
CONTINUOUS
 62
2
 10
680.0186
 20
357.8623
 11
690.0187
 21
347.8623
  0
LINE
  8
0_00
  6
CONTINUOUS
 62
2
 10
677.1903
 20
357.8623
 11
687.1902
 21
347.8623
  0
LINE
  8
0_00
  6
CONTINUOUS
 62
2
 10
674.3618
 20
357.8623
 11
684.3618
 21
347.8623
  0
LINE
  8
0_00
  6
CONTINUOUS
 62
2
 10
671.5334
 20
357.8623
 11
681.5334
 21
347.8623
  0
LINE
  8
0_00
  6
CONTINUOUS
 62
2
 10
668.7051
 20
357.8623
 11
678.7050
 21
347.8623
  0
LINE
  8
0_00
  6
CONTINUOUS
 62
2
 10
665.8766
 20
357.8623
 11
675.8766
 21
347.8623
  0
LINE
  8
0_00
  6
CONTINUOUS
 62
2
 10
663.0481
 20
357.8623
 11
673.0481
 21
347.8623
  0
LINE
  8
0_00
  6
CONTINUOUS
 62
2
 10
660.2197
 20
357.8623
 11
670.2198
 21
347.8623
  0
LINE
  8
0_00
  6
CONTINUOUS
 62
2
 10
657.3913
 20
357.8623
 11
667.3913
 21
347.8623
  0
LINE
  8
0_00
  6
CONTINUOUS
 62
2
 10
654.5629
 20
357.8623
 11
664.5629
 21
347.8623
  0
LINE
  8
0_00
  6
CONTINUOUS
 62
2
 10
651.7344
 20
357.8623
 11
661.7345
 21
347.8623
  0
LINE
  8
0_00
  6
CONTINUOUS
 62
2
 10
648.9060
 20
357.8623
 11
658.9060
 21
347.8623
  0
LINE
  8
0_00
  6
CONTINUOUS
 62
2
 10
646.0776
 20
357.8623
 11
656.0776
 21
347.8623
  0
LINE
  8
0_00
  6
CONTINUOUS
 62
2
 10
643.2491
 20
357.8623
 11
653.2491
 21
347.8623
  0
LINE
  8
0_00
  6
CONTINUOUS
 62
2
 10
640.4208
 20
357.8623
 11
650.4207
 21
347.8623
  0
LINE
  8
0_00
  6
CONTINUOUS
 62
2
 10
638.5039
 20
356.9507
 11
647.5923
 21
347.8623
  0
LINE
  8
0_00
  6
CONTINUOUS
 62
2
 10
638.5039
 20
354.1222
 11
644.7638
 21
347.8623
  0
LINE
  8
0_00
  6
CONTINUOUS
 62
2
 10
638.5039
 20
351.2938
 11
641.9355
 21
347.8623
  0
LINE
  8
0_00
  6
CONTINUOUS
 62
2
 10
638.5039
 20
348.4654
 11
639.1070
 21
347.8623
  0
LINE
  8
0_00
  6
CONTINUOUS
 62
4
 10
564.6749
 20
377.1623
 11
863.2674
 21
377.1623
  0
LINE
  8
15_0F
  6
CONTINUOUS
 62
4
 10
860.2932
 20
366.0623
 11
698.5040
 21
366.0623
  0
LINE
  8
15_0F
  6
CONTINUOUS
 62
4
 10
638.5039
 20
366.0623
 11
564.6749
 21
366.0623
  0
LINE
  8
0_00
  6
CONTINUOUS
 62
2
 10
649.7280
 20
326.1522
 11
650.5970
 21
325.3135
  0
LINE
  8
0_00
  6
CONTINUOUS
 62
2
 10
650.5970
 20
325.3135
 11
651.0040
 21
325.1650
  0
LINE
  8
0_00
  6
CONTINUOUS
 62
2
 10
651.0040
 20
325.1650
 11
651.3890
 21
325.3053
  0
LINE
  8
0_00
  6
CONTINUOUS
 62
2
 10
651.3890
 20
325.3053
 11
652.2854
 21
326.1495
  0
LINE
  8
0_00
  6
CONTINUOUS
 62
2
 10
648.9141
 20
325.3382
 11
649.7528
 21
324.4693
  0
LINE
  8
0_00
  6
CONTINUOUS
 62
2
 10
649.7528
 20
324.4693
 11
649.9013
 21
324.0623
  0
LINE
  8
0_00
  6
CONTINUOUS
 62
2
 10
649.9013
 20
324.0623
 11
649.7611
 21
323.6774
  0
LINE
  8
0_00
  6
CONTINUOUS
 62
2
 10
649.7611
 20
323.6774
 11
648.9169
 21
322.7809
  0
LINE
  8
0_00
  6
CONTINUOUS
 62
2
 10
653.0939
 20
322.7864
 11
652.2552
 21
323.6554
  0
LINE
  8
0_00
  6
CONTINUOUS
 62
2
 10
652.2552
 20
323.6554
 11
652.1067
 21
324.0623
  0
LINE
  8
0_00
  6
CONTINUOUS
 62
2
 10
652.1067
 20
324.0623
 11
652.2469
 21
324.4473
  0
LINE
  8
0_00
  6
CONTINUOUS
 62
2
 10
652.2469
 20
324.4473
 11
653.0911
 21
325.3437
  0
LINE
  8
0_00
  6
CONTINUOUS
 62
2
 10
652.2799
 20
321.9725
 11
651.4109
 21
322.8112
  0
LINE
  8
0_00
  6
CONTINUOUS
 62
2
 10
651.4109
 20
322.8112
 11
651.0040
 21
322.9597
  0
LINE
  8
0_00
  6
CONTINUOUS
 62
2
 10
651.0040
 20
322.9597
 11
650.6190
 21
322.8194
  0
LINE
  8
0_00
  6
CONTINUOUS
 62
2
 10
650.6190
 20
322.8194
 11
649.7225
 21
321.9752
  0
LINE
  8
0_00
  6
CONTINUOUS
 62
4
 10
698.5040
 20
376.8623
 11
698.5040
 21
215.2623
  0
LINE
  8
0_00
  6
CONTINUOUS
 62
4
 10
638.5039
 20
376.8623
 11
638.5039
 21
215.2623
  0
LINE
  8
0_00
  6
CONTINUOUS
 62
4
 10
698.5040
 20
215.2623
 11
638.5039
 21
215.2623
  0
LINE
  8
0_00
  6
CONTINUOUS
 62
4
 10
638.5039
 20
220.5623
 11
698.5040
 21
220.5623
  0
LINE
  8
0_00
  6
CONTINUOUS
 62
4
 10
638.5039
 20
232.7623
 11
698.5040
 21
232.7623
  0
LINE
  8
0_00
  6
CONTINUOUS
 62
4
 10
638.5039
 20
234.2623
 11
698.5040
 21
234.2623
  0
LINE
  8
0_00
  6
CONTINUOUS
 62
4
 10
638.5039
 20
250.2623
 11
698.5040
 21
250.2623
  0
LINE
  8
0_00
  6
CONTINUOUS
 62
4
 10
638.5039
 20
251.7623
 11
698.5040
 21
251.7623
  0
LINE
  8
0_00
  6
CONTINUOUS
 62
4
 10
638.5039
 20
255.0623
 11
698.5040
 21
255.0623
  0
LINE
  8
0_00
  6
CONTINUOUS
 62
4
 10
638.5039
 20
341.8624
 11
698.5040
 21
341.8624
  0
LINE
  8
0_00
  6
CONTINUOUS
 62
4
 10
638.5039
 20
340.3624
 11
698.5040
 21
340.3624
  0
LINE
  8
0_00
  6
CONTINUOUS
 62
4
 10
638.5039
 20
337.0623
 11
698.5040
 21
337.0623
  0
LINE
  8
0_00
  6
CONTINUOUS
 62
4
 10
669.0040
 20
336.5623
 11
668.0040
 21
336.5623
  0
LINE
  8
0_00
  6
CONTINUOUS
 62
4
 10
669.0040
 20
336.5623
 11
669.0040
 21
335.3662
  0
LINE
  8
0_00
  6
CONTINUOUS
 62
4
 10
668.0040
 20
336.5623
 11
668.0040
 21
335.3662
  0
LINE
  8
0_00
  6
CONTINUOUS
 62
4
 10
668.5040
 20
336.5623
 11
668.5040
 21
335.0623
  0
LINE
  8
0_00
  6
CONTINUOUS
 62
4
 10
669.0040
 20
255.5623
 11
668.0040
 21
255.5623
  0
LINE
  8
0_00
  6
CONTINUOUS
 62
4
 10
669.0040
 20
255.5623
 11
669.0040
 21
256.7585
  0
LINE
  8
0_00
  6
CONTINUOUS
 62
4
 10
668.0040
 20
255.5623
 11
668.0040
 21
256.7585
  0
LINE
  8
0_00
  6
CONTINUOUS
 62
4
 10
668.5040
 20
255.5623
 11
668.5040
 21
257.0623
  0
LINE
  8
0_00
  6
CONTINUOUS
 62
4
 10
638.5039
 20
335.0623
 11
638.5039
 21
298.0623
  0
LINE
  8
0_00
  6
CONTINUOUS
 62
4
 10
638.5039
 20
294.0623
 11
638.5039
 21
257.0623
  0
LINE
  8
0_00
  6
CONTINUOUS
 62
4
 10
698.5040
 20
335.0623
 11
698.5040
 21
298.0623
  0
LINE
  8
0_00
  6
CONTINUOUS
 62
4
 10
698.5040
 20
294.0623
 11
698.5040
 21
257.0623
  0
LINE
  8
0_00
  6
CONTINUOUS
 62
4
 10
698.5040
 20
298.0623
 11
696.6721
 21
296.4363
  0
LINE
  8
0_00
  6
CONTINUOUS
 62
4
 10
698.5040
 20
294.0623
 11
696.6721
 21
295.6884
  0
LINE
  8
0_00
  6
CONTINUOUS
 62
4
 10
638.5039
 20
298.0623
 11
640.3359
 21
296.4363
  0
LINE
  8
0_00
  6
CONTINUOUS
 62
4
 10
638.5039
 20
294.0623
 11
640.3359
 21
295.6884
  0
LINE
  8
0_00
  6
CONTINUOUS
 62
4
 10
670.5767
 20
337.0623
 11
668.8706
 21
335.2223
  0
LINE
  8
0_00
  6
CONTINUOUS
 62
4
 10
666.4312
 20
337.0623
 11
668.1373
 21
335.2223
  0
LINE
  8
0_00
  6
CONTINUOUS
 62
4
 10
670.5767
 20
255.0623
 11
668.8706
 21
256.9023
  0
LINE
  8
0_00
  6
CONTINUOUS
 62
4
 10
666.4312
 20
255.0623
 11
668.1373
 21
256.9023
  0
LINE
  8
0_00
  6
CONTINUOUS
 62
2
 10
687.2799
 20
265.9725
 11
686.4109
 21
266.8111
  0
LINE
  8
0_00
  6
CONTINUOUS
 62
2
 10
686.4109
 20
266.8111
 11
686.0040
 21
266.9597
  0
LINE
  8
0_00
  6
CONTINUOUS
 62
2
 10
686.0040
 20
266.9597
 11
685.6190
 21
266.8194
  0
LINE
  8
0_00
  6
CONTINUOUS
 62
2
 10
685.6190
 20
266.8194
 11
684.7225
 21
265.9752
  0
LINE
  8
0_00
  6
CONTINUOUS
 62
2
 10
688.0938
 20
266.7864
 11
687.2552
 21
267.6553
  0
LINE
  8
0_00
  6
CONTINUOUS
 62
2
 10
687.2552
 20
267.6553
 11
687.1067
 21
268.0623
  0
LINE
  8
0_00
  6
CONTINUOUS
 62
2
 10
687.1067
 20
268.0623
 11
687.2469
 21
268.4473
  0
LINE
  8
0_00
  6
CONTINUOUS
 62
2
 10
687.2469
 20
268.4473
 11
688.0911
 21
269.3438
  0
LINE
  8
0_00
  6
CONTINUOUS
 62
2
 10
683.9141
 20
269.3383
 11
684.7528
 21
268.4693
  0
LINE
  8
0_00
  6
CONTINUOUS
 62
2
 10
684.7528
 20
268.4693
 11
684.9013
 21
268.0623
  0
LINE
  8
0_00
  6
CONTINUOUS
 62
2
 10
684.9013
 20
268.0623
 11
684.7610
 21
267.6774
  0
LINE
  8
0_00
  6
CONTINUOUS
 62
2
 10
684.7610
 20
267.6774
 11
683.9169
 21
266.7809
  0
LINE
  8
0_00
  6
CONTINUOUS
 62
2
 10
684.7280
 20
270.1522
 11
685.5970
 21
269.3135
  0
LINE
  8
0_00
  6
CONTINUOUS
 62
2
 10
685.5970
 20
269.3135
 11
686.0040
 21
269.1650
  0
LINE
  8
0_00
  6
CONTINUOUS
 62
2
 10
686.0040
 20
269.1650
 11
686.3890
 21
269.3053
  0
LINE
  8
0_00
  6
CONTINUOUS
 62
2
 10
686.3890
 20
269.3053
 11
687.2854
 21
270.1495
  0
LINE
  8
0_00
  6
CONTINUOUS
 62
4
 10
638.5039
 20
308.5623
 11
698.5040
 21
308.5623
  0
LINE
  8
0_00
  6
CONTINUOUS
 62
4
 10
698.5040
 20
311.0623
 11
638.5039
 21
311.0623
  0
LINE
  8
0_00
  6
CONTINUOUS
 62
4
 10
638.5039
 20
283.5623
 11
698.5040
 21
283.5623
  0
LINE
  8
0_00
  6
CONTINUOUS
 62
4
 10
698.5040
 20
281.0623
 11
638.5039
 21
281.0623
  0
LINE
  8
0_00
  6
CONTINUOUS
 62
4
 10
668.2040
 20
284.0623
 11
668.8039
 21
284.0623
  0
LINE
  8
0_00
  6
CONTINUOUS
 62
4
 10
668.2040
 20
287.0623
 11
668.8039
 21
287.0623
  0
LINE
  8
0_00
  6
CONTINUOUS
 62
4
 10
668.8039
 20
287.0623
 11
668.8039
 21
284.0623
  0
LINE
  8
0_00
  6
CONTINUOUS
 62
4
 10
668.2040
 20
287.0623
 11
668.2040
 21
284.0623
  0
LINE
  8
0_00
  6
CONTINUOUS
 62
4
 10
668.5040
 20
284.0623
 11
668.5040
 21
287.0623
  0
LINE
  8
0_00
  6
CONTINUOUS
 62
4
 10
668.2040
 20
308.0623
 11
668.8039
 21
308.0623
  0
LINE
  8
0_00
  6
CONTINUOUS
 62
4
 10
668.2040
 20
305.0623
 11
668.8039
 21
305.0623
  0
LINE
  8
0_00
  6
CONTINUOUS
 62
4
 10
668.8039
 20
305.0623
 11
668.8039
 21
308.0623
  0
LINE
  8
0_00
  6
CONTINUOUS
 62
4
 10
668.2040
 20
305.0623
 11
668.2040
 21
308.0623
  0
LINE
  8
0_00
  6
CONTINUOUS
 62
4
 10
668.5040
 20
308.0623
 11
668.5040
 21
305.0623
  0
LINE
  8
0_00
  6
CONTINUOUS
 62
4
 10
690.2540
 20
327.3123
 11
681.7540
 21
327.3123
  0
LINE
  8
0_00
  6
CONTINUOUS
 62
4
 10
690.2540
 20
320.8123
 11
681.7540
 21
320.8123
  0
LINE
  8
0_00
  6
CONTINUOUS
 62
4
 10
646.7540
 20
264.8123
 11
655.2540
 21
264.8123
  0
LINE
  8
0_00
  6
CONTINUOUS
 62
4
 10
646.7540
 20
271.3123
 11
655.2540
 21
271.3123
  0
LINE
  8
0_00
  6
CONTINUOUS
 62
2
 10
638.5039
 20
244.2623
 11
698.5040
 21
244.2623
  0
LINE
  8
0_00
  6
CONTINUOUS
 62
2
 10
683.5039
 20
244.2623
 11
693.5040
 21
234.2623
  0
LINE
  8
0_00
  6
CONTINUOUS
 62
2
 10
686.3324
 20
244.2623
 11
696.3324
 21
234.2623
  0
LINE
  8
0_00
  6
CONTINUOUS
 62
2
 10
689.1609
 20
244.2623
 11
698.5040
 21
234.9192
  0
LINE
  8
0_00
  6
CONTINUOUS
 62
2
 10
691.9893
 20
244.2623
 11
698.5040
 21
237.7476
  0
LINE
  8
0_00
  6
CONTINUOUS
 62
2
 10
694.8177
 20
244.2623
 11
698.5040
 21
240.5760
  0
LINE
  8
0_00
  6
CONTINUOUS
 62
2
 10
697.6461
 20
244.2623
 11
698.5040
 21
243.4045
  0
LINE
  8
0_00
  6
CONTINUOUS
 62
2
 10
680.6755
 20
244.2623
 11
690.6756
 21
234.2623
  0
LINE
  8
0_00
  6
CONTINUOUS
 62
2
 10
677.8471
 20
244.2623
 11
687.8471
 21
234.2623
  0
LINE
  8
0_00
  6
CONTINUOUS
 62
2
 10
675.0187
 20
244.2623
 11
685.0187
 21
234.2623
  0
LINE
  8
0_00
  6
CONTINUOUS
 62
2
 10
672.1902
 20
244.2623
 11
682.1902
 21
234.2623
  0
LINE
  8
0_00
  6
CONTINUOUS
 62
2
 10
669.3618
 20
244.2623
 11
679.3618
 21
234.2623
  0
LINE
  8
0_00
  6
CONTINUOUS
 62
2
 10
666.5335
 20
244.2623
 11
676.5335
 21
234.2623
  0
LINE
  8
0_00
  6
CONTINUOUS
 62
2
 10
663.7050
 20
244.2623
 11
673.7050
 21
234.2623
  0
LINE
  8
0_00
  6
CONTINUOUS
 62
2
 10
660.8766
 20
244.2623
 11
670.8766
 21
234.2623
  0
LINE
  8
0_00
  6
CONTINUOUS
 62
2
 10
658.0482
 20
244.2623
 11
668.0482
 21
234.2623
  0
LINE
  8
0_00
  6
CONTINUOUS
 62
2
 10
655.2197
 20
244.2623
 11
665.2197
 21
234.2623
  0
LINE
  8
0_00
  6
CONTINUOUS
 62
2
 10
652.3913
 20
244.2623
 11
662.3913
 21
234.2623
  0
LINE
  8
0_00
  6
CONTINUOUS
 62
2
 10
649.5629
 20
244.2623
 11
659.5629
 21
234.2623
  0
LINE
  8
0_00
  6
CONTINUOUS
 62
2
 10
646.7344
 20
244.2623
 11
656.7344
 21
234.2623
  0
LINE
  8
0_00
  6
CONTINUOUS
 62
2
 10
643.9060
 20
244.2623
 11
653.9060
 21
234.2623
  0
LINE
  8
0_00
  6
CONTINUOUS
 62
2
 10
641.0776
 20
244.2623
 11
651.0775
 21
234.2623
  0
LINE
  8
0_00
  6
CONTINUOUS
 62
2
 10
638.5039
 20
244.0075
 11
648.2492
 21
234.2623
  0
LINE
  8
0_00
  6
CONTINUOUS
 62
2
 10
638.5039
 20
241.1791
 11
645.4207
 21
234.2623
  0
LINE
  8
0_00
  6
CONTINUOUS
 62
2
 10
638.5039
 20
238.3507
 11
642.5923
 21
234.2623
  0
LINE
  8
0_00
  6
CONTINUOUS
 62
2
 10
638.5039
 20
235.5222
 11
639.7639
 21
234.2623
  0
LINE
  8
15_0F
  6
CENTER1
 62
6
 10
670.9599
 20
268.0623
 11
702.6391
 21
268.0623
  0
LINE
  8
15_0F
  6
CENTER1
 62
6
 10
686.0040
 20
280.2748
 11
686.0040
 21
254.9918
  0
LINE
  8
15_0F
  6
CENTER1
 62
6
 10
651.0040
 20
336.2748
 11
651.0040
 21
310.9918
  0
LINE
  8
15_0F
  6
CENTER1
 62
6
 10
635.9599
 20
324.0623
 11
667.6390
 21
324.0623
  0
LINE
  8
0_00
  6
CONTINUOUS
 62
4
 10
666.8269
 20
293.5623
 11
667.1114
 21
293.5623
  0
LINE
  8
0_00
  6
CONTINUOUS
 62
4
 10
666.9784
 20
292.3123
 11
666.5040
 21
292.3123
  0
LINE
  8
0_00
  6
CONTINUOUS
 62
4
 10
666.5040
 20
290.8123
 11
666.9784
 21
290.8123
  0
LINE
  8
0_00
  6
CONTINUOUS
 62
4
 10
667.7540
 20
290.0367
 11
667.7540
 21
289.5623
  0
LINE
  8
0_00
  6
CONTINUOUS
 62
4
 10
670.1810
 20
293.5623
 11
669.8966
 21
293.5623
  0
LINE
  8
0_00
  6
CONTINUOUS
 62
4
 10
670.0296
 20
292.3123
 11
670.5040
 21
292.3123
  0
LINE
  8
0_00
  6
CONTINUOUS
 62
4
 10
670.5040
 20
290.8123
 11
670.0296
 21
290.8123
  0
LINE
  8
0_00
  6
CONTINUOUS
 62
4
 10
669.2540
 20
290.0367
 11
669.2540
 21
289.5623
  0
LINE
  8
0_00
  6
CONTINUOUS
 62
4
 10
666.5040
 20
292.3123
 11
666.5040
 21
290.8123
  0
LINE
  8
0_00
  6
CONTINUOUS
 62
4
 10
670.5040
 20
290.8123
 11
670.5040
 21
292.3123
  0
LINE
  8
0_00
  6
CONTINUOUS
 62
4
 10
668.3040
 20
288.3123
 11
668.5040
 21
288.5123
  0
LINE
  8
0_00
  6
CONTINUOUS
 62
4
 10
668.7040
 20
288.3123
 11
668.5040
 21
288.5123
  0
LINE
  8
0_00
  6
CONTINUOUS
 62
4
 10
667.7540
 20
289.5623
 11
669.2540
 21
289.5623
  0
LINE
  8
0_00
  6
CONTINUOUS
 62
4
 10
661.7040
 20
296.0623
 11
661.5039
 21
295.8623
  0
LINE
  8
0_00
  6
CONTINUOUS
 62
4
 10
661.7040
 20
296.0623
 11
661.5039
 21
296.2623
  0
LINE
  8
0_00
  6
CONTINUOUS
 62
4
 10
661.5039
 20
294.5623
 11
661.5039
 21
295.8623
  0
LINE
  8
0_00
  6
CONTINUOUS
 62
4
 10
661.5039
 20
296.2623
 11
661.5039
 21
297.5623
  0
LINE
  8
0_00
  6
CONTINUOUS
 62
4
 10
662.6040
 20
294.5623
 11
662.6040
 21
297.5623
  0
LINE
  8
0_00
  6
CONTINUOUS
 62
4
 10
675.3040
 20
296.0623
 11
675.5040
 21
295.8623
  0
LINE
  8
0_00
  6
CONTINUOUS
 62
4
 10
675.3040
 20
296.0623
 11
675.5040
 21
296.2623
  0
LINE
  8
0_00
  6
CONTINUOUS
 62
4
 10
675.5040
 20
294.5623
 11
675.5040
 21
295.8623
  0
LINE
  8
0_00
  6
CONTINUOUS
 62
4
 10
675.5040
 20
296.2623
 11
675.5040
 21
297.5623
  0
LINE
  8
0_00
  6
CONTINUOUS
 62
4
 10
674.4040
 20
294.5623
 11
674.4040
 21
297.5623
  0
LINE
  8
0_00
  6
CONTINUOUS
 62
4
 10
664.2041
 20
288.3123
 11
668.3040
 21
288.3123
  0
LINE
  8
0_00
  6
CONTINUOUS
 62
4
 10
665.5053
 20
289.3624
 11
664.1722
 21
289.3624
  0
LINE
  8
0_00
  6
CONTINUOUS
 62
4
 10
672.8038
 20
288.3123
 11
668.7040
 21
288.3123
  0
LINE
  8
0_00
  6
CONTINUOUS
 62
4
 10
671.5028
 20
289.3624
 11
672.8358
 21
289.3624
  0
LINE
  8
0_00
  6
CONTINUOUS
 62
4
 10
666.8269
 20
298.5623
 11
667.1114
 21
298.5623
  0
LINE
  8
0_00
  6
CONTINUOUS
 62
4
 10
666.9784
 20
299.8123
 11
666.5040
 21
299.8123
  0
LINE
  8
0_00
  6
CONTINUOUS
 62
4
 10
666.5040
 20
301.3123
 11
666.9784
 21
301.3123
  0
LINE
  8
0_00
  6
CONTINUOUS
 62
4
 10
667.7540
 20
302.0880
 11
667.7540
 21
302.5623
  0
LINE
  8
0_00
  6
CONTINUOUS
 62
4
 10
670.1810
 20
298.5623
 11
669.8966
 21
298.5623
  0
LINE
  8
0_00
  6
CONTINUOUS
 62
4
 10
670.0296
 20
299.8123
 11
670.5040
 21
299.8123
  0
LINE
  8
0_00
  6
CONTINUOUS
 62
4
 10
670.5040
 20
301.3123
 11
670.0296
 21
301.3123
  0
LINE
  8
0_00
  6
CONTINUOUS
 62
4
 10
669.2540
 20
302.0880
 11
669.2540
 21
302.5623
  0
LINE
  8
0_00
  6
CONTINUOUS
 62
4
 10
666.5040
 20
299.8123
 11
666.5040
 21
301.3123
  0
LINE
  8
0_00
  6
CONTINUOUS
 62
4
 10
670.5040
 20
301.3123
 11
670.5040
 21
299.8123
  0
LINE
  8
0_00
  6
CONTINUOUS
 62
4
 10
668.3040
 20
303.8123
 11
668.5040
 21
303.6123
  0
LINE
  8
0_00
  6
CONTINUOUS
 62
4
 10
668.7040
 20
303.8123
 11
668.5040
 21
303.6123
  0
LINE
  8
0_00
  6
CONTINUOUS
 62
4
 10
667.7540
 20
302.5623
 11
669.2540
 21
302.5623
  0
LINE
  8
0_00
  6
CONTINUOUS
 62
4
 10
664.2041
 20
303.8123
 11
668.3040
 21
303.8123
  0
LINE
  8
0_00
  6
CONTINUOUS
 62
4
 10
665.5053
 20
302.7623
 11
664.1722
 21
302.7623
  0
LINE
  8
0_00
  6
CONTINUOUS
 62
4
 10
672.8038
 20
303.8123
 11
668.7040
 21
303.8123
  0
LINE
  8
0_00
  6
CONTINUOUS
 62
4
 10
671.5028
 20
302.7623
 11
672.8358
 21
302.7623
  0
LINE
  8
15_0F
  6
CONTINUOUS
 62
4
 10
845.0342
 20
213.5623
 11
564.6749
 21
213.5623
  0
LINE
  8
0_00
  6
CONTINUOUS
 62
4
 10
564.6749
 20
214.9623
 11
845.4094
 21
214.9623
  0
LINE
  8
15_0F
  6
CONTINUOUS
 62
4
 10
564.6749
 20
226.0623
 11
638.5039
 21
226.0623
  0
LINE
  8
15_0F
  6
CONTINUOUS
 62
4
 10
698.5040
 20
226.0623
 11
848.3837
 21
226.0623
  0
LINE
  8
15_0F
  6
CONTINUOUS
 62
4
 10
576.0419
 20
686.6181
 11
576.0419
 21
560.1194
  0
LINE
  8
16_10
  6
CONTINUOUS
 62
4
 10
601.4039
 20
695.4192
 11
580.8268
 21
695.4192
  0
LINE
  8
16_10
  6
CONTINUOUS
 62
4
 10
596.0369
 20
695.8242
 11
577.0470
 21
695.8242
  0
LINE
  8
16_10
  6
CONTINUOUS
 62
4
 10
577.0470
 20
695.8242
 11
574.5821
 21
695.4586
  0
LINE
  8
16_10
  6
CONTINUOUS
 62
4
 10
573.6275
 20
689.3267
 11
573.5076
 21
694.1708
  0
LINE
  8
16_10
  6
CONTINUOUS
 62
4
 10
573.9042
 20
688.6721
 11
573.9202
 21
687.1349
  0
LINE
  8
16_10
  6
CONTINUOUS
 62
4
 10
601.8953
 20
695.3821
 11
596.0369
 21
695.8242
  0
LINE
  8
16_10
  6
CONTINUOUS
 62
4
 10
578.2701
 20
686.6895
 11
578.8098
 21
686.7072
  0
LINE
  8
16_10
  6
CONTINUOUS
 62
4
 10
578.4227
 20
695.0626
 11
580.8268
 21
695.4192
  0
LINE
  8
16_10
  6
CONTINUOUS
 62
4
 10
577.5912
 20
694.0662
 11
577.7073
 21
689.3375
  0
LINE
  8
16_10
  6
CONTINUOUS
 62
4
 10
578.0010
 20
687.1158
 11
577.9832
 21
688.7065
  0
LINE
  8
16_10
  6
CONTINUOUS
 62
4
 10
578.2697
 20
686.6895
 11
574.5236
 21
686.5695
  0
LINE
  8
0_00
  6
CONTINUOUS
 62
6
 10
574.2021
 20
688.6721
 11
577.8040
 21
688.6721
  0
LINE
  8
16_10
  6
CONTINUOUS
 62
2
 10
577.9577
 20
688.8124
 11
1135.1262
 21
688.8124
  0
LINE
  8
0_00
  6
CENTER1
 62
6
 10
1126.5420
 20
744.9200
 11
1126.5420
 21
689.0071
  0
LINE
  8
3_03
  6
CONTINUOUS
 62
4
 10
1121.9669
 20
740.2240
 11
1126.4465
 21
740.2240
  0
LINE
  8
3_03
  6
CONTINUOUS
 62
4
 10
1131.0420
 20
733.0242
 11
1121.9669
 21
733.0242
  0
LINE
  8
3_03
  6
CONTINUOUS
 62
4
 10
1121.8920
 20
733.0692
 11
1121.8920
 21
740.1491
  0
LINE
  8
3_03
  6
CONTINUOUS
 62
4
 10
1131.1169
 20
739.0277
 11
1131.1169
 21
733.0992
  0
LINE
  8
16_10
  6
CONTINUOUS
 62
4
 10
1111.6800
 20
695.4192
 11
1132.2570
 21
695.4192
  0
LINE
  8
16_10
  6
CONTINUOUS
 62
4
 10
1117.0468
 20
695.8242
 11
1136.0370
 21
695.8242
  0
LINE
  8
16_10
  6
CONTINUOUS
 62
4
 10
1136.0370
 20
695.8242
 11
1138.5018
 21
695.4586
  0
LINE
  8
16_10
  6
CONTINUOUS
 62
4
 10
1139.4565
 20
689.3267
 11
1139.5763
 21
694.1708
  0
LINE
  8
16_10
  6
CONTINUOUS
 62
4
 10
1139.1797
 20
688.6721
 11
1139.1637
 21
687.1349
  0
LINE
  8
16_10
  6
CONTINUOUS
 62
4
 10
1111.1886
 20
695.3821
 11
1117.0468
 21
695.8242
  0
LINE
  8
16_10
  6
CONTINUOUS
 62
4
 10
1134.8137
 20
686.6895
 11
1134.2740
 21
686.7072
  0
LINE
  8
16_10
  6
CONTINUOUS
 62
4
 10
1134.6611
 20
695.0626
 11
1132.2570
 21
695.4192
  0
LINE
  8
16_10
  6
CONTINUOUS
 62
4
 10
1135.4927
 20
694.0662
 11
1135.3766
 21
689.3375
  0
LINE
  8
16_10
  6
CONTINUOUS
 62
4
 10
1135.0829
 20
687.1158
 11
1135.1007
 21
688.7065
  0
LINE
  8
16_10
  6
CONTINUOUS
 62
4
 10
1134.8142
 20
686.6895
 11
1138.5603
 21
686.5695
  0
LINE
  8
0_00
  6
CONTINUOUS
 62
6
 10
1138.8818
 20
688.6721
 11
1135.2799
 21
688.6721
  0
LINE
  8
15_0F
  6
CONTINUOUS
 62
4
 10
1137.0419
 20
686.6181
 11
1137.0419
 21
560.1194
  0
LINE
  8
0_00
  6
CONTINUOUS
 62
2
 10
854.9180
 20
233.0623
 11
1128.3645
 21
233.0623
  0
LINE
  8
0_00
  6
CONTINUOUS
 62
2
 10
1128.3645
 20
359.0623
 11
863.0763
 21
359.0623
  0
LINE
  8
15_0F
  6
CONTINUOUS
 62
6
 10
265.4002
 20
389.6748
 11
188.0021
 21
312.2767
  0
LINE
  8
15_0F
  6
CONTINUOUS
 62
6
 10
265.4002
 20
389.6748
 11
259.1101
 21
385.5900
  0
LINE
  8
15_0F
  6
CONTINUOUS
 62
6
 10
265.4002
 20
389.6748
 11
261.3154
 21
383.3847
  0
LINE
  8
15_0F
  6
CONTINUOUS
 62
6
 10
188.0021
 20
312.2767
 11
110.0021
 21
312.2767
  0
LINE
  8
0_00
  6
CONTINUOUS
 62
4
 10
139.4499
 20
196.3733
 11
499.4499
 21
196.3733
  0
LINE
  8
0_00
  6
CONTINUOUS
 62
4
 10
139.4499
 20
196.3733
 11
139.4499
 21
136.3733
  0
LINE
  8
0_00
  6
CONTINUOUS
 62
4
 10
499.4499
 20
176.3733
 11
139.4499
 21
176.3733
  0
LINE
  8
0_00
  6
CONTINUOUS
 62
4
 10
499.4499
 20
156.3733
 11
139.4499
 21
156.3733
  0
LINE
  8
0_00
  6
CONTINUOUS
 62
4
 10
499.4499
 20
136.3733
 11
139.4499
 21
136.3733
  0
LINE
  8
0_00
  6
CONTINUOUS
 62
4
 10
219.4499
 20
196.3733
 11
219.4499
 21
136.3733
  0
LINE
  8
15_0F
  6
CONTINUOUS
 62
4
 10
339.4499
 20
196.3733
 11
339.4499
 21
136.3733
  0
LINE
  8
15_0F
  6
CONTINUOUS
 62
4
 10
419.4499
 20
196.3733
 11
419.4499
 21
136.3733
  0
LINE
  8
15_0F
  6
CONTINUOUS
 62
4
 10
499.4499
 20
196.3733
 11
499.4499
 21
136.3733
  0
LINE
  8
15_0F
  6
CONTINUOUS
 62
4
 10
259.4499
 20
196.3733
 11
259.4499
 21
176.3733
  0
LINE
  8
15_0F
  6
CONTINUOUS
 62
4
 10
259.4499
 20
156.3733
 11
259.4499
 21
136.3733
  0
LINE
  8
15_0F
  6
CONTINUOUS
 62
4
 10
299.4499
 20
196.3733
 11
299.4499
 21
176.3733
  0
LINE
  8
15_0F
  6
CONTINUOUS
 62
4
 10
299.4499
 20
156.3733
 11
299.4499
 21
136.3733
  0
LINE
  8
15_0F
  6
CONTINUOUS
 62
4
 10
379.4499
 20
196.3733
 11
379.4499
 21
176.3733
  0
LINE
  8
15_0F
  6
CONTINUOUS
 62
4
 10
379.4499
 20
156.3733
 11
379.4499
 21
136.3733
  0
LINE
  8
15_0F
  6
CONTINUOUS
 62
4
 10
459.4499
 20
196.3733
 11
459.4499
 21
176.3733
  0
LINE
  8
15_0F
  6
CONTINUOUS
 62
4
 10
459.4499
 20
156.3733
 11
459.4499
 21
136.3733
  0
LINE
  8
15_0F
  6
CONTINUOUS
 62
4
 10
144.9262
 20
199.6807
 11
169.7017
 21
199.6807
  0
LINE
  8
15_0F
  6
CENTER1
 62
6
 10
234.8266
 20
510.6399
 11
295.2000
 21
510.6399
  0
LINE
  8
15_0F
  6
CENTER1
 62
6
 10
234.8266
 20
594.9733
 11
295.2000
 21
594.9733
  0
LINE
  8
0_00
  6
CONTINUOUS
 62
4
 10
263.7000
 20
589.4733
 11
273.7000
 21
589.4733
  0
LINE
  8
0_00
  6
CONTINUOUS
 62
4
 10
273.7000
 20
589.4733
 11
273.7000
 21
603.9733
  0
LINE
  8
0_00
  6
CONTINUOUS
 62
4
 10
263.7000
 20
589.4733
 11
263.7000
 21
606.4732
  0
LINE
  8
0_00
  6
CONTINUOUS
 62
4
 10
265.7000
 20
589.4733
 11
265.7000
 21
606.4732
  0
LINE
  8
0_00
  6
DASHED
 62
4
 10
271.7000
 20
589.4733
 11
271.7000
 21
603.9733
  0
LINE
  8
0_00
  6
CONTINUOUS
 62
4
 10
265.7000
 20
603.9733
 11
273.7000
 21
603.9733
  0
LINE
  8
0_00
  6
DASHED
 62
4
 10
263.7000
 20
603.9733
 11
265.7000
 21
603.9733
  0
LINE
  8
0_00
  6
DASHED
 62
4
 10
271.7000
 20
597.2233
 11
273.7000
 21
597.2233
  0
LINE
  8
0_00
  6
DASHED
 62
4
 10
271.7000
 20
592.7233
 11
273.7000
 21
592.7233
  0
LINE
  8
12_0C
  6
DASHED
 62
2
 10
271.7000
 20
590.9733
 11
271.7000
 21
598.9733
  0
LINE
  8
12_0C
  6
DASHED
 62
2
 10
271.3000
 20
590.9733
 11
271.3000
 21
598.9733
  0
LINE
  8
12_0C
  6
DASHED
 62
2
 10
271.7000
 20
598.9733
 11
271.3000
 21
598.9733
  0
LINE
  8
12_0C
  6
DASHED
 62
2
 10
271.7000
 20
590.9733
 11
271.3000
 21
590.9733
  0
LINE
  8
0_00
  6
DASHED
 62
2
 10
271.7000
 20
592.9732
 11
278.8800
 21
592.9732
  0
LINE
  8
12_0C
  6
DASHED
 62
2
 10
271.7000
 20
593.5233
 11
283.7000
 21
593.5233
  0
LINE
  8
12_0C
  6
DASHED
 62
2
 10
283.7000
 20
593.5233
 11
283.7000
 21
596.4232
  0
LINE
  8
12_0C
  6
DASHED
 62
2
 10
278.8800
 20
592.9732
 11
283.7000
 21
593.5233
  0
LINE
  8
0_00
  6
DASHED
 62
2
 10
271.7000
 20
596.9733
 11
278.8800
 21
596.9733
  0
LINE
  8
12_0C
  6
DASHED
 62
2
 10
271.7000
 20
596.4232
 11
283.7000
 21
596.4232
  0
LINE
  8
12_0C
  6
DASHED
 62
2
 10
278.8800
 20
596.9733
 11
283.7000
 21
596.4232
  0
LINE
  8
0_00
  6
CONTINUOUS
 62
4
 10
263.7000
 20
505.1399
 11
273.7000
 21
505.1399
  0
LINE
  8
0_00
  6
CONTINUOUS
 62
4
 10
273.7000
 20
505.1399
 11
273.7000
 21
519.6399
  0
LINE
  8
0_00
  6
CONTINUOUS
 62
4
 10
263.7000
 20
505.1399
 11
263.7000
 21
522.1399
  0
LINE
  8
0_00
  6
CONTINUOUS
 62
4
 10
265.7000
 20
505.1399
 11
265.7000
 21
522.1399
  0
LINE
  8
0_00
  6
DASHED
 62
4
 10
271.7000
 20
505.1399
 11
271.7000
 21
519.6399
  0
LINE
  8
0_00
  6
CONTINUOUS
 62
4
 10
265.7000
 20
519.6399
 11
273.7000
 21
519.6399
  0
LINE
  8
0_00
  6
DASHED
 62
4
 10
263.7000
 20
519.6399
 11
265.7000
 21
519.6399
  0
LINE
  8
0_00
  6
DASHED
 62
4
 10
271.7000
 20
512.8899
 11
273.7000
 21
512.8899
  0
LINE
  8
0_00
  6
DASHED
 62
4
 10
271.7000
 20
508.3899
 11
273.7000
 21
508.3899
  0
LINE
  8
12_0C
  6
DASHED
 62
2
 10
271.7000
 20
506.6399
 11
271.7000
 21
514.6399
  0
LINE
  8
12_0C
  6
DASHED
 62
2
 10
271.3000
 20
506.6399
 11
271.3000
 21
514.6399
  0
LINE
  8
12_0C
  6
DASHED
 62
2
 10
271.7000
 20
514.6399
 11
271.3000
 21
514.6399
  0
LINE
  8
12_0C
  6
DASHED
 62
2
 10
271.7000
 20
506.6399
 11
271.3000
 21
506.6399
  0
LINE
  8
0_00
  6
DASHED
 62
2
 10
271.7000
 20
508.6399
 11
278.8800
 21
508.6399
  0
LINE
  8
12_0C
  6
DASHED
 62
2
 10
271.7000
 20
509.1899
 11
283.7000
 21
509.1899
  0
LINE
  8
12_0C
  6
DASHED
 62
2
 10
283.7000
 20
509.1899
 11
283.7000
 21
512.0899
  0
LINE
  8
12_0C
  6
DASHED
 62
2
 10
278.8800
 20
508.6399
 11
283.7000
 21
509.1899
  0
LINE
  8
0_00
  6
DASHED
 62
2
 10
271.7000
 20
512.6399
 11
278.8800
 21
512.6399
  0
LINE
  8
12_0C
  6
DASHED
 62
2
 10
271.7000
 20
512.0899
 11
283.7000
 21
512.0899
  0
LINE
  8
12_0C
  6
DASHED
 62
2
 10
278.8800
 20
512.6399
 11
283.7000
 21
512.0899
  0
LINE
  8
15_0F
  6
CONTINUOUS
 62
6
 10
268.7795
 20
589.4733
 11
245.1648
 21
548.5712
  0
LINE
  8
15_0F
  6
CONTINUOUS
 62
6
 10
268.7795
 20
589.4733
 11
263.7611
 21
583.8997
  0
LINE
  8
15_0F
  6
CONTINUOUS
 62
6
 10
268.7795
 20
589.4733
 11
266.4619
 21
582.3403
  0
LINE
  8
15_0F
  6
CONTINUOUS
 62
6
 10
245.1648
 20
548.5712
 11
181.0593
 21
548.5712
  0
LINE
  8
15_0F
  6
CONTINUOUS
 62
4
 10
578.9669
 20
722.2942
 11
1134.1169
 21
722.2942
  0
LINE
  8
15_0F
  6
CONTINUOUS
 62
4
 10
1134.1169
 20
718.5442
 11
578.9669
 21
718.5442
  0
LINE
  8
0_00
  6
CONTINUOUS
 62
4
 10
578.8169
 20
722.1442
 11
578.8169
 21
718.6942
  0
LINE
  8
15_0F
  6
CONTINUOUS
 62
4
 10
582.5670
 20
722.2942
 11
582.5670
 21
718.5442
  0
LINE
  8
0_00
  6
CONTINUOUS
 62
4
 10
1134.2670
 20
722.1442
 11
1134.2670
 21
718.6942
  0
LINE
  8
15_0F
  6
CONTINUOUS
 62
4
 10
1130.5170
 20
722.2942
 11
1130.5170
 21
718.5442
  0
LINE
  8
15_0F
  6
CONTINUOUS
 62
4
 10
578.9669
 20
709.6442
 11
1134.1169
 21
709.6442
  0
LINE
  8
15_0F
  6
CONTINUOUS
 62
4
 10
1134.1169
 20
705.8941
 11
578.9669
 21
705.8941
  0
LINE
  8
0_00
  6
CONTINUOUS
 62
4
 10
578.8169
 20
709.4942
 11
578.8169
 21
706.0442
  0
LINE
  8
15_0F
  6
CONTINUOUS
 62
4
 10
582.5670
 20
709.6442
 11
582.5670
 21
705.8941
  0
LINE
  8
0_00
  6
CONTINUOUS
 62
4
 10
1134.2670
 20
709.4942
 11
1134.2670
 21
706.0442
  0
LINE
  8
15_0F
  6
CONTINUOUS
 62
4
 10
1130.5170
 20
709.6442
 11
1130.5170
 21
705.8941
  0
LINE
  8
0_00
  6
CONTINUOUS
 62
4
 10
589.7670
 20
733.0242
 11
589.7670
 21
722.2942
  0
LINE
  8
0_00
  6
CONTINUOUS
 62
4
 10
583.3170
 20
733.0242
 11
583.3170
 21
722.2942
  0
LINE
  8
0_00
  6
CONTINUOUS
 62
4
 10
583.3170
 20
718.5442
 11
583.3170
 21
709.6442
  0
LINE
  8
0_00
  6
CONTINUOUS
 62
4
 10
583.3170
 20
705.8941
 11
583.3170
 21
695.8242
  0
LINE
  8
0_00
  6
CONTINUOUS
 62
4
 10
589.7670
 20
718.5442
 11
589.7670
 21
709.6442
  0
LINE
  8
0_00
  6
CONTINUOUS
 62
4
 10
589.7670
 20
705.8941
 11
589.7670
 21
695.8242
  0
LINE
  8
0_00
  6
CONTINUOUS
 62
4
 10
621.9420
 20
705.8941
 11
621.9420
 21
695.1192
  0
LINE
  8
0_00
  6
CONTINUOUS
 62
4
 10
626.1419
 20
705.8941
 11
626.1419
 21
695.1192
  0
LINE
  8
0_00
  6
CONTINUOUS
 62
4
 10
626.1419
 20
733.0692
 11
626.1419
 21
722.2942
  0
LINE
  8
0_00
  6
CONTINUOUS
 62
4
 10
626.1419
 20
718.5442
 11
626.1419
 21
709.6442
  0
LINE
  8
0_00
  6
CONTINUOUS
 62
4
 10
621.9420
 20
733.0692
 11
621.9420
 21
722.2942
  0
LINE
  8
0_00
  6
CONTINUOUS
 62
4
 10
621.9420
 20
718.5442
 11
621.9420
 21
709.6442
  0
LINE
  8
0_00
  6
CONTINUOUS
 62
4
 10
781.1419
 20
733.0692
 11
781.1419
 21
722.2942
  0
LINE
  8
0_00
  6
CONTINUOUS
 62
4
 10
776.9420
 20
733.0692
 11
776.9420
 21
722.2942
  0
LINE
  8
0_00
  6
CONTINUOUS
 62
4
 10
776.9420
 20
718.5442
 11
776.9420
 21
709.6442
  0
LINE
  8
0_00
  6
CONTINUOUS
 62
4
 10
776.9420
 20
705.8941
 11
776.9420
 21
695.1192
  0
LINE
  8
0_00
  6
CONTINUOUS
 62
4
 10
781.1419
 20
718.5442
 11
781.1419
 21
709.6442
  0
LINE
  8
0_00
  6
CONTINUOUS
 62
4
 10
781.1419
 20
705.8941
 11
781.1419
 21
695.1192
  0
LINE
  8
0_00
  6
CONTINUOUS
 62
4
 10
936.1420
 20
733.0692
 11
936.1420
 21
722.2942
  0
LINE
  8
0_00
  6
CONTINUOUS
 62
4
 10
931.9419
 20
733.0692
 11
931.9419
 21
722.2942
  0
LINE
  8
0_00
  6
CONTINUOUS
 62
4
 10
936.1420
 20
718.5442
 11
936.1420
 21
709.6442
  0
LINE
  8
0_00
  6
CONTINUOUS
 62
4
 10
936.1420
 20
705.8941
 11
936.1420
 21
695.1192
  0
LINE
  8
0_00
  6
CONTINUOUS
 62
4
 10
931.9419
 20
718.5442
 11
931.9419
 21
709.6442
  0
LINE
  8
0_00
  6
CONTINUOUS
 62
4
 10
931.9419
 20
705.8941
 11
931.9419
 21
695.1192
  0
LINE
  8
0_00
  6
CONTINUOUS
 62
4
 10
1123.3169
 20
733.0242
 11
1123.3169
 21
722.2942
  0
LINE
  8
0_00
  6
CONTINUOUS
 62
4
 10
1123.3169
 20
718.5442
 11
1123.3169
 21
709.6442
  0
LINE
  8
0_00
  6
CONTINUOUS
 62
4
 10
1123.3169
 20
705.8941
 11
1123.3169
 21
695.8242
  0
LINE
  8
0_00
  6
CONTINUOUS
 62
4
 10
1129.7670
 20
705.8941
 11
1129.7670
 21
695.8242
  0
LINE
  8
0_00
  6
CONTINUOUS
 62
4
 10
1129.7670
 20
733.0242
 11
1129.7670
 21
722.2942
  0
LINE
  8
0_00
  6
CONTINUOUS
 62
4
 10
1129.7670
 20
718.5442
 11
1129.7670
 21
709.6442
  0
LINE
  8
0_00
  6
CONTINUOUS
 62
4
 10
1091.1420
 20
733.0692
 11
1091.1420
 21
722.2942
  0
LINE
  8
0_00
  6
CONTINUOUS
 62
4
 10
1086.9419
 20
733.0692
 11
1086.9419
 21
722.2942
  0
LINE
  8
0_00
  6
CONTINUOUS
 62
4
 10
1086.9419
 20
718.5442
 11
1086.9419
 21
709.6442
  0
LINE
  8
0_00
  6
CONTINUOUS
 62
4
 10
1086.9419
 20
705.8941
 11
1086.9419
 21
695.1192
  0
LINE
  8
0_00
  6
CONTINUOUS
 62
4
 10
1091.1420
 20
718.5442
 11
1091.1420
 21
709.6442
  0
LINE
  8
0_00
  6
CONTINUOUS
 62
4
 10
1091.1420
 20
705.8941
 11
1091.1420
 21
695.1192
  0
LINE
  8
0_00
  6
DASHED
 62
2
 10
1008.9841
 20
266.5623
 11
1029.3659
 21
266.5623
  0
LINE
  8
0_00
  6
DASHED
 62
2
 10
1078.6021
 20
266.5623
 11
1098.9841
 21
266.5623
  0
LINE
  8
0_00
  6
DASHED
 62
2
 10
1008.9841
 20
264.5623
 11
1008.9841
 21
266.5623
  0
LINE
  8
0_00
  6
DASHED
 62
2
 10
1098.9841
 20
264.5623
 11
1098.9841
 21
266.5623
  0
LINE
  8
0_00
  6
DASHED
 62
2
 10
1030.2605
 20
267.1151
 11
1031.4841
 21
269.5623
  0
LINE
  8
0_00
  6
DASHED
 62
2
 10
1033.7203
 20
269.5623
 11
1032.0493
 21
266.2207
  0
LINE
  8
0_00
  6
DASHED
 62
2
 10
1077.7076
 20
267.1151
 11
1076.4841
 21
269.5623
  0
LINE
  8
0_00
  6
DASHED
 62
2
 10
1074.2480
 20
269.5623
 11
1075.9188
 21
266.2207
  0
LINE
  8
0_00
  6
DASHED
 62
2
 10
1028.9842
 20
264.5623
 11
1028.9842
 21
266.5623
  0
LINE
  8
0_00
  6
DASHED
 62
2
 10
1078.9841
 20
264.5623
 11
1078.9841
 21
266.5623
  0
LINE
  8
0_00
  6
CONTINUOUS
 62
4
 10
1128.3645
 20
269.5623
 11
864.6981
 21
269.5623
  0
LINE
  8
0_00
  6
CONTINUOUS
 62
4
 10
1128.3645
 20
244.5623
 11
857.9995
 21
244.5623
  0
LINE
  8
2_02
  6
DASHED
 62
2
 10
1016.4841
 20
253.5623
 11
1018.5238
 21
255.1255
  0
LINE
  8
2_02
  6
DASHED
 62
2
 10
1018.4841
 20
266.5623
 11
1018.4841
 21
255.0950
  0
LINE
  8
2_02
  6
DASHED
 62
2
 10
1016.4841
 20
253.5623
 11
1014.4840
 21
255.0950
  0
LINE
  8
2_02
  6
DASHED
 62
2
 10
1014.4840
 20
266.5623
 11
1014.4840
 21
255.0950
  0
LINE
  8
2_02
  6
DASHED
 62
2
 10
1015.0341
 20
266.5623
 11
1015.0341
 21
257.4579
  0
LINE
  8
2_02
  6
DASHED
 62
2
 10
1017.9341
 20
266.5623
 11
1017.9341
 21
258.2349
  0
LINE
  8
2_02
  6
DASHED
 62
2
 10
1020.4853
 20
268.2623
 11
1012.4828
 21
268.2623
  0
LINE
  8
2_02
  6
DASHED
 62
2
 10
1020.4853
 20
268.2623
 11
1020.6340
 21
266.5623
  0
LINE
  8
2_02
  6
DASHED
 62
2
 10
1012.4828
 20
268.2623
 11
1012.3341
 21
266.5623
  0
LINE
  8
2_02
  6
DASHED
 62
2
 10
1016.4841
 20
253.5623
 11
1018.4841
 21
258.3823
  0
LINE
  8
2_02
  6
DASHED
 62
2
 10
1018.4841
 20
258.3823
 11
1014.4840
 21
257.3105
  0
LINE
  8
2_02
  6
DASHED
 62
2
 10
1091.4841
 20
253.5623
 11
1093.5238
 21
255.1255
  0
LINE
  8
2_02
  6
DASHED
 62
2
 10
1093.4842
 20
266.5623
 11
1093.4842
 21
255.0950
  0
LINE
  8
2_02
  6
DASHED
 62
2
 10
1091.4841
 20
253.5623
 11
1089.4841
 21
255.0950
  0
LINE
  8
2_02
  6
DASHED
 62
2
 10
1089.4841
 20
266.5623
 11
1089.4841
 21
255.0950
  0
LINE
  8
2_02
  6
DASHED
 62
2
 10
1090.0341
 20
266.5623
 11
1090.0341
 21
257.4579
  0
LINE
  8
2_02
  6
DASHED
 62
2
 10
1092.9341
 20
266.5623
 11
1092.9341
 21
258.2349
  0
LINE
  8
2_02
  6
DASHED
 62
2
 10
1095.4854
 20
268.2623
 11
1087.4828
 21
268.2623
  0
LINE
  8
2_02
  6
DASHED
 62
2
 10
1095.4854
 20
268.2623
 11
1095.6341
 21
266.5623
  0
LINE
  8
2_02
  6
DASHED
 62
2
 10
1087.4828
 20
268.2623
 11
1087.3341
 21
266.5623
  0
LINE
  8
2_02
  6
DASHED
 62
2
 10
1091.4841
 20
253.5623
 11
1093.4842
 21
258.3823
  0
LINE
  8
2_02
  6
DASHED
 62
2
 10
1093.4842
 20
258.3823
 11
1089.4841
 21
257.3105
  0
LINE
  8
0_00
  6
CONTINUOUS
 62
4
 10
1034.9437
 20
272.0096
 11
1033.7203
 21
269.5623
  0
LINE
  8
0_00
  6
CONTINUOUS
 62
4
 10
1031.4841
 20
269.5623
 11
1033.1548
 21
272.9040
  0
LINE
  8
0_00
  6
CONTINUOUS
 62
4
 10
1035.8382
 20
272.5623
 11
1072.1300
 21
272.5623
  0
LINE
  8
0_00
  6
CONTINUOUS
 62
4
 10
1076.4841
 20
269.5623
 11
1074.8133
 21
272.9040
  0
LINE
  8
0_00
  6
CONTINUOUS
 62
4
 10
1073.0244
 20
272.0096
 11
1074.2480
 21
269.5623
  0
LINE
  8
15_0F
  6
DASHED
 62
2
 10
1128.3645
 20
264.5623
 11
863.3584
 21
264.5623
  0
LINE
  8
15_0F
  6
CENTER1
 62
6
 10
1016.4841
 20
276.5997
 11
1016.4841
 21
248.4487
  0
LINE
  8
15_0F
  6
CENTER1
 62
6
 10
1091.4841
 20
276.5997
 11
1091.4841
 21
248.4487
  0
LINE
  8
0_00
  6
CONTINUOUS
 62
4
 10
1035.8382
 20
274.5623
 11
1072.1300
 21
274.5623
  0
LINE
  8
0_00
  6
CONTINUOUS
 62
4
 10
1053.6841
 20
287.0623
 11
1053.6841
 21
284.5623
  0
LINE
  8
0_00
  6
CONTINUOUS
 62
4
 10
1053.9841
 20
284.5623
 11
1053.9841
 21
287.0623
  0
LINE
  8
0_00
  6
CONTINUOUS
 62
4
 10
1054.2840
 20
287.0623
 11
1054.2840
 21
284.5623
  0
LINE
  8
15_0F
  6
CONTINUOUS
 62
6
 10
1053.9841
 20
346.7816
 11
1053.9841
 21
434.7968
  0
LINE
  8
15_0F
  6
CONTINUOUS
 62
6
 10
1053.9841
 20
453.1427
 11
1053.9841
 21
466.0000
  0
LINE
  8
15_0F
  6
CONTINUOUS
 62
2
 10
577.7748
 20
694.6684
 11
1135.3091
 21
694.6684
  0
LINE
  8
0_00
  6
CONTINUOUS
 62
3
 10
547.4110
 20
97.2001
 11
547.4110
 21
37.2000
  0
LINE
  8
0_00
  6
CONTINUOUS
 62
7
 10
54.6905
 20
112.2001
 11
1218.5110
 21
112.2001
  0
LINE
  8
0_00
  6
CONTINUOUS
 62
3
 10
1218.5110
 20
851.7001
 11
1218.5110
 21
865.2001
  0
LINE
  8
0_00
  6
CONTINUOUS
 62
7
 10
1218.5110
 20
37.2000
 11
1218.5110
 21
851.7001
  0
LINE
  8
0_00
  6
CONTINUOUS
 62
3
 10
54.6905
 20
851.7001
 11
54.6905
 21
865.2001
  0
LINE
  8
0_00
  6
CONTINUOUS
 62
7
 10
54.6905
 20
37.2000
 11
54.6905
 21
851.7001
  0
LINE
  8
0_00
  6
CONTINUOUS
 62
7
 10
54.6905
 20
851.7001
 11
1218.5110
 21
851.7001
  0
LINE
  8
0_00
  6
CONTINUOUS
 62
7
 10
54.6905
 20
37.2000
 11
1218.5110
 21
37.2000
  0
LINE
  8
0_00
  6
CONTINUOUS
 62
3
 10
39.6905
 20
22.2000
 11
39.6905
 21
865.2001
  0
LINE
  8
0_00
  6
CONTINUOUS
 62
3
 10
1233.5110
 20
22.2000
 11
1233.5110
 21
865.2001
  0
LINE
  8
0_00
  6
CONTINUOUS
 62
3
 10
39.6905
 20
865.2001
 11
1233.5110
 21
865.2001
  0
LINE
  8
0_00
  6
CONTINUOUS
 62
3
 10
1070.6111
 20
37.2000
 11
1070.6111
 21
112.2001
  0
LINE
  8
0_00
  6
CONTINUOUS
 62
3
 10
54.6905
 20
97.2001
 11
812.7610
 21
97.2001
  0
LINE
  8
0_00
  6
CONTINUOUS
 62
7
 10
812.7610
 20
97.2001
 11
1218.5110
 21
97.2001
  0
LINE
  8
0_00
  6
CONTINUOUS
 62
3
 10
1070.6111
 20
67.2000
 11
1218.5110
 21
67.2000
  0
LINE
  8
0_00
  6
CONTINUOUS
 62
3
 10
1100.6111
 20
112.2001
 11
1100.6111
 21
97.2001
  0
LINE
  8
0_00
  6
CONTINUOUS
 62
3
 10
812.7610
 20
37.2000
 11
812.7610
 21
97.2001
  0
LINE
  8
0_00
  6
CONTINUOUS
 62
7
 10
812.7610
 20
97.2001
 11
812.7610
 21
112.2001
  0
LINE
  8
0_00
  6
CONTINUOUS
 62
3
 10
836.7610
 20
97.2001
 11
836.7610
 21
112.2001
  0
LINE
  8
0_00
  6
CONTINUOUS
 62
3
 10
912.5110
 20
37.2000
 11
912.5110
 21
112.2001
  0
LINE
  8
0_00
  6
CONTINUOUS
 62
3
 10
1004.6111
 20
97.2001
 11
1004.6111
 21
112.2001
  0
LINE
  8
0_00
  6
CONTINUOUS
 62
3
 10
1032.2110
 20
37.2000
 11
1032.2110
 21
97.2001
  0
LINE
  8
0_00
  6
CONTINUOUS
 62
3
 10
995.9110
 20
37.2000
 11
995.9110
 21
97.2001
  0
LINE
  8
0_00
  6
CONTINUOUS
 62
3
 10
959.6110
 20
37.2000
 11
959.6110
 21
97.2001
  0
LINE
  8
0_00
  6
CONTINUOUS
 62
3
 10
468.6610
 20
37.2000
 11
468.6610
 21
112.2001
  0
LINE
  8
0_00
  6
CONTINUOUS
 62
3
 10
626.1610
 20
37.2000
 11
626.1610
 21
97.2001
  0
LINE
  8
0_00
  6
CONTINUOUS
 62
3
 10
54.6905
 20
82.2001
 11
468.6610
 21
82.2001
  0
LINE
  8
0_00
  6
CONTINUOUS
 62
3
 10
54.6905
 20
67.2000
 11
912.5110
 21
67.2000
  0
LINE
  8
0_00
  6
CONTINUOUS
 62
3
 10
174.6905
 20
52.2000
 11
468.6610
 21
52.2000
  0
LINE
  8
0_00
  6
CONTINUOUS
 62
7
 10
54.6905
 20
52.2000
 11
174.6905
 21
52.2000
  0
LINE
  8
0_00
  6
CONTINUOUS
 62
3
 10
818.0110
 20
851.7001
 11
818.0110
 21
865.2001
  0
LINE
  8
0_00
  6
CONTINUOUS
 62
3
 10
788.0110
 20
851.7001
 11
788.0110
 21
865.2001
  0
LINE
  8
0_00
  6
CONTINUOUS
 62
3
 10
204.6905
 20
851.7001
 11
204.6905
 21
865.2001
  0
LINE
  8
0_00
  6
CONTINUOUS
 62
3
 10
854.0110
 20
851.7001
 11
854.0110
 21
865.2001
  0
LINE
  8
0_00
  6
CONTINUOUS
 62
3
 10
915.5110
 20
851.7001
 11
915.5110
 21
865.2001
  0
LINE
  8
0_00
  6
CONTINUOUS
 62
3
 10
1146.5110
 20
851.7001
 11
1146.5110
 21
865.2001
  0
LINE
  8
0_00
  6
CONTINUOUS
 62
3
 10
114.6905
 20
112.2001
 11
114.6905
 21
37.2000
  0
LINE
  8
0_00
  6
CONTINUOUS
 62
7
 10
174.6905
 20
112.2001
 11
174.6905
 21
37.2000
  0
LINE
  8
0_00
  6
CONTINUOUS
 62
3
 10
869.7610
 20
67.2000
 11
869.7610
 21
97.2001
  0
LINE
  8
0_00
  6
CONTINUOUS
 62
3
 10
893.7610
 20
112.2001
 11
893.7610
 21
97.2001
  0
LINE
  8
0_00
  6
CONTINUOUS
 62
3
 10
912.5110
 20
82.2001
 11
1070.6111
 21
82.2001
  0
LINE
  8
0_00
  6
CONTINUOUS
 62
3
 10
1076.6111
 20
71.7000
 11
1078.5610
 21
71.7000
  0
LINE
  8
0_00
  6
CONTINUOUS
 62
3
 10
1078.5610
 20
71.7000
 11
1078.5610
 21
91.2000
  0
LINE
  8
0_00
  6
CONTINUOUS
 62
3
 10
1078.5610
 20
91.2000
 11
1076.6111
 21
91.2000
  0
LINE
  8
0_00
  6
CONTINUOUS
 62
3
 10
1076.6111
 20
71.7000
 11
1076.6111
 21
91.2000
  0
LINE
  8
0_00
  6
CONTINUOUS
 62
3
 10
1079.3410
 20
71.7000
 11
1081.2911
 21
71.7000
  0
LINE
  8
0_00
  6
CONTINUOUS
 62
3
 10
1081.2911
 20
71.7000
 11
1081.2911
 21
91.2000
  0
LINE
  8
0_00
  6
CONTINUOUS
 62
3
 10
1081.2911
 20
91.2000
 11
1079.3410
 21
91.2000
  0
LINE
  8
0_00
  6
CONTINUOUS
 62
3
 10
1079.3410
 20
71.7000
 11
1079.3410
 21
91.2000
  0
LINE
  8
0_00
  6
CONTINUOUS
 62
3
 10
1082.0711
 20
71.7000
 11
1084.0210
 21
71.7000
  0
LINE
  8
0_00
  6
CONTINUOUS
 62
3
 10
1084.0210
 20
71.7000
 11
1084.0210
 21
91.2000
  0
LINE
  8
0_00
  6
CONTINUOUS
 62
3
 10
1084.0210
 20
91.2000
 11
1082.0711
 21
91.2000
  0
LINE
  8
0_00
  6
CONTINUOUS
 62
3
 10
1082.0711
 20
71.7000
 11
1082.0711
 21
91.2000
  0
LINE
  8
0_00
  6
CONTINUOUS
 62
3
 10
1084.8010
 20
71.7000
 11
1086.7511
 21
71.7000
  0
LINE
  8
0_00
  6
CONTINUOUS
 62
3
 10
1086.7511
 20
91.2000
 11
1084.8010
 21
91.2000
  0
LINE
  8
0_00
  6
CONTINUOUS
 62
3
 10
1084.8010
 20
71.7000
 11
1084.8010
 21
91.2000
  0
LINE
  8
0_00
  6
CONTINUOUS
 62
3
 10
1092.4061
 20
71.7000
 11
1100.0110
 21
71.7000
  0
LINE
  8
0_00
  6
CONTINUOUS
 62
3
 10
1100.0110
 20
71.7000
 11
1100.0110
 21
73.4550
  0
LINE
  8
0_00
  6
CONTINUOUS
 62
3
 10
1100.0110
 20
73.4550
 11
1092.4061
 21
73.4550
  0
LINE
  8
0_00
  6
CONTINUOUS
 62
3
 10
1092.4061
 20
73.4550
 11
1092.4061
 21
71.7000
  0
LINE
  8
0_00
  6
CONTINUOUS
 62
3
 10
1092.4061
 20
74.2350
 11
1100.0110
 21
74.2350
  0
LINE
  8
0_00
  6
CONTINUOUS
 62
3
 10
1100.0110
 20
74.2350
 11
1100.0110
 21
75.9900
  0
LINE
  8
0_00
  6
CONTINUOUS
 62
3
 10
1100.0110
 20
75.9900
 11
1092.4061
 21
75.9900
  0
LINE
  8
0_00
  6
CONTINUOUS
 62
3
 10
1092.4061
 20
75.9900
 11
1092.4061
 21
74.2350
  0
LINE
  8
0_00
  6
CONTINUOUS
 62
3
 10
1092.4061
 20
76.7700
 11
1100.0110
 21
76.7700
  0
LINE
  8
0_00
  6
CONTINUOUS
 62
3
 10
1100.0110
 20
76.7700
 11
1100.0110
 21
78.5250
  0
LINE
  8
0_00
  6
CONTINUOUS
 62
3
 10
1100.0110
 20
78.5250
 11
1092.4061
 21
78.5250
  0
LINE
  8
0_00
  6
CONTINUOUS
 62
3
 10
1092.4061
 20
78.5250
 11
1092.4061
 21
76.7700
  0
LINE
  8
0_00
  6
CONTINUOUS
 62
3
 10
1092.4061
 20
79.3050
 11
1100.0110
 21
79.3050
  0
LINE
  8
0_00
  6
CONTINUOUS
 62
3
 10
1100.0110
 20
79.3050
 11
1100.0110
 21
81.0600
  0
LINE
  8
0_00
  6
CONTINUOUS
 62
3
 10
1100.0110
 20
81.0600
 11
1092.4061
 21
81.0600
  0
LINE
  8
0_00
  6
CONTINUOUS
 62
3
 10
1092.4061
 20
81.0600
 11
1092.4061
 21
79.3050
  0
LINE
  8
0_00
  6
CONTINUOUS
 62
3
 10
1092.4061
 20
81.8401
 11
1100.0110
 21
81.8401
  0
LINE
  8
0_00
  6
CONTINUOUS
 62
3
 10
1100.0110
 20
81.8401
 11
1100.0110
 21
83.5950
  0
LINE
  8
0_00
  6
CONTINUOUS
 62
3
 10
1100.0110
 20
83.5950
 11
1092.4061
 21
83.5950
  0
LINE
  8
0_00
  6
CONTINUOUS
 62
3
 10
1092.4061
 20
83.5950
 11
1092.4061
 21
81.8401
  0
LINE
  8
0_00
  6
CONTINUOUS
 62
3
 10
1092.4061
 20
84.3751
 11
1100.0110
 21
84.3751
  0
LINE
  8
0_00
  6
CONTINUOUS
 62
3
 10
1100.0110
 20
84.3751
 11
1100.0110
 21
86.1300
  0
LINE
  8
0_00
  6
CONTINUOUS
 62
3
 10
1100.0110
 20
86.1300
 11
1092.4061
 21
86.1300
  0
LINE
  8
0_00
  6
CONTINUOUS
 62
3
 10
1092.4061
 20
86.1300
 11
1092.4061
 21
84.3751
  0
LINE
  8
0_00
  6
CONTINUOUS
 62
3
 10
1092.4061
 20
86.9101
 11
1100.0110
 21
86.9101
  0
LINE
  8
0_00
  6
CONTINUOUS
 62
3
 10
1100.0110
 20
86.9101
 11
1100.0110
 21
88.6650
  0
LINE
  8
0_00
  6
CONTINUOUS
 62
3
 10
1100.0110
 20
88.6650
 11
1092.4061
 21
88.6650
  0
LINE
  8
0_00
  6
CONTINUOUS
 62
3
 10
1092.4061
 20
88.6650
 11
1092.4061
 21
86.9101
  0
LINE
  8
0_00
  6
CONTINUOUS
 62
3
 10
1092.4061
 20
89.4451
 11
1100.0110
 21
89.4451
  0
LINE
  8
0_00
  6
CONTINUOUS
 62
3
 10
1100.0110
 20
89.4451
 11
1100.0110
 21
91.2000
  0
LINE
  8
0_00
  6
CONTINUOUS
 62
3
 10
1100.0110
 20
91.2000
 11
1092.4061
 21
91.2000
  0
LINE
  8
0_00
  6
CONTINUOUS
 62
3
 10
1092.4061
 20
91.2000
 11
1092.4061
 21
89.4451
  0
LINE
  8
0_00
  6
CONTINUOUS
 62
3
 10
1087.5311
 20
71.7000
 11
1087.5311
 21
77.0626
  0
LINE
  8
0_00
  6
CONTINUOUS
 62
3
 10
1088.8375
 20
72.7725
 11
1088.8375
 21
77.0626
  0
LINE
  8
0_00
  6
CONTINUOUS
 62
3
 10
1087.5311
 20
71.7000
 11
1089.6760
 21
71.7000
  0
LINE
  8
0_00
  6
CONTINUOUS
 62
3
 10
1088.8375
 20
72.7725
 11
1089.6760
 21
72.7725
  0
LINE
  8
0_00
  6
CONTINUOUS
 62
3
 10
1089.6050
 20
79.8056
 11
1090.4561
 21
78.1351
  0
LINE
  8
0_00
  6
CONTINUOUS
 62
3
 10
1090.9410
 20
82.5453
 11
1089.6047
 21
79.8055
  0
LINE
  8
0_00
  6
CONTINUOUS
 62
3
 10
1086.7511
 20
85.3501
 11
1086.7511
 21
91.2000
  0
LINE
  8
0_00
  6
CONTINUOUS
 62
3
 10
1086.7511
 20
85.3501
 11
1089.1886
 21
85.3501
  0
LINE
  8
0_00
  6
CONTINUOUS
 62
3
 10
1086.7511
 20
84.1801
 11
1087.8333
 21
84.1801
  0
LINE
  8
0_00
  6
CONTINUOUS
 62
3
 10
1086.7511
 20
78.1351
 11
1090.4561
 21
78.1351
  0
LINE
  8
0_00
  6
CONTINUOUS
 62
3
 10
1086.7511
 20
81.9611
 11
1087.8334
 21
84.1801
  0
LINE
  8
0_00
  6
CONTINUOUS
 62
3
 10
1086.7511
 20
81.9613
 11
1086.7511
 21
84.1801
  0
LINE
  8
0_00
  6
CONTINUOUS
 62
3
 10
1086.7511
 20
78.1351
 11
1086.7511
 21
71.7000
  0
LINE
  8
0_00
  6
CONTINUOUS
 62
3
 10
1076.9110
 20
91.2000
 11
1076.9110
 21
71.7000
  0
LINE
  8
0_00
  6
CONTINUOUS
 62
3
 10
1077.2110
 20
91.2000
 11
1077.2110
 21
71.7000
  0
LINE
  8
0_00
  6
CONTINUOUS
 62
3
 10
1077.5110
 20
91.2000
 11
1077.5110
 21
71.7000
  0
LINE
  8
0_00
  6
CONTINUOUS
 62
3
 10
1077.8109
 20
91.2000
 11
1077.8109
 21
71.7000
  0
LINE
  8
0_00
  6
CONTINUOUS
 62
3
 10
1078.1111
 20
91.2000
 11
1078.1111
 21
71.7000
  0
LINE
  8
0_00
  6
CONTINUOUS
 62
3
 10
1079.6411
 20
91.2000
 11
1079.6411
 21
71.7000
  0
LINE
  8
0_00
  6
CONTINUOUS
 62
3
 10
1079.9410
 20
91.2000
 11
1079.9410
 21
71.7000
  0
LINE
  8
0_00
  6
CONTINUOUS
 62
3
 10
1080.2410
 20
91.2000
 11
1080.2410
 21
71.7000
  0
LINE
  8
0_00
  6
CONTINUOUS
 62
3
 10
1080.5410
 20
91.2000
 11
1080.5410
 21
71.7000
  0
LINE
  8
0_00
  6
CONTINUOUS
 62
3
 10
1080.8410
 20
91.2000
 11
1080.8410
 21
71.7000
  0
LINE
  8
0_00
  6
CONTINUOUS
 62
3
 10
1081.1411
 20
91.2000
 11
1081.1411
 21
71.7000
  0
LINE
  8
0_00
  6
CONTINUOUS
 62
3
 10
1082.3709
 20
91.2000
 11
1082.3709
 21
71.7000
  0
LINE
  8
0_00
  6
CONTINUOUS
 62
3
 10
1082.6711
 20
91.2000
 11
1082.6711
 21
71.7000
  0
LINE
  8
0_00
  6
CONTINUOUS
 62
3
 10
1082.9711
 20
91.2000
 11
1082.9711
 21
71.7000
  0
LINE
  8
0_00
  6
CONTINUOUS
 62
3
 10
1083.2710
 20
91.2000
 11
1083.2710
 21
71.7000
  0
LINE
  8
0_00
  6
CONTINUOUS
 62
3
 10
1083.5711
 20
91.2000
 11
1083.5711
 21
71.7000
  0
LINE
  8
0_00
  6
CONTINUOUS
 62
3
 10
1083.8709
 20
91.2000
 11
1083.8709
 21
71.7000
  0
LINE
  8
0_00
  6
CONTINUOUS
 62
3
 10
1092.4061
 20
72.0001
 11
1100.0110
 21
72.0001
  0
LINE
  8
0_00
  6
CONTINUOUS
 62
3
 10
1092.4061
 20
72.3001
 11
1100.0110
 21
72.3001
  0
LINE
  8
0_00
  6
CONTINUOUS
 62
3
 10
1092.4061
 20
72.6000
 11
1100.0110
 21
72.6000
  0
LINE
  8
0_00
  6
CONTINUOUS
 62
3
 10
1092.4061
 20
72.9000
 11
1100.0110
 21
72.9000
  0
LINE
  8
0_00
  6
CONTINUOUS
 62
3
 10
1092.4061
 20
73.2000
 11
1100.0110
 21
73.2000
  0
LINE
  8
0_00
  6
CONTINUOUS
 62
3
 10
1092.4061
 20
74.5351
 11
1100.0110
 21
74.5351
  0
LINE
  8
0_00
  6
CONTINUOUS
 62
3
 10
1092.4061
 20
74.8351
 11
1100.0110
 21
74.8351
  0
LINE
  8
0_00
  6
CONTINUOUS
 62
3
 10
1092.4061
 20
75.1350
 11
1100.0110
 21
75.1350
  0
LINE
  8
0_00
  6
CONTINUOUS
 62
3
 10
1092.4061
 20
75.4350
 11
1100.0110
 21
75.4350
  0
LINE
  8
0_00
  6
CONTINUOUS
 62
3
 10
1092.4061
 20
75.7350
 11
1100.0110
 21
75.7350
  0
LINE
  8
0_00
  6
CONTINUOUS
 62
3
 10
1092.4061
 20
77.0701
 11
1100.0110
 21
77.0701
  0
LINE
  8
0_00
  6
CONTINUOUS
 62
3
 10
1092.4061
 20
77.3701
 11
1100.0110
 21
77.3701
  0
LINE
  8
0_00
  6
CONTINUOUS
 62
3
 10
1092.4061
 20
77.6700
 11
1100.0110
 21
77.6700
  0
LINE
  8
0_00
  6
CONTINUOUS
 62
3
 10
1092.4061
 20
77.9700
 11
1100.0110
 21
77.9700
  0
LINE
  8
0_00
  6
CONTINUOUS
 62
3
 10
1092.4061
 20
78.2701
 11
1100.0110
 21
78.2701
  0
LINE
  8
0_00
  6
CONTINUOUS
 62
3
 10
1092.4061
 20
79.6051
 11
1100.0110
 21
79.6051
  0
LINE
  8
0_00
  6
CONTINUOUS
 62
3
 10
1092.4061
 20
79.9051
 11
1100.0110
 21
79.9051
  0
LINE
  8
0_00
  6
CONTINUOUS
 62
3
 10
1092.4061
 20
80.2050
 11
1100.0110
 21
80.2050
  0
LINE
  8
0_00
  6
CONTINUOUS
 62
3
 10
1092.4061
 20
80.5050
 11
1100.0110
 21
80.5050
  0
LINE
  8
0_00
  6
CONTINUOUS
 62
3
 10
1092.4061
 20
80.8051
 11
1100.0110
 21
80.8051
  0
LINE
  8
0_00
  6
CONTINUOUS
 62
3
 10
1092.4061
 20
82.1401
 11
1100.0110
 21
82.1401
  0
LINE
  8
0_00
  6
CONTINUOUS
 62
3
 10
1092.4061
 20
82.4401
 11
1100.0110
 21
82.4401
  0
LINE
  8
0_00
  6
CONTINUOUS
 62
3
 10
1092.4061
 20
82.7400
 11
1100.0110
 21
82.7400
  0
LINE
  8
0_00
  6
CONTINUOUS
 62
3
 10
1092.4061
 20
83.0400
 11
1100.0110
 21
83.0400
  0
LINE
  8
0_00
  6
CONTINUOUS
 62
3
 10
1092.4061
 20
83.3401
 11
1100.0110
 21
83.3401
  0
LINE
  8
0_00
  6
CONTINUOUS
 62
3
 10
1100.0110
 20
84.6751
 11
1092.4061
 21
84.6751
  0
LINE
  8
0_00
  6
CONTINUOUS
 62
3
 10
1100.0110
 20
84.9751
 11
1092.4061
 21
84.9751
  0
LINE
  8
0_00
  6
CONTINUOUS
 62
3
 10
1100.0110
 20
85.2750
 11
1092.4061
 21
85.2750
  0
LINE
  8
0_00
  6
CONTINUOUS
 62
3
 10
1100.0110
 20
85.5750
 11
1092.4061
 21
85.5750
  0
LINE
  8
0_00
  6
CONTINUOUS
 62
3
 10
1100.0110
 20
85.8751
 11
1092.4061
 21
85.8751
  0
LINE
  8
0_00
  6
CONTINUOUS
 62
3
 10
1092.4061
 20
87.2101
 11
1100.0110
 21
87.2101
  0
LINE
  8
0_00
  6
CONTINUOUS
 62
3
 10
1092.4061
 20
87.5101
 11
1100.0110
 21
87.5101
  0
LINE
  8
0_00
  6
CONTINUOUS
 62
3
 10
1092.4061
 20
87.8100
 11
1100.0110
 21
87.8100
  0
LINE
  8
0_00
  6
CONTINUOUS
 62
3
 10
1092.4061
 20
88.1100
 11
1100.0110
 21
88.1100
  0
LINE
  8
0_00
  6
CONTINUOUS
 62
3
 10
1092.4061
 20
88.4101
 11
1100.0110
 21
88.4101
  0
LINE
  8
0_00
  6
CONTINUOUS
 62
3
 10
1092.4061
 20
89.7451
 11
1100.0110
 21
89.7451
  0
LINE
  8
0_00
  6
CONTINUOUS
 62
3
 10
1092.4061
 20
90.0451
 11
1100.0110
 21
90.0451
  0
LINE
  8
0_00
  6
CONTINUOUS
 62
3
 10
1092.4061
 20
90.3450
 11
1100.0110
 21
90.3450
  0
LINE
  8
0_00
  6
CONTINUOUS
 62
3
 10
1092.4061
 20
90.6450
 11
1100.0110
 21
90.6450
  0
LINE
  8
0_00
  6
CONTINUOUS
 62
3
 10
1092.4061
 20
90.9451
 11
1100.0110
 21
90.9451
  0
LINE
  8
0_00
  6
CONTINUOUS
 62
3
 10
1085.1010
 20
91.2000
 11
1085.1010
 21
71.7000
  0
LINE
  8
0_00
  6
CONTINUOUS
 62
3
 10
1085.4011
 20
91.2000
 11
1085.4011
 21
71.7000
  0
LINE
  8
0_00
  6
CONTINUOUS
 62
3
 10
1085.7009
 20
91.2000
 11
1085.7009
 21
71.7000
  0
LINE
  8
0_00
  6
CONTINUOUS
 62
3
 10
1086.0008
 20
91.2000
 11
1086.0008
 21
71.7000
  0
LINE
  8
0_00
  6
CONTINUOUS
 62
3
 10
1086.3010
 20
91.2000
 11
1086.3010
 21
71.7000
  0
LINE
  8
0_00
  6
CONTINUOUS
 62
3
 10
1086.6010
 20
91.2000
 11
1086.6010
 21
71.7000
  0
LINE
  8
0_00
  6
CONTINUOUS
 62
3
 10
1087.8311
 20
71.7000
 11
1087.8311
 21
77.0626
  0
LINE
  8
0_00
  6
CONTINUOUS
 62
3
 10
1088.1312
 20
71.7000
 11
1088.1312
 21
77.0626
  0
LINE
  8
0_00
  6
CONTINUOUS
 62
3
 10
1088.4310
 20
71.7000
 11
1088.4310
 21
77.0626
  0
LINE
  8
0_00
  6
CONTINUOUS
 62
3
 10
1088.7309
 20
71.7000
 11
1088.7309
 21
77.0626
  0
LINE
  8
0_00
  6
CONTINUOUS
 62
3
 10
1088.8375
 20
72.4725
 11
1089.6760
 21
72.4725
  0
LINE
  8
0_00
  6
CONTINUOUS
 62
3
 10
1088.8375
 20
72.1725
 11
1089.6760
 21
72.1725
  0
LINE
  8
0_00
  6
CONTINUOUS
 62
3
 10
1088.8375
 20
71.8725
 11
1089.6760
 21
71.8725
  0
LINE
  8
0_00
  6
CONTINUOUS
 62
3
 10
1090.2825
 20
78.4758
 11
1086.7853
 21
78.4758
  0
LINE
  8
0_00
  6
CONTINUOUS
 62
3
 10
1090.1032
 20
78.8278
 11
1086.7853
 21
78.8278
  0
LINE
  8
0_00
  6
CONTINUOUS
 62
3
 10
1089.8939
 20
79.2384
 11
1086.7779
 21
79.2384
  0
LINE
  8
0_00
  6
CONTINUOUS
 62
3
 10
1089.7204
 20
79.5787
 11
1086.7744
 21
79.5787
  0
LINE
  8
0_00
  6
CONTINUOUS
 62
3
 10
1091.0859
 20
83.5262
 11
1089.1502
 21
79.5579
  0
LINE
  8
0_00
  6
CONTINUOUS
 62
3
 10
1090.9896
 20
84.0133
 11
1088.8107
 21
79.5458
  0
LINE
  8
0_00
  6
CONTINUOUS
 62
3
 10
1090.8083
 20
84.3258
 11
1088.4914
 21
79.5758
  0
LINE
  8
0_00
  6
CONTINUOUS
 62
3
 10
1090.6029
 20
84.5893
 11
1088.1454
 21
79.5508
  0
LINE
  8
0_00
  6
CONTINUOUS
 62
3
 10
1090.4008
 20
84.8596
 11
1087.8790
 21
79.6887
  0
LINE
  8
0_00
  6
CONTINUOUS
 62
3
 10
1090.1371
 20
85.0026
 11
1087.4908
 21
79.5774
  0
LINE
  8
0_00
  6
CONTINUOUS
 62
3
 10
1089.8761
 20
85.1521
 11
1087.1534
 21
79.5697
  0
LINE
  8
0_00
  6
CONTINUOUS
 62
3
 10
1089.5665
 20
85.2017
 11
1086.8386
 21
79.6087
  0
LINE
  8
0_00
  6
CONTINUOUS
 62
3
 10
1089.2498
 20
85.2367
 11
1086.7053
 21
80.0197
  0
LINE
  8
0_00
  6
CONTINUOUS
 62
3
 10
1088.9374
 20
85.2802
 11
1086.7329
 21
80.7607
  0
LINE
  8
0_00
  6
CONTINUOUS
 62
3
 10
1088.5957
 20
85.2643
 11
1086.6388
 21
81.2521
  0
LINE
  8
0_00
  6
CONTINUOUS
 62
3
 10
1087.9926
 20
84.4801
 11
1086.7511
 21
84.4801
  0
LINE
  8
0_00
  6
CONTINUOUS
 62
3
 10
1088.2355
 20
84.7801
 11
1086.7511
 21
84.7801
  0
LINE
  8
0_00
  6
CONTINUOUS
 62
3
 10
1088.3496
 20
85.0800
 11
1086.7511
 21
85.0800
  0
LINE
  8
0_00
  6
CONTINUOUS
 62
3
 10
796.2610
 20
852.4893
 11
809.7610
 21
852.4893
  0
LINE
  8
0_00
  6
CONTINUOUS
 62
3
 10
797.1685
 20
854.0609
 11
796.2610
 21
852.4893
  0
LINE
  8
0_00
  6
CONTINUOUS
 62
3
 10
800.8929
 20
860.5119
 11
803.0110
 21
864.1806
  0
LINE
  8
0_00
  6
CONTINUOUS
 62
3
 10
808.8538
 20
854.0609
 11
809.7610
 21
852.4893
  0
LINE
  8
0_00
  6
CONTINUOUS
 62
3
 10
805.1292
 20
860.5119
 11
803.0110
 21
864.1806
  0
LINE
  8
0_00
  6
CONTINUOUS
 62
3
 10
1218.5110
 20
154.2001
 11
1221.5110
 21
154.2001
  0
LINE
  8
0_00
  6
CONTINUOUS
 62
3
 10
1218.5110
 20
175.2001
 11
1221.5110
 21
175.2001
  0
LINE
  8
0_00
  6
CONTINUOUS
 62
3
 10
1218.5110
 20
196.2001
 11
1221.5110
 21
196.2001
  0
LINE
  8
0_00
  6
CONTINUOUS
 62
3
 10
1218.5110
 20
217.2001
 11
1221.5110
 21
217.2001
  0
LINE
  8
0_00
  6
CONTINUOUS
 62
3
 10
1218.5110
 20
238.2001
 11
1221.5110
 21
238.2001
  0
LINE
  8
0_00
  6
CONTINUOUS
 62
3
 10
1218.5110
 20
259.2001
 11
1221.5110
 21
259.2001
  0
LINE
  8
0_00
  6
CONTINUOUS
 62
3
 10
1218.5110
 20
280.2001
 11
1221.5110
 21
280.2001
  0
LINE
  8
0_00
  6
CONTINUOUS
 62
3
 10
1218.5110
 20
301.2001
 11
1221.5110
 21
301.2001
  0
LINE
  8
0_00
  6
CONTINUOUS
 62
3
 10
1218.5110
 20
322.2001
 11
1221.5110
 21
322.2001
  0
LINE
  8
0_00
  6
CONTINUOUS
 62
3
 10
1218.5110
 20
343.2001
 11
1221.5110
 21
343.2001
  0
LINE
  8
0_00
  6
CONTINUOUS
 62
3
 10
1218.5110
 20
364.2001
 11
1221.5110
 21
364.2001
  0
LINE
  8
0_00
  6
CONTINUOUS
 62
3
 10
1218.5110
 20
385.2001
 11
1221.5110
 21
385.2001
  0
LINE
  8
0_00
  6
CONTINUOUS
 62
3
 10
1218.5110
 20
406.2001
 11
1221.5110
 21
406.2001
  0
LINE
  8
0_00
  6
CONTINUOUS
 62
3
 10
1218.5110
 20
427.2001
 11
1221.5110
 21
427.2001
  0
LINE
  8
0_00
  6
CONTINUOUS
 62
3
 10
1218.5110
 20
448.2001
 11
1221.5110
 21
448.2001
  0
LINE
  8
0_00
  6
CONTINUOUS
 62
3
 10
1218.5110
 20
469.2001
 11
1221.5110
 21
469.2001
  0
LINE
  8
0_00
  6
CONTINUOUS
 62
3
 10
1218.5110
 20
490.2001
 11
1221.5110
 21
490.2001
  0
LINE
  8
0_00
  6
CONTINUOUS
 62
3
 10
1218.5110
 20
833.7001
 11
1221.5110
 21
833.7001
  0
LINE
  8
0_00
  6
CONTINUOUS
 62
3
 10
1218.5110
 20
815.7001
 11
1221.5110
 21
815.7001
  0
LINE
  8
0_00
  6
CONTINUOUS
 62
3
 10
1218.5110
 20
797.7001
 11
1221.5110
 21
797.7001
  0
LINE
  8
0_00
  6
CONTINUOUS
 62
3
 10
1218.5110
 20
779.7001
 11
1221.5110
 21
779.7001
  0
LINE
  8
0_00
  6
CONTINUOUS
 62
3
 10
1218.5110
 20
761.7001
 11
1221.5110
 21
761.7001
  0
LINE
  8
0_00
  6
CONTINUOUS
 62
3
 10
1218.5110
 20
743.7001
 11
1221.5110
 21
743.7001
  0
LINE
  8
0_00
  6
CONTINUOUS
 62
3
 10
1218.5110
 20
511.2001
 11
1221.5110
 21
511.2001
  0
LINE
  8
0_00
  6
CONTINUOUS
 62
3
 10
1218.5110
 20
532.2001
 11
1221.5110
 21
532.2001
  0
LINE
  8
0_00
  6
CONTINUOUS
 62
3
 10
1218.5110
 20
553.2001
 11
1221.5110
 21
553.2001
  0
LINE
  8
0_00
  6
CONTINUOUS
 62
3
 10
1218.5110
 20
574.2001
 11
1221.5110
 21
574.2001
  0
LINE
  8
0_00
  6
CONTINUOUS
 62
3
 10
1218.5110
 20
595.2001
 11
1221.5110
 21
595.2001
  0
LINE
  8
0_00
  6
CONTINUOUS
 62
3
 10
1218.5110
 20
616.2001
 11
1221.5110
 21
616.2001
  0
LINE
  8
0_00
  6
CONTINUOUS
 62
3
 10
1218.5110
 20
637.2000
 11
1221.5110
 21
637.2000
  0
LINE
  8
0_00
  6
CONTINUOUS
 62
3
 10
1218.5110
 20
658.2000
 11
1221.5110
 21
658.2000
  0
LINE
  8
0_00
  6
CONTINUOUS
 62
3
 10
1218.5110
 20
679.2000
 11
1221.5110
 21
679.2000
  0
LINE
  8
0_00
  6
CONTINUOUS
 62
3
 10
1218.5110
 20
700.2001
 11
1221.5110
 21
700.2001
  0
LINE
  8
0_00
  6
CONTINUOUS
 62
3
 10
1218.5110
 20
721.2001
 11
1221.5110
 21
721.2001
  0
LINE
  8
0_00
  6
CENTER1
 62
3
 10
881.0410
 20
73.2001
 11
881.0410
 21
91.2001
  0
LINE
  8
0_00
  6
CONTINUOUS
 62
4
 10
891.5411
 20
78.4501
 11
891.5411
 21
85.9501
  0
LINE
  8
0_00
  6
CONTINUOUS
 62
4
 10
905.0410
 20
76.2001
 11
905.0410
 21
88.2001
  0
LINE
  8
0_00
  6
CONTINUOUS
 62
4
 10
891.5411
 20
85.9501
 11
905.0410
 21
88.2001
  0
LINE
  8
0_00
  6
CONTINUOUS
 62
4
 10
891.5411
 20
78.4501
 11
905.0410
 21
76.2001
  0
LINE
  8
0_00
  6
CENTER1
 62
3
 10
872.0411
 20
82.2001
 11
907.3555
 21
82.2001
  0
LINE
  8
0_00
  6
CONTINUOUS
 62
3
 10
1191.5110
 20
37.2000
 11
1191.5110
 21
67.2000
  0
LINE
  8
0_00
  6
CONTINUOUS
 62
3
 10
39.6905
 20
22.2000
 11
1233.5110
 21
22.2000
  0
LINE
  8
0_00
  6
CONTINUOUS
 62
3
 10
1182.5110
 20
865.2001
 11
1182.5110
 21
851.7001
  0
LINE
  8
0_00
  6
CONTINUOUS
 62
3
 10
0.0000
 20
443.7000
 11
39.6905
 21
443.7000
  0
LINE
  8
0_00
  6
CONTINUOUS
 62
3
 10
626.1610
 20
22.2000
 11
626.1610
 21
0.0000
  0
LINE
  8
0_00
  6
CONTINUOUS
 62
3
 10
626.1610
 20
865.2001
 11
626.1610
 21
891.0000
  0
LINE
  8
0_00
  6
CONTINUOUS
 62
3
 10
1233.5110
 20
443.7000
 11
1260.0000
 21
443.7000
  0
LINE
  8
15_0F
  6
CONTINUOUS
 62
2
 10
296.0500
 20
682.3065
 11
294.0500
 21
680.3066
  0
LINE
  8
15_0F
  6
CONTINUOUS
 62
2
 10
291.8074
 20
682.3065
 11
289.8074
 21
680.3066
  0
LINE
  8
15_0F
  6
CONTINUOUS
 62
2
 10
287.5647
 20
682.3065
 11
285.5647
 21
680.3066
  0
LINE
  8
15_0F
  6
CONTINUOUS
 62
2
 10
283.3221
 20
682.3065
 11
282.7465
 21
681.7310
  0
LINE
  8
15_0F
  6
CONTINUOUS
 62
2
 10
281.8221
 20
680.8065
 11
281.3221
 21
680.3066
  0
LINE
  8
15_0F
  6
CONTINUOUS
 62
2
 10
277.5794
 20
680.8065
 11
277.0795
 21
680.3066
  0
LINE
  8
15_0F
  6
CONTINUOUS
 62
2
 10
273.3368
 20
680.8065
 11
272.8368
 21
680.3066
  0
LINE
  8
15_0F
  6
CONTINUOUS
 62
2
 10
300.2926
 20
682.3065
 11
298.2926
 21
680.3066
  0
LINE
  8
15_0F
  6
CONTINUOUS
 62
2
 10
304.5353
 20
682.3065
 11
302.5353
 21
680.3066
  0
LINE
  8
15_0F
  6
CONTINUOUS
 62
2
 10
307.7691
 20
681.2977
 11
306.7779
 21
680.3066
  0
LINE
  8
15_0F
  6
CONTINUOUS
 62
2
 10
311.5206
 20
680.8065
 11
311.0206
 21
680.3066
  0
LINE
  8
15_0F
  6
CONTINUOUS
 62
2
 10
315.7632
 20
680.8065
 11
315.2632
 21
680.3066
  0
LINE
  8
0_00
  6
CONTINUOUS
 62
6
 10
267.2000
 20
351.3326
 11
267.2000
 21
303.7440
  0
LINE
  8
0_00
  6
CONTINUOUS
 62
6
 10
323.2000
 20
351.3326
 11
323.2000
 21
303.7440
  0
LINE
  8
0_00
  6
CONTINUOUS
 62
6
 10
267.2000
 20
309.7440
 11
323.2000
 21
309.7440
  0
LINE
  8
0_00
  6
CONTINUOUS
 62
6
 10
267.2000
 20
309.7440
 11
274.5361
 21
308.1846
  0
LINE
  8
0_00
  6
CONTINUOUS
 62
6
 10
267.2000
 20
309.7440
 11
274.5361
 21
311.3033
  0
LINE
  8
0_00
  6
CONTINUOUS
 62
6
 10
323.2000
 20
309.7440
 11
315.8639
 21
311.3033
  0
LINE
  8
0_00
  6
CONTINUOUS
 62
6
 10
323.2000
 20
309.7440
 11
315.8639
 21
308.1846
  0
LINE
  8
15_0F
  6
CONTINUOUS
 62
6
 10
325.2000
 20
733.8286
 11
325.2000
 21
772.7957
  0
LINE
  8
15_0F
  6
CONTINUOUS
 62
6
 10
265.2000
 20
733.8286
 11
265.2000
 21
772.7957
  0
LINE
  8
15_0F
  6
CONTINUOUS
 62
6
 10
265.2000
 20
766.7958
 11
325.2000
 21
766.7958
  0
LINE
  8
15_0F
  6
CONTINUOUS
 62
6
 10
265.2000
 20
766.7958
 11
272.5361
 21
765.2364
  0
LINE
  8
15_0F
  6
CONTINUOUS
 62
6
 10
265.2000
 20
766.7958
 11
272.5361
 21
768.3551
  0
LINE
  8
15_0F
  6
CONTINUOUS
 62
6
 10
325.2000
 20
766.7958
 11
317.8639
 21
768.3551
  0
LINE
  8
15_0F
  6
CONTINUOUS
 62
6
 10
325.2000
 20
766.7958
 11
317.8639
 21
765.2364
  0
LINE
  8
15_0F
  6
CONTINUOUS
 62
6
 10
624.0419
 20
759.9201
 11
624.0419
 21
792.7958
  0
LINE
  8
15_0F
  6
CONTINUOUS
 62
6
 10
586.5419
 20
759.9201
 11
586.5419
 21
792.7958
  0
LINE
  8
15_0F
  6
CONTINUOUS
 62
6
 10
586.5419
 20
786.7958
 11
624.0419
 21
786.7958
  0
LINE
  8
15_0F
  6
CONTINUOUS
 62
6
 10
779.0419
 20
759.9201
 11
779.0419
 21
792.7958
  0
LINE
  8
15_0F
  6
CONTINUOUS
 62
6
 10
624.0419
 20
786.7958
 11
779.0419
 21
786.7958
  0
LINE
  8
15_0F
  6
CONTINUOUS
 62
6
 10
624.0419
 20
786.7958
 11
631.3781
 21
785.2365
  0
LINE
  8
15_0F
  6
CONTINUOUS
 62
6
 10
624.0419
 20
786.7958
 11
631.3781
 21
788.3551
  0
LINE
  8
15_0F
  6
CONTINUOUS
 62
6
 10
779.0419
 20
786.7958
 11
771.7058
 21
788.3551
  0
LINE
  8
15_0F
  6
CONTINUOUS
 62
6
 10
779.0419
 20
786.7958
 11
771.7058
 21
785.2365
  0
LINE
  8
15_0F
  6
CONTINUOUS
 62
6
 10
934.0421
 20
759.9201
 11
934.0421
 21
792.7958
  0
LINE
  8
15_0F
  6
CONTINUOUS
 62
6
 10
779.0419
 20
786.7958
 11
934.0421
 21
786.7958
  0
LINE
  8
15_0F
  6
CONTINUOUS
 62
6
 10
779.0419
 20
786.7958
 11
786.3780
 21
785.2365
  0
LINE
  8
15_0F
  6
CONTINUOUS
 62
6
 10
779.0419
 20
786.7958
 11
786.3780
 21
788.3551
  0
LINE
  8
15_0F
  6
CONTINUOUS
 62
6
 10
934.0421
 20
786.7958
 11
926.7058
 21
788.3551
  0
LINE
  8
15_0F
  6
CONTINUOUS
 62
6
 10
934.0421
 20
786.7958
 11
926.7058
 21
785.2365
  0
LINE
  8
15_0F
  6
CONTINUOUS
 62
6
 10
1089.0419
 20
759.9201
 11
1089.0419
 21
792.7958
  0
LINE
  8
15_0F
  6
CONTINUOUS
 62
6
 10
934.0421
 20
786.7958
 11
1089.0419
 21
786.7958
  0
LINE
  8
15_0F
  6
CONTINUOUS
 62
6
 10
934.0421
 20
786.7958
 11
941.3781
 21
785.2365
  0
LINE
  8
15_0F
  6
CONTINUOUS
 62
6
 10
934.0421
 20
786.7958
 11
941.3781
 21
788.3551
  0
LINE
  8
15_0F
  6
CONTINUOUS
 62
6
 10
1089.0419
 20
786.7958
 11
1081.7058
 21
788.3551
  0
LINE
  8
15_0F
  6
CONTINUOUS
 62
6
 10
1089.0419
 20
786.7958
 11
1081.7058
 21
785.2365
  0
LINE
  8
15_0F
  6
CONTINUOUS
 62
6
 10
1126.5420
 20
759.9201
 11
1126.5420
 21
792.7958
  0
LINE
  8
15_0F
  6
CONTINUOUS
 62
6
 10
1089.0419
 20
786.7958
 11
1126.5420
 21
786.7958
  0
LINE
  8
15_0F
  6
CONTINUOUS
 62
6
 10
571.5419
 20
786.7958
 11
586.5419
 21
786.7958
  0
LINE
  8
15_0F
  6
CONTINUOUS
 62
6
 10
586.5419
 20
786.7958
 11
579.2059
 21
788.3551
  0
LINE
  8
15_0F
  6
CONTINUOUS
 62
6
 10
586.5419
 20
786.7958
 11
579.2059
 21
785.2365
  0
LINE
  8
15_0F
  6
CONTINUOUS
 62
6
 10
1141.5420
 20
786.7958
 11
1126.5420
 21
786.7958
  0
LINE
  8
15_0F
  6
CONTINUOUS
 62
6
 10
1126.5420
 20
786.7958
 11
1133.8781
 21
785.2365
  0
LINE
  8
15_0F
  6
CONTINUOUS
 62
6
 10
1126.5420
 20
786.7958
 11
1133.8781
 21
788.3551
  0
LINE
  8
15_0F
  6
CONTINUOUS
 62
6
 10
1136.8920
 20
740.1192
 11
1195.1883
 21
740.1192
  0
LINE
  8
15_0F
  6
CONTINUOUS
 62
6
 10
1151.2170
 20
695.1192
 11
1195.1883
 21
695.1192
  0
LINE
  8
15_0F
  6
CONTINUOUS
 62
6
 10
1189.1882
 20
740.1192
 11
1189.1882
 21
695.1192
  0
LINE
  8
15_0F
  6
CONTINUOUS
 62
6
 10
1189.1882
 20
740.1192
 11
1187.6288
 21
732.7831
  0
LINE
  8
15_0F
  6
CONTINUOUS
 62
6
 10
1189.1882
 20
740.1192
 11
1190.7477
 21
732.7831
  0
LINE
  8
15_0F
  6
CONTINUOUS
 62
6
 10
1189.1882
 20
695.1192
 11
1190.7477
 21
702.4553
  0
LINE
  8
15_0F
  6
CONTINUOUS
 62
6
 10
1189.1882
 20
695.1192
 11
1187.6288
 21
702.4553
  0
LINE
  8
15_0F
  6
CONTINUOUS
 62
6
 10
638.5039
 20
388.5682
 11
638.5039
 21
446.0000
  0
LINE
  8
15_0F
  6
CONTINUOUS
 62
6
 10
698.5040
 20
388.5682
 11
698.5040
 21
446.0000
  0
LINE
  8
15_0F
  6
CONTINUOUS
 62
6
 10
638.5039
 20
440.0000
 11
698.5040
 21
440.0000
  0
LINE
  8
15_0F
  6
CONTINUOUS
 62
6
 10
638.5039
 20
440.0000
 11
645.8400
 21
438.4407
  0
LINE
  8
15_0F
  6
CONTINUOUS
 62
6
 10
638.5039
 20
440.0000
 11
645.8400
 21
441.5593
  0
LINE
  8
15_0F
  6
CONTINUOUS
 62
6
 10
698.5040
 20
440.0000
 11
691.1678
 21
441.5593
  0
LINE
  8
15_0F
  6
CONTINUOUS
 62
6
 10
698.5040
 20
440.0000
 11
691.1678
 21
438.4407
  0
LINE
  8
15_0F
  6
CONTINUOUS
 62
6
 10
633.3052
 20
324.0623
 11
534.0000
 21
324.0623
  0
LINE
  8
15_0F
  6
CONTINUOUS
 62
6
 10
662.4195
 20
268.0623
 11
534.0000
 21
268.0623
  0
LINE
  8
15_0F
  6
CONTINUOUS
 62
6
 10
540.0000
 20
324.0623
 11
540.0000
 21
268.0623
  0
LINE
  8
15_0F
  6
CONTINUOUS
 62
6
 10
540.0000
 20
324.0623
 11
538.4407
 21
316.7262
  0
LINE
  8
15_0F
  6
CONTINUOUS
 62
6
 10
540.0000
 20
324.0623
 11
541.5593
 21
316.7262
  0
LINE
  8
15_0F
  6
CONTINUOUS
 62
6
 10
540.0000
 20
268.0623
 11
541.5593
 21
275.3985
  0
LINE
  8
15_0F
  6
CONTINUOUS
 62
6
 10
540.0000
 20
268.0623
 11
538.4407
 21
275.3985
  0
LINE
  8
15_0F
  6
CONTINUOUS
 62
6
 10
1039.9841
 20
330.0623
 11
1039.9841
 21
426.0000
  0
LINE
  8
15_0F
  6
CONTINUOUS
 62
6
 10
1067.9842
 20
330.0623
 11
1067.9842
 21
426.0000
  0
LINE
  8
15_0F
  6
CONTINUOUS
 62
6
 10
1039.9841
 20
420.0000
 11
1067.9842
 21
420.0000
  0
LINE
  8
15_0F
  6
CONTINUOUS
 62
6
 10
1097.3840
 20
420.0000
 11
1067.9842
 21
420.0000
  0
LINE
  8
15_0F
  6
CONTINUOUS
 62
6
 10
1067.9842
 20
420.0000
 11
1075.3202
 21
418.4407
  0
LINE
  8
15_0F
  6
CONTINUOUS
 62
6
 10
1067.9842
 20
420.0000
 11
1075.3202
 21
421.5593
  0
LINE
  8
15_0F
  6
CONTINUOUS
 62
6
 10
1021.9841
 20
420.0000
 11
1039.9841
 21
420.0000
  0
LINE
  8
15_0F
  6
CONTINUOUS
 62
6
 10
1039.9841
 20
420.0000
 11
1032.6479
 21
421.5593
  0
LINE
  8
15_0F
  6
CONTINUOUS
 62
6
 10
1039.9841
 20
420.0000
 11
1032.6479
 21
418.4407
  0
LINE
  8
15_0F
  6
CONTINUOUS
 62
6
 10
1080.4841
 20
317.5623
 11
1166.0000
 21
317.5623
  0
LINE
  8
15_0F
  6
CONTINUOUS
 62
6
 10
1080.4841
 20
274.5623
 11
1166.0000
 21
274.5623
  0
LINE
  8
15_0F
  6
CONTINUOUS
 62
6
 10
1160.0000
 20
317.5623
 11
1160.0000
 21
274.5623
  0
LINE
  8
15_0F
  6
CONTINUOUS
 62
6
 10
1160.0000
 20
317.5623
 11
1158.4406
 21
310.2262
  0
LINE
  8
15_0F
  6
CONTINUOUS
 62
6
 10
1160.0000
 20
317.5623
 11
1161.5593
 21
310.2262
  0
LINE
  8
15_0F
  6
CONTINUOUS
 62
6
 10
1160.0000
 20
274.5623
 11
1161.5593
 21
281.8984
  0
LINE
  8
15_0F
  6
CONTINUOUS
 62
6
 10
1160.0000
 20
274.5623
 11
1158.4406
 21
281.8984
  0
LINE
  8
15_0F
  6
CONTINUOUS
 62
4
 10
94.6046
 20
228.4110
 11
139.6046
 21
228.4110
  0
LINE
  8
15_0F
  6
CONTINUOUS
 62
4
 10
1056.4483
 20
522.0958
 11
1130.2483
 21
522.0958
  0
LINE
  8
15_0F
  6
CONTINUOUS
 62
6
 10
641.9355
 20
353.3623
 11
604.3947
 21
398.0495
  0
LINE
  8
15_0F
  6
CONTINUOUS
 62
6
 10
641.9355
 20
353.3623
 11
638.4105
 21
359.9824
  0
LINE
  8
15_0F
  6
CONTINUOUS
 62
6
 10
641.9355
 20
353.3623
 11
636.0228
 21
357.9764
  0
LINE
  8
15_0F
  6
CONTINUOUS
 62
6
 10
604.3947
 20
398.0495
 11
559.3947
 21
398.0495
  0
LINE
  8
15_0F
  6
CONTINUOUS
 62
6
 10
638.8447
 20
304.7721
 11
611.7843
 21
338.3649
  0
LINE
  8
15_0F
  6
CONTINUOUS
 62
6
 10
638.8447
 20
304.7721
 11
635.4570
 21
311.4634
  0
LINE
  8
15_0F
  6
CONTINUOUS
 62
6
 10
638.8447
 20
304.7721
 11
633.0283
 21
309.5069
  0
LINE
  8
15_0F
  6
CONTINUOUS
 62
6
 10
611.7843
 20
338.3649
 11
537.9843
 21
338.3649
  0
LINE
  8
12_0C
  6
DASHED
 62
2
 10
275.2000
 20
662.3265
 11
275.7500
 21
657.5066
  0
LINE
  8
12_0C
  6
DASHED
 62
2
 10
279.2000
 20
662.3265
 11
278.6500
 21
657.5066
  0
LINE
  8
12_0C
  6
DASHED
 62
2
 10
275.7500
 20
657.5066
 11
278.6500
 21
657.5066
  0
LINE
  8
12_0C
  6
CONTINUOUS
 62
2
 10
280.7000
 20
683.4765
 11
280.7000
 21
682.5066
  0
LINE
  8
12_0C
  6
CONTINUOUS
 62
2
 10
273.7000
 20
683.4765
 11
273.7000
 21
682.5066
  0
LINE
  8
0_00
  6
CONTINUOUS
 62
2
 10
273.7000
 20
682.5066
 11
280.7000
 21
682.5066
  0
LINE
  8
12_0C
  6
DASHED
 62
2
 10
275.2000
 20
682.5066
 11
275.2000
 21
662.3265
  0
LINE
  8
12_0C
  6
DASHED
 62
2
 10
275.7000
 20
682.5066
 11
275.7000
 21
657.9448
  0
LINE
  8
12_0C
  6
DASHED
 62
2
 10
279.2000
 20
682.5066
 11
279.2000
 21
662.3265
  0
LINE
  8
12_0C
  6
DASHED
 62
2
 10
278.7000
 20
682.5066
 11
278.7000
 21
657.9448
  0
LINE
  8
12_0C
  6
CONTINUOUS
 62
2
 10
287.2000
 20
695.0766
 11
287.2000
 21
694.1066
  0
LINE
  8
12_0C
  6
CONTINUOUS
 62
2
 10
294.2000
 20
695.0766
 11
294.2000
 21
694.1066
  0
LINE
  8
12_0C
  6
CONTINUOUS
 62
2
 10
294.2000
 20
694.1066
 11
287.2000
 21
694.1066
  0
LINE
  8
12_0C
  6
CONTINUOUS
 62
2
 10
292.7000
 20
691.6066
 11
292.7000
 21
689.3066
  0
LINE
  8
12_0C
  6
CONTINUOUS
 62
2
 10
292.2000
 20
691.6066
 11
292.2000
 21
689.3066
  0
LINE
  8
12_0C
  6
CONTINUOUS
 62
2
 10
288.7000
 20
691.6066
 11
288.7000
 21
689.3066
  0
LINE
  8
12_0C
  6
CONTINUOUS
 62
2
 10
289.2000
 20
691.6066
 11
289.2000
 21
689.3066
  0
LINE
  8
12_0C
  6
DASHED
 62
2
 10
288.7000
 20
673.9266
 11
292.2000
 21
669.5448
  0
LINE
  8
12_0C
  6
DASHED
 62
2
 10
292.7000
 20
694.1066
 11
292.7000
 21
691.6066
  0
LINE
  8
12_0C
  6
DASHED
 62
2
 10
292.7000
 20
689.3066
 11
292.7000
 21
673.9266
  0
LINE
  8
12_0C
  6
DASHED
 62
2
 10
292.2000
 20
694.1066
 11
292.2000
 21
691.6066
  0
LINE
  8
12_0C
  6
DASHED
 62
2
 10
292.2000
 20
689.3066
 11
292.2000
 21
664.1066
  0
LINE
  8
12_0C
  6
DASHED
 62
2
 10
288.7000
 20
694.1066
 11
288.7000
 21
691.6066
  0
LINE
  8
12_0C
  6
DASHED
 62
2
 10
288.7000
 20
689.3066
 11
288.7000
 21
673.9266
  0
LINE
  8
12_0C
  6
DASHED
 62
2
 10
289.2000
 20
694.1066
 11
289.2000
 21
691.6066
  0
LINE
  8
12_0C
  6
DASHED
 62
2
 10
289.2000
 20
689.3066
 11
289.2000
 21
664.1066
  0
LINE
  8
12_0C
  6
DASHED
 62
2
 10
292.7000
 20
673.9266
 11
292.2000
 21
669.5448
  0
LINE
  8
12_0C
  6
DASHED
 62
2
 10
288.7000
 20
673.9266
 11
289.2000
 21
669.5448
  0
LINE
  8
12_0C
  6
DASHED
 62
2
 10
292.2000
 20
664.1066
 11
289.2000
 21
664.1066
  0
LINE
  8
12_0C
  6
CONTINUOUS
 62
2
 10
296.2000
 20
695.0766
 11
296.2000
 21
694.1066
  0
LINE
  8
12_0C
  6
CONTINUOUS
 62
2
 10
303.2000
 20
695.0766
 11
303.2000
 21
694.1066
  0
LINE
  8
12_0C
  6
CONTINUOUS
 62
2
 10
303.2000
 20
694.1066
 11
296.2000
 21
694.1066
  0
LINE
  8
12_0C
  6
CONTINUOUS
 62
2
 10
301.7000
 20
691.6066
 11
301.7000
 21
689.3066
  0
LINE
  8
12_0C
  6
CONTINUOUS
 62
2
 10
301.2000
 20
691.6066
 11
301.2000
 21
689.3066
  0
LINE
  8
12_0C
  6
CONTINUOUS
 62
2
 10
297.7000
 20
691.6066
 11
297.7000
 21
689.3066
  0
LINE
  8
12_0C
  6
CONTINUOUS
 62
2
 10
298.2000
 20
691.6066
 11
298.2000
 21
689.3066
  0
LINE
  8
12_0C
  6
DASHED
 62
2
 10
297.7000
 20
673.9266
 11
301.2000
 21
669.5448
  0
LINE
  8
12_0C
  6
DASHED
 62
2
 10
301.7000
 20
694.1066
 11
301.7000
 21
691.6066
  0
LINE
  8
12_0C
  6
DASHED
 62
2
 10
301.7000
 20
689.3066
 11
301.7000
 21
673.9266
  0
LINE
  8
12_0C
  6
DASHED
 62
2
 10
301.2000
 20
694.1066
 11
301.2000
 21
691.6066
  0
LINE
  8
12_0C
  6
DASHED
 62
2
 10
301.2000
 20
689.3066
 11
301.2000
 21
664.1066
  0
LINE
  8
12_0C
  6
DASHED
 62
2
 10
297.7000
 20
694.1066
 11
297.7000
 21
691.6066
  0
LINE
  8
12_0C
  6
DASHED
 62
2
 10
297.7000
 20
689.3066
 11
297.7000
 21
673.9266
  0
LINE
  8
12_0C
  6
DASHED
 62
2
 10
298.2000
 20
694.1066
 11
298.2000
 21
691.6066
  0
LINE
  8
12_0C
  6
DASHED
 62
2
 10
298.2000
 20
689.3066
 11
298.2000
 21
664.1066
  0
LINE
  8
12_0C
  6
DASHED
 62
2
 10
301.7000
 20
673.9266
 11
301.2000
 21
669.5448
  0
LINE
  8
12_0C
  6
DASHED
 62
2
 10
297.7000
 20
673.9266
 11
298.2000
 21
669.5448
  0
LINE
  8
12_0C
  6
DASHED
 62
2
 10
301.2000
 20
664.1066
 11
298.2000
 21
664.1066
  0
LINE
  8
12_0C
  6
DASHED
 62
2
 10
311.2000
 20
662.3265
 11
311.7500
 21
657.5066
  0
LINE
  8
12_0C
  6
DASHED
 62
2
 10
315.2000
 20
662.3265
 11
314.6500
 21
657.5066
  0
LINE
  8
12_0C
  6
DASHED
 62
2
 10
311.7500
 20
657.5066
 11
314.6500
 21
657.5066
  0
LINE
  8
12_0C
  6
CONTINUOUS
 62
2
 10
316.7000
 20
683.4765
 11
316.7000
 21
682.5066
  0
LINE
  8
12_0C
  6
CONTINUOUS
 62
2
 10
309.7000
 20
683.4765
 11
309.7000
 21
682.5066
  0
LINE
  8
0_00
  6
CONTINUOUS
 62
2
 10
309.7000
 20
682.5066
 11
316.7000
 21
682.5066
  0
LINE
  8
12_0C
  6
DASHED
 62
2
 10
311.2000
 20
682.5066
 11
311.2000
 21
662.3265
  0
LINE
  8
12_0C
  6
DASHED
 62
2
 10
311.7000
 20
682.5066
 11
311.7000
 21
657.9448
  0
LINE
  8
12_0C
  6
DASHED
 62
2
 10
315.2000
 20
682.5066
 11
315.2000
 21
662.3265
  0
LINE
  8
12_0C
  6
DASHED
 62
2
 10
314.7000
 20
682.5066
 11
314.7000
 21
657.9448
  0
LINE
  8
15_0F
  6
CONTINUOUS
 62
2
 10
457.4992
 20
691.0654
 11
455.4993
 21
689.0655
  0
LINE
  8
15_0F
  6
CONTINUOUS
 62
2
 10
453.2566
 20
691.0654
 11
451.2566
 21
689.0655
  0
LINE
  8
15_0F
  6
CONTINUOUS
 62
2
 10
449.0140
 20
691.0654
 11
447.0140
 21
689.0655
  0
LINE
  8
15_0F
  6
CONTINUOUS
 62
2
 10
444.7713
 20
691.0654
 11
444.1957
 21
690.4899
  0
LINE
  8
15_0F
  6
CONTINUOUS
 62
2
 10
443.2713
 20
689.5654
 11
442.7713
 21
689.0655
  0
LINE
  8
15_0F
  6
CONTINUOUS
 62
2
 10
439.0287
 20
689.5654
 11
438.5287
 21
689.0655
  0
LINE
  8
15_0F
  6
CONTINUOUS
 62
2
 10
434.7860
 20
689.5654
 11
434.2861
 21
689.0655
  0
LINE
  8
15_0F
  6
CONTINUOUS
 62
2
 10
461.7419
 20
691.0654
 11
459.7419
 21
689.0655
  0
LINE
  8
15_0F
  6
CONTINUOUS
 62
2
 10
465.9845
 20
691.0654
 11
463.9845
 21
689.0655
  0
LINE
  8
15_0F
  6
CONTINUOUS
 62
2
 10
469.2183
 20
690.0566
 11
468.2272
 21
689.0655
  0
LINE
  8
15_0F
  6
CONTINUOUS
 62
2
 10
472.9698
 20
689.5654
 11
472.4698
 21
689.0655
  0
LINE
  8
15_0F
  6
CONTINUOUS
 62
2
 10
477.2124
 20
689.5654
 11
476.7125
 21
689.0655
  0
LINE
  8
12_0C
  6
CONTINUOUS
 62
2
 10
478.1492
 20
692.2354
 11
478.1492
 21
691.2655
  0
LINE
  8
12_0C
  6
CONTINUOUS
 62
2
 10
471.1492
 20
692.2354
 11
471.1492
 21
691.2655
  0
LINE
  8
12_0C
  6
DASHED
 62
2
 10
472.6492
 20
691.2655
 11
472.6492
 21
671.0854
  0
LINE
  8
12_0C
  6
DASHED
 62
2
 10
473.1492
 20
691.2655
 11
473.1492
 21
666.7036
  0
LINE
  8
12_0C
  6
DASHED
 62
2
 10
476.6492
 20
691.2655
 11
476.6492
 21
671.0854
  0
LINE
  8
12_0C
  6
DASHED
 62
2
 10
476.1492
 20
691.2655
 11
476.1492
 21
666.7036
  0
LINE
  8
12_0C
  6
DASHED
 62
2
 10
472.6492
 20
671.0854
 11
473.1993
 21
666.2654
  0
LINE
  8
12_0C
  6
DASHED
 62
2
 10
476.6492
 20
671.0854
 11
476.0993
 21
666.2654
  0
LINE
  8
12_0C
  6
DASHED
 62
2
 10
473.1993
 20
666.2654
 11
476.0993
 21
666.2654
  0
LINE
  8
0_00
  6
CONTINUOUS
 62
2
 10
471.1492
 20
691.2655
 11
478.1492
 21
691.2655
  0
LINE
  8
12_0C
  6
CONTINUOUS
 62
2
 10
464.6492
 20
703.8354
 11
464.6492
 21
702.8655
  0
LINE
  8
12_0C
  6
CONTINUOUS
 62
2
 10
457.6492
 20
703.8354
 11
457.6492
 21
702.8655
  0
LINE
  8
12_0C
  6
DASHED
 62
2
 10
459.1492
 20
682.6854
 11
459.6492
 21
678.3036
  0
LINE
  8
12_0C
  6
DASHED
 62
2
 10
463.1492
 20
682.6854
 11
462.6492
 21
678.3036
  0
LINE
  8
12_0C
  6
DASHED
 62
2
 10
459.6492
 20
672.8654
 11
462.6492
 21
672.8654
  0
LINE
  8
12_0C
  6
CONTINUOUS
 62
2
 10
457.6492
 20
702.8655
 11
464.6492
 21
702.8655
  0
LINE
  8
12_0C
  6
DASHED
 62
2
 10
463.1492
 20
682.6854
 11
459.6492
 21
678.3036
  0
LINE
  8
12_0C
  6
DASHED
 62
2
 10
463.1492
 20
698.3215
 11
463.1492
 21
682.6854
  0
LINE
  8
12_0C
  6
CONTINUOUS
 62
2
 10
463.1492
 20
700.3655
 11
463.1492
 21
698.3215
  0
LINE
  8
12_0C
  6
DASHED
 62
2
 10
463.1492
 20
702.8655
 11
463.1492
 21
700.3655
  0
LINE
  8
12_0C
  6
DASHED
 62
2
 10
462.6492
 20
698.3215
 11
462.6492
 21
672.8654
  0
LINE
  8
12_0C
  6
CONTINUOUS
 62
2
 10
462.6492
 20
700.3655
 11
462.6492
 21
698.3215
  0
LINE
  8
12_0C
  6
DASHED
 62
2
 10
462.6492
 20
702.8655
 11
462.6492
 21
700.3655
  0
LINE
  8
12_0C
  6
DASHED
 62
2
 10
459.6492
 20
698.3215
 11
459.6492
 21
672.8654
  0
LINE
  8
12_0C
  6
CONTINUOUS
 62
2
 10
459.6492
 20
700.3655
 11
459.6492
 21
698.3215
  0
LINE
  8
12_0C
  6
DASHED
 62
2
 10
459.6492
 20
702.8655
 11
459.6492
 21
700.3655
  0
LINE
  8
12_0C
  6
DASHED
 62
2
 10
459.1492
 20
698.3215
 11
459.1492
 21
682.6854
  0
LINE
  8
12_0C
  6
CONTINUOUS
 62
2
 10
459.1492
 20
700.3655
 11
459.1492
 21
698.3215
  0
LINE
  8
12_0C
  6
DASHED
 62
2
 10
459.1492
 20
702.8655
 11
459.1492
 21
700.3655
  0
LINE
  8
12_0C
  6
CONTINUOUS
 62
2
 10
455.6492
 20
703.8354
 11
455.6492
 21
702.8655
  0
LINE
  8
12_0C
  6
CONTINUOUS
 62
2
 10
448.6492
 20
703.8354
 11
448.6492
 21
702.8655
  0
LINE
  8
12_0C
  6
DASHED
 62
2
 10
450.1492
 20
682.6854
 11
450.6492
 21
678.3036
  0
LINE
  8
12_0C
  6
DASHED
 62
2
 10
454.1492
 20
682.6854
 11
453.6492
 21
678.3036
  0
LINE
  8
12_0C
  6
DASHED
 62
2
 10
450.6492
 20
672.8654
 11
453.6492
 21
672.8654
  0
LINE
  8
12_0C
  6
CONTINUOUS
 62
2
 10
448.6492
 20
702.8655
 11
455.6492
 21
702.8655
  0
LINE
  8
12_0C
  6
DASHED
 62
2
 10
454.1492
 20
682.6854
 11
450.6492
 21
678.3036
  0
LINE
  8
12_0C
  6
DASHED
 62
2
 10
454.1492
 20
698.3215
 11
454.1492
 21
682.6854
  0
LINE
  8
12_0C
  6
CONTINUOUS
 62
2
 10
454.1492
 20
700.3655
 11
454.1492
 21
698.3215
  0
LINE
  8
12_0C
  6
DASHED
 62
2
 10
454.1492
 20
702.8655
 11
454.1492
 21
700.3655
  0
LINE
  8
12_0C
  6
DASHED
 62
2
 10
453.6492
 20
698.3215
 11
453.6492
 21
672.8654
  0
LINE
  8
12_0C
  6
CONTINUOUS
 62
2
 10
453.6492
 20
700.3655
 11
453.6492
 21
698.3215
  0
LINE
  8
12_0C
  6
DASHED
 62
2
 10
453.6492
 20
702.8655
 11
453.6492
 21
700.3655
  0
LINE
  8
12_0C
  6
DASHED
 62
2
 10
450.6492
 20
698.3215
 11
450.6492
 21
672.8654
  0
LINE
  8
12_0C
  6
CONTINUOUS
 62
2
 10
450.6492
 20
700.3655
 11
450.6492
 21
698.3215
  0
LINE
  8
12_0C
  6
DASHED
 62
2
 10
450.6492
 20
702.8655
 11
450.6492
 21
700.3655
  0
LINE
  8
12_0C
  6
DASHED
 62
2
 10
450.1492
 20
698.3215
 11
450.1492
 21
682.6854
  0
LINE
  8
12_0C
  6
CONTINUOUS
 62
2
 10
450.1492
 20
700.3655
 11
450.1492
 21
698.3215
  0
LINE
  8
12_0C
  6
DASHED
 62
2
 10
450.1492
 20
702.8655
 11
450.1492
 21
700.3655
  0
LINE
  8
12_0C
  6
CONTINUOUS
 62
2
 10
442.1492
 20
692.2354
 11
442.1492
 21
691.2655
  0
LINE
  8
12_0C
  6
CONTINUOUS
 62
2
 10
435.1492
 20
692.2354
 11
435.1492
 21
691.2655
  0
LINE
  8
12_0C
  6
DASHED
 62
2
 10
436.6492
 20
691.2655
 11
436.6492
 21
671.0854
  0
LINE
  8
12_0C
  6
DASHED
 62
2
 10
437.1492
 20
691.2655
 11
437.1492
 21
666.7036
  0
LINE
  8
12_0C
  6
DASHED
 62
2
 10
440.6492
 20
691.2655
 11
440.6492
 21
671.0854
  0
LINE
  8
12_0C
  6
DASHED
 62
2
 10
440.1492
 20
691.2655
 11
440.1492
 21
666.7036
  0
LINE
  8
12_0C
  6
DASHED
 62
2
 10
436.6492
 20
671.0854
 11
437.1992
 21
666.2654
  0
LINE
  8
12_0C
  6
DASHED
 62
2
 10
440.6492
 20
671.0854
 11
440.0993
 21
666.2654
  0
LINE
  8
12_0C
  6
DASHED
 62
2
 10
437.1992
 20
666.2654
 11
440.0993
 21
666.2654
  0
LINE
  8
0_00
  6
CONTINUOUS
 62
2
 10
435.1492
 20
691.2655
 11
442.1492
 21
691.2655
  0
LINE
  8
15_0F
  6
CONTINUOUS
 62
6
 10
496.6492
 20
717.5237
 11
496.6492
 21
772.7957
  0
LINE
  8
15_0F
  6
CONTINUOUS
 62
6
 10
416.6492
 20
717.5237
 11
416.6492
 21
772.7957
  0
LINE
  8
15_0F
  6
CONTINUOUS
 62
6
 10
416.6492
 20
766.7958
 11
496.6492
 21
766.7958
  0
LINE
  8
15_0F
  6
CONTINUOUS
 62
6
 10
416.6492
 20
766.7958
 11
423.9853
 21
765.2364
  0
LINE
  8
15_0F
  6
CONTINUOUS
 62
6
 10
416.6492
 20
766.7958
 11
423.9853
 21
768.3551
  0
LINE
  8
15_0F
  6
CONTINUOUS
 62
6
 10
496.6492
 20
766.7958
 11
489.3131
 21
768.3551
  0
LINE
  8
15_0F
  6
CONTINUOUS
 62
6
 10
496.6492
 20
766.7958
 11
489.3131
 21
765.2364
  0
LINE
  8
15_0F
  6
CONTINUOUS
 62
4
 10
544.5400
 20
157.8600
 11
589.5400
 21
157.8600
  0
LINE
  8
0_00
  6
CONTINUOUS
 62
4
 10
295.0000
 20
424.8066
 11
233.0030
 21
424.8066
  0
LINE
  8
0_00
  6
CONTINUOUS
 62
4
 10
295.4000
 20
424.8066
 11
357.3970
 21
424.8066
  0
LINE
  8
0_00
  6
CONTINUOUS
 62
4
 10
357.3970
 20
426.3066
 11
233.0030
 21
426.3066
  0
LINE
  8
0_00
  6
CONTINUOUS
 62
4
 10
295.0000
 20
424.8066
 11
295.2000
 21
425.0066
  0
LINE
  8
0_00
  6
CONTINUOUS
 62
4
 10
295.2000
 20
425.0066
 11
295.4000
 21
424.8066
  0
LINE
  8
14_0E
  6
CONTINUOUS
 62
4
 10
212.7001
 20
418.1172
 11
212.9189
 21
386.7843
  0
LINE
  8
0_00
  6
CONTINUOUS
 62
4
 10
214.7166
 20
372.7975
 11
214.6466
 21
382.8200
  0
LINE
  8
0_00
  6
CONTINUOUS
 62
4
 10
216.0179
 20
372.6066
 11
215.9429
 21
383.3506
  0
LINE
  8
0_00
  6
CONTINUOUS
 62
4
 10
214.1736
 20
407.5935
 11
214.4757
 21
407.2956
  0
LINE
  8
0_00
  6
CONTINUOUS
 62
4
 10
214.1778
 20
406.9935
 11
214.4757
 21
407.2956
  0
LINE
  8
0_00
  6
CONTINUOUS
 62
4
 10
217.8519
 20
387.8130
 11
218.0588
 21
388.1772
  0
LINE
  8
0_00
  6
CONTINUOUS
 62
4
 10
218.0588
 20
388.1772
 11
216.7546
 21
388.9181
  0
LINE
  8
0_00
  6
CONTINUOUS
 62
4
 10
216.7546
 20
388.9181
 11
216.5477
 21
388.5539
  0
LINE
  8
0_00
  6
CONTINUOUS
 62
4
 10
215.4145
 20
388.2418
 11
215.0503
 21
388.4487
  0
LINE
  8
0_00
  6
CONTINUOUS
 62
4
 10
215.0503
 20
388.4487
 11
214.3094
 21
387.1444
  0
LINE
  8
0_00
  6
CONTINUOUS
 62
4
 10
214.3094
 20
387.1444
 11
214.6736
 21
386.9376
  0
LINE
  8
0_00
  6
CONTINUOUS
 62
4
 10
214.9857
 20
385.8044
 11
214.7788
 21
385.4401
  0
LINE
  8
0_00
  6
CONTINUOUS
 62
4
 10
214.7788
 20
385.4401
 11
216.0830
 21
384.6993
  0
LINE
  8
0_00
  6
CONTINUOUS
 62
4
 10
216.0830
 20
384.6993
 11
216.2899
 21
385.0634
  0
LINE
  8
0_00
  6
CONTINUOUS
 62
4
 10
219.1880
 20
387.6343
 11
218.8353
 21
387.0135
  0
LINE
  8
0_00
  6
CONTINUOUS
 62
4
 10
217.1276
 20
384.0073
 11
217.4802
 21
384.6281
  0
LINE
  8
0_00
  6
CONTINUOUS
 62
4
 10
217.7877
 20
424.0893
 11
231.4064
 21
426.1845
  0
LINE
  8
0_00
  6
CONTINUOUS
 62
4
 10
214.1002
 20
418.1123
 11
214.1736
 21
407.5935
  0
LINE
  8
0_00
  6
CONTINUOUS
 62
4
 10
214.1778
 20
406.9935
 11
214.2316
 21
399.2937
  0
LINE
  8
0_00
  6
CONTINUOUS
 62
4
 10
214.2553
 20
395.8938
 11
214.2884
 21
391.1574
  0
LINE
  8
0_00
  6
CONTINUOUS
 62
4
 10
217.9158
 20
422.5914
 11
231.6345
 21
424.7019
  0
LINE
  8
0_00
  6
CONTINUOUS
 62
4
 10
372.6123
 20
424.0893
 11
358.9936
 21
426.1845
  0
LINE
  8
0_00
  6
CONTINUOUS
 62
4
 10
372.4842
 20
422.5914
 11
358.7655
 21
424.7019
  0
LINE
  8
14_0E
  6
CONTINUOUS
 62
4
 10
377.6999
 20
418.1172
 11
377.4811
 21
386.7843
  0
LINE
  8
0_00
  6
CONTINUOUS
 62
4
 10
376.2998
 20
418.1123
 11
376.2263
 21
407.5935
  0
LINE
  8
0_00
  6
CONTINUOUS
 62
4
 10
376.2222
 20
406.9935
 11
376.1684
 21
399.2937
  0
LINE
  8
0_00
  6
CONTINUOUS
 62
4
 10
376.1447
 20
395.8938
 11
376.1116
 21
391.1574
  0
LINE
  8
0_00
  6
CONTINUOUS
 62
4
 10
376.2263
 20
407.5935
 11
375.9243
 21
407.2956
  0
LINE
  8
0_00
  6
CONTINUOUS
 62
4
 10
376.2222
 20
406.9935
 11
375.9243
 21
407.2956
  0
LINE
  8
0_00
  6
CONTINUOUS
 62
4
 10
217.1770
 20
371.3146
 11
216.2270
 21
371.3080
  0
LINE
  8
0_00
  6
CONTINUOUS
 62
4
 10
216.0179
 20
372.6066
 11
217.1679
 21
372.6146
  0
LINE
  8
0_00
  6
CONTINUOUS
 62
4
 10
375.6834
 20
372.7975
 11
375.7534
 21
382.8200
  0
LINE
  8
0_00
  6
CONTINUOUS
 62
4
 10
374.3821
 20
372.6066
 11
374.4571
 21
383.3506
  0
LINE
  8
0_00
  6
CONTINUOUS
 62
4
 10
372.5481
 20
387.8130
 11
372.3412
 21
388.1772
  0
LINE
  8
0_00
  6
CONTINUOUS
 62
4
 10
372.3412
 20
388.1772
 11
373.6454
 21
388.9181
  0
LINE
  8
0_00
  6
CONTINUOUS
 62
4
 10
373.6454
 20
388.9181
 11
373.8523
 21
388.5539
  0
LINE
  8
0_00
  6
CONTINUOUS
 62
4
 10
374.9855
 20
388.2418
 11
375.3497
 21
388.4487
  0
LINE
  8
0_00
  6
CONTINUOUS
 62
4
 10
375.3497
 20
388.4487
 11
376.0906
 21
387.1444
  0
LINE
  8
0_00
  6
CONTINUOUS
 62
4
 10
376.0906
 20
387.1444
 11
375.7264
 21
386.9376
  0
LINE
  8
0_00
  6
CONTINUOUS
 62
4
 10
375.4143
 20
385.8044
 11
375.6212
 21
385.4401
  0
LINE
  8
0_00
  6
CONTINUOUS
 62
4
 10
375.6212
 20
385.4401
 11
374.3170
 21
384.6993
  0
LINE
  8
0_00
  6
CONTINUOUS
 62
4
 10
374.3170
 20
384.6993
 11
374.1100
 21
385.0634
  0
LINE
  8
0_00
  6
CONTINUOUS
 62
4
 10
371.2120
 20
387.6343
 11
371.5647
 21
387.0135
  0
LINE
  8
0_00
  6
CONTINUOUS
 62
4
 10
373.2724
 20
384.0073
 11
372.9197
 21
384.6281
  0
LINE
  8
0_00
  6
CONTINUOUS
 62
4
 10
373.2230
 20
371.3146
 11
374.1730
 21
371.3080
  0
LINE
  8
0_00
  6
CONTINUOUS
 62
4
 10
374.3821
 20
372.6066
 11
373.2321
 21
372.6146
  0
LINE
  8
0_00
  6
CONTINUOUS
 62
4
 10
215.2386
 20
398.3007
 11
216.5385
 21
398.3098
  0
LINE
  8
0_00
  6
CONTINUOUS
 62
4
 10
215.2483
 20
396.9008
 11
216.5483
 21
396.9099
  0
LINE
  8
0_00
  6
CONTINUOUS
 62
4
 10
375.1614
 20
398.3007
 11
373.8615
 21
398.3098
  0
LINE
  8
0_00
  6
CONTINUOUS
 62
4
 10
375.1517
 20
396.9008
 11
373.8517
 21
396.9099
  0
LINE
  8
12_0C
  6
DASHED
 62
2
 10
315.1998
 20
441.2866
 11
314.6498
 21
446.1066
  0
LINE
  8
12_0C
  6
DASHED
 62
2
 10
311.1998
 20
441.2866
 11
311.7498
 21
446.1066
  0
LINE
  8
12_0C
  6
DASHED
 62
2
 10
314.6498
 20
446.1066
 11
311.7498
 21
446.1066
  0
LINE
  8
12_0C
  6
CONTINUOUS
 62
2
 10
309.6998
 20
420.1366
 11
309.6998
 21
421.1066
  0
LINE
  8
12_0C
  6
CONTINUOUS
 62
2
 10
316.6998
 20
420.1366
 11
316.6998
 21
421.1066
  0
LINE
  8
0_00
  6
CONTINUOUS
 62
2
 10
316.6998
 20
421.1066
 11
309.6998
 21
421.1066
  0
LINE
  8
12_0C
  6
DASHED
 62
2
 10
315.1998
 20
421.1066
 11
315.1998
 21
441.2866
  0
LINE
  8
12_0C
  6
DASHED
 62
2
 10
314.6998
 20
421.1066
 11
314.6998
 21
445.6684
  0
LINE
  8
12_0C
  6
DASHED
 62
2
 10
311.1998
 20
421.1066
 11
311.1998
 21
441.2866
  0
LINE
  8
12_0C
  6
DASHED
 62
2
 10
311.6998
 20
421.1066
 11
311.6998
 21
445.6684
  0
LINE
  8
12_0C
  6
DASHED
 62
2
 10
279.1998
 20
441.2866
 11
278.6498
 21
446.1066
  0
LINE
  8
12_0C
  6
DASHED
 62
2
 10
275.1998
 20
441.2866
 11
275.7498
 21
446.1066
  0
LINE
  8
12_0C
  6
DASHED
 62
2
 10
278.6498
 20
446.1066
 11
275.7498
 21
446.1066
  0
LINE
  8
12_0C
  6
CONTINUOUS
 62
2
 10
273.6998
 20
420.1366
 11
273.6998
 21
421.1066
  0
LINE
  8
12_0C
  6
CONTINUOUS
 62
2
 10
280.6998
 20
420.1366
 11
280.6998
 21
421.1066
  0
LINE
  8
0_00
  6
CONTINUOUS
 62
2
 10
280.6998
 20
421.1066
 11
273.6998
 21
421.1066
  0
LINE
  8
12_0C
  6
DASHED
 62
2
 10
279.1998
 20
421.1066
 11
279.1998
 21
441.2866
  0
LINE
  8
12_0C
  6
DASHED
 62
2
 10
278.6998
 20
421.1066
 11
278.6998
 21
445.6684
  0
LINE
  8
12_0C
  6
DASHED
 62
2
 10
275.1998
 20
421.1066
 11
275.1998
 21
441.2866
  0
LINE
  8
12_0C
  6
DASHED
 62
2
 10
275.6998
 20
421.1066
 11
275.6998
 21
445.6684
  0
LINE
  8
13_0D
  6
CONTINUOUS
 62
6
 10
211.7165
 20
371.3079
 11
136.8665
 21
371.3079
  0
LINE
  8
13_0D
  6
CONTINUOUS
 62
6
 10
228.5030
 20
426.3066
 11
136.8665
 21
426.3066
  0
LINE
  8
13_0D
  6
CONTINUOUS
 62
6
 10
141.3665
 20
426.3066
 11
141.3665
 21
371.3079
  0
LINE
  8
13_0D
  6
CONTINUOUS
 62
6
 10
141.3665
 20
426.3066
 11
139.8071
 21
418.9704
  0
LINE
  8
13_0D
  6
CONTINUOUS
 62
6
 10
141.3665
 20
426.3066
 11
142.9258
 21
418.9704
  0
LINE
  8
13_0D
  6
CONTINUOUS
 62
6
 10
141.3665
 20
371.3079
 11
142.9258
 21
378.6441
  0
LINE
  8
13_0D
  6
CONTINUOUS
 62
6
 10
141.3665
 20
371.3079
 11
139.8071
 21
378.6441
  0
LINE
  8
0_00
  6
CONTINUOUS
 62
4
 10
1052.3070
 20
293.5623
 11
1052.5914
 21
293.5623
  0
LINE
  8
0_00
  6
CONTINUOUS
 62
4
 10
1052.4586
 20
292.3123
 11
1051.9841
 21
292.3123
  0
LINE
  8
0_00
  6
CONTINUOUS
 62
4
 10
1051.9841
 20
290.8123
 11
1052.4586
 21
290.8123
  0
LINE
  8
0_00
  6
CONTINUOUS
 62
4
 10
1053.2341
 20
290.0367
 11
1053.2341
 21
289.5623
  0
LINE
  8
0_00
  6
CONTINUOUS
 62
4
 10
1055.6612
 20
293.5623
 11
1055.3767
 21
293.5623
  0
LINE
  8
0_00
  6
CONTINUOUS
 62
4
 10
1055.5097
 20
292.3123
 11
1055.9841
 21
292.3123
  0
LINE
  8
0_00
  6
CONTINUOUS
 62
4
 10
1055.9841
 20
290.8123
 11
1055.5097
 21
290.8123
  0
LINE
  8
0_00
  6
CONTINUOUS
 62
4
 10
1054.7341
 20
290.0367
 11
1054.7341
 21
289.5623
  0
LINE
  8
0_00
  6
CONTINUOUS
 62
4
 10
1051.9841
 20
292.3123
 11
1051.9841
 21
290.8123
  0
LINE
  8
0_00
  6
CONTINUOUS
 62
4
 10
1055.9841
 20
290.8123
 11
1055.9841
 21
292.3123
  0
LINE
  8
0_00
  6
CONTINUOUS
 62
4
 10
1053.7841
 20
288.3123
 11
1053.9841
 21
288.5123
  0
LINE
  8
0_00
  6
CONTINUOUS
 62
4
 10
1054.1841
 20
288.3123
 11
1053.9841
 21
288.5123
  0
LINE
  8
0_00
  6
CONTINUOUS
 62
4
 10
1053.2341
 20
289.5623
 11
1054.7341
 21
289.5623
  0
LINE
  8
0_00
  6
CONTINUOUS
 62
4
 10
1047.1840
 20
296.0623
 11
1046.9842
 21
295.8623
  0
LINE
  8
0_00
  6
CONTINUOUS
 62
4
 10
1047.1840
 20
296.0623
 11
1046.9842
 21
296.2623
  0
LINE
  8
0_00
  6
CONTINUOUS
 62
4
 10
1046.9842
 20
294.5623
 11
1046.9842
 21
295.8623
  0
LINE
  8
0_00
  6
CONTINUOUS
 62
4
 10
1046.9842
 20
296.2623
 11
1046.9842
 21
297.5623
  0
LINE
  8
0_00
  6
CONTINUOUS
 62
4
 10
1048.0841
 20
294.5623
 11
1048.0841
 21
297.5623
  0
LINE
  8
0_00
  6
CONTINUOUS
 62
4
 10
1060.7841
 20
296.0623
 11
1060.9841
 21
295.8623
  0
LINE
  8
0_00
  6
CONTINUOUS
 62
4
 10
1060.7841
 20
296.0623
 11
1060.9841
 21
296.2623
  0
LINE
  8
0_00
  6
CONTINUOUS
 62
4
 10
1060.9841
 20
294.5623
 11
1060.9841
 21
295.8623
  0
LINE
  8
0_00
  6
CONTINUOUS
 62
4
 10
1060.9841
 20
296.2623
 11
1060.9841
 21
297.5623
  0
LINE
  8
0_00
  6
CONTINUOUS
 62
4
 10
1059.8840
 20
294.5623
 11
1059.8840
 21
297.5623
  0
LINE
  8
0_00
  6
CONTINUOUS
 62
4
 10
1049.6841
 20
288.3123
 11
1053.7841
 21
288.3123
  0
LINE
  8
0_00
  6
CONTINUOUS
 62
4
 10
1050.9853
 20
289.3624
 11
1049.6524
 21
289.3624
  0
LINE
  8
0_00
  6
CONTINUOUS
 62
4
 10
1058.2840
 20
288.3123
 11
1054.1841
 21
288.3123
  0
LINE
  8
0_00
  6
CONTINUOUS
 62
4
 10
1056.9828
 20
289.3624
 11
1058.3158
 21
289.3624
  0
LINE
  8
0_00
  6
CONTINUOUS
 62
4
 10
1052.3070
 20
298.5623
 11
1052.5914
 21
298.5623
  0
LINE
  8
0_00
  6
CONTINUOUS
 62
4
 10
1052.4586
 20
299.8123
 11
1051.9841
 21
299.8123
  0
LINE
  8
0_00
  6
CONTINUOUS
 62
4
 10
1051.9841
 20
301.3123
 11
1052.4586
 21
301.3123
  0
LINE
  8
0_00
  6
CONTINUOUS
 62
4
 10
1053.2341
 20
302.0880
 11
1053.2341
 21
302.5623
  0
LINE
  8
0_00
  6
CONTINUOUS
 62
4
 10
1055.6612
 20
298.5623
 11
1055.3767
 21
298.5623
  0
LINE
  8
0_00
  6
CONTINUOUS
 62
4
 10
1055.5097
 20
299.8123
 11
1055.9841
 21
299.8123
  0
LINE
  8
0_00
  6
CONTINUOUS
 62
4
 10
1055.9841
 20
301.3123
 11
1055.5097
 21
301.3123
  0
LINE
  8
0_00
  6
CONTINUOUS
 62
4
 10
1054.7341
 20
302.0880
 11
1054.7341
 21
302.5623
  0
LINE
  8
0_00
  6
CONTINUOUS
 62
4
 10
1051.9841
 20
299.8123
 11
1051.9841
 21
301.3123
  0
LINE
  8
0_00
  6
CONTINUOUS
 62
4
 10
1055.9841
 20
301.3123
 11
1055.9841
 21
299.8123
  0
LINE
  8
0_00
  6
CONTINUOUS
 62
4
 10
1053.7841
 20
303.8123
 11
1053.9841
 21
303.6123
  0
LINE
  8
0_00
  6
CONTINUOUS
 62
4
 10
1054.1841
 20
303.8123
 11
1053.9841
 21
303.6123
  0
LINE
  8
0_00
  6
CONTINUOUS
 62
4
 10
1053.2341
 20
302.5623
 11
1054.7341
 21
302.5623
  0
LINE
  8
0_00
  6
CONTINUOUS
 62
4
 10
1049.6841
 20
303.8123
 11
1053.7841
 21
303.8123
  0
LINE
  8
0_00
  6
CONTINUOUS
 62
4
 10
1050.9853
 20
302.7623
 11
1049.6524
 21
302.7623
  0
LINE
  8
0_00
  6
CONTINUOUS
 62
4
 10
1058.2840
 20
303.8123
 11
1054.1841
 21
303.8123
  0
LINE
  8
0_00
  6
CONTINUOUS
 62
4
 10
1056.9828
 20
302.7623
 11
1058.3158
 21
302.7623
  0
LINE
  8
0_00
  6
CONTINUOUS
 62
4
 10
243.7000
 20
606.4732
 11
243.7000
 21
583.4733
  0
LINE
  8
0_00
  6
CONTINUOUS
 62
4
 10
267.7000
 20
606.4732
 11
263.7000
 21
606.4732
  0
LINE
  8
0_00
  6
CONTINUOUS
 62
4
 10
262.2000
 20
606.4732
 11
245.2000
 21
606.4732
  0
LINE
  8
0_00
  6
CONTINUOUS
 62
4
 10
244.7000
 20
605.9733
 11
244.7000
 21
583.9732
  0
LINE
  8
0_00
  6
CONTINUOUS
 62
4
 10
262.7000
 20
605.9733
 11
262.7000
 21
598.9733
  0
LINE
  8
0_00
  6
CONTINUOUS
 62
4
 10
262.7000
 20
590.9733
 11
262.7000
 21
583.9732
  0
LINE
  8
0_00
  6
CONTINUOUS
 62
4
 10
268.7000
 20
606.4732
 11
268.7000
 21
604.9732
  0
LINE
  8
0_00
  6
CONTINUOUS
 62
4
 10
267.7000
 20
605.4733
 11
267.7000
 21
606.4732
  0
LINE
  8
0_00
  6
CONTINUOUS
 62
4
 10
267.7000
 20
607.4733
 11
244.7000
 21
607.4733
  0
LINE
  8
0_00
  6
CONTINUOUS
 62
4
 10
267.7000
 20
583.4733
 11
263.7000
 21
583.4733
  0
LINE
  8
0_00
  6
CONTINUOUS
 62
4
 10
262.2000
 20
583.4733
 11
245.2000
 21
583.4733
  0
LINE
  8
0_00
  6
CONTINUOUS
 62
4
 10
263.7000
 20
606.4732
 11
263.7000
 21
595.2733
  0
LINE
  8
0_00
  6
CONTINUOUS
 62
4
 10
263.7000
 20
594.6732
 11
263.7000
 21
583.4733
  0
LINE
  8
0_00
  6
CONTINUOUS
 62
4
 10
267.7000
 20
582.4732
 11
244.7000
 21
582.4732
  0
LINE
  8
0_00
  6
CONTINUOUS
 62
4
 10
267.7000
 20
604.4733
 11
268.2000
 21
604.4733
  0
LINE
  8
0_00
  6
CONTINUOUS
 62
4
 10
268.7000
 20
583.4733
 11
268.7000
 21
584.9733
  0
LINE
  8
0_00
  6
CONTINUOUS
 62
4
 10
267.7000
 20
584.4733
 11
267.7000
 21
583.4733
  0
LINE
  8
0_00
  6
CONTINUOUS
 62
4
 10
267.7000
 20
585.4733
 11
268.2000
 21
585.4733
  0
LINE
  8
0_00
  6
CONTINUOUS
 62
4
 10
261.2000
 20
597.4733
 11
261.2000
 21
592.4733
  0
LINE
  8
0_00
  6
CONTINUOUS
 62
4
 10
262.7000
 20
590.9733
 11
261.2000
 21
592.4733
  0
LINE
  8
0_00
  6
CONTINUOUS
 62
4
 10
261.2000
 20
597.4733
 11
262.7000
 21
598.9733
  0
LINE
  8
0_00
  6
CONTINUOUS
 62
4
 10
263.7000
 20
594.6732
 11
263.4000
 21
594.9733
  0
LINE
  8
0_00
  6
CONTINUOUS
 62
4
 10
263.4000
 20
594.9733
 11
263.7000
 21
595.2733
  0
LINE
  8
2_02
  6
CONTINUOUS
 62
2
 10
252.7000
 20
594.9733
 11
254.2632
 21
592.9335
  0
LINE
  8
2_02
  6
CONTINUOUS
 62
2
 10
265.7000
 20
592.9732
 11
254.2327
 21
592.9732
  0
LINE
  8
2_02
  6
CONTINUOUS
 62
2
 10
252.7000
 20
594.9733
 11
254.2327
 21
596.9733
  0
LINE
  8
2_02
  6
CONTINUOUS
 62
2
 10
265.7000
 20
596.9733
 11
254.2327
 21
596.9733
  0
LINE
  8
2_02
  6
CONTINUOUS
 62
2
 10
265.7000
 20
596.4232
 11
256.5956
 21
596.4232
  0
LINE
  8
2_02
  6
CONTINUOUS
 62
2
 10
265.7000
 20
593.5233
 11
257.3726
 21
593.5233
  0
LINE
  8
2_02
  6
CONTINUOUS
 62
2
 10
265.7000
 20
599.1232
 11
265.7000
 21
590.8232
  0
LINE
  8
2_02
  6
CONTINUOUS
 62
2
 10
267.4000
 20
590.9720
 11
267.4000
 21
598.9745
  0
LINE
  8
2_02
  6
CONTINUOUS
 62
2
 10
267.4000
 20
590.9720
 11
265.7000
 21
590.8232
  0
LINE
  8
2_02
  6
CONTINUOUS
 62
2
 10
267.4000
 20
598.9745
 11
265.7000
 21
599.1232
  0
LINE
  8
2_02
  6
CONTINUOUS
 62
2
 10
252.7000
 20
594.9733
 11
257.5200
 21
592.9732
  0
LINE
  8
2_02
  6
CONTINUOUS
 62
2
 10
257.5200
 20
592.9732
 11
256.4482
 21
596.9733
  0
LINE
  8
0_00
  6
CONTINUOUS
 62
4
 10
263.7000
 20
606.4732
 11
265.7000
 21
606.4732
  0
LINE
  8
0_00
  6
CONTINUOUS
 62
4
 10
243.7000
 20
522.1399
 11
243.7000
 21
499.1399
  0
LINE
  8
0_00
  6
CONTINUOUS
 62
4
 10
267.7000
 20
522.1399
 11
263.7000
 21
522.1399
  0
LINE
  8
0_00
  6
CONTINUOUS
 62
4
 10
262.2000
 20
522.1399
 11
245.2000
 21
522.1399
  0
LINE
  8
0_00
  6
CONTINUOUS
 62
4
 10
244.7000
 20
521.6399
 11
244.7000
 21
499.6399
  0
LINE
  8
0_00
  6
CONTINUOUS
 62
4
 10
262.7000
 20
521.6399
 11
262.7000
 21
514.6399
  0
LINE
  8
0_00
  6
CONTINUOUS
 62
4
 10
262.7000
 20
506.6399
 11
262.7000
 21
499.6399
  0
LINE
  8
0_00
  6
CONTINUOUS
 62
4
 10
268.7000
 20
522.1399
 11
268.7000
 21
520.6399
  0
LINE
  8
0_00
  6
CONTINUOUS
 62
4
 10
267.7000
 20
521.1399
 11
267.7000
 21
522.1399
  0
LINE
  8
0_00
  6
CONTINUOUS
 62
4
 10
267.7000
 20
523.1399
 11
244.7000
 21
523.1399
  0
LINE
  8
0_00
  6
CONTINUOUS
 62
4
 10
267.7000
 20
499.1399
 11
263.7000
 21
499.1399
  0
LINE
  8
0_00
  6
CONTINUOUS
 62
4
 10
262.2000
 20
499.1399
 11
245.2000
 21
499.1399
  0
LINE
  8
0_00
  6
CONTINUOUS
 62
4
 10
263.7000
 20
522.1399
 11
263.7000
 21
510.9399
  0
LINE
  8
0_00
  6
CONTINUOUS
 62
4
 10
263.7000
 20
510.3399
 11
263.7000
 21
499.1399
  0
LINE
  8
0_00
  6
CONTINUOUS
 62
4
 10
267.7000
 20
498.1399
 11
244.7000
 21
498.1399
  0
LINE
  8
0_00
  6
CONTINUOUS
 62
4
 10
267.7000
 20
520.1399
 11
268.2000
 21
520.1399
  0
LINE
  8
0_00
  6
CONTINUOUS
 62
4
 10
268.7000
 20
499.1399
 11
268.7000
 21
500.6399
  0
LINE
  8
0_00
  6
CONTINUOUS
 62
4
 10
267.7000
 20
500.1399
 11
267.7000
 21
499.1399
  0
LINE
  8
0_00
  6
CONTINUOUS
 62
4
 10
267.7000
 20
501.1399
 11
268.2000
 21
501.1399
  0
LINE
  8
0_00
  6
CONTINUOUS
 62
4
 10
261.2000
 20
513.1399
 11
261.2000
 21
508.1399
  0
LINE
  8
0_00
  6
CONTINUOUS
 62
4
 10
262.7000
 20
506.6399
 11
261.2000
 21
508.1399
  0
LINE
  8
0_00
  6
CONTINUOUS
 62
4
 10
261.2000
 20
513.1399
 11
262.7000
 21
514.6399
  0
LINE
  8
0_00
  6
CONTINUOUS
 62
4
 10
263.7000
 20
510.3399
 11
263.4000
 21
510.6399
  0
LINE
  8
0_00
  6
CONTINUOUS
 62
4
 10
263.4000
 20
510.6399
 11
263.7000
 21
510.9399
  0
LINE
  8
2_02
  6
CONTINUOUS
 62
2
 10
252.7000
 20
510.6399
 11
254.2632
 21
508.6002
  0
LINE
  8
2_02
  6
CONTINUOUS
 62
2
 10
265.7000
 20
508.6399
 11
254.2327
 21
508.6399
  0
LINE
  8
2_02
  6
CONTINUOUS
 62
2
 10
252.7000
 20
510.6399
 11
254.2327
 21
512.6399
  0
LINE
  8
2_02
  6
CONTINUOUS
 62
2
 10
265.7000
 20
512.6399
 11
254.2327
 21
512.6399
  0
LINE
  8
2_02
  6
CONTINUOUS
 62
2
 10
265.7000
 20
512.0899
 11
256.5956
 21
512.0899
  0
LINE
  8
2_02
  6
CONTINUOUS
 62
2
 10
265.7000
 20
509.1899
 11
257.3726
 21
509.1899
  0
LINE
  8
2_02
  6
CONTINUOUS
 62
2
 10
265.7000
 20
514.7899
 11
265.7000
 21
506.4899
  0
LINE
  8
2_02
  6
CONTINUOUS
 62
2
 10
267.4000
 20
506.6386
 11
267.4000
 21
514.6412
  0
LINE
  8
2_02
  6
CONTINUOUS
 62
2
 10
267.4000
 20
506.6386
 11
265.7000
 21
506.4899
  0
LINE
  8
2_02
  6
CONTINUOUS
 62
2
 10
267.4000
 20
514.6412
 11
265.7000
 21
514.7899
  0
LINE
  8
2_02
  6
CONTINUOUS
 62
2
 10
252.7000
 20
510.6399
 11
257.5200
 21
508.6399
  0
LINE
  8
2_02
  6
CONTINUOUS
 62
2
 10
257.5200
 20
508.6399
 11
256.4482
 21
512.6399
  0
LINE
  8
0_00
  6
CONTINUOUS
 62
4
 10
263.7000
 20
522.1399
 11
265.7000
 21
522.1399
  0
LINE
  8
13_0D
  6
CONTINUOUS
 62
6
 10
230.3266
 20
510.6399
 11
136.8665
 21
510.6399
  0
LINE
  8
13_0D
  6
CONTINUOUS
 62
6
 10
141.3665
 20
426.3066
 11
141.3665
 21
510.6399
  0
LINE
  8
13_0D
  6
CONTINUOUS
 62
6
 10
141.3665
 20
426.3066
 11
142.9258
 21
433.6426
  0
LINE
  8
13_0D
  6
CONTINUOUS
 62
6
 10
141.3665
 20
426.3066
 11
139.8071
 21
433.6426
  0
LINE
  8
13_0D
  6
CONTINUOUS
 62
6
 10
141.3665
 20
510.6399
 11
139.8071
 21
503.3038
  0
LINE
  8
13_0D
  6
CONTINUOUS
 62
6
 10
141.3665
 20
510.6399
 11
142.9258
 21
503.3038
  0
LINE
  8
13_0D
  6
CONTINUOUS
 62
6
 10
230.3266
 20
594.9733
 11
136.8665
 21
594.9733
  0
LINE
  8
13_0D
  6
CONTINUOUS
 62
6
 10
141.3665
 20
510.6399
 11
141.3665
 21
594.9733
  0
LINE
  8
13_0D
  6
CONTINUOUS
 62
6
 10
141.3665
 20
510.6399
 11
142.9258
 21
517.9760
  0
LINE
  8
13_0D
  6
CONTINUOUS
 62
6
 10
141.3665
 20
510.6399
 11
139.8071
 21
517.9760
  0
LINE
  8
13_0D
  6
CONTINUOUS
 62
6
 10
141.3665
 20
594.9733
 11
139.8071
 21
587.6372
  0
LINE
  8
13_0D
  6
CONTINUOUS
 62
6
 10
141.3665
 20
594.9733
 11
142.9258
 21
587.6372
  0
LINE
  8
13_0D
  6
CONTINUOUS
 62
6
 10
261.3995
 20
679.3065
 11
136.8665
 21
679.3065
  0
LINE
  8
13_0D
  6
CONTINUOUS
 62
6
 10
141.3665
 20
594.9733
 11
141.3665
 21
679.3065
  0
LINE
  8
13_0D
  6
CONTINUOUS
 62
6
 10
141.3665
 20
594.9733
 11
142.9258
 21
602.3093
  0
LINE
  8
13_0D
  6
CONTINUOUS
 62
6
 10
141.3665
 20
594.9733
 11
139.8071
 21
602.3093
  0
LINE
  8
13_0D
  6
CONTINUOUS
 62
6
 10
141.3665
 20
679.3065
 11
139.8071
 21
671.9704
  0
LINE
  8
13_0D
  6
CONTINUOUS
 62
6
 10
141.3665
 20
679.3065
 11
142.9258
 21
671.9704
  0
LINE
  8
13_0D
  6
CONTINUOUS
 62
6
 10
141.3665
 20
679.3065
 11
141.3665
 21
726.3066
  0
LINE
  8
13_0D
  6
CONTINUOUS
 62
6
 10
141.3665
 20
679.3065
 11
142.9258
 21
686.6427
  0
LINE
  8
13_0D
  6
CONTINUOUS
 62
6
 10
141.3665
 20
679.3065
 11
139.8071
 21
686.6427
  0
LINE
  8
13_0D
  6
CONTINUOUS
 62
6
 10
141.3665
 20
726.3066
 11
139.8071
 21
718.9705
  0
LINE
  8
13_0D
  6
CONTINUOUS
 62
6
 10
141.3665
 20
726.3066
 11
142.9258
 21
718.9705
  0
LINE
  8
15_0F
  6
CONTINUOUS
 62
6
 10
314.4006
 20
550.5379
 11
328.1097
 21
564.2469
  0
LINE
  8
15_0F
  6
CONTINUOUS
 62
6
 10
314.4006
 20
550.5379
 11
320.6906
 21
554.6227
  0
LINE
  8
15_0F
  6
CONTINUOUS
 62
6
 10
314.4006
 20
550.5379
 11
318.4853
 21
556.8279
  0
LINE
  8
15_0F
  6
CONTINUOUS
 62
6
 10
328.1097
 20
564.2469
 11
427.7097
 21
564.2469
  0
LINE
  8
13_0D
  6
CONTINUOUS
 62
6
 10
240.2000
 20
607.4733
 11
176.8665
 21
607.4733
  0
LINE
  8
13_0D
  6
CONTINUOUS
 62
6
 10
240.2000
 20
582.4732
 11
176.8665
 21
582.4732
  0
LINE
  8
13_0D
  6
CONTINUOUS
 62
6
 10
181.3665
 20
607.4733
 11
181.3665
 21
582.4732
  0
LINE
  8
13_0D
  6
CONTINUOUS
 62
6
 10
181.3665
 20
639.8732
 11
181.3665
 21
607.4733
  0
LINE
  8
13_0D
  6
CONTINUOUS
 62
6
 10
181.3665
 20
607.4733
 11
182.9258
 21
614.8093
  0
LINE
  8
13_0D
  6
CONTINUOUS
 62
6
 10
181.3665
 20
607.4733
 11
179.8071
 21
614.8093
  0
LINE
  8
13_0D
  6
CONTINUOUS
 62
6
 10
181.3665
 20
567.4733
 11
181.3665
 21
582.4732
  0
LINE
  8
13_0D
  6
CONTINUOUS
 62
6
 10
181.3665
 20
582.4732
 11
179.8071
 21
575.1371
  0
LINE
  8
13_0D
  6
CONTINUOUS
 62
6
 10
181.3665
 20
582.4732
 11
182.9258
 21
575.1371
  0
LINE
  8
13_0D
  6
CONTINUOUS
 62
6
 10
243.7000
 20
610.9733
 11
243.7000
 21
642.9192
  0
LINE
  8
13_0D
  6
CONTINUOUS
 62
6
 10
268.7000
 20
610.9733
 11
268.7000
 21
642.9192
  0
LINE
  8
13_0D
  6
CONTINUOUS
 62
6
 10
243.7000
 20
638.4192
 11
268.7000
 21
638.4192
  0
LINE
  8
13_0D
  6
CONTINUOUS
 62
6
 10
211.3000
 20
638.4192
 11
243.7000
 21
638.4192
  0
LINE
  8
13_0D
  6
CONTINUOUS
 62
6
 10
243.7000
 20
638.4192
 11
236.3639
 21
639.9786
  0
LINE
  8
13_0D
  6
CONTINUOUS
 62
6
 10
243.7000
 20
638.4192
 11
236.3639
 21
636.8599
  0
LINE
  8
13_0D
  6
CONTINUOUS
 62
6
 10
283.7000
 20
638.4192
 11
268.7000
 21
638.4192
  0
LINE
  8
13_0D
  6
CONTINUOUS
 62
6
 10
268.7000
 20
638.4192
 11
276.0361
 21
636.8599
  0
LINE
  8
13_0D
  6
CONTINUOUS
 62
6
 10
268.7000
 20
638.4192
 11
276.0361
 21
639.9786
  0
LINE
  8
15_0F
  6
CONTINUOUS
 62
6
 10
243.7000
 20
604.3882
 11
228.8332
 21
619.2550
  0
LINE
  8
15_0F
  6
CONTINUOUS
 62
6
 10
243.7000
 20
604.3882
 11
239.6152
 21
610.6783
  0
LINE
  8
15_0F
  6
CONTINUOUS
 62
6
 10
243.7000
 20
604.3882
 11
237.4100
 21
608.4730
  0
LINE
  8
15_0F
  6
CONTINUOUS
 62
6
 10
228.8332
 20
619.2550
 11
194.0333
 21
619.2550
  0
LINE
  8
13_0D
  6
CONTINUOUS
 62
6
 10
416.4777
 20
688.2119
 11
376.8665
 21
688.2119
  0
LINE
  8
13_0D
  6
CONTINUOUS
 62
6
 10
435.2932
 20
725.3215
 11
376.8665
 21
725.3215
  0
LINE
  8
13_0D
  6
CONTINUOUS
 62
6
 10
381.3664
 20
725.3215
 11
381.3664
 21
688.2119
  0
LINE
  8
13_0D
  6
CONTINUOUS
 62
6
 10
381.3664
 20
725.3215
 11
379.8071
 21
717.9853
  0
LINE
  8
13_0D
  6
CONTINUOUS
 62
6
 10
381.3664
 20
725.3215
 11
382.9258
 21
717.9853
  0
LINE
  8
13_0D
  6
CONTINUOUS
 62
6
 10
381.3664
 20
688.2119
 11
382.9258
 21
695.5480
  0
LINE
  8
13_0D
  6
CONTINUOUS
 62
6
 10
381.3664
 20
688.2119
 11
379.8071
 21
695.5480
  0
LINE
  8
12_0C
  6
CONTINUOUS
 62
2
 10
1057.9841
 20
272.5623
 11
1049.9842
 21
272.5623
  0
LINE
  8
12_0C
  6
CONTINUOUS
 62
2
 10
1057.9841
 20
272.1624
 11
1049.9842
 21
272.1624
  0
LINE
  8
12_0C
  6
CONTINUOUS
 62
2
 10
1049.9842
 20
272.5623
 11
1049.9842
 21
272.1624
  0
LINE
  8
12_0C
  6
CONTINUOUS
 62
2
 10
1057.9841
 20
272.5623
 11
1057.9841
 21
272.1624
  0
LINE
  8
12_0C
  6
CONTINUOUS
 62
2
 10
1055.4341
 20
284.5623
 11
1052.5340
 21
284.5623
  0
LINE
  8
12_0C
  6
CONTINUOUS
 62
2
 10
1055.9841
 20
279.7424
 11
1055.4341
 21
284.5623
  0
LINE
  8
12_0C
  6
CONTINUOUS
 62
2
 10
1051.9841
 20
279.7424
 11
1052.5340
 21
284.5623
  0
LINE
  8
0_00
  6
CONTINUOUS
 62
2
 10
1055.9841
 20
276.5623
 11
1055.9841
 21
279.7424
  0
LINE
  8
0_00
  6
DASHED
 62
2
 10
1055.9841
 20
272.5623
 11
1055.9841
 21
276.5623
  0
LINE
  8
12_0C
  6
CONTINUOUS
 62
2
 10
1055.4341
 20
276.5623
 11
1055.4341
 21
284.5623
  0
LINE
  8
12_0C
  6
DASHED
 62
2
 10
1055.4341
 20
272.5623
 11
1055.4341
 21
276.5623
  0
LINE
  8
12_0C
  6
CONTINUOUS
 62
2
 10
1052.5340
 20
276.5623
 11
1052.5340
 21
284.5623
  0
LINE
  8
12_0C
  6
DASHED
 62
2
 10
1052.5340
 20
272.5623
 11
1052.5340
 21
276.5623
  0
LINE
  8
0_00
  6
CONTINUOUS
 62
2
 10
1051.9841
 20
276.5623
 11
1051.9841
 21
279.7424
  0
LINE
  8
0_00
  6
DASHED
 62
2
 10
1051.9841
 20
272.5623
 11
1051.9841
 21
276.5623
  0
LINE
  8
13_0D
  6
CONTINUOUS
 62
6
 10
1016.4841
 20
284.7896
 11
1016.4841
 21
444.5000
  0
LINE
  8
13_0D
  6
CONTINUOUS
 62
6
 10
1016.4841
 20
440.0000
 11
1091.4841
 21
440.0000
  0
LINE
  8
13_0D
  6
CONTINUOUS
 62
6
 10
1016.4841
 20
440.0000
 11
1023.8202
 21
438.4407
  0
LINE
  8
13_0D
  6
CONTINUOUS
 62
6
 10
1016.4841
 20
440.0000
 11
1023.8202
 21
441.5593
  0
LINE
  8
13_0D
  6
CONTINUOUS
 62
6
 10
1091.4841
 20
440.0000
 11
1084.1479
 21
441.5593
  0
LINE
  8
13_0D
  6
CONTINUOUS
 62
6
 10
1091.4841
 20
440.0000
 11
1084.1479
 21
438.4407
  0
LINE
  8
13_0D
  6
CONTINUOUS
 62
6
 10
1091.4841
 20
284.7896
 11
1091.4841
 21
412.1718
  0
LINE
  8
13_0D
  6
CONTINUOUS
 62
6
 10
1091.4841
 20
434.3638
 11
1091.4841
 21
444.5000
  0
LINE
  8
13_0D
  6
CONTINUOUS
 62
6
 10
1132.8645
 20
244.5623
 11
1184.5000
 21
244.5623
  0
LINE
  8
13_0D
  6
CONTINUOUS
 62
6
 10
1164.4873
 20
296.0623
 11
1184.5000
 21
296.0623
  0
LINE
  8
13_0D
  6
CONTINUOUS
 62
6
 10
1180.0000
 20
296.0623
 11
1180.0000
 21
244.5623
  0
LINE
  8
13_0D
  6
CONTINUOUS
 62
6
 10
1180.0000
 20
296.0623
 11
1178.4407
 21
288.7262
  0
LINE
  8
13_0D
  6
CONTINUOUS
 62
6
 10
1180.0000
 20
296.0623
 11
1181.5594
 21
288.7262
  0
LINE
  8
13_0D
  6
CONTINUOUS
 62
6
 10
1180.0000
 20
244.5623
 11
1181.5594
 21
251.8984
  0
LINE
  8
13_0D
  6
CONTINUOUS
 62
6
 10
1180.0000
 20
244.5623
 11
1178.4407
 21
251.8984
  0
LINE
  8
15_0F
  6
CONTINUOUS
 62
6
 10
1002.8719
 20
244.5623
 11
970.5814
 21
188.6337
  0
LINE
  8
15_0F
  6
CONTINUOUS
 62
6
 10
1002.8719
 20
244.5623
 11
997.8534
 21
238.9888
  0
LINE
  8
15_0F
  6
CONTINUOUS
 62
6
 10
1002.8719
 20
244.5623
 11
1000.5542
 21
237.4294
  0
LINE
  8
15_0F
  6
CONTINUOUS
 62
6
 10
970.5814
 20
188.6337
 11
935.7814
 21
188.6337
  0
LINE
  8
15_0F
  6
CONTINUOUS
 62
6
 10
1035.5370
 20
274.5472
 11
1016.4168
 21
307.6644
  0
LINE
  8
15_0F
  6
CONTINUOUS
 62
6
 10
1035.5370
 20
274.5472
 11
1033.2194
 21
281.6801
  0
LINE
  8
15_0F
  6
CONTINUOUS
 62
6
 10
1035.5370
 20
274.5472
 11
1030.5185
 21
280.1208
  0
LINE
  8
15_0F
  6
CONTINUOUS
 62
6
 10
1016.4168
 20
307.6644
 11
952.8168
 21
307.6644
  0
LINE
  8
13_0D
  6
CONTINUOUS
 62
6
 10
686.0040
 20
284.7748
 11
686.0040
 21
424.5000
  0
LINE
  8
13_0D
  6
CONTINUOUS
 62
6
 10
651.0040
 20
340.7748
 11
651.0040
 21
424.5000
  0
LINE
  8
13_0D
  6
CONTINUOUS
 62
6
 10
651.0040
 20
420.0000
 11
686.0040
 21
420.0000
  0
LINE
  8
13_0D
  6
CONTINUOUS
 62
6
 10
651.0040
 20
420.0000
 11
658.3401
 21
418.4407
  0
LINE
  8
13_0D
  6
CONTINUOUS
 62
6
 10
651.0040
 20
420.0000
 11
658.3401
 21
421.5593
  0
LINE
  8
13_0D
  6
CONTINUOUS
 62
6
 10
686.0040
 20
420.0000
 11
678.6679
 21
421.5593
  0
LINE
  8
13_0D
  6
CONTINUOUS
 62
6
 10
686.0040
 20
420.0000
 11
678.6679
 21
418.4407
  0
ARC
  8
0_00
  6
CONTINUOUS
 62
4
 10
309.2123
 20
682.7065
 40
0.4000
 50
194.0363
 51
270.0000
  0
ARC
  8
0_00
  6
CONTINUOUS
 62
4
 10
308.2633
 20
683.6165
 40
0.3000
 50
14.0362
 51
87.5372
  0
ARC
  8
0_00
  6
CONTINUOUS
 62
4
 10
320.5277
 20
682.9066
 40
0.6000
 50
270.0000
 51
388.8667
  0
ARC
  8
0_00
  6
CONTINUOUS
 62
4
 10
323.4500
 20
685.5584
 40
0.3000
 50
275.0000
 51
371.6000
  0
ARC
  8
0_00
  6
CONTINUOUS
 62
4
 10
322.6500
 20
684.8358
 40
0.3500
 50
95.0000
 51
185.0988
  0
ARC
  8
0_00
  6
CONTINUOUS
 62
4
 10
321.6000
 20
685.1957
 40
1.0000
 50
95.0000
 51
180.0000
  0
ARC
  8
0_00
  6
CONTINUOUS
 62
4
 10
322.3248
 20
686.5641
 40
0.3000
 50
275.0000
 51
371.6000
  0
ARC
  8
0_00
  6
CONTINUOUS
 62
4
 10
322.5979
 20
690.2065
 40
0.7000
 50
90.0000
 51
191.6000
  0
ARC
  8
0_00
  6
CONTINUOUS
 62
4
 10
324.2935
 20
684.9825
 40
2.0000
 50
185.0988
 51
249.7122
  0
ARC
  8
0_00
  6
CONTINUOUS
 62
4
 10
324.2935
 20
684.9825
 40
3.7000
 50
183.4043
 51
208.8667
  0
ARC
  8
0_00
  6
CONTINUOUS
 62
4
 10
281.1877
 20
682.7065
 40
0.4000
 50
270.0000
 51
345.9637
  0
ARC
  8
0_00
  6
CONTINUOUS
 62
4
 10
282.1367
 20
683.6165
 40
0.3000
 50
92.4628
 51
165.9637
  0
ARC
  8
0_00
  6
CONTINUOUS
 62
4
 10
269.8722
 20
682.9066
 40
0.6000
 50
151.1333
 51
270.0000
  0
ARC
  8
0_00
  6
CONTINUOUS
 62
4
 10
266.9500
 20
685.5584
 40
0.3000
 50
168.4000
 51
265.0000
  0
ARC
  8
0_00
  6
CONTINUOUS
 62
4
 10
267.7500
 20
684.8358
 40
0.3500
 50
354.9012
 51
445.0000
  0
ARC
  8
0_00
  6
CONTINUOUS
 62
4
 10
268.8000
 20
685.1957
 40
1.0000
 50
0.0000
 51
85.0000
  0
ARC
  8
0_00
  6
CONTINUOUS
 62
4
 10
268.0752
 20
686.5641
 40
0.3000
 50
168.4000
 51
265.0000
  0
ARC
  8
0_00
  6
CONTINUOUS
 62
4
 10
267.8021
 20
690.2065
 40
0.7000
 50
348.4000
 51
450.0000
  0
ARC
  8
0_00
  6
CONTINUOUS
 62
4
 10
266.1065
 20
684.9825
 40
2.0000
 50
290.2878
 51
354.9012
  0
ARC
  8
0_00
  6
CONTINUOUS
 62
4
 10
266.1065
 20
684.9825
 40
3.7000
 50
331.1333
 51
356.5957
  0
ARC
  8
14_0E
  6
CONTINUOUS
 62
4
 10
303.7000
 20
689.6066
 40
2.0000
 50
0.0000
 51
90.0000
  0
ARC
  8
0_00
  6
CONTINUOUS
 62
4
 10
303.7000
 20
689.6066
 40
4.5000
 50
0.0000
 51
90.0000
  0
ARC
  8
0_00
  6
CONTINUOUS
 62
4
 10
319.2000
 20
682.8066
 40
0.5000
 50
270.0000
 51
360.0000
  0
ARC
  8
0_00
  6
CONTINUOUS
 62
4
 10
317.2000
 20
685.7065
 40
2.5000
 50
0.0000
 51
90.0000
  0
ARC
  8
0_00
  6
CONTINUOUS
 62
4
 10
306.7000
 20
685.0066
 40
1.0000
 50
180.0000
 51
360.0000
  0
ARC
  8
14_0E
  6
CONTINUOUS
 62
4
 10
286.7000
 20
689.6066
 40
2.0000
 50
90.0000
 51
180.0000
  0
ARC
  8
12_0C
  6
CONTINUOUS
 62
4
 10
286.7000
 20
689.6066
 40
4.5000
 50
90.0000
 51
180.0000
  0
ARC
  8
0_00
  6
CONTINUOUS
 62
4
 10
271.2000
 20
682.8066
 40
0.5000
 50
180.0000
 51
270.0000
  0
ARC
  8
0_00
  6
CONTINUOUS
 62
4
 10
273.2000
 20
685.7065
 40
2.5000
 50
90.0000
 51
180.0000
  0
ARC
  8
0_00
  6
CONTINUOUS
 62
4
 10
283.7000
 20
685.0066
 40
1.0000
 50
180.0000
 51
360.0000
  0
ARC
  8
0_00
  6
CONTINUOUS
 62
4
 10
295.2000
 20
524.7065
 40
201.6000
 50
82.9521
 51
97.0479
  0
ARC
  8
0_00
  6
CONTINUOUS
 62
4
 10
271.2000
 20
718.8286
 40
6.0000
 50
97.0479
 51
180.0001
  0
ARC
  8
0_00
  6
CONTINUOUS
 62
4
 10
319.2000
 20
718.8286
 40
6.0000
 50
359.9999
 51
442.9521
  0
ARC
  8
14_0E
  6
CONTINUOUS
 62
4
 10
295.2000
 20
524.7065
 40
200.0000
 50
82.8930
 51
97.1069
  0
ARC
  8
14_0E
  6
CONTINUOUS
 62
4
 10
271.0000
 20
718.8037
 40
4.4000
 50
97.1069
 51
180.0000
  0
ARC
  8
14_0E
  6
CONTINUOUS
 62
4
 10
319.4000
 20
718.8037
 40
4.4000
 50
0.0000
 51
82.8930
  0
ARC
  8
0_00
  6
CONTINUOUS
 62
4
 10
265.8995
 20
680.0066
 40
0.7000
 50
180.0001
 51
360.0001
  0
ARC
  8
14_0E
  6
CONTINUOUS
 62
4
 10
266.0289
 20
685.0973
 40
2.0000
 50
286.5774
 51
349.1683
  0
ARC
  8
0_00
  6
CONTINUOUS
 62
4
 10
267.6495
 20
684.7873
 40
0.3500
 50
349.1683
 51
445.0000
  0
ARC
  8
0_00
  6
CONTINUOUS
 62
4
 10
266.9995
 20
685.5969
 40
0.4000
 50
168.6000
 51
265.0000
  0
ARC
  8
0_00
  6
CONTINUOUS
 62
4
 10
266.8781
 20
688.0304
 40
0.2000
 50
348.6000
 51
450.0000
  0
ARC
  8
0_00
  6
CONTINUOUS
 62
4
 10
266.9995
 20
690.6303
 40
0.4000
 50
90.0000
 51
180.0000
  0
ARC
  8
0_00
  6
CONTINUOUS
 62
4
 10
266.9995
 20
692.4304
 40
0.4000
 50
183.0566
 51
270.0000
  0
ARC
  8
0_00
  6
CONTINUOUS
 62
4
 10
269.8995
 20
690.8304
 40
0.6000
 50
180.0000
 51
270.0000
  0
ARC
  8
0_00
  6
CONTINUOUS
 62
4
 10
269.5995
 20
691.5304
 40
0.5000
 50
0.0000
 51
90.0000
  0
ARC
  8
0_00
  6
CONTINUOUS
 62
4
 10
269.8995
 20
690.4304
 40
0.2000
 50
270.0000
 51
360.0000
  0
ARC
  8
0_00
  6
CONTINUOUS
 62
4
 10
324.4999
 20
680.0066
 40
0.7000
 50
179.9999
 51
359.9999
  0
ARC
  8
14_0E
  6
CONTINUOUS
 62
4
 10
324.3706
 20
685.0973
 40
2.0000
 50
190.8317
 51
253.4226
  0
ARC
  8
0_00
  6
CONTINUOUS
 62
4
 10
322.7499
 20
684.7873
 40
0.3500
 50
95.0000
 51
190.8317
  0
ARC
  8
0_00
  6
CONTINUOUS
 62
4
 10
323.3999
 20
685.5969
 40
0.4000
 50
275.0000
 51
371.4000
  0
ARC
  8
0_00
  6
CONTINUOUS
 62
4
 10
320.7999
 20
691.5304
 40
0.5000
 50
90.0000
 51
180.0000
  0
ARC
  8
0_00
  6
CONTINUOUS
 62
4
 10
320.5000
 20
690.4304
 40
0.2000
 50
180.0000
 51
270.0000
  0
ARC
  8
0_00
  6
CONTINUOUS
 62
4
 10
320.5000
 20
690.8304
 40
0.6000
 50
270.0000
 51
360.0000
  0
ARC
  8
0_00
  6
CONTINUOUS
 62
4
 10
323.3999
 20
692.4304
 40
0.4000
 50
270.0000
 51
359.9999
  0
ARC
  8
0_00
  6
CONTINUOUS
 62
4
 10
323.3999
 20
690.6303
 40
0.4000
 50
0.0000
 51
90.0000
  0
ARC
  8
0_00
  6
CONTINUOUS
 62
4
 10
323.5213
 20
688.0304
 40
0.2000
 50
90.0000
 51
191.4000
  0
ARC
  8
3_03
  6
CONTINUOUS
 62
4
 10
586.5419
 20
709.8791
 40
30.3450
 50
89.8197
 51
97.0407
  0
ARC
  8
3_03
  6
CONTINUOUS
 62
4
 10
582.9419
 20
739.0277
 40
0.9750
 50
97.0407
 51
180.0000
  0
ARC
  8
3_03
  6
CONTINUOUS
 62
4
 10
591.1169
 20
740.1491
 40
0.0750
 50
0.0000
 51
90.0000
  0
ARC
  8
3_03
  6
CONTINUOUS
 62
4
 10
591.1169
 20
733.0992
 40
0.0750
 50
270.0000
 51
360.0000
  0
ARC
  8
3_03
  6
CONTINUOUS
 62
4
 10
582.0419
 20
733.0992
 40
0.0750
 50
180.0000
 51
270.0000
  0
ARC
  8
0_00
  6
CONTINUOUS
 62
4
 10
470.6616
 20
691.4654
 40
0.4000
 50
194.0363
 51
270.0000
  0
ARC
  8
0_00
  6
CONTINUOUS
 62
4
 10
469.7125
 20
692.3754
 40
0.3000
 50
14.0362
 51
87.5372
  0
ARC
  8
0_00
  6
CONTINUOUS
 62
4
 10
442.6369
 20
691.4654
 40
0.4000
 50
270.0000
 51
345.9637
  0
ARC
  8
0_00
  6
CONTINUOUS
 62
4
 10
443.5860
 20
692.3754
 40
0.3000
 50
92.4628
 51
165.9637
  0
ARC
  8
14_0E
  6
CONTINUOUS
 62
4
 10
465.1492
 20
698.3654
 40
2.0000
 50
0.0000
 51
90.0000
  0
ARC
  8
0_00
  6
CONTINUOUS
 62
4
 10
465.1492
 20
698.3654
 40
4.5000
 50
0.0000
 51
90.0000
  0
ARC
  8
0_00
  6
CONTINUOUS
 62
4
 10
480.6492
 20
691.5655
 40
0.5000
 50
270.0000
 51
360.0000
  0
ARC
  8
0_00
  6
CONTINUOUS
 62
4
 10
478.6492
 20
694.4655
 40
2.5000
 50
0.0000
 51
90.0000
  0
ARC
  8
0_00
  6
CONTINUOUS
 62
4
 10
468.1492
 20
693.7655
 40
1.0000
 50
180.0000
 51
360.0000
  0
ARC
  8
14_0E
  6
CONTINUOUS
 62
4
 10
448.1493
 20
698.3654
 40
2.0000
 50
90.0000
 51
180.0000
  0
ARC
  8
12_0C
  6
CONTINUOUS
 62
4
 10
448.1493
 20
698.3654
 40
4.5000
 50
90.0000
 51
180.0000
  0
ARC
  8
0_00
  6
CONTINUOUS
 62
4
 10
432.6492
 20
691.5655
 40
0.5000
 50
180.0000
 51
270.0000
  0
ARC
  8
0_00
  6
CONTINUOUS
 62
4
 10
434.6492
 20
694.4655
 40
2.5000
 50
90.0000
 51
180.0000
  0
ARC
  8
0_00
  6
CONTINUOUS
 62
4
 10
445.1492
 20
693.7655
 40
1.0000
 50
180.0000
 51
360.0000
  0
ARC
  8
0_00
  6
CONTINUOUS
 62
4
 10
470.6616
 20
691.4654
 40
0.4000
 50
194.0363
 51
270.0000
  0
ARC
  8
0_00
  6
CONTINUOUS
 62
4
 10
469.7125
 20
692.3754
 40
0.3000
 50
14.0362
 51
87.5372
  0
ARC
  8
0_00
  6
CONTINUOUS
 62
4
 10
481.9770
 20
691.6654
 40
0.6000
 50
270.0000
 51
388.8667
  0
ARC
  8
0_00
  6
CONTINUOUS
 62
4
 10
484.8992
 20
694.3172
 40
0.3000
 50
275.0000
 51
371.6000
  0
ARC
  8
0_00
  6
CONTINUOUS
 62
4
 10
484.0993
 20
693.5947
 40
0.3500
 50
95.0000
 51
185.0988
  0
ARC
  8
0_00
  6
CONTINUOUS
 62
4
 10
483.0493
 20
693.9546
 40
1.0000
 50
95.0000
 51
180.0000
  0
ARC
  8
0_00
  6
CONTINUOUS
 62
4
 10
483.7740
 20
695.3230
 40
0.3000
 50
275.0000
 51
371.6000
  0
ARC
  8
0_00
  6
CONTINUOUS
 62
4
 10
484.0472
 20
698.9655
 40
0.7000
 50
90.0000
 51
191.6000
  0
ARC
  8
0_00
  6
CONTINUOUS
 62
4
 10
485.7427
 20
693.7414
 40
2.0000
 50
185.0988
 51
249.7122
  0
ARC
  8
0_00
  6
CONTINUOUS
 62
4
 10
485.7427
 20
693.7414
 40
3.7000
 50
183.4043
 51
208.8667
  0
ARC
  8
0_00
  6
CONTINUOUS
 62
4
 10
487.1498
 20
690.6042
 40
0.5000
 50
179.9995
 51
296.3368
  0
ARC
  8
0_00
  6
CONTINUOUS
 62
4
 10
484.8499
 20
699.4120
 40
0.4000
 50
359.4403
 51
449.9995
  0
ARC
  8
0_00
  6
CONTINUOUS
 62
4
 10
481.9498
 20
699.2120
 40
0.2000
 50
179.9995
 51
269.9996
  0
ARC
  8
0_00
  6
CONTINUOUS
 62
4
 10
481.9498
 20
699.6120
 40
0.6000
 50
269.9996
 51
359.9996
  0
ARC
  8
0_00
  6
CONTINUOUS
 62
4
 10
484.1998
 20
693.5688
 40
0.3500
 50
94.9995
 51
190.8312
  0
ARC
  8
14_0E
  6
CONTINUOUS
 62
4
 10
485.8204
 20
693.8788
 40
2.0000
 50
190.8312
 51
253.4221
  0
ARC
  8
0_00
  6
CONTINUOUS
 62
4
 10
484.8498
 20
694.3786
 40
0.4000
 50
274.9996
 51
371.3995
  0
ARC
  8
0_00
  6
CONTINUOUS
 62
4
 10
484.9712
 20
696.8120
 40
0.2000
 50
89.9995
 51
191.3996
  0
ARC
  8
0_00
  6
CONTINUOUS
 62
4
 10
482.7498
 20
700.1120
 40
1.0000
 50
89.9995
 51
179.9995
  0
ARC
  8
0_00
  6
CONTINUOUS
 62
4
 10
485.3498
 20
699.8120
 40
1.3000
 50
359.9996
 51
449.9995
  0
ARC
  8
0_00
  6
CONTINUOUS
 62
4
 10
456.6492
 20
665.3215
 40
60.0000
 50
56.5252
 51
123.4747
  0
ARC
  8
0_00
  6
CONTINUOUS
 62
4
 10
481.2492
 20
702.5237
 40
15.4000
 50
292.7488
 51
416.5252
  0
ARC
  8
0_00
  6
CONTINUOUS
 62
4
 10
486.6593
 20
689.6215
 40
1.4095
 50
179.9994
 51
292.7488
  0
ARC
  8
0_00
  6
CONTINUOUS
 62
4
 10
481.2492
 20
702.5237
 40
13.8000
 50
296.3368
 51
416.5252
  0
ARC
  8
0_00
  6
CONTINUOUS
 62
4
 10
456.6492
 20
665.3215
 40
58.4000
 50
56.5252
 51
123.4747
  0
ARC
  8
0_00
  6
CONTINUOUS
 62
4
 10
442.6369
 20
691.4654
 40
0.4000
 50
270.0000
 51
345.9637
  0
ARC
  8
0_00
  6
CONTINUOUS
 62
4
 10
443.5860
 20
692.3754
 40
0.3000
 50
92.4628
 51
165.9637
  0
ARC
  8
0_00
  6
CONTINUOUS
 62
4
 10
431.3215
 20
691.6654
 40
0.6000
 50
151.1333
 51
270.0000
  0
ARC
  8
0_00
  6
CONTINUOUS
 62
4
 10
428.3992
 20
694.3172
 40
0.3000
 50
168.4000
 51
265.0000
  0
ARC
  8
0_00
  6
CONTINUOUS
 62
4
 10
429.1992
 20
693.5947
 40
0.3500
 50
354.9012
 51
445.0000
  0
ARC
  8
0_00
  6
CONTINUOUS
 62
4
 10
430.2492
 20
693.9546
 40
1.0000
 50
0.0000
 51
85.0000
  0
ARC
  8
0_00
  6
CONTINUOUS
 62
4
 10
429.5245
 20
695.3230
 40
0.3000
 50
168.4000
 51
265.0000
  0
ARC
  8
0_00
  6
CONTINUOUS
 62
4
 10
429.2513
 20
698.9655
 40
0.7000
 50
348.4000
 51
450.0000
  0
ARC
  8
0_00
  6
CONTINUOUS
 62
4
 10
427.5558
 20
693.7414
 40
2.0000
 50
290.2878
 51
354.9012
  0
ARC
  8
0_00
  6
CONTINUOUS
 62
4
 10
427.5558
 20
693.7414
 40
3.7000
 50
331.1333
 51
356.5957
  0
ARC
  8
0_00
  6
CONTINUOUS
 62
4
 10
426.1488
 20
690.6042
 40
0.5000
 50
243.6632
 51
360.0004
  0
ARC
  8
0_00
  6
CONTINUOUS
 62
4
 10
428.4486
 20
699.4120
 40
0.4000
 50
89.9999
 51
180.5597
  0
ARC
  8
0_00
  6
CONTINUOUS
 62
4
 10
431.3486
 20
699.2120
 40
0.2000
 50
270.0005
 51
360.0004
  0
ARC
  8
0_00
  6
CONTINUOUS
 62
4
 10
431.3486
 20
699.6120
 40
0.6000
 50
180.0005
 51
270.0005
  0
ARC
  8
0_00
  6
CONTINUOUS
 62
4
 10
429.0987
 20
693.5688
 40
0.3500
 50
349.1688
 51
445.0004
  0
ARC
  8
14_0E
  6
CONTINUOUS
 62
4
 10
427.4781
 20
693.8788
 40
2.0000
 50
286.5779
 51
349.1688
  0
ARC
  8
0_00
  6
CONTINUOUS
 62
4
 10
428.4487
 20
694.3786
 40
0.4000
 50
168.6004
 51
265.0005
  0
ARC
  8
0_00
  6
CONTINUOUS
 62
4
 10
428.3273
 20
696.8120
 40
0.2000
 50
348.6005
 51
450.0004
  0
ARC
  8
0_00
  6
CONTINUOUS
 62
4
 10
430.5486
 20
700.1120
 40
1.0000
 50
0.0004
 51
90.0004
  0
ARC
  8
0_00
  6
CONTINUOUS
 62
4
 10
427.9487
 20
699.8120
 40
1.3000
 50
90.0004
 51
180.0005
  0
ARC
  8
0_00
  6
CONTINUOUS
 62
4
 10
432.0493
 20
702.5237
 40
15.4000
 50
123.4747
 51
247.2512
  0
ARC
  8
0_00
  6
CONTINUOUS
 62
4
 10
426.6392
 20
689.6215
 40
1.4095
 50
247.2512
 51
360.0006
  0
ARC
  8
0_00
  6
CONTINUOUS
 62
4
 10
432.0493
 20
702.5237
 40
13.8000
 50
123.4747
 51
243.6632
  0
ARC
  8
0_00
  6
CONTINUOUS
 62
2
 10
219.2500
 20
390.3066
 40
8.4500
 50
314.7603
 51
405.2397
  0
ARC
  8
0_00
  6
CONTINUOUS
 62
2
 10
371.1500
 20
390.3066
 40
8.4500
 50
134.7603
 51
225.2397
  0
ARC
  8
0_00
  6
CONTINUOUS
 62
4
 10
340.0000
 20
422.2066
 40
0.5000
 50
90.0000
 51
180.0000
  0
ARC
  8
0_00
  6
CONTINUOUS
 62
4
 10
336.5000
 20
420.8066
 40
0.3000
 50
90.0000
 51
180.0000
  0
ARC
  8
0_00
  6
CONTINUOUS
 62
4
 10
336.5000
 20
418.9066
 40
0.3000
 50
180.0000
 51
270.0000
  0
ARC
  8
0_00
  6
CONTINUOUS
 62
4
 10
250.4000
 20
422.2066
 40
0.5000
 50
0.0000
 51
90.0000
  0
ARC
  8
0_00
  6
CONTINUOUS
 62
4
 10
232.4000
 20
422.2066
 40
0.5000
 50
90.0000
 51
180.0000
  0
ARC
  8
0_00
  6
CONTINUOUS
 62
4
 10
246.9000
 20
418.5066
 40
1.0000
 50
0.0000
 51
90.0000
  0
ARC
  8
0_00
  6
CONTINUOUS
 62
4
 10
235.9000
 20
418.5066
 40
1.0000
 50
90.0000
 51
180.0000
  0
ARC
  8
0_00
  6
CONTINUOUS
 62
4
 10
253.9000
 20
420.8066
 40
0.3000
 50
0.0000
 51
90.0000
  0
ARC
  8
0_00
  6
CONTINUOUS
 62
4
 10
253.9000
 20
418.9066
 40
0.3000
 50
270.0000
 51
360.0000
  0
ARC
  8
0_00
  6
CONTINUOUS
 62
4
 10
306.4252
 20
418.8066
 40
2.3000
 50
32.0054
 51
90.0000
  0
ARC
  8
0_00
  6
CONTINUOUS
 62
4
 10
283.9747
 20
418.8066
 40
2.3000
 50
90.0000
 51
147.9946
  0
ARC
  8
0_00
  6
CONTINUOUS
 62
4
 10
336.5000
 20
420.8066
 40
0.3000
 50
90.0000
 51
180.0000
  0
ARC
  8
0_00
  6
CONTINUOUS
 62
4
 10
253.9000
 20
420.8066
 40
0.3000
 50
0.0000
 51
90.0000
  0
ARC
  8
0_00
  6
CONTINUOUS
 62
4
 10
358.0000
 20
422.2066
 40
0.5000
 50
0.0000
 51
90.0000
  0
ARC
  8
0_00
  6
CONTINUOUS
 62
4
 10
340.5000
 20
413.3066
 40
2.0000
 50
270.0000
 51
360.0000
  0
ARC
  8
0_00
  6
CONTINUOUS
 62
4
 10
343.5000
 20
418.5066
 40
1.0000
 50
90.0000
 51
180.0000
  0
ARC
  8
0_00
  6
CONTINUOUS
 62
4
 10
354.5000
 20
418.5066
 40
1.0000
 50
0.0000
 51
90.0000
  0
ARC
  8
0_00
  6
CONTINUOUS
 62
4
 10
375.0000
 20
399.4065
 40
1.0000
 50
270.0000
 51
374.3788
  0
ARC
  8
0_00
  6
CONTINUOUS
 62
4
 10
356.0000
 20
417.7066
 40
0.5000
 50
180.0000
 51
270.0000
  0
ARC
  8
0_00
  6
CONTINUOUS
 62
4
 10
367.9841
 20
416.7066
 40
3.5000
 50
14.3788
 51
90.0000
  0
ARC
  8
0_00
  6
CONTINUOUS
 62
4
 10
367.6695
 20
416.2066
 40
1.0000
 50
17.7004
 51
90.0000
  0
ARC
  8
0_00
  6
CONTINUOUS
 62
4
 10
249.9000
 20
413.3066
 40
2.0000
 50
180.0000
 51
270.0000
  0
ARC
  8
0_00
  6
CONTINUOUS
 62
4
 10
215.4000
 20
399.4065
 40
1.0000
 50
165.6212
 51
270.0000
  0
ARC
  8
0_00
  6
CONTINUOUS
 62
4
 10
234.4000
 20
417.7066
 40
0.5000
 50
270.0000
 51
360.0000
  0
ARC
  8
0_00
  6
CONTINUOUS
 62
4
 10
222.4159
 20
416.7066
 40
3.5000
 50
90.0000
 51
165.6212
  0
ARC
  8
0_00
  6
CONTINUOUS
 62
4
 10
222.7305
 20
416.2066
 40
1.0000
 50
90.0000
 51
162.2996
  0
ARC
  8
0_00
  6
CONTINUOUS
 62
2
 10
323.2000
 20
412.5065
 40
7.7000
 50
39.9831
 51
140.0169
  0
ARC
  8
0_00
  6
CONTINUOUS
 62
2
 10
267.2000
 20
412.5065
 40
7.7000
 50
39.9831
 51
140.0169
  0
ARC
  8
0_00
  6
CONTINUOUS
 62
4
 10
310.2000
 20
417.1066
 40
2.3000
 50
212.0054
 51
270.0000
  0
ARC
  8
0_00
  6
CONTINUOUS
 62
4
 10
280.2000
 20
417.1066
 40
2.3000
 50
270.0000
 51
327.9946
  0
ARC
  8
0_00
  6
CONTINUOUS
 62
4
 10
1065.4841
 20
315.0623
 40
2.5000
 50
0.0000
 51
90.0000
  0
ARC
  8
0_00
  6
CONTINUOUS
 62
4
 10
1061.1943
 20
315.8624
 40
0.5000
 50
331.3146
 51
450.0000
  0
ARC
  8
0_00
  6
CONTINUOUS
 62
4
 10
1066.2841
 20
310.7726
 40
0.5000
 50
0.0000
 51
118.6854
  0
ARC
  8
0_00
  6
CONTINUOUS
 62
4
 10
1064.4841
 20
314.0623
 40
1.7000
 50
161.1790
 51
176.7520
  0
ARC
  8
0_00
  6
CONTINUOUS
 62
4
 10
1064.4841
 20
314.0623
 40
3.2500
 50
273.2480
 51
298.6854
  0
ARC
  8
0_00
  6
CONTINUOUS
 62
4
 10
1064.4841
 20
314.0623
 40
3.2500
 50
151.3146
 51
176.7520
  0
ARC
  8
0_00
  6
CONTINUOUS
 62
4
 10
1064.4841
 20
314.0623
 40
1.7000
 50
341.1790
 51
378.8210
  0
ARC
  8
0_00
  6
CONTINUOUS
 62
4
 10
1064.4841
 20
314.0623
 40
1.7000
 50
71.1790
 51
108.8210
  0
ARC
  8
0_00
  6
CONTINUOUS
 62
4
 10
1064.4841
 20
314.0623
 40
1.7000
 50
273.2480
 51
288.8210
  0
ARC
  8
0_00
  6
CONTINUOUS
 62
4
 10
1062.0131
 20
314.2026
 40
0.7750
 50
176.7520
 51
356.7520
  0
ARC
  8
0_00
  6
CONTINUOUS
 62
4
 10
1064.6243
 20
311.5913
 40
0.7750
 50
93.2480
 51
273.2480
  0
ARC
  8
0_00
  6
CONTINUOUS
 62
4
 10
1042.4842
 20
315.0623
 40
2.5000
 50
90.0000
 51
180.0000
  0
ARC
  8
0_00
  6
CONTINUOUS
 62
4
 10
1046.7738
 20
315.8624
 40
0.5000
 50
90.0000
 51
208.6854
  0
ARC
  8
0_00
  6
CONTINUOUS
 62
4
 10
1041.6841
 20
310.7726
 40
0.5000
 50
61.3146
 51
180.0000
  0
ARC
  8
0_00
  6
CONTINUOUS
 62
4
 10
1043.4841
 20
314.0623
 40
1.7000
 50
3.2480
 51
18.8210
  0
ARC
  8
0_00
  6
CONTINUOUS
 62
4
 10
1043.4841
 20
314.0623
 40
3.2500
 50
241.3146
 51
266.7520
  0
ARC
  8
0_00
  6
CONTINUOUS
 62
4
 10
1043.4841
 20
314.0623
 40
3.2500
 50
3.2480
 51
28.6854
  0
ARC
  8
0_00
  6
CONTINUOUS
 62
4
 10
1043.4841
 20
314.0623
 40
1.7000
 50
161.1790
 51
198.8210
  0
ARC
  8
0_00
  6
CONTINUOUS
 62
4
 10
1043.4841
 20
314.0623
 40
1.7000
 50
71.1790
 51
108.8210
  0
ARC
  8
0_00
  6
CONTINUOUS
 62
4
 10
1043.4841
 20
314.0623
 40
1.7000
 50
251.1790
 51
266.7520
  0
ARC
  8
0_00
  6
CONTINUOUS
 62
4
 10
1045.9551
 20
314.2026
 40
0.7750
 50
183.2480
 51
363.2480
  0
ARC
  8
0_00
  6
CONTINUOUS
 62
4
 10
1043.3438
 20
311.5913
 40
0.7750
 50
266.7520
 51
446.7520
  0
ARC
  8
0_00
  6
CONTINUOUS
 62
4
 10
1065.4841
 20
277.0623
 40
2.5000
 50
270.0000
 51
360.0000
  0
ARC
  8
0_00
  6
CONTINUOUS
 62
4
 10
1061.1943
 20
276.2623
 40
0.5000
 50
270.0000
 51
388.6854
  0
ARC
  8
0_00
  6
CONTINUOUS
 62
4
 10
1066.2841
 20
281.3521
 40
0.5000
 50
241.3146
 51
360.0000
  0
ARC
  8
0_00
  6
CONTINUOUS
 62
4
 10
1064.4841
 20
278.0623
 40
1.7000
 50
183.2480
 51
198.8210
  0
ARC
  8
0_00
  6
CONTINUOUS
 62
4
 10
1064.4841
 20
278.0623
 40
3.2500
 50
61.3146
 51
86.7520
  0
ARC
  8
0_00
  6
CONTINUOUS
 62
4
 10
1064.4841
 20
278.0623
 40
3.2500
 50
183.2480
 51
208.6854
  0
ARC
  8
0_00
  6
CONTINUOUS
 62
4
 10
1064.4841
 20
278.0623
 40
1.7000
 50
341.1790
 51
378.8210
  0
ARC
  8
0_00
  6
CONTINUOUS
 62
4
 10
1064.4841
 20
278.0623
 40
1.7000
 50
251.1790
 51
288.8210
  0
ARC
  8
0_00
  6
CONTINUOUS
 62
4
 10
1064.4841
 20
278.0623
 40
1.7000
 50
71.1790
 51
86.7520
  0
ARC
  8
0_00
  6
CONTINUOUS
 62
4
 10
1062.0131
 20
277.9221
 40
0.7750
 50
3.2480
 51
183.2480
  0
ARC
  8
0_00
  6
CONTINUOUS
 62
4
 10
1064.6243
 20
280.5334
 40
0.7750
 50
86.7520
 51
266.7520
  0
ARC
  8
0_00
  6
CONTINUOUS
 62
4
 10
1042.4842
 20
277.0623
 40
2.5000
 50
180.0000
 51
270.0000
  0
ARC
  8
0_00
  6
CONTINUOUS
 62
4
 10
1046.7738
 20
276.2623
 40
0.5000
 50
151.3146
 51
270.0000
  0
ARC
  8
0_00
  6
CONTINUOUS
 62
4
 10
1041.6841
 20
281.3521
 40
0.5000
 50
180.0000
 51
298.6854
  0
ARC
  8
0_00
  6
CONTINUOUS
 62
4
 10
1043.4841
 20
278.0623
 40
1.7000
 50
341.1790
 51
356.7520
  0
ARC
  8
0_00
  6
CONTINUOUS
 62
4
 10
1043.4841
 20
278.0623
 40
3.2500
 50
93.2480
 51
118.6854
  0
ARC
  8
0_00
  6
CONTINUOUS
 62
4
 10
1043.4841
 20
278.0623
 40
3.2500
 50
331.3146
 51
356.7520
  0
ARC
  8
0_00
  6
CONTINUOUS
 62
4
 10
1043.4841
 20
278.0623
 40
1.7000
 50
161.1790
 51
198.8210
  0
ARC
  8
0_00
  6
CONTINUOUS
 62
4
 10
1043.4841
 20
278.0623
 40
1.7000
 50
251.1790
 51
288.8210
  0
ARC
  8
0_00
  6
CONTINUOUS
 62
4
 10
1043.4841
 20
278.0623
 40
1.7000
 50
93.2480
 51
108.8210
  0
ARC
  8
0_00
  6
CONTINUOUS
 62
4
 10
1045.9551
 20
277.9221
 40
0.7750
 50
356.7520
 51
536.7520
  0
ARC
  8
0_00
  6
CONTINUOUS
 62
4
 10
1043.3438
 20
280.5334
 40
0.7750
 50
273.2480
 51
453.2480
  0
ARC
  8
0_00
  6
CONTINUOUS
 62
4
 10
1042.4842
 20
315.0623
 40
3.5000
 50
90.0000
 51
180.0000
  0
ARC
  8
0_00
  6
CONTINUOUS
 62
4
 10
1042.4842
 20
277.0623
 40
3.5000
 50
180.0000
 51
225.5847
  0
ARC
  8
0_00
  6
CONTINUOUS
 62
4
 10
1065.4841
 20
277.0623
 40
3.5000
 50
314.4153
 51
360.0000
  0
ARC
  8
0_00
  6
CONTINUOUS
 62
4
 10
1065.4841
 20
315.0623
 40
3.5000
 50
0.0000
 51
90.0000
  0
ARC
  8
0_00
  6
CONTINUOUS
 62
2
 10
651.0040
 20
324.0623
 40
2.4500
 50
45.0000
 51
58.5444
  0
ARC
  8
0_00
  6
CONTINUOUS
 62
2
 10
651.0040
 20
324.0623
 40
2.4500
 50
121.3667
 51
135.0000
  0
ARC
  8
0_00
  6
CONTINUOUS
 62
2
 10
651.0040
 20
324.0623
 40
2.4500
 50
211.4556
 51
225.0000
  0
ARC
  8
0_00
  6
CONTINUOUS
 62
2
 10
651.0040
 20
324.0623
 40
2.4500
 50
135.0000
 51
148.6333
  0
ARC
  8
0_00
  6
CONTINUOUS
 62
2
 10
651.0040
 20
324.0623
 40
2.4500
 50
31.4556
 51
45.0000
  0
ARC
  8
0_00
  6
CONTINUOUS
 62
2
 10
651.0040
 20
324.0623
 40
2.4500
 50
315.0000
 51
328.6334
  0
ARC
  8
0_00
  6
CONTINUOUS
 62
2
 10
651.0040
 20
324.0623
 40
2.4500
 50
225.0000
 51
238.5444
  0
ARC
  8
0_00
  6
CONTINUOUS
 62
2
 10
651.0040
 20
324.0623
 40
2.4500
 50
301.3667
 51
315.0000
  0
CIRCLE
  8
0_00
  6
CONTINUOUS
 62
2
 10
651.0040
 20
324.0623
 40
5.9000
  0
ARC
  8
0_00
  6
CONTINUOUS
 62
4
 10
641.5039
 20
335.0623
 40
3.0000
 50
138.1897
 51
180.0000
  0
ARC
  8
0_00
  6
CONTINUOUS
 62
4
 10
695.5040
 20
335.0623
 40
3.0000
 50
0.0000
 51
41.8103
  0
ARC
  8
0_00
  6
CONTINUOUS
 62
4
 10
697.0040
 20
296.0623
 40
0.5000
 50
131.5931
 51
228.4069
  0
ARC
  8
0_00
  6
CONTINUOUS
 62
4
 10
640.0039
 20
296.0623
 40
0.5000
 50
311.5931
 51
408.4069
  0
ARC
  8
0_00
  6
CONTINUOUS
 62
4
 10
668.5040
 20
335.5623
 40
0.5000
 50
222.8383
 51
317.1617
  0
ARC
  8
0_00
  6
CONTINUOUS
 62
4
 10
641.5039
 20
257.0623
 40
3.0000
 50
180.0000
 51
221.8103
  0
ARC
  8
0_00
  6
CONTINUOUS
 62
4
 10
695.5040
 20
257.0623
 40
3.0000
 50
318.1897
 51
360.0000
  0
ARC
  8
0_00
  6
CONTINUOUS
 62
4
 10
668.5040
 20
256.5623
 40
0.5000
 50
42.8383
 51
137.1617
  0
CIRCLE
  8
0_00
  6
CONTINUOUS
 62
2
 10
668.5040
 20
291.5623
 40
2.0000
  0
CIRCLE
  8
0_00
  6
CONTINUOUS
 62
2
 10
668.5040
 20
300.5623
 40
2.0000
  0
ARC
  8
0_00
  6
CONTINUOUS
 62
2
 10
686.0040
 20
268.0623
 40
2.4500
 50
225.0000
 51
238.5444
  0
ARC
  8
0_00
  6
CONTINUOUS
 62
2
 10
686.0040
 20
268.0623
 40
2.4500
 50
301.3667
 51
315.0000
  0
ARC
  8
0_00
  6
CONTINUOUS
 62
2
 10
686.0040
 20
268.0623
 40
2.4500
 50
31.4556
 51
45.0000
  0
ARC
  8
0_00
  6
CONTINUOUS
 62
2
 10
686.0040
 20
268.0623
 40
2.4500
 50
315.0000
 51
328.6334
  0
ARC
  8
0_00
  6
CONTINUOUS
 62
2
 10
686.0040
 20
268.0623
 40
2.4500
 50
211.4556
 51
225.0000
  0
ARC
  8
0_00
  6
CONTINUOUS
 62
2
 10
686.0040
 20
268.0623
 40
2.4500
 50
135.0000
 51
148.6333
  0
ARC
  8
0_00
  6
CONTINUOUS
 62
2
 10
686.0040
 20
268.0623
 40
2.4500
 50
45.0000
 51
58.5444
  0
ARC
  8
0_00
  6
CONTINUOUS
 62
2
 10
686.0040
 20
268.0623
 40
2.4500
 50
121.3667
 51
135.0000
  0
CIRCLE
  8
0_00
  6
CONTINUOUS
 62
2
 10
686.0040
 20
268.0623
 40
5.9000
  0
ARC
  8
0_00
  6
CONTINUOUS
 62
4
 10
655.2540
 20
324.0623
 40
3.2500
 50
282.9377
 51
437.0623
  0
ARC
  8
0_00
  6
CONTINUOUS
 62
4
 10
646.7540
 20
324.0623
 40
3.2500
 50
102.9377
 51
257.0623
  0
ARC
  8
0_00
  6
CONTINUOUS
 62
4
 10
681.7540
 20
324.0623
 40
3.2500
 50
90.0000
 51
270.0000
  0
ARC
  8
0_00
  6
CONTINUOUS
 62
4
 10
690.2540
 20
324.0623
 40
3.2500
 50
270.0000
 51
450.0000
  0
ARC
  8
0_00
  6
CONTINUOUS
 62
4
 10
655.2540
 20
268.0623
 40
3.2500
 50
270.0000
 51
450.0000
  0
ARC
  8
0_00
  6
CONTINUOUS
 62
4
 10
646.7540
 20
268.0623
 40
3.2500
 50
90.0000
 51
270.0000
  0
ARC
  8
0_00
  6
CONTINUOUS
 62
4
 10
681.7540
 20
268.0623
 40
3.2500
 50
102.9377
 51
257.0623
  0
ARC
  8
0_00
  6
CONTINUOUS
 62
4
 10
690.2540
 20
268.0623
 40
3.2500
 50
282.9377
 51
437.0623
  0
ARC
  8
0_00
  6
CONTINUOUS
 62
4
 10
668.5040
 20
291.5623
 40
1.7000
 50
206.1790
 51
243.8210
  0
ARC
  8
0_00
  6
CONTINUOUS
 62
4
 10
668.5040
 20
291.5623
 40
3.2500
 50
163.3985
 51
212.3582
  0
ARC
  8
0_00
  6
CONTINUOUS
 62
4
 10
665.5053
 20
289.6623
 40
0.3000
 50
270.0000
 51
392.3582
  0
ARC
  8
0_00
  6
CONTINUOUS
 62
4
 10
666.8269
 20
292.0623
 40
1.5000
 50
90.0000
 51
163.3985
  0
ARC
  8
0_00
  6
CONTINUOUS
 62
4
 10
668.5040
 20
291.5623
 40
1.7000
 50
131.2509
 51
153.8210
  0
ARC
  8
0_00
  6
CONTINUOUS
 62
4
 10
668.5040
 20
291.5623
 40
1.7000
 50
296.1790
 51
333.8210
  0
ARC
  8
0_00
  6
CONTINUOUS
 62
4
 10
668.5040
 20
291.5623
 40
3.2500
 50
327.6418
 51
376.6016
  0
ARC
  8
0_00
  6
CONTINUOUS
 62
4
 10
670.1810
 20
292.0623
 40
1.5000
 50
16.6015
 51
90.0000
  0
ARC
  8
0_00
  6
CONTINUOUS
 62
4
 10
668.5040
 20
291.5623
 40
1.7000
 50
26.1790
 51
48.7491
  0
ARC
  8
0_00
  6
CONTINUOUS
 62
4
 10
667.1114
 20
293.1503
 40
0.4121
 50
311.2509
 51
450.0000
  0
ARC
  8
0_00
  6
CONTINUOUS
 62
4
 10
669.8966
 20
293.1503
 40
0.4121
 50
90.0000
 51
228.7491
  0
ARC
  8
0_00
  6
CONTINUOUS
 62
4
 10
673.0040
 20
294.5623
 40
11.5000
 50
180.0000
 51
208.3594
  0
ARC
  8
0_00
  6
CONTINUOUS
 62
4
 10
664.2041
 20
289.8123
 40
1.5000
 50
208.3594
 51
270.0000
  0
ARC
  8
0_00
  6
CONTINUOUS
 62
4
 10
673.0040
 20
297.5623
 40
11.5000
 50
151.6406
 51
180.0000
  0
ARC
  8
0_00
  6
CONTINUOUS
 62
4
 10
673.0040
 20
294.5623
 40
10.4000
 50
180.0000
 51
209.0222
  0
ARC
  8
0_00
  6
CONTINUOUS
 62
4
 10
664.1722
 20
289.6623
 40
0.3000
 50
209.0222
 51
270.0000
  0
ARC
  8
0_00
  6
CONTINUOUS
 62
4
 10
673.0040
 20
297.5623
 40
10.4000
 50
150.9778
 51
180.0000
  0
ARC
  8
0_00
  6
CONTINUOUS
 62
4
 10
664.0039
 20
294.5623
 40
11.5000
 50
331.6407
 51
360.0000
  0
ARC
  8
0_00
  6
CONTINUOUS
 62
4
 10
664.0039
 20
297.5623
 40
11.5000
 50
0.0000
 51
28.3593
  0
ARC
  8
0_00
  6
CONTINUOUS
 62
4
 10
664.0039
 20
294.5623
 40
10.4000
 50
330.9778
 51
360.0000
  0
ARC
  8
0_00
  6
CONTINUOUS
 62
4
 10
664.0039
 20
297.5623
 40
10.4000
 50
0.0000
 51
29.0222
  0
ARC
  8
0_00
  6
CONTINUOUS
 62
4
 10
671.5028
 20
289.6623
 40
0.3000
 50
147.6418
 51
270.0000
  0
ARC
  8
0_00
  6
CONTINUOUS
 62
4
 10
672.8038
 20
289.8123
 40
1.5000
 50
270.0000
 51
331.6407
  0
ARC
  8
0_00
  6
CONTINUOUS
 62
4
 10
672.8358
 20
289.6623
 40
0.3000
 50
270.0000
 51
330.9778
  0
ARC
  8
0_00
  6
CONTINUOUS
 62
4
 10
668.5040
 20
300.5623
 40
1.7000
 50
116.1790
 51
153.8210
  0
ARC
  8
0_00
  6
CONTINUOUS
 62
4
 10
668.5040
 20
300.5623
 40
3.2500
 50
147.6418
 51
196.6015
  0
ARC
  8
0_00
  6
CONTINUOUS
 62
4
 10
665.5053
 20
302.4623
 40
0.3000
 50
327.6418
 51
450.0000
  0
ARC
  8
0_00
  6
CONTINUOUS
 62
4
 10
666.8269
 20
300.0623
 40
1.5000
 50
196.6015
 51
270.0000
  0
ARC
  8
0_00
  6
CONTINUOUS
 62
4
 10
668.5040
 20
300.5623
 40
1.7000
 50
206.1790
 51
228.7491
  0
ARC
  8
0_00
  6
CONTINUOUS
 62
4
 10
668.5040
 20
300.5623
 40
1.7000
 50
26.1790
 51
63.8210
  0
ARC
  8
0_00
  6
CONTINUOUS
 62
4
 10
668.5040
 20
300.5623
 40
3.2500
 50
343.3984
 51
392.3582
  0
ARC
  8
0_00
  6
CONTINUOUS
 62
4
 10
670.1810
 20
300.0623
 40
1.5000
 50
270.0000
 51
343.3984
  0
ARC
  8
0_00
  6
CONTINUOUS
 62
4
 10
668.5040
 20
300.5623
 40
1.7000
 50
311.2509
 51
333.8210
  0
ARC
  8
0_00
  6
CONTINUOUS
 62
4
 10
667.1114
 20
298.9744
 40
0.4121
 50
270.0000
 51
408.7491
  0
ARC
  8
0_00
  6
CONTINUOUS
 62
4
 10
669.8966
 20
298.9744
 40
0.4121
 50
131.2509
 51
270.0000
  0
ARC
  8
0_00
  6
CONTINUOUS
 62
4
 10
664.2041
 20
302.3123
 40
1.5000
 50
90.0000
 51
151.6406
  0
ARC
  8
0_00
  6
CONTINUOUS
 62
4
 10
664.1722
 20
302.4623
 40
0.3000
 50
90.0000
 51
150.9778
  0
ARC
  8
0_00
  6
CONTINUOUS
 62
4
 10
671.5028
 20
302.4623
 40
0.3000
 50
90.0000
 51
212.3582
  0
ARC
  8
0_00
  6
CONTINUOUS
 62
4
 10
672.8038
 20
302.3123
 40
1.5000
 50
28.3593
 51
90.0000
  0
ARC
  8
0_00
  6
CONTINUOUS
 62
4
 10
672.8358
 20
302.4623
 40
0.3000
 50
29.0222
 51
90.0000
  0
ARC
  8
16_10
  6
CONTINUOUS
 62
4
 10
574.7670
 20
694.2122
 40
1.2600
 50
98.4358
 51
181.8837
  0
ARC
  8
16_10
  6
CONTINUOUS
 62
4
 10
574.6170
 20
689.3592
 40
0.9900
 50
181.8837
 51
223.9454
  0
ARC
  8
16_10
  6
CONTINUOUS
 62
4
 10
574.5049
 20
687.1541
 40
0.5850
 50
181.8837
 51
271.8837
  0
ARC
  8
16_10
  6
CONTINUOUS
 62
4
 10
601.8005
 20
694.1257
 40
1.2600
 50
52.0455
 51
85.6846
  0
ARC
  8
16_10
  6
CONTINUOUS
 62
4
 10
578.5657
 20
694.0982
 40
0.9750
 50
98.4358
 51
181.8837
  0
ARC
  8
16_10
  6
CONTINUOUS
 62
4
 10
577.7133
 20
688.6977
 40
0.2700
 50
1.8837
 51
45.3477
  0
ARC
  8
16_10
  6
CONTINUOUS
 62
4
 10
578.3669
 20
689.3592
 40
0.6600
 50
181.8837
 51
225.3477
  0
ARC
  8
16_10
  6
CONTINUOUS
 62
4
 10
578.2559
 20
687.1242
 40
0.2550
 50
181.8837
 51
271.8837
  0
ARC
  8
16_10
  6
CONTINUOUS
 62
4
 10
578.7985
 20
687.0520
 40
0.3450
 50
271.8837
 51
328.0013
  0
ARC
  8
3_03
  6
CONTINUOUS
 62
4
 10
1126.5420
 20
709.8791
 40
30.3450
 50
82.9593
 51
90.1802
  0
ARC
  8
3_03
  6
CONTINUOUS
 62
4
 10
1130.1420
 20
739.0277
 40
0.9750
 50
0.0000
 51
82.9593
  0
ARC
  8
3_03
  6
CONTINUOUS
 62
4
 10
1121.9669
 20
740.1491
 40
0.0750
 50
90.0000
 51
180.0000
  0
ARC
  8
3_03
  6
CONTINUOUS
 62
4
 10
1121.9669
 20
733.0992
 40
0.0750
 50
180.0000
 51
270.0000
  0
ARC
  8
3_03
  6
CONTINUOUS
 62
4
 10
1131.0420
 20
733.0992
 40
0.0750
 50
270.0000
 51
360.0000
  0
ARC
  8
16_10
  6
CONTINUOUS
 62
4
 10
1138.3169
 20
694.2122
 40
1.2600
 50
358.1163
 51
441.5642
  0
ARC
  8
16_10
  6
CONTINUOUS
 62
4
 10
1138.4669
 20
689.3592
 40
0.9900
 50
316.0546
 51
358.1163
  0
ARC
  8
16_10
  6
CONTINUOUS
 62
4
 10
1138.5791
 20
687.1541
 40
0.5850
 50
268.1163
 51
358.1163
  0
ARC
  8
16_10
  6
CONTINUOUS
 62
4
 10
1111.2834
 20
694.1257
 40
1.2600
 50
94.3154
 51
127.9545
  0
ARC
  8
16_10
  6
CONTINUOUS
 62
4
 10
1134.5182
 20
694.0982
 40
0.9750
 50
358.1163
 51
441.5642
  0
ARC
  8
16_10
  6
CONTINUOUS
 62
4
 10
1135.3706
 20
688.6977
 40
0.2700
 50
134.6523
 51
178.1163
  0
ARC
  8
16_10
  6
CONTINUOUS
 62
4
 10
1134.7169
 20
689.3592
 40
0.6600
 50
314.6523
 51
358.1163
  0
ARC
  8
16_10
  6
CONTINUOUS
 62
4
 10
1134.8282
 20
687.1242
 40
0.2550
 50
268.1163
 51
358.1163
  0
ARC
  8
16_10
  6
CONTINUOUS
 62
4
 10
1134.2854
 20
687.0520
 40
0.3450
 50
211.9987
 51
268.1163
  0
ARC
  8
12_0C
  6
DASHED
 62
2
 10
274.5605
 20
594.9733
 40
5.1605
 50
129.1846
 51
230.8154
  0
ARC
  8
12_0C
  6
DASHED
 62
2
 10
274.5605
 20
510.6399
 40
5.1605
 50
129.1846
 51
230.8154
  0
ARC
  8
0_00
  6
CONTINUOUS
 62
4
 10
578.9669
 20
722.1442
 40
0.1500
 50
90.0000
 51
180.0000
  0
ARC
  8
0_00
  6
CONTINUOUS
 62
4
 10
578.9669
 20
718.6942
 40
0.1500
 50
180.0000
 51
269.9829
  0
ARC
  8
0_00
  6
CONTINUOUS
 62
4
 10
1134.1169
 20
722.1442
 40
0.1500
 50
0.0000
 51
90.0000
  0
ARC
  8
0_00
  6
CONTINUOUS
 62
4
 10
1134.1169
 20
718.6942
 40
0.1500
 50
270.0171
 51
360.0000
  0
ARC
  8
0_00
  6
CONTINUOUS
 62
4
 10
578.9669
 20
709.4942
 40
0.1500
 50
90.0000
 51
180.0000
  0
ARC
  8
0_00
  6
CONTINUOUS
 62
4
 10
578.9669
 20
706.0442
 40
0.1500
 50
180.0000
 51
269.9829
  0
ARC
  8
0_00
  6
CONTINUOUS
 62
4
 10
1134.1169
 20
709.4942
 40
0.1500
 50
0.0000
 51
90.0000
  0
ARC
  8
0_00
  6
CONTINUOUS
 62
4
 10
1134.1169
 20
706.0442
 40
0.1500
 50
270.0171
 51
360.0000
  0
ARC
  8
0_00
  6
DASHED
 62
2
 10
1029.3659
 20
267.5623
 40
1.0000
 50
270.0000
 51
333.4349
  0
ARC
  8
0_00
  6
DASHED
 62
2
 10
1029.3659
 20
267.5623
 40
3.0000
 50
270.0000
 51
333.4349
  0
ARC
  8
0_00
  6
DASHED
 62
2
 10
1078.6021
 20
267.5623
 40
1.0000
 50
206.5651
 51
270.0000
  0
ARC
  8
0_00
  6
DASHED
 62
2
 10
1078.6021
 20
267.5623
 40
3.0000
 50
206.5651
 51
270.0000
  0
ARC
  8
2_02
  6
DASHED
 62
2
 10
1016.4841
 20
258.6560
 40
10.4063
 50
67.3871
 51
112.6129
  0
ARC
  8
2_02
  6
DASHED
 62
2
 10
1091.4841
 20
258.6560
 40
10.4063
 50
67.3871
 51
112.6129
  0
ARC
  8
0_00
  6
CONTINUOUS
 62
4
 10
1035.8382
 20
271.5623
 40
1.0000
 50
90.0000
 51
153.4349
  0
ARC
  8
0_00
  6
CONTINUOUS
 62
4
 10
1072.1300
 20
271.5623
 40
1.0000
 50
26.5650
 51
90.0000
  0
ARC
  8
0_00
  6
CONTINUOUS
 62
4
 10
1035.8382
 20
271.5623
 40
3.0000
 50
90.0000
 51
153.4349
  0
ARC
  8
0_00
  6
CONTINUOUS
 62
4
 10
1072.1300
 20
271.5623
 40
3.0000
 50
26.5650
 51
90.0000
  0
ARC
  8
0_00
  6
CONTINUOUS
 62
4
 10
1053.9841
 20
296.0623
 40
12.0000
 50
277.1633
 51
622.8367
  0
ARC
  8
0_00
  6
CONTINUOUS
 62
3
 10
1089.6760
 20
72.2363
 40
0.5362
 50
270.0000
 51
450.0000
  0
ARC
  8
0_00
  6
CONTINUOUS
 62
3
 10
1088.1842
 20
77.0626
 40
0.6532
 50
0.0000
 51
180.0000
  0
ARC
  8
0_00
  6
CONTINUOUS
 62
3
 10
1089.1886
 20
83.4001
 40
1.9500
 50
333.9999
 51
450.0000
  0
CIRCLE
  8
0_00
  6
CONTINUOUS
 62
3
 10
1090.0660
 20
87.3000
 40
1.5600
  0
ARC
  8
0_00
  6
CONTINUOUS
 62
3
 10
1088.2811
 20
77.0626
 40
0.4500
 50
0.0000
 51
180.0000
  0
ARC
  8
0_00
  6
CONTINUOUS
 62
3
 10
1088.2811
 20
77.0626
 40
0.1500
 50
0.0000
 51
180.0000
  0
ARC
  8
0_00
  6
CONTINUOUS
 62
3
 10
1089.6760
 20
72.1725
 40
0.3000
 50
270.0000
 51
450.0000
  0
CIRCLE
  8
0_00
  6
CONTINUOUS
 62
3
 10
1090.0660
 20
87.3000
 40
1.3244
  0
CIRCLE
  8
0_00
  6
CONTINUOUS
 62
3
 10
1090.0660
 20
87.3000
 40
1.0256
  0
CIRCLE
  8
0_00
  6
CONTINUOUS
 62
3
 10
1090.0660
 20
87.3000
 40
0.7027
  0
CIRCLE
  8
0_00
  6
CONTINUOUS
 62
3
 10
1090.0660
 20
87.3000
 40
0.3440
  0
CIRCLE
  8
0_00
  6
CONTINUOUS
 62
3
 10
1090.0660
 20
87.3000
 40
0.1699
  0
CIRCLE
  8
0_00
  6
CONTINUOUS
 62
4
 10
881.0410
 20
82.2001
 40
3.7500
  0
CIRCLE
  8
0_00
  6
CONTINUOUS
 62
4
 10
881.0410
 20
82.2001
 40
6.0000
  0
ARC
  8
12_0C
  6
CONTINUOUS
 62
2
 10
279.4000
 20
683.4765
 40
1.3000
 50
0.0000
 51
73.3778
  0
ARC
  8
12_0C
  6
CONTINUOUS
 62
2
 10
277.2000
 20
676.1066
 40
9.0000
 50
73.3790
 51
106.6667
  0
ARC
  8
12_0C
  6
CONTINUOUS
 62
2
 10
275.0000
 20
683.4765
 40
1.3000
 50
106.6222
 51
180.0000
  0
ARC
  8
12_0C
  6
CONTINUOUS
 62
2
 10
288.5000
 20
695.0766
 40
1.3000
 50
106.6222
 51
180.0000
  0
ARC
  8
12_0C
  6
CONTINUOUS
 62
2
 10
290.7000
 20
687.7066
 40
9.0000
 50
73.3333
 51
106.6210
  0
ARC
  8
12_0C
  6
CONTINUOUS
 62
2
 10
292.9000
 20
695.0766
 40
1.3000
 50
0.0000
 51
73.3778
  0
ARC
  8
12_0C
  6
CONTINUOUS
 62
2
 10
297.5000
 20
695.0766
 40
1.3000
 50
106.6222
 51
180.0000
  0
ARC
  8
12_0C
  6
CONTINUOUS
 62
2
 10
299.7000
 20
687.7066
 40
9.0000
 50
73.3333
 51
106.6210
  0
ARC
  8
12_0C
  6
CONTINUOUS
 62
2
 10
301.9000
 20
695.0766
 40
1.3000
 50
0.0000
 51
73.3778
  0
ARC
  8
12_0C
  6
CONTINUOUS
 62
2
 10
315.4000
 20
683.4765
 40
1.3000
 50
0.0000
 51
73.3778
  0
ARC
  8
12_0C
  6
CONTINUOUS
 62
2
 10
313.2000
 20
676.1066
 40
9.0000
 50
73.3790
 51
106.6667
  0
ARC
  8
12_0C
  6
CONTINUOUS
 62
2
 10
311.0000
 20
683.4765
 40
1.3000
 50
106.6222
 51
180.0000
  0
ARC
  8
12_0C
  6
CONTINUOUS
 62
2
 10
476.8493
 20
692.2354
 40
1.3000
 50
0.0000
 51
73.3778
  0
ARC
  8
12_0C
  6
CONTINUOUS
 62
2
 10
474.6492
 20
684.8655
 40
9.0000
 50
73.3790
 51
106.6667
  0
ARC
  8
12_0C
  6
CONTINUOUS
 62
2
 10
472.4493
 20
692.2354
 40
1.3000
 50
106.6222
 51
180.0000
  0
ARC
  8
12_0C
  6
CONTINUOUS
 62
2
 10
463.3493
 20
703.8354
 40
1.3000
 50
0.0000
 51
73.3778
  0
ARC
  8
12_0C
  6
CONTINUOUS
 62
2
 10
461.1492
 20
696.4654
 40
9.0000
 50
73.3790
 51
106.6667
  0
ARC
  8
12_0C
  6
CONTINUOUS
 62
2
 10
458.9492
 20
703.8354
 40
1.3000
 50
106.6222
 51
180.0000
  0
ARC
  8
12_0C
  6
CONTINUOUS
 62
2
 10
454.3493
 20
703.8354
 40
1.3000
 50
0.0000
 51
73.3778
  0
ARC
  8
12_0C
  6
CONTINUOUS
 62
2
 10
452.1492
 20
696.4654
 40
9.0000
 50
73.3790
 51
106.6667
  0
ARC
  8
12_0C
  6
CONTINUOUS
 62
2
 10
449.9493
 20
703.8354
 40
1.3000
 50
106.6222
 51
180.0000
  0
ARC
  8
12_0C
  6
CONTINUOUS
 62
2
 10
440.8493
 20
692.2354
 40
1.3000
 50
0.0000
 51
73.3778
  0
ARC
  8
12_0C
  6
CONTINUOUS
 62
2
 10
438.6492
 20
684.8655
 40
9.0000
 50
73.3790
 51
106.6667
  0
ARC
  8
12_0C
  6
CONTINUOUS
 62
2
 10
436.4492
 20
692.2354
 40
1.3000
 50
106.6222
 51
180.0000
  0
ARC
  8
0_00
  6
CONTINUOUS
 62
4
 10
212.6467
 20
382.8061
 40
2.0000
 50
0.4000
 51
46.6979
  0
ARC
  8
0_00
  6
CONTINUOUS
 62
4
 10
216.4188
 20
386.8087
 40
3.5000
 50
180.4000
 51
226.6979
  0
ARC
  8
0_00
  6
CONTINUOUS
 62
4
 10
216.4188
 20
386.8087
 40
3.5000
 50
41.8470
 51
104.5490
  0
ARC
  8
0_00
  6
CONTINUOUS
 62
4
 10
215.2884
 20
391.1644
 40
1.0000
 50
180.4000
 51
284.5490
  0
ARC
  8
0_00
  6
CONTINUOUS
 62
4
 10
218.0576
 20
388.2764
 40
1.3000
 50
330.4000
 51
401.8470
  0
ARC
  8
0_00
  6
CONTINUOUS
 62
4
 10
216.4188
 20
386.8087
 40
1.7500
 50
10.5841
 51
35.0231
  0
ARC
  8
0_00
  6
CONTINUOUS
 62
4
 10
216.4188
 20
386.8087
 40
1.7500
 50
175.7769
 51
215.0231
  0
ARC
  8
0_00
  6
CONTINUOUS
 62
4
 10
216.4188
 20
386.8087
 40
1.7500
 50
85.7769
 51
125.0231
  0
ARC
  8
0_00
  6
CONTINUOUS
 62
4
 10
218.5085
 20
387.1992
 40
0.3759
 50
190.5841
 51
330.4000
  0
ARC
  8
0_00
  6
CONTINUOUS
 62
4
 10
215.9973
 20
384.6495
 40
1.3000
 50
267.6053
 51
330.4000
  0
ARC
  8
0_00
  6
CONTINUOUS
 62
4
 10
216.4188
 20
386.8087
 40
1.7500
 50
265.7769
 51
290.2159
  0
ARC
  8
0_00
  6
CONTINUOUS
 62
4
 10
217.1534
 20
384.8138
 40
0.3759
 50
330.4000
 51
470.2159
  0
ARC
  8
0_00
  6
CONTINUOUS
 62
4
 10
233.0030
 20
415.8066
 40
10.5000
 50
90.0000
 51
98.7462
  0
ARC
  8
0_00
  6
CONTINUOUS
 62
4
 10
218.7000
 20
418.1591
 40
6.0000
 50
98.7462
 51
180.4000
  0
ARC
  8
0_00
  6
CONTINUOUS
 62
4
 10
233.0030
 20
415.8066
 40
9.0000
 50
90.0000
 51
98.7462
  0
ARC
  8
0_00
  6
CONTINUOUS
 62
4
 10
218.6001
 20
418.1437
 40
4.5000
 50
98.7462
 51
180.4000
  0
ARC
  8
0_00
  6
CONTINUOUS
 62
4
 10
357.3970
 20
415.8066
 40
10.5000
 50
81.2538
 51
90.0000
  0
ARC
  8
0_00
  6
CONTINUOUS
 62
4
 10
357.3970
 20
415.8066
 40
9.0000
 50
81.2538
 51
90.0000
  0
ARC
  8
0_00
  6
CONTINUOUS
 62
4
 10
371.7000
 20
418.1591
 40
6.0000
 50
359.6000
 51
441.2538
  0
ARC
  8
0_00
  6
CONTINUOUS
 62
4
 10
371.7999
 20
418.1437
 40
4.5000
 50
359.6000
 51
441.2538
  0
ARC
  8
0_00
  6
CONTINUOUS
 62
4
 10
217.1725
 20
371.9646
 40
0.6500
 50
270.4000
 51
450.4000
  0
ARC
  8
14_0E
  6
CONTINUOUS
 62
4
 10
216.2166
 20
372.8079
 40
1.5000
 50
180.4000
 51
270.4000
  0
ARC
  8
0_00
  6
CONTINUOUS
 62
4
 10
377.7534
 20
382.8061
 40
2.0000
 50
133.3021
 51
179.6000
  0
ARC
  8
0_00
  6
CONTINUOUS
 62
4
 10
373.9812
 20
386.8087
 40
3.5000
 50
313.3021
 51
359.6000
  0
ARC
  8
0_00
  6
CONTINUOUS
 62
4
 10
373.9812
 20
386.8087
 40
3.5000
 50
75.4510
 51
138.1530
  0
ARC
  8
0_00
  6
CONTINUOUS
 62
4
 10
375.1116
 20
391.1644
 40
1.0000
 50
255.4510
 51
359.6000
  0
ARC
  8
0_00
  6
CONTINUOUS
 62
4
 10
372.3424
 20
388.2764
 40
1.3000
 50
138.1530
 51
209.6000
  0
ARC
  8
0_00
  6
CONTINUOUS
 62
4
 10
373.9812
 20
386.8087
 40
1.7500
 50
144.9769
 51
169.4159
  0
ARC
  8
0_00
  6
CONTINUOUS
 62
4
 10
373.9812
 20
386.8087
 40
1.7500
 50
324.9769
 51
364.2231
  0
ARC
  8
0_00
  6
CONTINUOUS
 62
4
 10
373.9812
 20
386.8087
 40
1.7500
 50
54.9769
 51
94.2231
  0
ARC
  8
0_00
  6
CONTINUOUS
 62
4
 10
371.8915
 20
387.1992
 40
0.3759
 50
209.6000
 51
349.4159
  0
ARC
  8
0_00
  6
CONTINUOUS
 62
4
 10
374.4027
 20
384.6495
 40
1.3000
 50
209.6000
 51
272.3947
  0
ARC
  8
0_00
  6
CONTINUOUS
 62
4
 10
373.9812
 20
386.8087
 40
1.7500
 50
249.7841
 51
274.2231
  0
ARC
  8
0_00
  6
CONTINUOUS
 62
4
 10
373.2466
 20
384.8138
 40
0.3759
 50
69.7841
 51
209.6000
  0
ARC
  8
0_00
  6
CONTINUOUS
 62
4
 10
373.2275
 20
371.9646
 40
0.6500
 50
89.6000
 51
269.6000
  0
ARC
  8
14_0E
  6
CONTINUOUS
 62
4
 10
374.1835
 20
372.8079
 40
1.5000
 50
269.6000
 51
359.6000
  0
ARC
  8
0_00
  6
CONTINUOUS
 62
4
 10
215.2316
 20
399.3007
 40
1.0000
 50
180.4000
 51
270.4000
  0
ARC
  8
0_00
  6
CONTINUOUS
 62
4
 10
215.2553
 20
395.9008
 40
1.0000
 50
90.4000
 51
180.4000
  0
ARC
  8
0_00
  6
CONTINUOUS
 62
4
 10
216.5434
 20
397.6098
 40
0.7000
 50
270.4000
 51
450.4000
  0
ARC
  8
0_00
  6
CONTINUOUS
 62
4
 10
375.1684
 20
399.3007
 40
1.0000
 50
269.6000
 51
359.6000
  0
ARC
  8
0_00
  6
CONTINUOUS
 62
4
 10
375.1447
 20
395.9008
 40
1.0000
 50
359.6000
 51
449.6000
  0
ARC
  8
0_00
  6
CONTINUOUS
 62
4
 10
373.8566
 20
397.6098
 40
0.7000
 50
89.6000
 51
269.6000
  0
ARC
  8
12_0C
  6
CONTINUOUS
 62
2
 10
310.9998
 20
420.1366
 40
1.3000
 50
180.0000
 51
253.3778
  0
ARC
  8
12_0C
  6
CONTINUOUS
 62
2
 10
313.1998
 20
427.5065
 40
9.0000
 50
253.3790
 51
286.6667
  0
ARC
  8
12_0C
  6
CONTINUOUS
 62
2
 10
315.3998
 20
420.1366
 40
1.3000
 50
286.6222
 51
360.0000
  0
ARC
  8
12_0C
  6
CONTINUOUS
 62
2
 10
274.9998
 20
420.1366
 40
1.3000
 50
180.0000
 51
253.3778
  0
ARC
  8
12_0C
  6
CONTINUOUS
 62
2
 10
277.1998
 20
427.5065
 40
9.0000
 50
253.3790
 51
286.6667
  0
ARC
  8
12_0C
  6
CONTINUOUS
 62
2
 10
279.3998
 20
420.1366
 40
1.3000
 50
286.6222
 51
360.0000
  0
ARC
  8
0_00
  6
CONTINUOUS
 62
4
 10
1053.9841
 20
291.5623
 40
1.7000
 50
206.1790
 51
243.8210
  0
ARC
  8
0_00
  6
CONTINUOUS
 62
4
 10
1053.9841
 20
291.5623
 40
3.2500
 50
163.3985
 51
212.3582
  0
ARC
  8
0_00
  6
CONTINUOUS
 62
4
 10
1050.9853
 20
289.6623
 40
0.3000
 50
270.0000
 51
392.3582
  0
ARC
  8
0_00
  6
CONTINUOUS
 62
4
 10
1052.3070
 20
292.0623
 40
1.5000
 50
90.0000
 51
163.3985
  0
ARC
  8
0_00
  6
CONTINUOUS
 62
4
 10
1053.9841
 20
291.5623
 40
1.7000
 50
131.2509
 51
153.8210
  0
ARC
  8
0_00
  6
CONTINUOUS
 62
4
 10
1053.9841
 20
291.5623
 40
1.7000
 50
296.1790
 51
333.8210
  0
ARC
  8
0_00
  6
CONTINUOUS
 62
4
 10
1053.9841
 20
291.5623
 40
3.2500
 50
327.6418
 51
376.6016
  0
ARC
  8
0_00
  6
CONTINUOUS
 62
4
 10
1055.6612
 20
292.0623
 40
1.5000
 50
16.6015
 51
90.0000
  0
ARC
  8
0_00
  6
CONTINUOUS
 62
4
 10
1053.9841
 20
291.5623
 40
1.7000
 50
26.1790
 51
48.7491
  0
ARC
  8
0_00
  6
CONTINUOUS
 62
4
 10
1052.5914
 20
293.1503
 40
0.4121
 50
311.2509
 51
450.0000
  0
ARC
  8
0_00
  6
CONTINUOUS
 62
4
 10
1055.3767
 20
293.1503
 40
0.4121
 50
90.0000
 51
228.7491
  0
ARC
  8
0_00
  6
CONTINUOUS
 62
4
 10
1058.4842
 20
294.5623
 40
11.5000
 50
180.0000
 51
208.3594
  0
ARC
  8
0_00
  6
CONTINUOUS
 62
4
 10
1049.6841
 20
289.8123
 40
1.5000
 50
208.3594
 51
270.0000
  0
ARC
  8
0_00
  6
CONTINUOUS
 62
4
 10
1058.4842
 20
297.5623
 40
11.5000
 50
151.6406
 51
180.0000
  0
ARC
  8
0_00
  6
CONTINUOUS
 62
4
 10
1058.4842
 20
294.5623
 40
10.4000
 50
180.0000
 51
209.0222
  0
ARC
  8
0_00
  6
CONTINUOUS
 62
4
 10
1049.6524
 20
289.6623
 40
0.3000
 50
209.0222
 51
270.0000
  0
ARC
  8
0_00
  6
CONTINUOUS
 62
4
 10
1058.4842
 20
297.5623
 40
10.4000
 50
150.9778
 51
180.0000
  0
ARC
  8
0_00
  6
CONTINUOUS
 62
4
 10
1049.4841
 20
294.5623
 40
11.5000
 50
331.6407
 51
360.0000
  0
ARC
  8
0_00
  6
CONTINUOUS
 62
4
 10
1049.4841
 20
297.5623
 40
11.5000
 50
0.0000
 51
28.3593
  0
ARC
  8
0_00
  6
CONTINUOUS
 62
4
 10
1049.4841
 20
294.5623
 40
10.4000
 50
330.9778
 51
360.0000
  0
ARC
  8
0_00
  6
CONTINUOUS
 62
4
 10
1049.4841
 20
297.5623
 40
10.4000
 50
0.0000
 51
29.0222
  0
ARC
  8
0_00
  6
CONTINUOUS
 62
4
 10
1056.9828
 20
289.6623
 40
0.3000
 50
147.6418
 51
270.0000
  0
ARC
  8
0_00
  6
CONTINUOUS
 62
4
 10
1058.2840
 20
289.8123
 40
1.5000
 50
270.0000
 51
331.6407
  0
ARC
  8
0_00
  6
CONTINUOUS
 62
4
 10
1058.3158
 20
289.6623
 40
0.3000
 50
270.0000
 51
330.9778
  0
ARC
  8
0_00
  6
CONTINUOUS
 62
4
 10
1053.9841
 20
300.5623
 40
1.7000
 50
116.1790
 51
153.8210
  0
ARC
  8
0_00
  6
CONTINUOUS
 62
4
 10
1053.9841
 20
300.5623
 40
3.2500
 50
147.6418
 51
196.6015
  0
ARC
  8
0_00
  6
CONTINUOUS
 62
4
 10
1050.9853
 20
302.4623
 40
0.3000
 50
327.6418
 51
450.0000
  0
ARC
  8
0_00
  6
CONTINUOUS
 62
4
 10
1052.3070
 20
300.0623
 40
1.5000
 50
196.6015
 51
270.0000
  0
ARC
  8
0_00
  6
CONTINUOUS
 62
4
 10
1053.9841
 20
300.5623
 40
1.7000
 50
206.1790
 51
228.7491
  0
ARC
  8
0_00
  6
CONTINUOUS
 62
4
 10
1053.9841
 20
300.5623
 40
1.7000
 50
26.1790
 51
63.8210
  0
ARC
  8
0_00
  6
CONTINUOUS
 62
4
 10
1053.9841
 20
300.5623
 40
3.2500
 50
343.3984
 51
392.3582
  0
ARC
  8
0_00
  6
CONTINUOUS
 62
4
 10
1055.6612
 20
300.0623
 40
1.5000
 50
270.0000
 51
343.3984
  0
ARC
  8
0_00
  6
CONTINUOUS
 62
4
 10
1053.9841
 20
300.5623
 40
1.7000
 50
311.2509
 51
333.8210
  0
ARC
  8
0_00
  6
CONTINUOUS
 62
4
 10
1052.5914
 20
298.9744
 40
0.4121
 50
270.0000
 51
408.7491
  0
ARC
  8
0_00
  6
CONTINUOUS
 62
4
 10
1055.3767
 20
298.9744
 40
0.4121
 50
131.2509
 51
270.0000
  0
ARC
  8
0_00
  6
CONTINUOUS
 62
4
 10
1049.6841
 20
302.3123
 40
1.5000
 50
90.0000
 51
151.6406
  0
ARC
  8
0_00
  6
CONTINUOUS
 62
4
 10
1049.6524
 20
302.4623
 40
0.3000
 50
90.0000
 51
150.9778
  0
ARC
  8
0_00
  6
CONTINUOUS
 62
4
 10
1056.9828
 20
302.4623
 40
0.3000
 50
90.0000
 51
212.3582
  0
ARC
  8
0_00
  6
CONTINUOUS
 62
4
 10
1058.2840
 20
302.3123
 40
1.5000
 50
28.3593
 51
90.0000
  0
ARC
  8
0_00
  6
CONTINUOUS
 62
4
 10
1058.3158
 20
302.4623
 40
0.3000
 50
29.0222
 51
90.0000
  0
ARC
  8
0_00
  6
CONTINUOUS
 62
4
 10
245.2000
 20
605.9733
 40
0.5000
 50
90.0000
 51
180.0000
  0
ARC
  8
0_00
  6
CONTINUOUS
 62
4
 10
262.2000
 20
605.9733
 40
0.5000
 50
0.0000
 51
90.0000
  0
ARC
  8
0_00
  6
CONTINUOUS
 62
4
 10
244.7000
 20
606.4732
 40
1.0000
 50
90.0000
 51
180.0000
  0
ARC
  8
0_00
  6
CONTINUOUS
 62
4
 10
267.7000
 20
606.4732
 40
1.0000
 50
0.0000
 51
90.0000
  0
ARC
  8
0_00
  6
CONTINUOUS
 62
4
 10
245.2000
 20
583.9732
 40
0.5000
 50
180.0000
 51
270.0000
  0
ARC
  8
0_00
  6
CONTINUOUS
 62
4
 10
262.2000
 20
583.9732
 40
0.5000
 50
270.0000
 51
360.0000
  0
ARC
  8
0_00
  6
CONTINUOUS
 62
4
 10
244.7000
 20
583.4733
 40
1.0000
 50
180.0000
 51
270.0000
  0
ARC
  8
0_00
  6
CONTINUOUS
 62
4
 10
268.2000
 20
604.9732
 40
0.5000
 50
270.0000
 51
360.0000
  0
ARC
  8
0_00
  6
CONTINUOUS
 62
4
 10
267.7000
 20
604.9732
 40
0.5000
 50
90.0000
 51
270.0000
  0
ARC
  8
0_00
  6
CONTINUOUS
 62
4
 10
267.7000
 20
583.4733
 40
1.0000
 50
270.0000
 51
360.0000
  0
ARC
  8
0_00
  6
CONTINUOUS
 62
4
 10
268.2000
 20
584.9733
 40
0.5000
 50
0.0000
 51
90.0000
  0
ARC
  8
0_00
  6
CONTINUOUS
 62
4
 10
267.7000
 20
584.9733
 40
0.5000
 50
90.0000
 51
270.0000
  0
ARC
  8
2_02
  6
CONTINUOUS
 62
2
 10
257.7936
 20
594.9733
 40
10.4063
 50
337.3871
 51
382.6129
  0
ARC
  8
0_00
  6
CONTINUOUS
 62
4
 10
245.2000
 20
521.6399
 40
0.5000
 50
90.0000
 51
180.0000
  0
ARC
  8
0_00
  6
CONTINUOUS
 62
4
 10
262.2000
 20
521.6399
 40
0.5000
 50
0.0000
 51
90.0000
  0
ARC
  8
0_00
  6
CONTINUOUS
 62
4
 10
244.7000
 20
522.1399
 40
1.0000
 50
90.0000
 51
180.0000
  0
ARC
  8
0_00
  6
CONTINUOUS
 62
4
 10
267.7000
 20
522.1399
 40
1.0000
 50
0.0000
 51
90.0000
  0
ARC
  8
0_00
  6
CONTINUOUS
 62
4
 10
245.2000
 20
499.6399
 40
0.5000
 50
180.0000
 51
270.0000
  0
ARC
  8
0_00
  6
CONTINUOUS
 62
4
 10
262.2000
 20
499.6399
 40
0.5000
 50
270.0000
 51
360.0000
  0
ARC
  8
0_00
  6
CONTINUOUS
 62
4
 10
244.7000
 20
499.1399
 40
1.0000
 50
180.0000
 51
270.0000
  0
ARC
  8
0_00
  6
CONTINUOUS
 62
4
 10
268.2000
 20
520.6399
 40
0.5000
 50
270.0000
 51
360.0000
  0
ARC
  8
0_00
  6
CONTINUOUS
 62
4
 10
267.7000
 20
520.6399
 40
0.5000
 50
90.0000
 51
270.0000
  0
ARC
  8
0_00
  6
CONTINUOUS
 62
4
 10
267.7000
 20
499.1399
 40
1.0000
 50
270.0000
 51
360.0000
  0
ARC
  8
0_00
  6
CONTINUOUS
 62
4
 10
268.2000
 20
500.6399
 40
0.5000
 50
0.0000
 51
90.0000
  0
ARC
  8
0_00
  6
CONTINUOUS
 62
4
 10
267.7000
 20
500.6399
 40
0.5000
 50
90.0000
 51
270.0000
  0
ARC
  8
2_02
  6
CONTINUOUS
 62
2
 10
257.7936
 20
510.6399
 40
10.4063
 50
337.3871
 51
382.6129
  0
ARC
  8
12_0C
  6
CONTINUOUS
 62
2
 10
1053.9841
 20
275.4229
 40
5.1605
 50
219.1846
 51
320.8154
  0
TEXT
  8
0_00
 62
2
 10
200.2000
 20
783.6128
 40
12.00
 41
1.00
 50
0.0000
  1
屋外側
  0
TEXT
  8
0_00
 62
2
 10
361.4000
 20
783.6128
 40
12.00
 41
1.00
 50
0.0000
  1
建物側
  0
TEXT
  8
15_0F
 62
7
 10
118.3665
 20
381.1532
 40
6.75
 41
0.75
 50
90.0000
  1
15
  0
TEXT
  8
15_0F
 62
7
 10
119.8664
 20
516.3060
 40
7.50
 41
1.00
 50
90.0000
  1
Ｈ（細横格子手すり高さ寸法）
  0
TEXT
  8
15_0F
 62
7
 10
769.3076
 20
751.1565
 40
7.50
 41
1.00
 50
0.0000
  1
Ａ
  0
TEXT
  8
15_0F
 62
7
 10
968.9373
 20
656.9344
 40
7.50
 41
1.00
 50
0.0000
  1
Ｂ
  0
TEXT
  8
15_0F
 62
7
 10
769.3076
 20
671.6605
 40
7.50
 41
1.00
 50
0.0000
  1
Ａ
  0
TEXT
  8
15_0F
 62
7
 10
342.1315
 20
741.2377
 40
7.50
 41
1.00
 50
0.0000
  1
Ｋ型笠木カバー
  0
TEXT
  8
15_0F
 62
7
 10
189.3511
 20
444.0630
 40
7.50
 41
1.00
 50
0.0000
  1
トップレールベース
  0
TEXT
  8
15_0F
 62
7
 10
824.1611
 20
70.2000
 40
7.50
 41
1.00
 50
0.0000
  1
１
  0
TEXT
  8
15_0F
 62
7
 10
852.6611
 20
70.2000
 40
7.50
 41
1.00
 50
0.0000
  1
３
  0
TEXT
  8
15_0F
 62
7
 10
704.3110
 20
74.7000
 40
7.50
 41
1.00
 50
0.0000
  1
納まり図
  0
TEXT
  8
15_0F
 62
7
 10
511.7110
 20
41.7000
 40
7.50
 41
1.00
 50
0.0000
  1
木造
  0
TEXT
  8
15_0F
 62
7
 10
511.7110
 20
71.7000
 40
7.50
 41
1.00
 50
0.0000
  1
低層
  0
TEXT
  8
15_0F
 62
7
 10
576.0610
 20
71.7000
 40
7.50
 41
1.00
 50
0.0000
  1
手すり付笠木
  0
TEXT
  8
15_0F
 62
7
 10
563.8610
 20
41.7000
 40
7.50
 41
1.00
 50
0.0000
  1
ＫＡＭ、ＤＡＭ型
  0
TEXT
  8
15_0F
 62
7
 10
639.5110
 20
44.7000
 40
7.50
 41
1.00
 50
0.0000
  1
細横格子手すり［直線部］（Ｋ柱）納まり図
  0
TEXT
  8
15_0F
 62
7
 10
201.0905
 20
100.2001
 40
7.50
 41
1.00
 50
0.0000
  1
1）Ｈ、Ｌ、ＬＣは発注寸法とする。
  0
TEXT
  8
15_0F
 62
7
 10
796.4441
 20
463.0000
 40
7.50
 41
1.00
 50
0.0000
  1
１７５≦Ｌ（柱スパン寸法）≦１３６５
  0
TEXT
  8
15_0F
 62
7
 10
699.9852
 20
789.6496
 40
7.50
 41
1.00
 50
0.0000
  1
Ｌ
  0
TEXT
  8
15_0F
 62
7
 10
826.0361
 20
788.9546
 40
7.50
 41
1.00
 50
0.0000
  1
１７５≦Ｌ≦１３６５
  0
TEXT
  8
15_0F
 62
7
 10
1009.2424
 20
789.6496
 40
7.50
 41
1.00
 50
0.0000
  1
Ｌ
  0
TEXT
  8
15_0F
 62
7
 10
182.3075
 20
704.4879
 40
7.50
 41
1.00
 50
0.0000
  1
トップレール支持金具
  0
TEXT
  8
15_0F
 62
7
 10
503.6279
 20
738.8864
 40
7.50
 41
1.00
 50
0.0000
  1
Ｄ型笠木カバー
  0
TEXT
  8
15_0F
 62
7
 10
274.0307
 20
799.7189
 40
7.50
 41
1.00
 50
0.0000
  1
［ＫＡＭ型］
  0
TEXT
  8
15_0F
 62
7
 10
433.6981
 20
799.7189
 40
7.50
 41
1.00
 50
0.0000
  1
［DＡＭ型］
  0
TEXT
  8
15_0F
 62
7
 10
739.6055
 20
656.9344
 40
7.50
 41
1.00
 50
0.0000
  1
Ｂ
  0
TEXT
  8
0_00
 62
7
 10
391.2380
 20
425.8793
 40
7.50
 41
1.00
 50
0.0000
  1
ブラケット
  0
TEXT
  8
15_0F
 62
7
 10
200.5372
 20
84.4527
 40
7.50
 41
1.00
 50
0.0000
  1
　　（躯体寸法発注の場合、Ｌは標準割付寸法、ＬＣは標準寸法とする。）
  0
TEXT
  8
15_0F
 62
7
 10
200.5036
 20
68.8701
 40
7.50
 41
1.00
 50
0.0000
  1
２）［　］内寸法は標準寸法とする。
  0
TEXT
  8
15_0F
 62
7
 10
116.4955
 20
301.1505
 40
7.50
 41
1.00
 50
0.0000
  1
下穴コーキング処理
  0
TEXT
  8
15_0F
 62
7
 10
126.7727
 20
341.1882
 40
7.50
 41
1.00
 50
0.0000
  1
タッピンねじ・トラス
  0
TEXT
  8
15_0F
 62
7
 10
128.2661
 20
328.5620
 40
7.50
 41
1.00
 50
0.0000
  1
φ５×５０（１種）
  0
TEXT
  8
13_0D
 62
7
 10
184.8000
 20
279.9192
 40
6.75
 41
0.75
 50
0.0000
  1
10
  0
TEXT
  8
13_0D
 62
7
 10
220.3500
 20
267.9193
 40
6.75
 41
0.75
 50
0.0000
  1
n
  0
TEXT
  8
13_0D
 62
7
 10
241.2000
 20
279.9192
 40
7.50
 41
1.00
 50
0.0000
  1
躯体寸法（推奨寸法：Ａ－３０）
  0
TEXT
  8
13_0D
 62
7
 10
362.8500
 20
267.9193
 40
6.75
 41
0.75
 50
0.0000
  1
n
  0
TEXT
  8
13_0D
 62
7
 10
391.2000
 20
279.9192
 40
6.75
 41
0.75
 50
0.0000
  1
10
  0
TEXT
  8
13_0D
 62
7
 10
241.2000
 20
267.9193
 40
7.50
 41
1.00
 50
0.0000
  1
　　　　（最大寸法：Ａ－２０）
  0
TEXT
  8
13_0D
 62
7
 10
219.6000
 20
239.9193
 40
7.50
 41
1.00
 50
0.0000
  1
Ａ（笠木幅）＝１５０、１６５、１８０、　　
  0
TEXT
  8
13_0D
 62
7
 10
230.4000
 20
227.9193
 40
6.75
 41
0.75
 50
0.0000
  1
           １９５、２１０
  0
TEXT
  8
15_0F
 62
7
 10
113.0021
 20
313.7767
 40
7.50
 41
1.00
 50
0.0000
  1
下穴（φ３）現場加工
  0
TEXT
  8
15_0F
 62
7
 10
176.2499
 20
182.3733
 40
6.00
 41
1.00
 50
0.0000
  1
Ｈ
  0
TEXT
  8
15_0F
 62
7
 10
157.0499
 20
162.3732
 40
6.00
 41
1.00
 50
0.0000
  1
ｍ（格子本数）
  0
TEXT
  8
15_0F
 62
7
 10
150.6499
 20
142.3733
 40
6.00
 41
1.00
 50
0.0000
  1
Ｐｈ（格子ピッチ）
  0
TEXT
  8
15_0F
 62
7
 10
229.8499
 20
182.3733
 40
6.00
 41
1.00
 50
0.0000
  1
１５０
  0
TEXT
  8
15_0F
 62
7
 10
269.8499
 20
182.3733
 40
6.00
 41
1.00
 50
0.0000
  1
２００
  0
TEXT
  8
15_0F
 62
7
 10
309.8499
 20
182.3733
 40
6.00
 41
1.00
 50
0.0000
  1
２５０
  0
TEXT
  8
15_0F
 62
7
 10
349.8499
 20
182.3733
 40
6.00
 41
1.00
 50
0.0000
  1
３００
  0
TEXT
  8
15_0F
 62
7
 10
389.8499
 20
182.3733
 40
6.00
 41
1.00
 50
0.0000
  1
３５０
  0
TEXT
  8
15_0F
 62
7
 10
429.8499
 20
182.3733
 40
6.00
 41
1.00
 50
0.0000
  1
４００
  0
TEXT
  8
15_0F
 62
7
 10
469.8499
 20
182.3733
 40
6.00
 41
1.00
 50
0.0000
  1
４５０
  0
TEXT
  8
15_0F
 62
7
 10
276.2499
 20
162.3732
 40
6.00
 41
1.00
 50
0.0000
  1
１
  0
TEXT
  8
15_0F
 62
7
 10
376.2499
 20
162.3732
 40
6.00
 41
1.00
 50
0.0000
  1
２
  0
TEXT
  8
15_0F
 62
7
 10
456.2499
 20
162.3732
 40
5.40
 41
0.75
 50
0.0000
  1
3
  0
TEXT
  8
15_0F
 62
7
 10
147.5078
 20
201.0076
 40
6.00
 41
1.00
 50
0.0000
  1
寸法表
  0
TEXT
  8
15_0F
 62
7
 10
226.6499
 20
142.3733
 40
6.00
 41
1.00
 50
0.0000
  1
（５７）
  0
TEXT
  8
15_0F
 62
7
 10
266.6499
 20
142.3733
 40
6.00
 41
1.00
 50
0.0000
  1
（８２）
  0
TEXT
  8
15_0F
 62
7
 10
303.4499
 20
142.3733
 40
5.40
 41
0.75
 50
0.0000
  1
(107)
  0
TEXT
  8
15_0F
 62
7
 10
346.6499
 20
142.3733
 40
6.00
 41
1.00
 50
0.0000
  1
（８８）
  0
TEXT
  8
15_0F
 62
7
 10
383.4499
 20
142.3733
 40
6.00
 41
1.00
 50
0.0000
  1
（１０５）
  0
TEXT
  8
15_0F
 62
7
 10
426.6499
 20
142.3733
 40
6.00
 41
1.00
 50
0.0000
  1
（９１）
  0
TEXT
  8
15_0F
 62
7
 10
463.4499
 20
142.3733
 40
6.00
 41
1.00
 50
0.0000
  1
（１０４）
  0
TEXT
  8
15_0F
 62
7
 10
184.0593
 20
550.0712
 40
7.50
 41
1.00
 50
0.0000
  1
細横格子支持金具
  0
TEXT
  8
0_00
 62
7
 10
70.2905
 20
40.2001
 40
7.50
 41
1.00
 50
0.0000
  1
適用製品
  0
TEXT
  8
0_00
 62
7
 10
130.2905
 20
40.2001
 40
7.50
 41
1.00
 50
0.0000
  1
適用日付
  0
TEXT
  8
0_00
 62
7
 10
178.5905
 20
100.2001
 40
7.50
 41
1.00
 50
0.0000
  1
記事
  0
TEXT
  8
0_00
 62
7
 10
472.5611
 20
85.2001
 40
7.50
 41
1.00
 50
0.0000
  1
階層仕様
  0
TEXT
  8
0_00
 62
7
 10
472.5611
 20
55.2000
 40
7.50
 41
1.00
 50
0.0000
  1
適用躯体
  0
TEXT
  8
0_00
 62
7
 10
630.0610
 20
85.2001
 40
7.50
 41
1.00
 50
0.0000
  1
名　称
  0
TEXT
  8
0_00
 62
7
 10
630.0610
 20
55.2000
 40
7.50
 41
1.00
 50
0.0000
  1
図　名
  0
TEXT
  8
0_00
 62
7
 10
814.9368
 20
100.2458
 40
7.50
 41
1.00
 50
0.0000
  1
Ｎｏ．
  0
TEXT
  8
0_00
 62
7
 10
1123.5610
 20
100.2001
 40
7.50
 41
1.00
 50
0.0000
  1
適　　　　　　　　用
  0
TEXT
  8
0_00
 62
7
 10
1078.4111
 20
100.2001
 40
7.50
 41
1.00
 50
0.0000
  1
個数
  0
TEXT
  8
0_00
 62
7
 10
1023.2110
 20
100.2001
 40
7.50
 41
1.00
 50
0.0000
  1
材　　質
  0
TEXT
  8
0_00
 62
7
 10
926.1610
 20
100.2001
 40
7.50
 41
1.00
 50
0.0000
  1
部　　　品　　　名
  0
TEXT
  8
0_00
 62
7
 10
895.9360
 20
100.2001
 40
7.50
 41
1.00
 50
0.0000
  1
品番
  0
TEXT
  8
0_00
 62
7
 10
850.8611
 20
100.2001
 40
7.50
 41
1.00
 50
0.0000
  1
図　　番
  0
TEXT
  8
0_00
 62
7
 10
816.6610
 20
85.2001
 40
7.50
 41
1.00
 50
0.0000
  1
尺度
  0
TEXT
  8
0_00
 62
7
 10
816.6610
 20
55.2000
 40
7.50
 41
1.00
 50
0.0000
  1
日付
  0
TEXT
  8
0_00
 62
7
 10
928.3942
 20
85.2001
 40
7.50
 41
1.00
 50
0.0000
  1
承認
  0
TEXT
  8
0_00
 62
7
 10
970.5611
 20
85.2001
 40
7.50
 41
1.00
 50
0.0000
  1
検図
  0
TEXT
  8
0_00
 62
7
 10
1006.8610
 20
85.2001
 40
7.50
 41
1.00
 50
0.0000
  1
設計
  0
TEXT
  8
0_00
 62
7
 10
1044.2110
 20
85.2001
 40
7.50
 41
1.00
 50
0.0000
  1
製図
  0
TEXT
  8
0_00
 62
7
 10
1074.5110
 20
55.2000
 40
7.50
 41
1.00
 50
0.0000
  1
図番
  0
TEXT
  8
0_00
 62
2
 10
1103.9219
 20
74.2350
 40
12.00
 41
1.00
 50
0.0000
  1
文化シヤッター株式会社
  0
TEXT
  8
0_00
 62
7
 10
200.7905
 20
862.9501
 40
7.50
 41
1.00
 50
180.0000
  1
図番
  0
TEXT
  8
0_00
 62
7
 10
799.0510
 20
854.0169
 40
6.00
 41
1.00
 50
0.0000
  1
ＮＯ
  0
TEXT
  8
0_00
 62
7
 10
825.2111
 20
853.9501
 40
7.50
 41
1.00
 50
0.0000
  1
個　数
  0
TEXT
  8
0_00
 62
7
 10
870.3611
 20
853.9501
 40
7.50
 41
1.00
 50
0.0000
  1
日　　付
  0
TEXT
  8
0_00
 62
7
 10
984.2111
 20
853.9501
 40
7.50
 41
1.00
 50
0.0000
  1
訂　　　正　　　記　　　事
  0
TEXT
  8
0_00
 62
7
 10
838.4111
 20
70.2000
 40
6.75
 41
0.75
 50
0.0000
  1
:
  0
TEXT
  8
0_00
 62
7
 10
1137.8712
 20
26.7000
 40
6.00
 41
1.00
 50
0.0000
  1
ＪＩＳ　Ａ－３
  0
TEXT
  8
0_00
 62
7
 10
1179.4986
 20
26.6983
 40
6.00
 41
1.00
 50
0.0000
  1
（２９７×４２０）
  0
TEXT
  8
0_00
 62
7
 10
1153.1111
 20
853.9501
 40
7.50
 41
1.00
 50
0.0000
  1
担　当
  0
TEXT
  8
0_00
 62
7
 10
1189.1111
 20
853.9501
 40
7.50
 41
1.00
 50
0.0000
  1
承　認
  0
TEXT
  8
0_00
 62
7
 10
551.3111
 20
85.2001
 40
7.50
 41
1.00
 50
0.0000
  1
機種名
  0
TEXT
  8
0_00
 62
7
 10
551.3111
 20
55.2000
 40
7.50
 41
1.00
 50
0.0000
  1
型　式
  0
TEXT
  8
0_00
 62
7
 10
288.0000
 20
312.7439
 40
6.75
 41
0.75
 50
0.0000
  1
56
  0
TEXT
  8
15_0F
 62
7
 10
288.0000
 20
769.7957
 40
6.75
 41
0.75
 50
0.0000
  1
60
  0
TEXT
  8
15_0F
 62
7
 10
551.2919
 20
790.7957
 40
7.50
 41
1.00
 50
0.0000
  1
２２０≦ＬＣ［２５０］≦４５５
  0
TEXT
  8
15_0F
 62
7
 10
1100.5919
 20
790.7957
 40
7.50
 41
1.00
 50
0.0000
  1
ＬＣ
  0
TEXT
  8
15_0F
 62
7
 10
1187.6882
 20
713.7687
 40
6.75
 41
0.75
 50
90.0000
  1
H
  0
TEXT
  8
15_0F
 62
7
 10
661.3040
 20
443.0000
 40
6.75
 41
0.75
 50
0.0000
  1
60
  0
TEXT
  8
15_0F
 62
7
 10
537.0000
 20
287.5285
 40
6.75
 41
0.75
 50
90.0000
  1
56
  0
TEXT
  8
15_0F
 62
7
 10
1076.9841
 20
423.0000
 40
6.75
 41
0.75
 50
0.0000
  1
28
  0
TEXT
  8
15_0F
 62
7
 10
1157.0000
 20
288.8623
 40
6.75
 41
0.75
 50
90.0000
  1
43
  0
TEXT
  8
15_0F
 62
7
 10
95.5046
 20
229.3110
 40
7.50
 41
1.00
 50
0.0000
  1
Ａ－Ａ矢視図
  0
TEXT
  8
15_0F
 62
7
 10
1057.3484
 20
522.9957
 40
7.50
 41
1.00
 50
0.0000
  1
外観姿図（１：２０）
  0
TEXT
  8
15_0F
 62
7
 10
563.8947
 20
400.4495
 40
7.50
 41
1.00
 50
0.0000
  1
ブラケット
  0
TEXT
  8
15_0F
 62
7
 10
542.4842
 20
340.7649
 40
7.50
 41
1.00
 50
0.0000
  1
トップレールベース
  0
TEXT
  8
15_0F
 62
7
 10
449.7296
 20
769.7957
 40
6.75
 41
0.75
 50
0.0000
  1
80
  0
TEXT
  8
15_0F
 62
7
 10
545.4400
 20
158.7600
 40
7.50
 41
1.00
 50
0.0000
  1
Ｂ－Ｂ矢視図
  0
TEXT
  8
13_0D
 62
7
 10
139.8665
 20
391.6073
 40
6.75
 41
0.75
 50
90.0000
  1
55
  0
TEXT
  8
13_0D
 62
7
 10
139.8665
 20
461.2732
 40
7.50
 41
1.00
 50
90.0000
  1
Ｐｈ
  0
TEXT
  8
13_0D
 62
7
 10
139.8665
 20
545.6066
 40
7.50
 41
1.00
 50
90.0000
  1
Ｐｈ
  0
TEXT
  8
13_0D
 62
7
 10
139.8665
 20
629.9398
 40
7.50
 41
1.00
 50
90.0000
  1
Ｐｈ
  0
TEXT
  8
13_0D
 62
7
 10
139.8665
 20
695.6066
 40
7.50
 41
1.00
 50
90.0000
  1
４７
  0
TEXT
  8
15_0F
 62
7
 10
331.1097
 20
565.7469
 40
7.50
 41
1.00
 50
0.0000
  1
細横格子手すり付笠木セット
  0
TEXT
  8
13_0D
 62
7
 10
179.8665
 20
620.9733
 40
6.75
 41
0.75
 50
90.0000
  1
25
  0
TEXT
  8
13_0D
 62
7
 10
215.8000
 20
639.9192
 40
6.75
 41
0.75
 50
0.0000
  1
25
  0
TEXT
  8
15_0F
 62
7
 10
197.0333
 20
620.7550
 40
7.50
 41
1.00
 50
0.0000
  1
細横格子
  0
TEXT
  8
13_0D
 62
7
 10
379.8665
 20
699.5668
 40
6.75
 41
0.75
 50
90.0000
  1
37
  0
TEXT
  8
13_0D
 62
7
 10
1046.7841
 20
441.5000
 40
6.75
 41
0.75
 50
0.0000
  1
75
  0
TEXT
  8
13_0D
 62
7
 10
1178.5000
 20
254.8552
 40
6.75
 41
0.75
 50
90.0000
  1
51.5
  0
TEXT
  8
15_0F
 62
7
 10
938.7814
 20
190.1337
 40
7.50
 41
1.00
 50
0.0000
  1
細横格子
  0
TEXT
  8
15_0F
 62
7
 10
955.8168
 20
309.1644
 40
7.50
 41
1.00
 50
0.0000
  1
細横格子支持金具
  0
TEXT
  8
13_0D
 62
7
 10
661.3040
 20
421.5000
 40
6.75
 41
0.75
 50
0.0000
  1
35
  0
POINT
  8
15_0F
 62
5
 10
0.0000
 20
0.0000
  0
POINT
  8
13_0D
 62
6
 10
222.7000
 20
278.4193
  0
POINT
  8
13_0D
 62
6
 10
367.7000
 20
278.4193
  0
POINT
  8
13_0D
 62
6
 10
367.7000
 20
278.4193
  0
POINT
  8
15_0F
 62
2
 10
211.5254
 20
292.5323
  0
POINT
  8
0_00
 62
2
 10
271.7000
 20
594.9733
  0
POINT
  8
0_00
 62
2
 10
271.7000
 20
510.6399
  0
POINT
  8
0_00
 62
2
 10
1016.4841
 20
266.5623
  0
POINT
  8
0_00
 62
2
 10
1091.4841
 20
266.5623
  0
POINT
  8
0_00
 62
2
 10
1053.9841
 20
272.5623
  0
POINT
  8
0_00
 62
2
 10
24.0905
 20
14.9991
  0
POINT
  8
0_00
 62
2
 10
24.0905
 20
14.9991
  0
POINT
  8
0_00
 62
2
 10
84.6905
 20
59.7001
  0
POINT
  8
0_00
 62
2
 10
84.6905
 20
74.7001
  0
POINT
  8
0_00
 62
2
 10
84.6905
 20
89.7001
  0
POINT
  8
0_00
 62
2
 10
84.6905
 20
104.7001
  0
POINT
  8
0_00
 62
2
 10
518.9110
 20
76.2000
  0
POINT
  8
0_00
 62
2
 10
518.9110
 20
46.2000
  0
POINT
  8
0_00
 62
2
 10
718.7110
 20
79.2000
  0
POINT
  8
0_00
 62
2
 10
718.7110
 20
49.2000
  0
POINT
  8
0_00
 62
2
 10
1097.7610
 20
52.2000
  0
POINT
  8
0_00
 62
2
 10
1014.0610
 20
59.7001
  0
POINT
  8
0_00
 62
2
 10
144.6905
 20
59.7001
  0
POINT
  8
0_00
 62
2
 10
144.6905
 20
74.7001
  0
POINT
  8
0_00
 62
2
 10
144.6905
 20
89.7001
  0
POINT
  8
0_00
 62
2
 10
144.6905
 20
104.7001
  0
POINT
  8
0_00
 62
2
 10
856.2610
 20
74.7000
  0
POINT
  8
0_00
 62
2
 10
827.7610
 20
74.7000
  0
POINT
  8
0_00
 62
2
 10
204.6905
 20
104.7001
  0
POINT
  8
0_00
 62
2
 10
204.6905
 20
89.7001
  0
POINT
  8
0_00
 62
2
 10
204.6905
 20
74.7001
  0
POINT
  8
0_00
 62
2
 10
204.6905
 20
59.7001
  0
POINT
  8
0_00
 62
2
 10
204.6905
 20
44.7001
  0
POINT
  8
0_00
 62
2
 10
1051.4110
 20
59.7001
  0
POINT
  8
0_00
 62
2
 10
84.6905
 20
44.7001
  0
POINT
  8
0_00
 62
2
 10
144.6905
 20
44.7001
  0
POINT
  8
0_00
 62
2
 10
174.6905
 20
858.4501
  0
POINT
  8
0_00
 62
2
 10
862.6360
 20
49.2000
  0
POINT
  8
0_00
 62
2
 10
597.6610
 20
76.2000
  0
POINT
  8
0_00
 62
2
 10
597.6610
 20
46.2000
  0
POINT
  8
0_00
 62
2
 10
461.1492
 20
702.8655
  0
POINT
  8
0_00
 62
2
 10
452.1492
 20
702.8655
  0
POINT
  8
0_00
 62
5
 10
295.2000
 20
411.3066
  0
POINT
  8
0_00
 62
5
 10
1053.9841
 20
296.0623
  0
POINT
  8
0_00
 62
5
 10
265.7000
 20
594.9733
  0
POINT
  8
0_00
 62
5
 10
265.7000
 20
510.6399
  0
ENDSEC
  0
EOF
