999
  
  0
SECTION
  2
HEADER
  9
$EXTMIN
 10
0
 20
0
  9
$EXTMAX
 10
4200
 20
2960
  9
$LTSCALE
 40
10.00
  9
$PDMODE
 70
33
  9
$PDSIZE
 40
6.00
  0
ENDSEC
  0
SECTION
  2
TABLES
  0
TABLE
  2
LTYPE
 70
9
  0
LTYPE
  2
CONTINUOUS
 70
64
  3
実線
 72
65
 73
0
 40
0.00
  0
LTYPE
  2
DASHED
 70
64
  3
__  __  __  __  __  __  __ 
 72
65
 73
2
 40
1.00
 49
0.50
 49
-0.50
  0
LTYPE
  2
HIDDEN1
 70
64
  3
____    ____    ____    ___
 72
65
 73
2
 40
2.20
 49
1.20
 49
-1.00
  0
LTYPE
  2
HIDDEN2
 70
64
  3
______  ______  ______  ___
 72
65
 73
2
 40
4.50
 49
3.50
 49
-1.00
  0
LTYPE
  2
CENTER1
 70
64
  3
_______ _ _______ _ _______
 72
65
 73
4
 40
20.00
 49
17.00
 49
-1.00
 49
1.00
 49
-1.00
  0
LTYPE
  2
CENTER2
 70
64
  3
___________  __  __________
 72
65
 73
4
 40
40.00
 49
34.00
 49
-2.00
 49
2.00
 49
-2.00
  0
LTYPE
  2
PHANTOM1
 70
64
  3
______ _ _ ______ _ _ _____
 72
65
 73
6
 40
20.00
 49
15.00
 49
-1.00
 49
1.00
 49
-1.00
 49
1.00
 49
-1.00
  0
LTYPE
  2
PHANTOM2
 70
64
  3
__________  _  _  _________
 72
65
 73
6
 40
40.00
 49
30.00
 49
-2.00
 49
2.00
 49
-2.00
 49
2.00
 49
-2.00
  0
LTYPE
  2
DOT
 70
64
  3
 .  .  .  .  .  .  .  .  . 
 72
65
 73
2
 40
1.00
 49
0.00
 49
-1.00
  0
ENDTAB
  0
TABLE
  2
STYLE
 70
1
  0
STYLE
  2
STANDARD
 70
64
 40
0.0
 41
1.0
 42
0.0
 50
0.0
 71
0
  3
ROMANS
  4
BIGFONT
  0
ENDTAB
  0
TABLE
  2
LAYER
 70
10
  0
LAYER
  2
0_00
 70
64
 62
7
  6
CONTINUOUS
  0
LAYER
  2
2_02
 70
64
 62
7
  6
CONTINUOUS
  0
LAYER
  2
3_03
 70
64
 62
7
  6
CONTINUOUS
  0
LAYER
  2
12_0C
 70
64
 62
7
  6
CONTINUOUS
  0
LAYER
  2
13_0D
 70
64
 62
7
  6
CONTINUOUS
  0
LAYER
  2
14_0E
 70
64
 62
7
  6
CONTINUOUS
  0
LAYER
  2
15_0F
 70
64
 62
7
  6
CONTINUOUS
  0
LAYER
  2
16_10
 70
64
 62
7
  6
CONTINUOUS
  0
LAYER
  2
32_20
 70
64
 62
7
  6
CONTINUOUS
  0
LAYER
  2
144_90
 70
64
 62
7
  6
CONTINUOUS
  0
ENDTAB
  0
ENDSEC
  0
SECTION
  2
ENTITIES
  0
LINE
  8
0_00
  6
CONTINUOUS
 62
7
 10
2122.0026
 20
374.0002
 11
2122.0026
 21
2838.9999
  0
LINE
  8
0_00
  6
CENTER1
 62
6
 10
638.0745
 20
1102.4685
 11
2054.6738
 21
1102.4685
  0
LINE
  8
0_00
  6
CENTER1
 62
6
 10
638.0745
 20
1102.4685
 11
638.0745
 21
439.4099
  0
LINE
  8
0_00
  6
CENTER1
 62
6
 10
688.0745
 20
1217.6373
 11
688.0745
 21
1002.8030
  0
LINE
  8
0_00
  6
CENTER1
 62
6
 10
888.0745
 20
1199.2361
 11
888.0745
 21
979.1862
  0
LINE
  8
0_00
  6
CENTER1
 62
6
 10
1788.0745
 20
1212.6847
 11
1788.0745
 21
981.8309
  0
LINE
  8
0_00
  6
CENTER1
 62
6
 10
522.9057
 20
852.4685
 11
761.3567
 21
852.4685
  0
LINE
  8
0_00
  6
CENTER1
 62
6
 10
1242.7820
 20
1862.9597
 11
1242.7820
 21
1678.6079
  0
LINE
  8
0_00
  6
CONTINUOUS
 62
4
 10
1360.7819
 20
1822.2006
 11
1360.7819
 21
1745.6389
  0
LINE
  8
0_00
  6
CONTINUOUS
 62
4
 10
1374.7820
 20
1822.2006
 11
1374.7820
 21
1745.6389
  0
LINE
  8
2_02
  6
CONTINUOUS
 62
4
 10
1258.0319
 20
1845.9883
 11
1243.1002
 21
1845.9883
  0
LINE
  8
2_02
  6
CONTINUOUS
 62
4
 10
1258.2819
 20
1822.1388
 11
1258.2819
 21
1845.7382
  0
LINE
  8
2_02
  6
CONTINUOUS
 62
4
 10
1227.5319
 20
1842.0007
 11
1227.5319
 21
1822.2388
  0
LINE
  8
2_02
  6
CONTINUOUS
 62
4
 10
1227.7819
 20
1821.9887
 11
1258.0319
 21
1821.9887
  0
LINE
  8
0_00
  6
CONTINUOUS
 62
4
 10
1258.2819
 20
1845.6387
 11
2000.1109
 21
1845.6387
  0
LINE
  8
0_00
  6
CONTINUOUS
 62
4
 10
1258.2819
 20
1822.1388
 11
2000.1109
 21
1822.1388
  0
LINE
  8
0_00
  6
CENTER1
 62
6
 10
1367.7818
 20
1862.9597
 11
1367.7818
 21
1702.1109
  0
LINE
  8
0_00
  6
CONTINUOUS
 62
4
 10
1810.7819
 20
1822.2006
 11
1810.7819
 21
1745.6389
  0
LINE
  8
0_00
  6
CONTINUOUS
 62
4
 10
1824.7818
 20
1822.2006
 11
1824.7818
 21
1745.6389
  0
LINE
  8
0_00
  6
CENTER1
 62
6
 10
1817.7818
 20
1862.9597
 11
1817.7818
 21
1702.1109
  0
LINE
  8
0_00
  6
CONTINUOUS
 62
4
 10
1263.1819
 20
2180.2667
 11
2000.1109
 21
2180.2667
  0
LINE
  8
0_00
  6
CONTINUOUS
 62
4
 10
2000.1109
 20
2161.7006
 11
1263.1819
 21
2161.7006
  0
LINE
  8
32_20
  6
CONTINUOUS
 62
4
 10
1233.2766
 20
2161.2886
 11
1227.6461
 21
2161.2886
  0
LINE
  8
32_20
  6
CONTINUOUS
 62
4
 10
1242.7820
 20
2180.6389
 11
1263.1819
 21
2180.6389
  0
LINE
  8
32_20
  6
CONTINUOUS
 62
4
 10
1263.1819
 20
2180.6389
 11
1263.1819
 21
2161.2886
  0
LINE
  8
32_20
  6
CONTINUOUS
 62
4
 10
1263.1819
 20
2161.2886
 11
1252.2872
 21
2161.2886
  0
LINE
  8
32_20
  6
CONTINUOUS
 62
4
 10
1251.2766
 20
2161.2886
 11
1234.2873
 21
2161.2886
  0
LINE
  8
0_00
  6
CENTER1
 62
6
 10
1242.7820
 20
2202.4216
 11
1242.7820
 21
2013.8387
  0
LINE
  8
0_00
  6
CONTINUOUS
 62
4
 10
1360.7819
 20
2161.6624
 11
1360.7819
 21
2080.2667
  0
LINE
  8
0_00
  6
CONTINUOUS
 62
4
 10
1374.7820
 20
2161.6624
 11
1374.7820
 21
2080.2667
  0
LINE
  8
0_00
  6
CONTINUOUS
 62
4
 10
1810.7819
 20
2161.6624
 11
1810.7819
 21
2080.2667
  0
LINE
  8
0_00
  6
CONTINUOUS
 62
4
 10
1824.7818
 20
2161.6624
 11
1824.7818
 21
2080.2667
  0
LINE
  8
0_00
  6
CENTER1
 62
6
 10
1817.7818
 20
2202.4216
 11
1817.7818
 21
2041.5729
  0
LINE
  8
0_00
  6
CENTER1
 62
6
 10
1367.7818
 20
2202.4216
 11
1367.7818
 21
2041.5729
  0
LINE
  8
0_00
  6
CONTINUOUS
 62
4
 10
669.0744
 20
1132.4685
 11
1893.5132
 21
1132.4685
  0
LINE
  8
0_00
  6
CONTINUOUS
 62
4
 10
1893.5132
 20
1072.4684
 11
669.0744
 21
1072.4684
  0
LINE
  8
2_02
  6
CONTINUOUS
 62
4
 10
669.0744
 20
1132.4685
 11
669.0744
 21
1071.9685
  0
LINE
  8
2_02
  6
CONTINUOUS
 62
4
 10
669.0744
 20
1071.9685
 11
668.5744
 21
1071.4685
  0
LINE
  8
2_02
  6
CONTINUOUS
 62
4
 10
608.0746
 20
1071.4685
 11
668.5744
 21
1071.4685
  0
LINE
  8
2_02
  6
CONTINUOUS
 62
4
 10
607.5746
 20
1126.4684
 11
607.5746
 21
1071.9685
  0
LINE
  8
2_02
  6
CONTINUOUS
 62
4
 10
614.0746
 20
1132.9684
 11
668.5744
 21
1132.9684
  0
LINE
  8
0_00
  6
CONTINUOUS
 62
4
 10
724.9745
 20
1015.5685
 11
668.8245
 21
1071.7184
  0
LINE
  8
0_00
  6
CONTINUOUS
 62
4
 10
668.0745
 20
691.3612
 11
668.0745
 21
1071.4685
  0
LINE
  8
0_00
  6
CONTINUOUS
 62
4
 10
608.0746
 20
1071.4685
 11
608.0746
 21
689.3272
  0
LINE
  8
0_00
  6
CENTER1
 62
6
 10
1242.7820
 20
2607.0718
 11
1242.7820
 21
2418.4886
  0
LINE
  8
0_00
  6
CONTINUOUS
 62
4
 10
1360.7819
 20
2561.1078
 11
1360.7819
 21
2485.2888
  0
LINE
  8
0_00
  6
CONTINUOUS
 62
4
 10
1374.7820
 20
2561.1078
 11
1374.7820
 21
2485.2888
  0
LINE
  8
0_00
  6
CONTINUOUS
 62
4
 10
1810.7819
 20
2561.1078
 11
1810.7819
 21
2485.2888
  0
LINE
  8
0_00
  6
CONTINUOUS
 62
4
 10
1824.7818
 20
2561.1078
 11
1824.7818
 21
2485.2888
  0
LINE
  8
0_00
  6
CENTER1
 62
6
 10
1817.7818
 20
2607.0718
 11
1817.7818
 21
2446.2227
  0
LINE
  8
0_00
  6
CENTER1
 62
6
 10
1367.7818
 20
2607.0718
 11
1367.7818
 21
2446.2227
  0
LINE
  8
0_00
  6
CONTINUOUS
 62
4
 10
1258.2819
 20
2585.2887
 11
2000.1109
 21
2585.2887
  0
LINE
  8
0_00
  6
CONTINUOUS
 62
4
 10
1258.2819
 20
2556.2886
 11
1360.2818
 21
2556.2886
  0
LINE
  8
0_00
  6
CONTINUOUS
 62
4
 10
1375.2818
 20
2556.2886
 11
1810.7819
 21
2556.2886
  0
LINE
  8
0_00
  6
CONTINUOUS
 62
4
 10
1362.0319
 20
2561.6330
 11
1373.5320
 21
2561.6330
  0
LINE
  8
0_00
  6
CONTINUOUS
 62
4
 10
1360.2818
 20
2559.8833
 11
1360.2818
 21
2556.2886
  0
LINE
  8
0_00
  6
CONTINUOUS
 62
4
 10
1375.2818
 20
2559.8833
 11
1375.2818
 21
2556.2886
  0
LINE
  8
0_00
  6
CONTINUOUS
 62
4
 10
1258.2819
 20
2565.5386
 11
2000.1109
 21
2565.5386
  0
LINE
  8
0_00
  6
CONTINUOUS
 62
4
 10
1258.2819
 20
2566.3010
 11
2000.1109
 21
2566.3010
  0
LINE
  8
0_00
  6
CONTINUOUS
 62
4
 10
1258.2819
 20
2585.6888
 11
1258.2819
 21
2555.8885
  0
LINE
  8
0_00
  6
CONTINUOUS
 62
4
 10
1242.7820
 20
2585.6888
 11
1258.2819
 21
2585.6888
  0
LINE
  8
0_00
  6
CONTINUOUS
 62
4
 10
1242.7820
 20
2555.8885
 11
1258.2819
 21
2555.8885
  0
LINE
  8
0_00
  6
CONTINUOUS
 62
4
 10
1812.0319
 20
2561.6330
 11
1823.5320
 21
2561.6330
  0
LINE
  8
0_00
  6
CONTINUOUS
 62
4
 10
1810.2818
 20
2559.8833
 11
1810.2818
 21
2556.2886
  0
LINE
  8
0_00
  6
CONTINUOUS
 62
4
 10
1825.2818
 20
2559.8833
 11
1825.2818
 21
2556.2886
  0
LINE
  8
0_00
  6
CONTINUOUS
 62
4
 10
1824.7818
 20
2556.2886
 11
2000.1109
 21
2556.2886
  0
LINE
  8
0_00
  6
CONTINUOUS
 62
4
 10
608.0746
 20
689.3281
 11
608.5109
 21
689.5449
  0
LINE
  8
0_00
  6
CONTINUOUS
 62
4
 10
608.5109
 20
689.5449
 11
608.8155
 21
689.6938
  0
LINE
  8
0_00
  6
CONTINUOUS
 62
4
 10
608.8155
 20
689.6938
 11
609.1219
 21
689.8408
  0
LINE
  8
0_00
  6
CONTINUOUS
 62
4
 10
609.1219
 20
689.8408
 11
609.4304
 21
689.9854
  0
LINE
  8
0_00
  6
CONTINUOUS
 62
4
 10
609.4304
 20
689.9854
 11
609.7411
 21
690.1272
  0
LINE
  8
0_00
  6
CONTINUOUS
 62
4
 10
609.7411
 20
690.1272
 11
610.0548
 21
690.2660
  0
LINE
  8
0_00
  6
CONTINUOUS
 62
4
 10
610.0548
 20
690.2660
 11
610.3713
 21
690.4014
  0
LINE
  8
0_00
  6
CONTINUOUS
 62
4
 10
610.3713
 20
690.4014
 11
610.6911
 21
690.5331
  0
LINE
  8
0_00
  6
CONTINUOUS
 62
4
 10
610.6911
 20
690.5331
 11
611.0146
 21
690.6609
  0
LINE
  8
0_00
  6
CONTINUOUS
 62
4
 10
611.0146
 20
690.6609
 11
611.3420
 21
690.7841
  0
LINE
  8
0_00
  6
CONTINUOUS
 62
4
 10
611.3420
 20
690.7841
 11
611.6737
 21
690.9028
  0
LINE
  8
0_00
  6
CONTINUOUS
 62
4
 10
611.6737
 20
690.9028
 11
612.0097
 21
691.0164
  0
LINE
  8
0_00
  6
CONTINUOUS
 62
4
 10
612.0097
 20
691.0164
 11
612.3507
 21
691.1245
  0
LINE
  8
0_00
  6
CONTINUOUS
 62
4
 10
612.3507
 20
691.1245
 11
612.6966
 21
691.2270
  0
LINE
  8
0_00
  6
CONTINUOUS
 62
4
 10
612.6966
 20
691.2270
 11
613.0481
 21
691.3234
  0
LINE
  8
0_00
  6
CONTINUOUS
 62
4
 10
613.0481
 20
691.3234
 11
613.4052
 21
691.4133
  0
LINE
  8
0_00
  6
CONTINUOUS
 62
4
 10
613.4052
 20
691.4133
 11
613.7684
 21
691.4967
  0
LINE
  8
0_00
  6
CONTINUOUS
 62
4
 10
613.7684
 20
691.4967
 11
614.1378
 21
691.5728
  0
LINE
  8
0_00
  6
CONTINUOUS
 62
4
 10
614.1378
 20
691.5728
 11
614.5139
 21
691.6416
  0
LINE
  8
0_00
  6
CONTINUOUS
 62
4
 10
614.5139
 20
691.6416
 11
614.8969
 21
691.7027
  0
LINE
  8
0_00
  6
CONTINUOUS
 62
4
 10
614.8969
 20
691.7027
 11
615.2871
 21
691.7556
  0
LINE
  8
0_00
  6
CONTINUOUS
 62
4
 10
615.2871
 20
691.7556
 11
615.6848
 21
691.8002
  0
LINE
  8
0_00
  6
CONTINUOUS
 62
4
 10
615.6848
 20
691.8002
 11
616.0903
 21
691.8360
  0
LINE
  8
0_00
  6
CONTINUOUS
 62
4
 10
616.0903
 20
691.8360
 11
616.5040
 21
691.8627
  0
LINE
  8
0_00
  6
CONTINUOUS
 62
4
 10
616.5040
 20
691.8627
 11
616.9260
 21
691.8800
  0
LINE
  8
0_00
  6
CONTINUOUS
 62
4
 10
616.9260
 20
691.8800
 11
617.3568
 21
691.8874
  0
LINE
  8
0_00
  6
CONTINUOUS
 62
4
 10
617.3568
 20
691.8874
 11
617.7964
 21
691.8851
  0
LINE
  8
0_00
  6
CONTINUOUS
 62
4
 10
617.7964
 20
691.8851
 11
618.2446
 21
691.8731
  0
LINE
  8
0_00
  6
CONTINUOUS
 62
4
 10
618.2446
 20
691.8731
 11
618.7008
 21
691.8523
  0
LINE
  8
0_00
  6
CONTINUOUS
 62
4
 10
618.7008
 20
691.8523
 11
619.1644
 21
691.8233
  0
LINE
  8
0_00
  6
CONTINUOUS
 62
4
 10
619.1644
 20
691.8233
 11
619.6351
 21
691.7865
  0
LINE
  8
0_00
  6
CONTINUOUS
 62
4
 10
619.6351
 20
691.7865
 11
620.1122
 21
691.7428
  0
LINE
  8
0_00
  6
CONTINUOUS
 62
4
 10
620.1122
 20
691.7428
 11
620.5953
 21
691.6925
  0
LINE
  8
0_00
  6
CONTINUOUS
 62
4
 10
620.5953
 20
691.6925
 11
621.0840
 21
691.6365
  0
LINE
  8
0_00
  6
CONTINUOUS
 62
4
 10
621.0840
 20
691.6365
 11
621.5775
 21
691.5752
  0
LINE
  8
0_00
  6
CONTINUOUS
 62
4
 10
621.5775
 20
691.5752
 11
622.0755
 21
691.5093
  0
LINE
  8
0_00
  6
CONTINUOUS
 62
4
 10
622.0755
 20
691.5093
 11
622.5774
 21
691.4394
  0
LINE
  8
0_00
  6
CONTINUOUS
 62
4
 10
622.5774
 20
691.4394
 11
623.0830
 21
691.3662
  0
LINE
  8
0_00
  6
CONTINUOUS
 62
4
 10
623.0830
 20
691.3662
 11
623.5913
 21
691.2901
  0
LINE
  8
0_00
  6
CONTINUOUS
 62
4
 10
623.5913
 20
691.2901
 11
624.1021
 21
691.2119
  0
LINE
  8
0_00
  6
CONTINUOUS
 62
4
 10
624.1021
 20
691.2119
 11
624.6149
 21
691.1320
  0
LINE
  8
0_00
  6
CONTINUOUS
 62
4
 10
624.6149
 20
691.1320
 11
625.1291
 21
691.0513
  0
LINE
  8
0_00
  6
CONTINUOUS
 62
4
 10
625.1291
 20
691.0513
 11
625.6442
 21
690.9702
  0
LINE
  8
0_00
  6
CONTINUOUS
 62
4
 10
625.6442
 20
690.9702
 11
626.1598
 21
690.8894
  0
LINE
  8
0_00
  6
CONTINUOUS
 62
4
 10
626.1598
 20
690.8894
 11
626.6751
 21
690.8094
  0
LINE
  8
0_00
  6
CONTINUOUS
 62
4
 10
626.6751
 20
690.8094
 11
627.1901
 21
690.7309
  0
LINE
  8
0_00
  6
CONTINUOUS
 62
4
 10
627.1901
 20
690.7309
 11
627.7038
 21
690.6546
  0
LINE
  8
0_00
  6
CONTINUOUS
 62
4
 10
627.7038
 20
690.6546
 11
628.2159
 21
690.5809
  0
LINE
  8
0_00
  6
CONTINUOUS
 62
4
 10
628.2159
 20
690.5809
 11
628.7259
 21
690.5106
  0
LINE
  8
0_00
  6
CONTINUOUS
 62
4
 10
628.7259
 20
690.5106
 11
629.2333
 21
690.4441
  0
LINE
  8
0_00
  6
CONTINUOUS
 62
4
 10
629.2333
 20
690.4441
 11
629.7376
 21
690.3822
  0
LINE
  8
0_00
  6
CONTINUOUS
 62
4
 10
629.7376
 20
690.3822
 11
630.2384
 21
690.3255
  0
LINE
  8
0_00
  6
CONTINUOUS
 62
4
 10
630.2384
 20
690.3255
 11
630.7348
 21
690.2745
  0
LINE
  8
0_00
  6
CONTINUOUS
 62
4
 10
630.7348
 20
690.2745
 11
631.2268
 21
690.2299
  0
LINE
  8
0_00
  6
CONTINUOUS
 62
4
 10
631.2268
 20
690.2299
 11
631.7135
 21
690.1923
  0
LINE
  8
0_00
  6
CONTINUOUS
 62
4
 10
631.7135
 20
690.1923
 11
632.1945
 21
690.1621
  0
LINE
  8
0_00
  6
CONTINUOUS
 62
4
 10
632.1945
 20
690.1621
 11
632.6697
 21
690.1400
  0
LINE
  8
0_00
  6
CONTINUOUS
 62
4
 10
632.6697
 20
690.1400
 11
633.1387
 21
690.1255
  0
LINE
  8
0_00
  6
CONTINUOUS
 62
4
 10
633.1387
 20
690.1255
 11
633.6020
 21
690.1179
  0
LINE
  8
0_00
  6
CONTINUOUS
 62
4
 10
633.6020
 20
690.1179
 11
634.0596
 21
690.1165
  0
LINE
  8
0_00
  6
CONTINUOUS
 62
4
 10
634.0596
 20
690.1165
 11
634.5120
 21
690.1207
  0
LINE
  8
0_00
  6
CONTINUOUS
 62
4
 10
634.5120
 20
690.1207
 11
634.9591
 21
690.1299
  0
LINE
  8
0_00
  6
CONTINUOUS
 62
4
 10
634.9591
 20
690.1299
 11
635.4012
 21
690.1434
  0
LINE
  8
0_00
  6
CONTINUOUS
 62
4
 10
635.4012
 20
690.1434
 11
635.8384
 21
690.1607
  0
LINE
  8
0_00
  6
CONTINUOUS
 62
4
 10
635.8384
 20
690.1607
 11
636.2709
 21
690.1809
  0
LINE
  8
0_00
  6
CONTINUOUS
 62
4
 10
636.2709
 20
690.1809
 11
636.6991
 21
690.2035
  0
LINE
  8
0_00
  6
CONTINUOUS
 62
4
 10
636.6991
 20
690.2035
 11
637.1230
 21
690.2278
  0
LINE
  8
0_00
  6
CONTINUOUS
 62
4
 10
637.1230
 20
690.2278
 11
637.5428
 21
690.2532
  0
LINE
  8
0_00
  6
CONTINUOUS
 62
4
 10
637.5428
 20
690.2532
 11
637.9587
 21
690.2792
  0
LINE
  8
0_00
  6
CONTINUOUS
 62
4
 10
637.9587
 20
690.2792
 11
638.3709
 21
690.3048
  0
LINE
  8
0_00
  6
CONTINUOUS
 62
4
 10
638.3709
 20
690.3048
 11
638.7795
 21
690.3297
  0
LINE
  8
0_00
  6
CONTINUOUS
 62
4
 10
638.7795
 20
690.3297
 11
639.1849
 21
690.3530
  0
LINE
  8
0_00
  6
CONTINUOUS
 62
4
 10
639.1849
 20
690.3530
 11
639.5871
 21
690.3742
  0
LINE
  8
0_00
  6
CONTINUOUS
 62
4
 10
639.5871
 20
690.3742
 11
639.9864
 21
690.3927
  0
LINE
  8
0_00
  6
CONTINUOUS
 62
4
 10
639.9864
 20
690.3927
 11
640.3831
 21
690.4077
  0
LINE
  8
0_00
  6
CONTINUOUS
 62
4
 10
640.3831
 20
690.4077
 11
640.7770
 21
690.4186
  0
LINE
  8
0_00
  6
CONTINUOUS
 62
4
 10
640.7770
 20
690.4186
 11
641.1685
 21
690.4248
  0
LINE
  8
0_00
  6
CONTINUOUS
 62
4
 10
641.1685
 20
690.4248
 11
641.5579
 21
690.4258
  0
LINE
  8
0_00
  6
CONTINUOUS
 62
4
 10
641.5579
 20
690.4258
 11
641.9453
 21
690.4205
  0
LINE
  8
0_00
  6
CONTINUOUS
 62
4
 10
641.9453
 20
690.4205
 11
642.3309
 21
690.4088
  0
LINE
  8
0_00
  6
CONTINUOUS
 62
4
 10
642.3309
 20
690.4088
 11
642.7148
 21
690.3896
  0
LINE
  8
0_00
  6
CONTINUOUS
 62
4
 10
642.7148
 20
690.3896
 11
643.0974
 21
690.3626
  0
LINE
  8
0_00
  6
CONTINUOUS
 62
4
 10
643.0974
 20
690.3626
 11
643.4785
 21
690.3271
  0
LINE
  8
0_00
  6
CONTINUOUS
 62
4
 10
643.4785
 20
690.3271
 11
643.8588
 21
690.2821
  0
LINE
  8
0_00
  6
CONTINUOUS
 62
4
 10
643.8588
 20
690.2821
 11
644.2382
 21
690.2274
  0
LINE
  8
0_00
  6
CONTINUOUS
 62
4
 10
644.2382
 20
690.2274
 11
644.6169
 21
690.1621
  0
LINE
  8
0_00
  6
CONTINUOUS
 62
4
 10
644.6169
 20
690.1621
 11
644.9950
 21
690.0860
  0
LINE
  8
0_00
  6
CONTINUOUS
 62
4
 10
644.9950
 20
690.0860
 11
645.3728
 21
689.9994
  0
LINE
  8
0_00
  6
CONTINUOUS
 62
4
 10
645.3728
 20
689.9994
 11
645.7498
 21
689.9033
  0
LINE
  8
0_00
  6
CONTINUOUS
 62
4
 10
645.7498
 20
689.9033
 11
646.1264
 21
689.7986
  0
LINE
  8
0_00
  6
CONTINUOUS
 62
4
 10
646.1264
 20
689.7986
 11
646.5025
 21
689.6858
  0
LINE
  8
0_00
  6
CONTINUOUS
 62
4
 10
646.5025
 20
689.6858
 11
646.8779
 21
689.5662
  0
LINE
  8
0_00
  6
CONTINUOUS
 62
4
 10
646.8779
 20
689.5662
 11
647.2528
 21
689.4402
  0
LINE
  8
0_00
  6
CONTINUOUS
 62
4
 10
647.2528
 20
689.4402
 11
647.6269
 21
689.3089
  0
LINE
  8
0_00
  6
CONTINUOUS
 62
4
 10
647.6269
 20
689.3089
 11
648.0005
 21
689.1728
  0
LINE
  8
0_00
  6
CONTINUOUS
 62
4
 10
648.0005
 20
689.1728
 11
648.3733
 21
689.0331
  0
LINE
  8
0_00
  6
CONTINUOUS
 62
4
 10
648.3733
 20
689.0331
 11
648.7456
 21
688.8904
  0
LINE
  8
0_00
  6
CONTINUOUS
 62
4
 10
648.7456
 20
688.8904
 11
649.1171
 21
688.7456
  0
LINE
  8
0_00
  6
CONTINUOUS
 62
4
 10
649.1171
 20
688.7456
 11
649.4878
 21
688.5994
  0
LINE
  8
0_00
  6
CONTINUOUS
 62
4
 10
649.4878
 20
688.5994
 11
649.8578
 21
688.4528
  0
LINE
  8
0_00
  6
CONTINUOUS
 62
4
 10
649.8578
 20
688.4528
 11
650.2269
 21
688.3065
  0
LINE
  8
0_00
  6
CONTINUOUS
 62
4
 10
650.2269
 20
688.3065
 11
650.5955
 21
688.1613
  0
LINE
  8
0_00
  6
CONTINUOUS
 62
4
 10
650.5955
 20
688.1613
 11
650.9630
 21
688.0183
  0
LINE
  8
0_00
  6
CONTINUOUS
 62
4
 10
650.9630
 20
688.0183
 11
651.3298
 21
687.8779
  0
LINE
  8
0_00
  6
CONTINUOUS
 62
4
 10
651.3298
 20
687.8779
 11
651.6957
 21
687.7412
  0
LINE
  8
0_00
  6
CONTINUOUS
 62
4
 10
651.6957
 20
687.7412
 11
652.0608
 21
687.6089
  0
LINE
  8
0_00
  6
CONTINUOUS
 62
4
 10
652.0608
 20
687.6089
 11
652.4249
 21
687.4818
  0
LINE
  8
0_00
  6
CONTINUOUS
 62
4
 10
652.4249
 20
687.4818
 11
652.7882
 21
687.3609
  0
LINE
  8
0_00
  6
CONTINUOUS
 62
4
 10
652.7882
 20
687.3609
 11
653.1506
 21
687.2469
  0
LINE
  8
0_00
  6
CONTINUOUS
 62
4
 10
653.1506
 20
687.2469
 11
653.5120
 21
687.1407
  0
LINE
  8
0_00
  6
CONTINUOUS
 62
4
 10
653.5120
 20
687.1407
 11
653.8723
 21
687.0429
  0
LINE
  8
0_00
  6
CONTINUOUS
 62
4
 10
653.8723
 20
687.0429
 11
654.2317
 21
686.9547
  0
LINE
  8
0_00
  6
CONTINUOUS
 62
4
 10
654.2317
 20
686.9547
 11
654.5901
 21
686.8764
  0
LINE
  8
0_00
  6
CONTINUOUS
 62
4
 10
654.5901
 20
686.8764
 11
654.9474
 21
686.8094
  0
LINE
  8
0_00
  6
CONTINUOUS
 62
4
 10
654.9474
 20
686.8094
 11
655.3038
 21
686.7542
  0
LINE
  8
0_00
  6
CONTINUOUS
 62
4
 10
655.3038
 20
686.7542
 11
655.6590
 21
686.7115
  0
LINE
  8
0_00
  6
CONTINUOUS
 62
4
 10
655.6590
 20
686.7115
 11
656.0131
 21
686.6821
  0
LINE
  8
0_00
  6
CONTINUOUS
 62
4
 10
656.0131
 20
686.6821
 11
656.3659
 21
686.6657
  0
LINE
  8
0_00
  6
CONTINUOUS
 62
4
 10
656.3659
 20
686.6657
 11
656.7170
 21
686.6617
  0
LINE
  8
0_00
  6
CONTINUOUS
 62
4
 10
656.7170
 20
686.6617
 11
657.0663
 21
686.6692
  0
LINE
  8
0_00
  6
CONTINUOUS
 62
4
 10
657.0663
 20
686.6692
 11
657.4134
 21
686.6882
  0
LINE
  8
0_00
  6
CONTINUOUS
 62
4
 10
657.4134
 20
686.6882
 11
657.7581
 21
686.7177
  0
LINE
  8
0_00
  6
CONTINUOUS
 62
4
 10
657.7581
 20
686.7177
 11
658.1001
 21
686.7573
  0
LINE
  8
0_00
  6
CONTINUOUS
 62
4
 10
658.1001
 20
686.7573
 11
658.4393
 21
686.8063
  0
LINE
  8
0_00
  6
CONTINUOUS
 62
4
 10
658.4393
 20
686.8063
 11
658.7753
 21
686.8643
  0
LINE
  8
0_00
  6
CONTINUOUS
 62
4
 10
658.7753
 20
686.8643
 11
659.1077
 21
686.9305
  0
LINE
  8
0_00
  6
CONTINUOUS
 62
4
 10
659.1077
 20
686.9305
 11
659.4365
 21
687.0046
  0
LINE
  8
0_00
  6
CONTINUOUS
 62
4
 10
659.4365
 20
687.0046
 11
659.7613
 21
687.0859
  0
LINE
  8
0_00
  6
CONTINUOUS
 62
4
 10
659.7613
 20
687.0859
 11
660.0819
 21
687.1738
  0
LINE
  8
0_00
  6
CONTINUOUS
 62
4
 10
660.0819
 20
687.1738
 11
660.3979
 21
687.2678
  0
LINE
  8
0_00
  6
CONTINUOUS
 62
4
 10
660.3979
 20
687.2678
 11
660.7093
 21
687.3672
  0
LINE
  8
0_00
  6
CONTINUOUS
 62
4
 10
660.7093
 20
687.3672
 11
661.0155
 21
687.4715
  0
LINE
  8
0_00
  6
CONTINUOUS
 62
4
 10
661.0155
 20
687.4715
 11
661.3166
 21
687.5801
  0
LINE
  8
0_00
  6
CONTINUOUS
 62
4
 10
661.3166
 20
687.5801
 11
661.6122
 21
687.6926
  0
LINE
  8
0_00
  6
CONTINUOUS
 62
4
 10
661.6122
 20
687.6926
 11
661.9019
 21
687.8082
  0
LINE
  8
0_00
  6
CONTINUOUS
 62
4
 10
661.9019
 20
687.8082
 11
662.1854
 21
687.9264
  0
LINE
  8
0_00
  6
CONTINUOUS
 62
4
 10
662.1854
 20
687.9264
 11
662.4627
 21
688.0467
  0
LINE
  8
0_00
  6
CONTINUOUS
 62
4
 10
662.4627
 20
688.0467
 11
662.7335
 21
688.1685
  0
LINE
  8
0_00
  6
CONTINUOUS
 62
4
 10
662.7335
 20
688.1685
 11
662.9972
 21
688.2911
  0
LINE
  8
0_00
  6
CONTINUOUS
 62
4
 10
662.9972
 20
688.2911
 11
663.2541
 21
688.4141
  0
LINE
  8
0_00
  6
CONTINUOUS
 62
4
 10
663.2541
 20
688.4141
 11
663.5035
 21
688.5368
  0
LINE
  8
0_00
  6
CONTINUOUS
 62
4
 10
663.5035
 20
688.5368
 11
663.7452
 21
688.6588
  0
LINE
  8
0_00
  6
CONTINUOUS
 62
4
 10
663.7452
 20
688.6588
 11
663.9791
 21
688.7793
  0
LINE
  8
0_00
  6
CONTINUOUS
 62
4
 10
663.9791
 20
688.7793
 11
664.2048
 21
688.8979
  0
LINE
  8
0_00
  6
CONTINUOUS
 62
4
 10
664.2048
 20
688.8979
 11
664.4221
 21
689.0140
  0
LINE
  8
0_00
  6
CONTINUOUS
 62
4
 10
664.4221
 20
689.0140
 11
664.6307
 21
689.1270
  0
LINE
  8
0_00
  6
CONTINUOUS
 62
4
 10
664.6307
 20
689.1270
 11
664.8306
 21
689.2363
  0
LINE
  8
0_00
  6
CONTINUOUS
 62
4
 10
664.8306
 20
689.2363
 11
665.0217
 21
689.3422
  0
LINE
  8
0_00
  6
CONTINUOUS
 62
4
 10
665.0217
 20
689.3422
 11
665.2044
 21
689.4446
  0
LINE
  8
0_00
  6
CONTINUOUS
 62
4
 10
665.2044
 20
689.4446
 11
665.3791
 21
689.5437
  0
LINE
  8
0_00
  6
CONTINUOUS
 62
4
 10
665.3791
 20
689.5437
 11
665.5461
 21
689.6397
  0
LINE
  8
0_00
  6
CONTINUOUS
 62
4
 10
665.5461
 20
689.6397
 11
665.7056
 21
689.7325
  0
LINE
  8
0_00
  6
CONTINUOUS
 62
4
 10
665.7056
 20
689.7325
 11
665.8582
 21
689.8225
  0
LINE
  8
0_00
  6
CONTINUOUS
 62
4
 10
665.8582
 20
689.8225
 11
666.0036
 21
689.9095
  0
LINE
  8
0_00
  6
CONTINUOUS
 62
4
 10
666.0036
 20
689.9095
 11
666.1427
 21
689.9940
  0
LINE
  8
0_00
  6
CONTINUOUS
 62
4
 10
666.1427
 20
689.9940
 11
666.2753
 21
690.0758
  0
LINE
  8
0_00
  6
CONTINUOUS
 62
4
 10
666.2753
 20
690.0758
 11
666.4021
 21
690.1553
  0
LINE
  8
0_00
  6
CONTINUOUS
 62
4
 10
666.4021
 20
690.1553
 11
666.5231
 21
690.2322
  0
LINE
  8
0_00
  6
CONTINUOUS
 62
4
 10
666.5231
 20
690.2322
 11
666.6389
 21
690.3072
  0
LINE
  8
0_00
  6
CONTINUOUS
 62
4
 10
666.6389
 20
690.3072
 11
666.7496
 21
690.3799
  0
LINE
  8
0_00
  6
CONTINUOUS
 62
4
 10
666.7496
 20
690.3799
 11
666.8555
 21
690.4507
  0
LINE
  8
0_00
  6
CONTINUOUS
 62
4
 10
666.8555
 20
690.4507
 11
666.9569
 21
690.5197
  0
LINE
  8
0_00
  6
CONTINUOUS
 62
4
 10
666.9569
 20
690.5197
 11
667.0541
 21
690.5870
  0
LINE
  8
0_00
  6
CONTINUOUS
 62
4
 10
667.0541
 20
690.5870
 11
667.1475
 21
690.6527
  0
LINE
  8
0_00
  6
CONTINUOUS
 62
4
 10
667.1475
 20
690.6527
 11
667.2374
 21
690.7169
  0
LINE
  8
0_00
  6
CONTINUOUS
 62
4
 10
667.2374
 20
690.7169
 11
667.3239
 21
690.7797
  0
LINE
  8
0_00
  6
CONTINUOUS
 62
4
 10
667.3239
 20
690.7797
 11
667.4075
 21
690.8414
  0
LINE
  8
0_00
  6
CONTINUOUS
 62
4
 10
667.4075
 20
690.8414
 11
667.4883
 21
690.9019
  0
LINE
  8
0_00
  6
CONTINUOUS
 62
4
 10
667.4883
 20
690.9019
 11
667.5668
 21
690.9615
  0
LINE
  8
0_00
  6
CONTINUOUS
 62
4
 10
667.5668
 20
690.9615
 11
667.6433
 21
691.0202
  0
LINE
  8
0_00
  6
CONTINUOUS
 62
4
 10
667.6433
 20
691.0202
 11
667.7178
 21
691.0781
  0
LINE
  8
0_00
  6
CONTINUOUS
 62
4
 10
667.7178
 20
691.0781
 11
667.7910
 21
691.1356
  0
LINE
  8
0_00
  6
CONTINUOUS
 62
4
 10
667.7910
 20
691.1356
 11
667.8629
 21
691.1923
  0
LINE
  8
0_00
  6
CONTINUOUS
 62
4
 10
667.8629
 20
691.1923
 11
667.9339
 21
691.2489
  0
LINE
  8
0_00
  6
CONTINUOUS
 62
4
 10
667.9339
 20
691.2489
 11
668.0044
 21
691.3052
  0
LINE
  8
0_00
  6
CONTINUOUS
 62
4
 10
668.0044
 20
691.3052
 11
668.0745
 21
691.3612
  0
LINE
  8
0_00
  6
CENTER1
 62
6
 10
529.2038
 20
1211.3392
 11
551.1745
 21
1189.3684
  0
LINE
  8
0_00
  6
CENTER1
 62
6
 10
724.9745
 20
1015.5685
 11
769.6756
 21
970.8674
  0
LINE
  8
0_00
  6
CONTINUOUS
 62
6
 10
683.9184
 20
1171.7343
 11
725.4117
 21
1243.6028
  0
LINE
  8
0_00
  6
CONTINUOUS
 62
6
 10
683.9184
 20
1171.7343
 11
700.6467
 21
1190.3130
  0
LINE
  8
0_00
  6
CONTINUOUS
 62
6
 10
683.9184
 20
1171.7343
 11
691.6439
 21
1195.5107
  0
LINE
  8
0_00
  6
CONTINUOUS
 62
6
 10
725.4117
 20
1243.6028
 11
971.4117
 21
1243.6028
  0
LINE
  8
0_00
  6
CONTINUOUS
 62
6
 10
641.8449
 20
1121.6962
 11
548.8353
 21
1282.7937
  0
LINE
  8
0_00
  6
CONTINUOUS
 62
6
 10
641.8449
 20
1121.6962
 11
634.1195
 21
1145.4726
  0
LINE
  8
0_00
  6
CONTINUOUS
 62
6
 10
641.8449
 20
1121.6962
 11
625.1167
 21
1140.2750
  0
LINE
  8
0_00
  6
CONTINUOUS
 62
6
 10
548.8353
 20
1282.7937
 11
226.3143
 21
1282.7937
  0
LINE
  8
0_00
  6
CENTER1
 62
6
 10
638.0745
 20
2115.6209
 11
829.0746
 21
2115.6209
  0
LINE
  8
0_00
  6
CENTER1
 62
6
 10
638.0745
 20
2115.6209
 11
638.0745
 21
1947.6939
  0
LINE
  8
0_00
  6
CONTINUOUS
 62
4
 10
603.7745
 20
2156.4209
 11
678.8746
 21
2156.4209
  0
LINE
  8
0_00
  6
CONTINUOUS
 62
4
 10
597.2745
 20
2074.8209
 11
678.8746
 21
2074.8209
  0
LINE
  8
0_00
  6
CONTINUOUS
 62
4
 10
678.8746
 20
2156.4209
 11
678.8746
 21
2074.8209
  0
LINE
  8
0_00
  6
CONTINUOUS
 62
4
 10
597.2745
 20
2149.9210
 11
597.2745
 21
2074.8209
  0
LINE
  8
0_00
  6
CONTINUOUS
 62
6
 10
599.1783
 20
2154.5172
 11
678.8746
 21
2074.8209
  0
LINE
  8
0_00
  6
CONTINUOUS
 62
4
 10
678.8746
 20
2155.6210
 11
814.3195
 21
2155.6210
  0
LINE
  8
0_00
  6
CONTINUOUS
 62
4
 10
678.8746
 20
2075.6210
 11
814.3195
 21
2075.6210
  0
LINE
  8
0_00
  6
CONTINUOUS
 62
4
 10
678.0746
 20
2074.8209
 11
678.0746
 21
1976.9643
  0
LINE
  8
0_00
  6
CONTINUOUS
 62
4
 10
598.0745
 20
2074.8209
 11
598.0745
 21
1976.9643
  0
LINE
  8
0_00
  6
CONTINUOUS
 62
6
 10
626.8829
 20
2137.7051
 11
574.3244
 21
2228.7392
  0
LINE
  8
0_00
  6
CONTINUOUS
 62
6
 10
626.8829
 20
2137.7051
 11
619.1575
 21
2161.4816
  0
LINE
  8
0_00
  6
CONTINUOUS
 62
6
 10
626.8829
 20
2137.7051
 11
610.1546
 21
2156.2839
  0
LINE
  8
0_00
  6
CONTINUOUS
 62
6
 10
574.3244
 20
2228.7392
 11
246.4125
 21
2228.7392
  0
LINE
  8
0_00
  6
CENTER1
 62
6
 10
638.0745
 20
2520.6430
 11
829.0746
 21
2520.6430
  0
LINE
  8
0_00
  6
CENTER1
 62
6
 10
638.0745
 20
2520.6430
 11
638.0745
 21
2365.6073
  0
LINE
  8
0_00
  6
CONTINUOUS
 62
6
 10
625.7309
 20
2532.9865
 11
667.8746
 21
2490.8427
  0
LINE
  8
0_00
  6
CONTINUOUS
 62
6
 10
630.8128
 20
2535.9204
 11
576.6070
 21
2629.8074
  0
LINE
  8
0_00
  6
CONTINUOUS
 62
6
 10
630.8128
 20
2535.9204
 11
623.0873
 21
2559.6970
  0
LINE
  8
0_00
  6
CONTINUOUS
 62
6
 10
630.8128
 20
2535.9204
 11
614.0846
 21
2554.4992
  0
LINE
  8
0_00
  6
CONTINUOUS
 62
6
 10
576.6070
 20
2629.8074
 11
287.0214
 21
2629.8074
  0
LINE
  8
0_00
  6
CONTINUOUS
 62
4
 10
608.2745
 20
2490.8427
 11
608.2745
 21
2489.6429
  0
LINE
  8
0_00
  6
CONTINUOUS
 62
4
 10
667.8746
 20
2490.8427
 11
667.8746
 21
2489.6429
  0
LINE
  8
0_00
  6
CONTINUOUS
 62
4
 10
667.8746
 20
2489.6429
 11
608.2745
 21
2489.6429
  0
LINE
  8
0_00
  6
CONTINUOUS
 62
4
 10
667.8746
 20
2550.4427
 11
669.0746
 21
2550.4427
  0
LINE
  8
0_00
  6
CONTINUOUS
 62
4
 10
667.8746
 20
2490.8427
 11
669.0746
 21
2490.8427
  0
LINE
  8
0_00
  6
CONTINUOUS
 62
4
 10
669.0746
 20
2490.8427
 11
669.0746
 21
2550.4427
  0
LINE
  8
0_00
  6
CONTINUOUS
 62
4
 10
669.0746
 20
2549.6429
 11
814.3195
 21
2549.6429
  0
LINE
  8
0_00
  6
CONTINUOUS
 62
4
 10
814.3195
 20
2491.6431
 11
669.0746
 21
2491.6431
  0
LINE
  8
0_00
  6
CONTINUOUS
 62
4
 10
609.0746
 20
2489.6429
 11
609.0746
 21
2388.3728
  0
LINE
  8
0_00
  6
CONTINUOUS
 62
4
 10
667.0746
 20
2388.3728
 11
667.0746
 21
2489.6429
  0
LINE
  8
16_10
  6
CONTINUOUS
 62
4
 10
1292.3018
 20
1746.6388
 11
1223.7109
 21
1746.6388
  0
LINE
  8
16_10
  6
CONTINUOUS
 62
4
 10
1274.4115
 20
1747.9887
 11
1211.1113
 21
1747.9887
  0
LINE
  8
16_10
  6
CONTINUOUS
 62
4
 10
1211.1113
 20
1747.9887
 11
1202.8951
 21
1746.7702
  0
LINE
  8
16_10
  6
CONTINUOUS
 62
4
 10
1199.7131
 20
1726.3303
 11
1199.3134
 21
1742.4777
  0
LINE
  8
16_10
  6
CONTINUOUS
 62
4
 10
1200.6351
 20
1724.1486
 11
1200.6886
 21
1719.0245
  0
LINE
  8
16_10
  6
CONTINUOUS
 62
4
 10
1293.9397
 20
1746.5152
 11
1274.4115
 21
1747.9887
  0
LINE
  8
16_10
  6
CONTINUOUS
 62
4
 10
1215.1886
 20
1717.5394
 11
1216.9877
 21
1717.5987
  0
LINE
  8
16_10
  6
CONTINUOUS
 62
4
 10
1215.6972
 20
1745.4504
 11
1223.7109
 21
1746.6388
  0
LINE
  8
16_10
  6
CONTINUOUS
 62
4
 10
1212.9257
 20
1742.1284
 11
1213.3124
 21
1726.3664
  0
LINE
  8
16_10
  6
CONTINUOUS
 62
4
 10
1214.2914
 20
1718.9607
 11
1214.2321
 21
1724.2630
  0
LINE
  8
16_10
  6
CONTINUOUS
 62
4
 10
1215.1874
 20
1717.5394
 11
1202.7000
 21
1717.1397
  0
LINE
  8
0_00
  6
CONTINUOUS
 62
6
 10
1201.6286
 20
1724.1486
 11
1213.6346
 21
1724.1486
  0
LINE
  8
16_10
  6
CONTINUOUS
 62
2
 10
1214.1471
 20
1724.6161
 11
2000.0905
 21
1724.6161
  0
LINE
  8
0_00
  6
CONTINUOUS
 62
4
 10
1207.7615
 20
1717.3270
 11
1207.7615
 21
1608.0345
  0
LINE
  8
0_00
  6
CONTINUOUS
 62
4
 10
1216.9681
 20
1745.6389
 11
2000.0905
 21
1745.6389
  0
LINE
  8
0_00
  6
CONTINUOUS
 62
4
 10
1215.1411
 20
1718.1389
 11
2000.0905
 21
1718.1389
  0
LINE
  8
16_10
  6
CONTINUOUS
 62
4
 10
1292.3018
 20
2081.2668
 11
1223.7109
 21
2081.2668
  0
LINE
  8
16_10
  6
CONTINUOUS
 62
4
 10
1274.4115
 20
2082.6169
 11
1211.1113
 21
2082.6169
  0
LINE
  8
16_10
  6
CONTINUOUS
 62
4
 10
1211.1113
 20
2082.6169
 11
1202.8951
 21
2081.3982
  0
LINE
  8
16_10
  6
CONTINUOUS
 62
4
 10
1199.7131
 20
2060.9583
 11
1199.3134
 21
2077.1056
  0
LINE
  8
16_10
  6
CONTINUOUS
 62
4
 10
1200.6351
 20
2058.7766
 11
1200.6886
 21
2053.6525
  0
LINE
  8
16_10
  6
CONTINUOUS
 62
4
 10
1293.9397
 20
2081.1430
 11
1274.4115
 21
2082.6169
  0
LINE
  8
16_10
  6
CONTINUOUS
 62
4
 10
1215.1886
 20
2052.1674
 11
1216.9877
 21
2052.2267
  0
LINE
  8
16_10
  6
CONTINUOUS
 62
4
 10
1215.6972
 20
2080.0784
 11
1223.7109
 21
2081.2668
  0
LINE
  8
16_10
  6
CONTINUOUS
 62
4
 10
1212.9257
 20
2076.7567
 11
1213.3124
 21
2060.9943
  0
LINE
  8
16_10
  6
CONTINUOUS
 62
4
 10
1214.2914
 20
2053.5887
 11
1214.2321
 21
2058.8910
  0
LINE
  8
16_10
  6
CONTINUOUS
 62
4
 10
1215.1874
 20
2052.1674
 11
1202.7000
 21
2051.7676
  0
LINE
  8
0_00
  6
CONTINUOUS
 62
6
 10
1201.6286
 20
2058.7766
 11
1213.6346
 21
2058.7766
  0
LINE
  8
16_10
  6
CONTINUOUS
 62
2
 10
1214.1471
 20
2059.2441
 11
2000.0905
 21
2059.2441
  0
LINE
  8
0_00
  6
CONTINUOUS
 62
4
 10
1207.7615
 20
2051.9550
 11
1207.7615
 21
1942.6627
  0
LINE
  8
0_00
  6
CONTINUOUS
 62
4
 10
1216.9681
 20
2080.2667
 11
2000.0905
 21
2080.2667
  0
LINE
  8
0_00
  6
CONTINUOUS
 62
4
 10
1215.1411
 20
2052.7667
 11
2000.0905
 21
2052.7667
  0
LINE
  8
16_10
  6
CONTINUOUS
 62
4
 10
1292.3018
 20
2486.2886
 11
1223.7109
 21
2486.2886
  0
LINE
  8
16_10
  6
CONTINUOUS
 62
4
 10
1274.4115
 20
2487.6387
 11
1211.1113
 21
2487.6387
  0
LINE
  8
16_10
  6
CONTINUOUS
 62
4
 10
1211.1113
 20
2487.6387
 11
1202.8951
 21
2486.4203
  0
LINE
  8
16_10
  6
CONTINUOUS
 62
4
 10
1199.7131
 20
2465.9801
 11
1199.3134
 21
2482.1275
  0
LINE
  8
16_10
  6
CONTINUOUS
 62
4
 10
1200.6351
 20
2463.7984
 11
1200.6886
 21
2458.6745
  0
LINE
  8
16_10
  6
CONTINUOUS
 62
4
 10
1293.9397
 20
2486.1652
 11
1274.4115
 21
2487.6387
  0
LINE
  8
16_10
  6
CONTINUOUS
 62
4
 10
1215.1886
 20
2457.1893
 11
1216.9877
 21
2457.2484
  0
LINE
  8
16_10
  6
CONTINUOUS
 62
4
 10
1215.6972
 20
2485.1003
 11
1223.7109
 21
2486.2886
  0
LINE
  8
16_10
  6
CONTINUOUS
 62
4
 10
1212.9257
 20
2481.7784
 11
1213.3124
 21
2466.0162
  0
LINE
  8
16_10
  6
CONTINUOUS
 62
4
 10
1214.2914
 20
2458.6108
 11
1214.2321
 21
2463.9130
  0
LINE
  8
16_10
  6
CONTINUOUS
 62
4
 10
1215.1874
 20
2457.1893
 11
1202.7000
 21
2456.7894
  0
LINE
  8
0_00
  6
CONTINUOUS
 62
6
 10
1201.6286
 20
2463.7984
 11
1213.6346
 21
2463.7984
  0
LINE
  8
16_10
  6
CONTINUOUS
 62
2
 10
1214.1471
 20
2464.2661
 11
2000.0905
 21
2464.2661
  0
LINE
  8
0_00
  6
CONTINUOUS
 62
4
 10
1207.7615
 20
2456.9769
 11
1207.7615
 21
2347.6845
  0
LINE
  8
0_00
  6
CONTINUOUS
 62
4
 10
1216.9681
 20
2485.2888
 11
2000.0905
 21
2485.2888
  0
LINE
  8
0_00
  6
CONTINUOUS
 62
4
 10
1215.1411
 20
2457.7885
 11
2000.0905
 21
2457.7885
  0
LINE
  8
0_00
  6
CONTINUOUS
 62
4
 10
1893.5132
 20
1184.9684
 11
580.3233
 21
1184.9684
  0
LINE
  8
0_00
  6
CONTINUOUS
 62
4
 10
1893.5132
 20
1019.9685
 11
745.3233
 21
1019.9685
  0
LINE
  8
144_90
  6
CONTINUOUS
 62
4
 10
552.1395
 20
1163.6546
 11
607.5746
 21
1108.2196
  0
LINE
  8
144_90
  6
CONTINUOUS
 62
4
 10
668.0745
 20
1047.7197
 11
723.3357
 21
992.4584
  0
LINE
  8
144_90
  6
CONTINUOUS
 62
4
 10
551.9934
 20
1163.9922
 11
551.1745
 21
1189.3684
  0
LINE
  8
144_90
  6
CONTINUOUS
 62
4
 10
724.1891
 20
992.7947
 11
724.9745
 21
1015.5685
  0
LINE
  8
144_90
  6
CONTINUOUS
 62
4
 10
576.8882
 20
1188.4035
 11
632.3233
 21
1132.9684
  0
LINE
  8
144_90
  6
CONTINUOUS
 62
4
 10
692.8233
 20
1072.4684
 11
748.0846
 21
1017.2073
  0
LINE
  8
144_90
  6
CONTINUOUS
 62
4
 10
576.5509
 20
1188.5496
 11
551.1745
 21
1189.3684
  0
LINE
  8
144_90
  6
CONTINUOUS
 62
4
 10
747.7481
 20
1016.3539
 11
724.9745
 21
1015.5685
  0
LINE
  8
144_90
  6
CONTINUOUS
 62
4
 10
551.1745
 20
1189.3684
 11
609.4784
 21
1131.0646
  0
LINE
  8
0_00
  6
CONTINUOUS
 62
2
 10
700.2745
 20
1015.5197
 11
700.2745
 21
1040.2684
  0
LINE
  8
0_00
  6
CONTINUOUS
 62
2
 10
725.0233
 20
1040.2684
 11
700.2745
 21
1040.2684
  0
LINE
  8
0_00
  6
CONTINUOUS
 62
2
 10
575.8746
 20
1139.9196
 11
575.8746
 21
1164.6684
  0
LINE
  8
0_00
  6
CONTINUOUS
 62
2
 10
600.6232
 20
1164.6684
 11
575.8746
 21
1164.6684
  0
LINE
  8
0_00
  6
CONTINUOUS
 62
4
 10
720.5745
 20
995.2197
 11
720.5745
 21
469.2236
  0
LINE
  8
0_00
  6
CONTINUOUS
 62
4
 10
555.5745
 20
469.2236
 11
555.5745
 21
1160.2197
  0
LINE
  8
0_00
  6
CONTINUOUS
 62
2
 10
1893.5132
 20
1039.4685
 11
725.8234
 21
1039.4685
  0
LINE
  8
0_00
  6
CONTINUOUS
 62
2
 10
1893.5132
 20
1165.4684
 11
599.8233
 21
1165.4684
  0
LINE
  8
0_00
  6
CONTINUOUS
 62
2
 10
701.0745
 20
469.2236
 11
701.0745
 21
1014.7196
  0
LINE
  8
0_00
  6
CONTINUOUS
 62
2
 10
575.0746
 20
469.2236
 11
575.0746
 21
1140.7198
  0
LINE
  8
0_00
  6
DASHED
 62
6
 10
658.0746
 20
1183.2684
 11
718.0746
 21
1183.2684
  0
LINE
  8
0_00
  6
DASHED
 62
6
 10
658.0746
 20
1061.7683
 11
718.0746
 21
1061.7683
  0
LINE
  8
0_00
  6
DASHED
 62
6
 10
718.0746
 20
1183.2684
 11
718.0746
 21
1061.7683
  0
LINE
  8
0_00
  6
DASHED
 62
6
 10
658.0746
 20
1061.7683
 11
658.0746
 21
1183.2684
  0
LINE
  8
0_00
  6
CONTINUOUS
 62
6
 10
1172.7187
 20
1184.9684
 11
1206.5714
 21
1243.6028
  0
LINE
  8
0_00
  6
CONTINUOUS
 62
6
 10
1172.7187
 20
1184.9684
 11
1189.4469
 21
1203.5471
  0
LINE
  8
0_00
  6
CONTINUOUS
 62
6
 10
1172.7187
 20
1184.9684
 11
1180.4443
 21
1208.7447
  0
LINE
  8
0_00
  6
CONTINUOUS
 62
6
 10
1206.5714
 20
1243.6028
 11
1452.5714
 21
1243.6028
  0
LINE
  8
144_90
  6
CONTINUOUS
 62
4
 10
678.0746
 20
2050.8722
 11
723.3357
 21
2005.6110
  0
LINE
  8
0_00
  6
CONTINUOUS
 62
4
 10
724.9745
 20
2028.7212
 11
678.8746
 21
2074.8209
  0
LINE
  8
144_90
  6
CONTINUOUS
 62
4
 10
702.8233
 20
2075.6210
 11
748.0846
 21
2030.3598
  0
LINE
  8
144_90
  6
CONTINUOUS
 62
4
 10
724.1891
 20
2005.9474
 11
724.9745
 21
2028.7212
  0
LINE
  8
144_90
  6
CONTINUOUS
 62
4
 10
747.7481
 20
2029.5065
 11
724.9745
 21
2028.7212
  0
LINE
  8
0_00
  6
CONTINUOUS
 62
2
 10
700.2745
 20
2028.6722
 11
700.2745
 21
2053.4210
  0
LINE
  8
0_00
  6
CONTINUOUS
 62
2
 10
725.0233
 20
2053.4210
 11
700.2745
 21
2053.4210
  0
LINE
  8
144_90
  6
CONTINUOUS
 62
4
 10
552.1395
 20
2176.8073
 11
597.2745
 21
2131.6722
  0
LINE
  8
144_90
  6
CONTINUOUS
 62
4
 10
551.9934
 20
2177.1445
 11
551.1745
 21
2202.5211
  0
LINE
  8
144_90
  6
CONTINUOUS
 62
4
 10
576.5509
 20
2201.7023
 11
551.1745
 21
2202.5211
  0
LINE
  8
0_00
  6
CONTINUOUS
 62
2
 10
575.8746
 20
2153.0721
 11
575.8746
 21
2177.8207
  0
LINE
  8
0_00
  6
CONTINUOUS
 62
2
 10
600.6232
 20
2177.8207
 11
575.8746
 21
2177.8207
  0
LINE
  8
144_90
  6
CONTINUOUS
 62
4
 10
551.1745
 20
2202.5211
 11
599.1783
 21
2154.5172
  0
LINE
  8
144_90
  6
CONTINUOUS
 62
4
 10
576.8882
 20
2201.5559
 11
622.0232
 21
2156.4209
  0
LINE
  8
0_00
  6
CONTINUOUS
 62
4
 10
814.3195
 20
2033.1210
 11
745.3233
 21
2033.1210
  0
LINE
  8
0_00
  6
CONTINUOUS
 62
2
 10
814.3195
 20
2052.6210
 11
725.8234
 21
2052.6210
  0
LINE
  8
0_00
  6
CONTINUOUS
 62
2
 10
814.3195
 20
2178.6211
 11
599.8233
 21
2178.6211
  0
LINE
  8
0_00
  6
CONTINUOUS
 62
4
 10
814.3195
 20
2198.1210
 11
580.3233
 21
2198.1210
  0
LINE
  8
0_00
  6
CONTINUOUS
 62
4
 10
720.5745
 20
2008.3722
 11
720.5745
 21
1976.9643
  0
LINE
  8
0_00
  6
CONTINUOUS
 62
2
 10
701.0745
 20
1976.9643
 11
701.0745
 21
2027.8722
  0
LINE
  8
0_00
  6
CONTINUOUS
 62
2
 10
575.0746
 20
1976.9643
 11
575.0746
 21
2153.8721
  0
LINE
  8
0_00
  6
CONTINUOUS
 62
4
 10
555.5745
 20
1976.9643
 11
555.5745
 21
2173.3720
  0
LINE
  8
0_00
  6
CONTINUOUS
 62
2
 10
700.2745
 20
2028.6722
 11
700.2745
 21
2053.4210
  0
LINE
  8
0_00
  6
CONTINUOUS
 62
2
 10
725.0233
 20
2053.4210
 11
700.2745
 21
2053.4210
  0
LINE
  8
0_00
  6
CONTINUOUS
 62
2
 10
575.8746
 20
2153.0721
 11
575.8746
 21
2177.8207
  0
LINE
  8
0_00
  6
CONTINUOUS
 62
2
 10
600.6232
 20
2177.8207
 11
575.8746
 21
2177.8207
  0
LINE
  8
13_0D
  6
CONTINUOUS
 62
6
 10
733.9423
 20
981.8519
 11
832.2723
 21
883.5220
  0
LINE
  8
13_0D
  6
CONTINUOUS
 62
6
 10
758.6911
 20
1006.6006
 11
857.0210
 21
908.2706
  0
LINE
  8
13_0D
  6
CONTINUOUS
 62
6
 10
821.6656
 20
894.1286
 11
846.4143
 21
918.8773
  0
LINE
  8
13_0D
  6
CONTINUOUS
 62
6
 10
881.7697
 20
954.2326
 11
846.4143
 21
918.8773
  0
LINE
  8
13_0D
  6
CONTINUOUS
 62
6
 10
846.4143
 20
918.8773
 11
867.3812
 21
932.4933
  0
LINE
  8
13_0D
  6
CONTINUOUS
 62
6
 10
846.4143
 20
918.8773
 11
860.0304
 21
939.8441
  0
LINE
  8
13_0D
  6
CONTINUOUS
 62
6
 10
786.3103
 20
858.7732
 11
821.6656
 21
894.1286
  0
LINE
  8
13_0D
  6
CONTINUOUS
 62
6
 10
821.6656
 20
894.1286
 11
800.6989
 21
880.5125
  0
LINE
  8
13_0D
  6
CONTINUOUS
 62
6
 10
821.6656
 20
894.1286
 11
808.0496
 21
873.1618
  0
LINE
  8
0_00
  6
DASHED
 62
6
 10
658.0746
 20
2196.4211
 11
718.0746
 21
2196.4211
  0
LINE
  8
0_00
  6
DASHED
 62
6
 10
658.0746
 20
2074.9210
 11
718.0746
 21
2074.9210
  0
LINE
  8
0_00
  6
DASHED
 62
6
 10
718.0746
 20
2196.4211
 11
718.0746
 21
2074.9210
  0
LINE
  8
0_00
  6
DASHED
 62
6
 10
658.0746
 20
2074.9210
 11
658.0746
 21
2196.4211
  0
LINE
  8
0_00
  6
CENTER1
 62
6
 10
724.9745
 20
2028.7212
 11
769.6756
 21
1984.0199
  0
LINE
  8
0_00
  6
CENTER1
 62
6
 10
529.2038
 20
2224.4919
 11
551.1745
 21
2202.5211
  0
LINE
  8
144_90
  6
CONTINUOUS
 62
4
 10
724.1891
 20
2410.9692
 11
724.9745
 21
2433.7431
  0
LINE
  8
144_90
  6
CONTINUOUS
 62
4
 10
747.7481
 20
2434.5285
 11
724.9745
 21
2433.7431
  0
LINE
  8
0_00
  6
CONTINUOUS
 62
2
 10
700.2745
 20
2433.6942
 11
700.2745
 21
2458.4430
  0
LINE
  8
0_00
  6
CONTINUOUS
 62
2
 10
725.0233
 20
2458.4430
 11
700.2745
 21
2458.4430
  0
LINE
  8
0_00
  6
CONTINUOUS
 62
4
 10
814.3195
 20
2438.1429
 11
745.3233
 21
2438.1429
  0
LINE
  8
0_00
  6
CONTINUOUS
 62
2
 10
814.3195
 20
2457.6428
 11
725.8234
 21
2457.6428
  0
LINE
  8
0_00
  6
CONTINUOUS
 62
4
 10
720.5745
 20
2413.3942
 11
720.5745
 21
2381.9861
  0
LINE
  8
0_00
  6
CONTINUOUS
 62
2
 10
701.0745
 20
2381.9861
 11
701.0745
 21
2432.8941
  0
LINE
  8
0_00
  6
CONTINUOUS
 62
2
 10
700.2745
 20
2433.6942
 11
700.2745
 21
2458.4430
  0
LINE
  8
0_00
  6
CONTINUOUS
 62
2
 10
725.0233
 20
2458.4430
 11
700.2745
 21
2458.4430
  0
LINE
  8
0_00
  6
CENTER1
 62
6
 10
724.9745
 20
2433.7431
 11
769.6756
 21
2389.0419
  0
LINE
  8
144_90
  6
CONTINUOUS
 62
4
 10
551.9934
 20
2582.1667
 11
551.1745
 21
2607.5427
  0
LINE
  8
144_90
  6
CONTINUOUS
 62
4
 10
576.5509
 20
2606.7239
 11
551.1745
 21
2607.5427
  0
LINE
  8
0_00
  6
CONTINUOUS
 62
2
 10
575.8746
 20
2558.0940
 11
575.8746
 21
2582.8430
  0
LINE
  8
0_00
  6
CONTINUOUS
 62
2
 10
575.0746
 20
2381.9861
 11
575.0746
 21
2558.8942
  0
LINE
  8
0_00
  6
CONTINUOUS
 62
4
 10
555.5745
 20
2381.9861
 11
555.5745
 21
2578.3942
  0
LINE
  8
0_00
  6
CONTINUOUS
 62
2
 10
575.8746
 20
2558.0940
 11
575.8746
 21
2582.8430
  0
LINE
  8
0_00
  6
CENTER1
 62
6
 10
529.2038
 20
2629.5135
 11
551.1745
 21
2607.5427
  0
LINE
  8
0_00
  6
CONTINUOUS
 62
2
 10
600.6232
 20
2582.8430
 11
575.8746
 21
2582.8430
  0
LINE
  8
0_00
  6
CONTINUOUS
 62
2
 10
814.3195
 20
2583.6429
 11
599.8233
 21
2583.6429
  0
LINE
  8
0_00
  6
CONTINUOUS
 62
4
 10
814.3195
 20
2603.1430
 11
580.3233
 21
2603.1430
  0
LINE
  8
0_00
  6
CONTINUOUS
 62
2
 10
600.6232
 20
2582.8430
 11
575.8746
 21
2582.8430
  0
LINE
  8
0_00
  6
DASHED
 62
6
 10
658.0746
 20
2601.4426
 11
718.0746
 21
2601.4426
  0
LINE
  8
144_90
  6
CONTINUOUS
 62
4
 10
552.1395
 20
2581.8292
 11
615.2142
 21
2518.7546
  0
LINE
  8
144_90
  6
CONTINUOUS
 62
4
 10
551.1745
 20
2607.5427
 11
625.7309
 21
2532.9865
  0
LINE
  8
144_90
  6
CONTINUOUS
 62
4
 10
576.8882
 20
2606.5781
 11
639.9630
 21
2543.5033
  0
LINE
  8
144_90
  6
CONTINUOUS
 62
4
 10
667.0746
 20
2466.8941
 11
723.3357
 21
2410.6329
  0
LINE
  8
0_00
  6
CONTINUOUS
 62
4
 10
667.8746
 20
2490.8427
 11
678.8746
 21
2479.8428
  0
LINE
  8
144_90
  6
CONTINUOUS
 62
4
 10
691.8233
 20
2491.6431
 11
748.0846
 21
2435.3816
  0
LINE
  8
0_00
  6
DASHED
 62
6
 10
658.0746
 20
2479.9431
 11
718.0746
 21
2479.9431
  0
LINE
  8
0_00
  6
DASHED
 62
6
 10
718.0746
 20
2601.4426
 11
718.0746
 21
2479.9431
  0
LINE
  8
0_00
  6
DASHED
 62
6
 10
658.0746
 20
2479.9431
 11
658.0746
 21
2601.4426
  0
LINE
  8
0_00
  6
CENTER1
 62
6
 10
2523.5930
 20
892.4685
 11
3994.3744
 21
892.4685
  0
LINE
  8
0_00
  6
CENTER1
 62
6
 10
2577.7753
 20
892.4685
 11
2295.8270
 21
610.5199
  0
LINE
  8
0_00
  6
CENTER1
 62
6
 10
2627.7753
 20
1007.6373
 11
2627.7753
 21
792.8030
  0
LINE
  8
0_00
  6
CENTER1
 62
6
 10
2827.7753
 20
983.4816
 11
2827.7753
 21
769.1862
  0
LINE
  8
0_00
  6
CENTER1
 62
6
 10
3727.7753
 20
1002.6847
 11
3727.7753
 21
771.8309
  0
LINE
  8
0_00
  6
CENTER1
 62
6
 10
2319.5621
 20
797.1284
 11
2488.1725
 21
628.5181
  0
LINE
  8
0_00
  6
CENTER1
 62
6
 10
3182.4826
 20
1667.9597
 11
3182.4826
 21
1490.5003
  0
LINE
  8
0_00
  6
CONTINUOUS
 62
4
 10
3300.4828
 20
1627.2008
 11
3300.4828
 21
1550.6387
  0
LINE
  8
0_00
  6
CONTINUOUS
 62
4
 10
3314.4827
 20
1627.2008
 11
3314.4827
 21
1550.6387
  0
LINE
  8
0_00
  6
CONTINUOUS
 62
4
 10
3212.3010
 20
1650.6389
 11
3939.8117
 21
1650.6389
  0
LINE
  8
0_00
  6
CONTINUOUS
 62
4
 10
3212.3010
 20
1627.1388
 11
3939.8117
 21
1627.1388
  0
LINE
  8
0_00
  6
CENTER1
 62
6
 10
3307.4829
 20
1667.9597
 11
3307.4829
 21
1507.1111
  0
LINE
  8
0_00
  6
CONTINUOUS
 62
4
 10
3750.4828
 20
1627.2008
 11
3750.4828
 21
1550.6387
  0
LINE
  8
0_00
  6
CONTINUOUS
 62
4
 10
3764.4827
 20
1627.2008
 11
3764.4827
 21
1550.6387
  0
LINE
  8
0_00
  6
CENTER1
 62
6
 10
3757.4829
 20
1667.9597
 11
3757.4829
 21
1507.1111
  0
LINE
  8
0_00
  6
CONTINUOUS
 62
4
 10
3218.8010
 20
2110.2667
 11
3939.8117
 21
2110.2667
  0
LINE
  8
0_00
  6
CONTINUOUS
 62
4
 10
3939.8117
 20
2091.7006
 11
3202.8827
 21
2091.7006
  0
LINE
  8
0_00
  6
CENTER1
 62
6
 10
3182.4826
 20
2132.4216
 11
3182.4826
 21
1943.8388
  0
LINE
  8
0_00
  6
CONTINUOUS
 62
4
 10
3300.4828
 20
2091.6624
 11
3300.4828
 21
2010.2667
  0
LINE
  8
0_00
  6
CONTINUOUS
 62
4
 10
3314.4827
 20
2091.6624
 11
3314.4827
 21
2010.2667
  0
LINE
  8
0_00
  6
CONTINUOUS
 62
4
 10
3750.4828
 20
2091.6624
 11
3750.4828
 21
2010.2667
  0
LINE
  8
0_00
  6
CONTINUOUS
 62
4
 10
3764.4827
 20
2091.6624
 11
3764.4827
 21
2010.2667
  0
LINE
  8
0_00
  6
CENTER1
 62
6
 10
3757.4829
 20
2132.4216
 11
3757.4829
 21
1971.5729
  0
LINE
  8
0_00
  6
CENTER1
 62
6
 10
3307.4829
 20
2132.4216
 11
3307.4829
 21
1971.5729
  0
LINE
  8
0_00
  6
CONTINUOUS
 62
4
 10
2351.0173
 20
623.2838
 11
2557.9764
 21
830.2431
  0
LINE
  8
0_00
  6
CONTINUOUS
 62
4
 10
2515.5499
 20
872.6694
 11
2308.5907
 21
665.7103
  0
LINE
  8
0_00
  6
CENTER1
 62
6
 10
3182.4826
 20
2607.0718
 11
3182.4826
 21
2418.4886
  0
LINE
  8
0_00
  6
CONTINUOUS
 62
4
 10
3300.4828
 20
2561.1078
 11
3300.4828
 21
2485.2888
  0
LINE
  8
0_00
  6
CONTINUOUS
 62
4
 10
3314.4827
 20
2561.1078
 11
3314.4827
 21
2485.2888
  0
LINE
  8
0_00
  6
CONTINUOUS
 62
4
 10
3750.4828
 20
2561.1078
 11
3750.4828
 21
2485.2888
  0
LINE
  8
0_00
  6
CONTINUOUS
 62
4
 10
3764.4827
 20
2561.1078
 11
3764.4827
 21
2485.2888
  0
LINE
  8
0_00
  6
CENTER1
 62
6
 10
3757.4829
 20
2607.0718
 11
3757.4829
 21
2446.2227
  0
LINE
  8
0_00
  6
CENTER1
 62
6
 10
3307.4829
 20
2607.0718
 11
3307.4829
 21
2446.2227
  0
LINE
  8
0_00
  6
CONTINUOUS
 62
4
 10
3214.2325
 20
2585.2887
 11
3939.8117
 21
2585.2887
  0
LINE
  8
0_00
  6
CONTINUOUS
 62
4
 10
3214.2325
 20
2556.2886
 11
3299.9826
 21
2556.2886
  0
LINE
  8
0_00
  6
CONTINUOUS
 62
4
 10
3314.9826
 20
2556.2886
 11
3750.4828
 21
2556.2886
  0
LINE
  8
0_00
  6
CONTINUOUS
 62
4
 10
3301.7328
 20
2561.6330
 11
3313.2327
 21
2561.6330
  0
LINE
  8
0_00
  6
CONTINUOUS
 62
4
 10
3299.9826
 20
2559.8833
 11
3299.9826
 21
2556.2886
  0
LINE
  8
0_00
  6
CONTINUOUS
 62
4
 10
3314.9826
 20
2559.8833
 11
3314.9826
 21
2556.2886
  0
LINE
  8
0_00
  6
CONTINUOUS
 62
4
 10
3214.2325
 20
2565.5386
 11
3939.8117
 21
2565.5386
  0
LINE
  8
0_00
  6
CONTINUOUS
 62
4
 10
3214.2325
 20
2566.3010
 11
3939.8117
 21
2566.3010
  0
LINE
  8
0_00
  6
CONTINUOUS
 62
4
 10
3182.4826
 20
2585.3885
 11
3197.9828
 21
2585.3885
  0
LINE
  8
0_00
  6
CONTINUOUS
 62
4
 10
3751.7328
 20
2561.6330
 11
3763.2327
 21
2561.6330
  0
LINE
  8
0_00
  6
CONTINUOUS
 62
4
 10
3749.9826
 20
2559.8833
 11
3749.9826
 21
2556.2886
  0
LINE
  8
0_00
  6
CONTINUOUS
 62
4
 10
3764.9826
 20
2559.8833
 11
3764.9826
 21
2556.2886
  0
LINE
  8
0_00
  6
CONTINUOUS
 62
4
 10
3764.4827
 20
2556.2886
 11
3939.8117
 21
2556.2886
  0
LINE
  8
0_00
  6
CONTINUOUS
 62
6
 10
2653.8660
 20
939.5561
 11
2708.1641
 21
1033.6028
  0
LINE
  8
0_00
  6
CONTINUOUS
 62
6
 10
2653.8660
 20
939.5561
 11
2670.5939
 21
958.1348
  0
LINE
  8
0_00
  6
CONTINUOUS
 62
6
 10
2653.8660
 20
939.5561
 11
2661.5915
 21
963.3326
  0
LINE
  8
0_00
  6
CONTINUOUS
 62
6
 10
2708.1641
 20
1033.6028
 11
2954.1641
 21
1033.6028
  0
LINE
  8
0_00
  6
CENTER1
 62
6
 10
2522.6062
 20
2010.6210
 11
2768.7753
 21
2010.6210
  0
LINE
  8
0_00
  6
CENTER1
 62
6
 10
2577.7753
 20
2067.4222
 11
2577.7753
 21
1842.6939
  0
LINE
  8
3_03
  6
CONTINUOUS
 62
4
 10
3197.7325
 20
1650.9883
 11
3182.8012
 21
1650.9883
  0
LINE
  8
0_00
  6
CONTINUOUS
 62
4
 10
3196.9263
 20
1626.9884
 11
3212.0511
 21
1626.9884
  0
LINE
  8
0_00
  6
CONTINUOUS
 62
4
 10
3212.3010
 20
1650.7384
 11
3212.3010
 21
1627.2383
  0
LINE
  8
0_00
  6
CONTINUOUS
 62
4
 10
3182.8012
 20
1650.9883
 11
3212.0511
 21
1650.9883
  0
LINE
  8
0_00
  6
CONTINUOUS
 62
4
 10
3162.3862
 20
1626.9884
 11
3196.9263
 21
1626.9884
  0
LINE
  8
0_00
  6
CONTINUOUS
 62
4
 10
3198.0511
 20
1647.0000
 11
3198.0511
 21
1628.1133
  0
LINE
  8
0_00
  6
CONTINUOUS
 62
4
 10
3167.5513
 20
1647.0000
 11
3167.5513
 21
1628.1133
  0
LINE
  8
0_00
  6
CONTINUOUS
 62
4
 10
3162.1362
 20
1650.7384
 11
3162.1362
 21
1627.2383
  0
LINE
  8
0_00
  6
CONTINUOUS
 62
4
 10
3182.8012
 20
1650.9883
 11
3162.3862
 21
1650.9883
  0
LINE
  8
0_00
  6
CONTINUOUS
 62
4
 10
3162.1362
 20
1627.1388
 11
3113.6710
 21
1627.1388
  0
LINE
  8
0_00
  6
CONTINUOUS
 62
4
 10
3162.1362
 20
1650.6389
 11
3113.6710
 21
1650.6389
  0
LINE
  8
2_02
  6
CONTINUOUS
 62
4
 10
2581.7044
 20
923.2185
 11
2635.2753
 21
923.2185
  0
LINE
  8
2_02
  6
CONTINUOUS
 62
4
 10
2635.2753
 20
861.7184
 11
2633.1149
 21
861.7184
  0
LINE
  8
2_02
  6
CONTINUOUS
 62
4
 10
2635.7751
 20
862.2185
 11
2635.7751
 21
922.7184
  0
LINE
  8
2_02
  6
CONTINUOUS
 62
4
 10
2630.6152
 20
862.3883
 11
2604.8050
 21
877.2897
  0
LINE
  8
2_02
  6
CONTINUOUS
 62
4
 10
2553.2536
 20
911.4337
 11
2515.3732
 21
873.5533
  0
LINE
  8
2_02
  6
CONTINUOUS
 62
4
 10
2560.3879
 20
831.5938
 11
2558.8603
 21
830.0663
  0
LINE
  8
2_02
  6
CONTINUOUS
 62
4
 10
2561.6818
 20
833.8352
 11
2569.3954
 21
862.6226
  0
LINE
  8
2_02
  6
CONTINUOUS
 62
4
 10
2558.1531
 20
830.0663
 11
2515.3732
 21
872.8462
  0
LINE
  8
0_00
  6
CENTER1
 62
6
 10
2577.7753
 20
956.4908
 11
2577.7753
 21
818.7632
  0
LINE
  8
0_00
  6
CONTINUOUS
 62
6
 10
2559.9028
 20
892.4685
 11
2510.7733
 21
977.5632
  0
LINE
  8
0_00
  6
CONTINUOUS
 62
6
 10
2559.9028
 20
892.4685
 11
2552.1774
 21
916.2448
  0
LINE
  8
0_00
  6
CONTINUOUS
 62
6
 10
2559.9028
 20
892.4685
 11
2543.1743
 21
911.0471
  0
LINE
  8
0_00
  6
CONTINUOUS
 62
6
 10
2510.7733
 20
977.5632
 11
2158.7172
 21
977.5632
  0
LINE
  8
0_00
  6
CENTER1
 62
6
 10
2577.7753
 20
2010.6210
 11
2433.8686
 21
1866.7142
  0
LINE
  8
0_00
  6
CONTINUOUS
 62
4
 10
2611.9479
 20
1928.1210
 11
2593.4656
 21
1972.7420
  0
LINE
  8
0_00
  6
CONTINUOUS
 62
4
 10
2562.0853
 20
2048.5001
 11
2543.6026
 21
2093.1209
  0
LINE
  8
0_00
  6
CONTINUOUS
 62
4
 10
3154.0170
 20
2110.2667
 11
3113.6710
 21
2110.2667
  0
LINE
  8
2_02
  6
CONTINUOUS
 62
4
 10
3218.8010
 20
2110.3662
 11
3218.8010
 21
2091.8665
  0
LINE
  8
0_00
  6
CONTINUOUS
 62
4
 10
3218.5687
 20
2110.6157
 11
3218.3810
 21
2110.6166
  0
LINE
  8
2_02
  6
CONTINUOUS
 62
4
 10
3154.2670
 20
2091.6162
 11
3218.5513
 21
2091.6162
  0
LINE
  8
0_00
  6
CONTINUOUS
 62
4
 10
3201.1017
 20
2104.8663
 11
3200.6250
 21
2104.8663
  0
LINE
  8
0_00
  6
CONTINUOUS
 62
4
 10
3203.3011
 20
2099.0900
 11
3203.3011
 21
2095.1163
  0
LINE
  8
0_00
  6
CONTINUOUS
 62
4
 10
3201.6711
 20
2094.1164
 11
3202.3010
 21
2094.1164
  0
LINE
  8
0_00
  6
CONTINUOUS
 62
4
 10
3162.3013
 20
2093.8664
 11
3162.3013
 21
2092.6164
  0
LINE
  8
0_00
  6
CONTINUOUS
 62
4
 10
3162.5510
 20
2094.1164
 11
3163.9307
 21
2094.1164
  0
LINE
  8
12_0C
  6
DASHED
 62
6
 10
3165.3012
 20
2093.1165
 11
3165.3012
 21
2092.9163
  0
LINE
  8
0_00
  6
CONTINUOUS
 62
4
 10
3162.3013
 20
2099.0900
 11
3162.3013
 21
2095.1163
  0
LINE
  8
2_02
  6
CONTINUOUS
 62
4
 10
3154.0170
 20
2110.3662
 11
3154.0170
 21
2091.8665
  0
LINE
  8
0_00
  6
CONTINUOUS
 62
4
 10
3154.2493
 20
2110.6157
 11
3154.4370
 21
2110.6166
  0
LINE
  8
0_00
  6
CONTINUOUS
 62
4
 10
3154.0170
 20
2091.8665
 11
3113.6710
 21
2091.8665
  0
LINE
  8
2_02
  6
CONTINUOUS
 62
4
 10
2649.7751
 20
1970.3709
 11
2649.7751
 21
2050.8710
  0
LINE
  8
0_00
  6
CONTINUOUS
 62
4
 10
2582.2964
 20
2051.3710
 11
2649.2752
 21
2051.3710
  0
LINE
  8
0_00
  6
CONTINUOUS
 62
4
 10
2648.9374
 20
1969.8711
 11
2649.2752
 21
1969.8711
  0
LINE
  8
0_00
  6
CONTINUOUS
 62
4
 10
2648.9374
 20
1969.8711
 11
2613.4268
 21
1990.3731
  0
LINE
  8
2_02
  6
CONTINUOUS
 62
4
 10
2555.3249
 20
1931.2483
 11
2498.4026
 21
1988.1703
  0
LINE
  8
0_00
  6
CONTINUOUS
 62
4
 10
2545.7640
 20
2036.2390
 11
2498.4026
 21
1988.8774
  0
LINE
  8
0_00
  6
CONTINUOUS
 62
4
 10
2556.2709
 20
1931.4871
 11
2556.0318
 21
1931.2483
  0
LINE
  8
0_00
  6
CONTINUOUS
 62
4
 10
2556.2709
 20
1931.4871
 11
2566.8832
 21
1971.0942
  0
LINE
  8
0_00
  6
CONTINUOUS
 62
4
 10
2649.7751
 20
2050.6210
 11
2761.2964
 21
2050.6210
  0
LINE
  8
0_00
  6
CONTINUOUS
 62
4
 10
2649.7751
 20
1970.6210
 11
2761.2964
 21
1970.6210
  0
LINE
  8
0_00
  6
CONTINUOUS
 62
4
 10
2498.5796
 20
1987.9935
 11
2419.7220
 21
1909.1364
  0
LINE
  8
0_00
  6
CONTINUOUS
 62
4
 10
2555.1477
 20
1931.4250
 11
2476.2906
 21
1852.5677
  0
LINE
  8
0_00
  6
CENTER1
 62
6
 10
2522.6062
 20
2520.6430
 11
2768.7753
 21
2520.6430
  0
LINE
  8
0_00
  6
CENTER1
 62
6
 10
2577.7753
 20
2577.4442
 11
2577.7753
 21
2352.7159
  0
LINE
  8
0_00
  6
CENTER1
 62
6
 10
2577.7753
 20
2520.6430
 11
2433.8686
 21
2376.7361
  0
LINE
  8
0_00
  6
CONTINUOUS
 62
4
 10
2611.9479
 20
2438.1429
 11
2589.9948
 21
2491.1429
  0
LINE
  8
0_00
  6
CONTINUOUS
 62
4
 10
2543.6026
 20
2603.1430
 11
2566.3324
 21
2548.2693
  0
LINE
  8
0_00
  6
CONTINUOUS
 62
4
 10
2577.7753
 20
2550.1430
 11
2638.7753
 21
2550.1430
  0
LINE
  8
0_00
  6
CONTINUOUS
 62
4
 10
2589.9948
 20
2491.1429
 11
2638.7753
 21
2491.1429
  0
LINE
  8
0_00
  6
CONTINUOUS
 62
4
 10
2587.2052
 20
2550.5457
 11
2587.2052
 21
2521.0455
  0
LINE
  8
0_00
  6
CONTINUOUS
 62
4
 10
2587.2052
 20
2521.0455
 11
2601.1490
 21
2491.1429
  0
LINE
  8
0_00
  6
CONTINUOUS
 62
4
 10
2556.9157
 20
2541.5027
 11
2513.7819
 21
2498.3690
  0
LINE
  8
0_00
  6
CONTINUOUS
 62
4
 10
2597.6016
 20
2498.7497
 11
2555.5016
 21
2456.6498
  0
LINE
  8
0_00
  6
CONTINUOUS
 62
4
 10
2638.7753
 20
2549.6429
 11
2761.2964
 21
2549.6429
  0
LINE
  8
0_00
  6
CONTINUOUS
 62
4
 10
2638.7753
 20
2491.6431
 11
2761.2964
 21
2491.6431
  0
LINE
  8
0_00
  6
CONTINUOUS
 62
4
 10
2636.2753
 20
2550.1430
 11
2636.2753
 21
2491.1429
  0
LINE
  8
0_00
  6
CONTINUOUS
 62
4
 10
2638.7753
 20
2550.1430
 11
2638.7753
 21
2491.1429
  0
LINE
  8
0_00
  6
CONTINUOUS
 62
4
 10
2514.1357
 20
2498.0156
 11
2427.5005
 21
2411.3800
  0
LINE
  8
0_00
  6
CONTINUOUS
 62
4
 10
2555.1477
 20
2457.0032
 11
2468.5126
 21
2370.3679
  0
LINE
  8
0_00
  6
CONTINUOUS
 62
4
 10
2515.5499
 20
2500.1369
 11
2557.2693
 21
2458.4175
  0
LINE
  8
0_00
  6
CONTINUOUS
 62
4
 10
2513.7819
 20
2498.3690
 11
2555.5016
 21
2456.6498
  0
LINE
  8
0_00
  6
CONTINUOUS
 62
4
 10
3211.7328
 20
2585.3885
 11
3211.7328
 21
2556.1887
  0
LINE
  8
0_00
  6
CONTINUOUS
 62
4
 10
3214.2325
 20
2585.3885
 11
3182.4826
 21
2585.3885
  0
LINE
  8
0_00
  6
CONTINUOUS
 62
4
 10
3214.2325
 20
2556.1887
 11
3182.4826
 21
2556.1887
  0
LINE
  8
0_00
  6
CONTINUOUS
 62
4
 10
3187.4826
 20
2567.1136
 11
3187.4826
 21
2566.9638
  0
LINE
  8
0_00
  6
CONTINUOUS
 62
4
 10
3187.4826
 20
2574.6136
 11
3169.0622
 21
2574.6136
  0
LINE
  8
0_00
  6
CONTINUOUS
 62
4
 10
3187.4826
 20
2566.9638
 11
3169.0622
 21
2566.9638
  0
LINE
  8
0_00
  6
CONTINUOUS
 62
4
 10
3157.4854
 20
2585.4639
 11
3177.0560
 21
2585.4639
  0
LINE
  8
0_00
  6
CONTINUOUS
 62
4
 10
3157.4854
 20
2556.2634
 11
3177.0560
 21
2556.2634
  0
LINE
  8
0_00
  6
CONTINUOUS
 62
4
 10
3177.4826
 20
2556.6902
 11
3177.4826
 21
2557.0715
  0
LINE
  8
0_00
  6
CONTINUOUS
 62
4
 10
3177.4826
 20
2584.5056
 11
3177.4826
 21
2585.0369
  0
LINE
  8
0_00
  6
CONTINUOUS
 62
4
 10
3196.5930
 20
2567.1136
 11
3168.8812
 21
2567.1136
  0
LINE
  8
0_00
  6
CONTINUOUS
 62
4
 10
3196.5930
 20
2574.6136
 11
3168.8812
 21
2574.6136
  0
LINE
  8
0_00
  6
CONTINUOUS
 62
4
 10
3214.2325
 20
2585.3885
 11
3214.2325
 21
2556.1887
  0
LINE
  8
0_00
  6
CONTINUOUS
 62
4
 10
3157.4854
 20
2585.4639
 11
3157.4854
 21
2556.2634
  0
LINE
  8
0_00
  6
CONTINUOUS
 62
4
 10
3159.9850
 20
2585.4639
 11
3159.9850
 21
2556.2634
  0
LINE
  8
0_00
  6
CONTINUOUS
 62
4
 10
3157.4854
 20
2585.2887
 11
3113.6710
 21
2585.2887
  0
LINE
  8
0_00
  6
CONTINUOUS
 62
4
 10
3157.4854
 20
2556.2886
 11
3113.6710
 21
2556.2886
  0
LINE
  8
0_00
  6
CONTINUOUS
 62
4
 10
3157.4854
 20
2565.5386
 11
3113.6710
 21
2565.5386
  0
LINE
  8
0_00
  6
CONTINUOUS
 62
4
 10
3157.4854
 20
2566.3010
 11
3113.6710
 21
2566.3010
  0
LINE
  8
0_00
  6
CONTINUOUS
 62
6
 10
2550.5486
 20
2041.2753
 11
2501.6087
 21
2126.0413
  0
LINE
  8
0_00
  6
CONTINUOUS
 62
6
 10
2550.5486
 20
2041.2753
 11
2542.8230
 21
2065.0519
  0
LINE
  8
0_00
  6
CONTINUOUS
 62
6
 10
2550.5486
 20
2041.2753
 11
2533.8202
 21
2059.8538
  0
LINE
  8
0_00
  6
CONTINUOUS
 62
6
 10
2501.6087
 20
2126.0413
 11
2159.6088
 21
2126.0413
  0
LINE
  8
0_00
  6
CONTINUOUS
 62
6
 10
2548.0952
 20
2532.6822
 11
2484.5650
 21
2642.7200
  0
LINE
  8
0_00
  6
CONTINUOUS
 62
6
 10
2548.0952
 20
2532.6822
 11
2540.3699
 21
2556.4586
  0
LINE
  8
0_00
  6
CONTINUOUS
 62
6
 10
2548.0952
 20
2532.6822
 11
2531.3670
 21
2551.2610
  0
LINE
  8
0_00
  6
CONTINUOUS
 62
6
 10
2484.5650
 20
2642.7200
 11
2214.5651
 21
2642.7200
  0
LINE
  8
0_00
  6
CONTINUOUS
 62
4
 10
2388.1403
 20
586.1608
 11
2611.9479
 21
809.9685
  0
LINE
  8
0_00
  6
CONTINUOUS
 62
2
 10
2374.3517
 20
599.9494
 11
2603.8705
 21
829.4685
  0
LINE
  8
0_00
  6
CONTINUOUS
 62
2
 10
2285.2562
 20
689.0448
 11
2551.6801
 21
955.4684
  0
LINE
  8
0_00
  6
CONTINUOUS
 62
4
 10
2271.4676
 20
702.8334
 11
2543.6026
 21
974.9684
  0
LINE
  8
0_00
  6
CONTINUOUS
 62
4
 10
2543.6026
 20
974.9684
 11
2565.9122
 21
921.1087
  0
LINE
  8
0_00
  6
CONTINUOUS
 62
4
 10
2589.6387
 20
863.8281
 11
2611.9479
 21
809.9685
  0
LINE
  8
0_00
  6
CONTINUOUS
 62
4
 10
2995.2750
 20
975.3966
 11
2995.2750
 21
809.5403
  0
LINE
  8
0_00
  6
CONTINUOUS
 62
4
 10
2960.2753
 20
975.3966
 11
2960.2753
 21
809.5403
  0
LINE
  8
0_00
  6
CONTINUOUS
 62
4
 10
2961.2469
 20
976.3962
 11
2977.7753
 21
976.8684
  0
LINE
  8
0_00
  6
CONTINUOUS
 62
4
 10
2977.7753
 20
976.8684
 11
2994.3039
 21
976.3962
  0
LINE
  8
0_00
  6
CONTINUOUS
 62
2
 10
2960.2753
 20
955.6684
 11
2995.2750
 21
955.6684
  0
LINE
  8
0_00
  6
CONTINUOUS
 62
4
 10
2961.2469
 20
808.5406
 11
2977.7753
 21
808.0685
  0
LINE
  8
0_00
  6
CONTINUOUS
 62
4
 10
2977.7753
 20
808.0685
 11
2994.3039
 21
808.5406
  0
LINE
  8
0_00
  6
CONTINUOUS
 62
2
 10
2960.2753
 20
829.2684
 11
2995.2750
 21
829.2684
  0
LINE
  8
0_00
  6
CONTINUOUS
 62
4
 10
3833.2141
 20
974.9684
 11
2995.2750
 21
974.9684
  0
LINE
  8
0_00
  6
CONTINUOUS
 62
4
 10
2960.2753
 20
974.9684
 11
2543.6026
 21
974.9684
  0
LINE
  8
0_00
  6
CONTINUOUS
 62
2
 10
3833.2141
 20
955.4684
 11
2995.2750
 21
955.4684
  0
LINE
  8
0_00
  6
CONTINUOUS
 62
2
 10
2960.2753
 20
955.4684
 11
2551.6801
 21
955.4684
  0
LINE
  8
0_00
  6
CONTINUOUS
 62
2
 10
3833.2141
 20
829.4685
 11
2995.2750
 21
829.4685
  0
LINE
  8
0_00
  6
CONTINUOUS
 62
2
 10
2960.2753
 20
829.4685
 11
2603.8705
 21
829.4685
  0
LINE
  8
0_00
  6
CONTINUOUS
 62
4
 10
3833.2141
 20
809.9685
 11
2995.2750
 21
809.9685
  0
LINE
  8
0_00
  6
CONTINUOUS
 62
4
 10
2960.2753
 20
809.9685
 11
2611.9479
 21
809.9685
  0
LINE
  8
0_00
  6
CONTINUOUS
 62
4
 10
2635.7751
 20
922.4685
 11
2960.2753
 21
922.4685
  0
LINE
  8
0_00
  6
CONTINUOUS
 62
4
 10
2995.2750
 20
922.4685
 11
3833.2141
 21
922.4685
  0
LINE
  8
0_00
  6
CONTINUOUS
 62
4
 10
3833.2141
 20
862.4684
 11
2995.2750
 21
862.4684
  0
LINE
  8
0_00
  6
CONTINUOUS
 62
4
 10
2960.2753
 20
862.4684
 11
2635.7751
 21
862.4684
  0
LINE
  8
0_00
  6
CENTER1
 62
6
 10
2977.7753
 20
1002.6847
 11
2977.7753
 21
769.1862
  0
LINE
  8
0_00
  6
DASHED
 62
6
 10
2597.7753
 20
973.2684
 11
2657.7750
 21
973.2684
  0
LINE
  8
0_00
  6
DASHED
 62
6
 10
2597.7753
 20
851.7685
 11
2657.7750
 21
851.7685
  0
LINE
  8
0_00
  6
DASHED
 62
6
 10
2657.7750
 20
973.2684
 11
2657.7750
 21
851.7685
  0
LINE
  8
0_00
  6
DASHED
 62
6
 10
2597.7753
 20
851.7685
 11
2597.7753
 21
973.2684
  0
LINE
  8
0_00
  6
CONTINUOUS
 62
2
 10
1213.5375
 20
1744.1360
 11
2000.0905
 21
1744.1360
  0
LINE
  8
0_00
  6
CONTINUOUS
 62
2
 10
1213.5375
 20
2078.7639
 11
2000.0905
 21
2078.7639
  0
LINE
  8
0_00
  6
CONTINUOUS
 62
2
 10
1213.5375
 20
2483.7860
 11
2000.0905
 21
2483.7860
  0
LINE
  8
14_0E
  6
CONTINUOUS
 62
4
 10
3173.0960
 20
1546.5440
 11
3173.2053
 21
1530.8777
  0
LINE
  8
0_00
  6
CONTINUOUS
 62
4
 10
3174.1043
 20
1523.8843
 11
3174.0692
 21
1528.8956
  0
LINE
  8
0_00
  6
CONTINUOUS
 62
4
 10
3175.6400
 20
1549.5302
 11
3182.4490
 21
1550.5777
  0
LINE
  8
0_00
  6
CONTINUOUS
 62
4
 10
3185.9283
 20
1523.1389
 11
3185.9283
 21
1426.8529
  0
LINE
  8
0_00
  6
CENTER1
 62
6
 10
3382.4829
 20
1565.1514
 11
3382.4829
 21
1507.1111
  0
LINE
  8
0_00
  6
CONTINUOUS
 62
2
 10
3382.4829
 20
1551.9888
 11
3382.4829
 21
1521.8396
  0
LINE
  8
0_00
  6
CONTINUOUS
 62
2
 10
3391.2329
 20
1551.3388
 11
3391.2329
 21
1521.8396
  0
LINE
  8
0_00
  6
CONTINUOUS
 62
2
 10
3373.7329
 20
1551.3388
 11
3373.7329
 21
1521.8396
  0
LINE
  8
0_00
  6
CONTINUOUS
 62
2
 10
3382.4829
 20
1551.9888
 11
3373.7329
 21
1551.3388
  0
LINE
  8
0_00
  6
CONTINUOUS
 62
2
 10
3382.4829
 20
1551.9888
 11
3391.2329
 21
1551.3388
  0
LINE
  8
0_00
  6
CONTINUOUS
 62
2
 10
3373.7329
 20
1521.8396
 11
3391.2329
 21
1521.8396
  0
LINE
  8
0_00
  6
CONTINUOUS
 62
2
 10
3391.2329
 20
1549.4629
 11
3373.7329
 21
1549.4629
  0
LINE
  8
0_00
  6
CONTINUOUS
 62
2
 10
3391.2329
 20
1529.9432
 11
3373.7329
 21
1529.9432
  0
LINE
  8
0_00
  6
CONTINUOUS
 62
4
 10
3113.6710
 20
1550.6387
 11
3373.7329
 21
1550.6387
  0
LINE
  8
0_00
  6
CONTINUOUS
 62
4
 10
3391.2329
 20
1550.6387
 11
3939.8117
 21
1550.6387
  0
LINE
  8
0_00
  6
CONTINUOUS
 62
2
 10
3113.6710
 20
1549.1359
 11
3373.7329
 21
1549.1359
  0
LINE
  8
0_00
  6
CONTINUOUS
 62
2
 10
3391.2329
 20
1549.1359
 11
3939.8117
 21
1549.1359
  0
LINE
  8
16_10
  6
CONTINUOUS
 62
2
 10
3113.6710
 20
1529.6161
 11
3373.7329
 21
1529.6161
  0
LINE
  8
16_10
  6
CONTINUOUS
 62
2
 10
3391.2329
 20
1529.6161
 11
3939.8117
 21
1529.6161
  0
LINE
  8
0_00
  6
CONTINUOUS
 62
4
 10
3113.6710
 20
1523.1389
 11
3373.7329
 21
1523.1389
  0
LINE
  8
0_00
  6
CONTINUOUS
 62
4
 10
3391.2329
 20
1523.1389
 11
3939.8117
 21
1523.1389
  0
LINE
  8
14_0E
  6
CONTINUOUS
 62
4
 10
3173.0960
 20
2006.1720
 11
3173.2053
 21
1990.5057
  0
LINE
  8
0_00
  6
CONTINUOUS
 62
4
 10
3174.1043
 20
1983.5123
 11
3174.0692
 21
1988.5236
  0
LINE
  8
0_00
  6
CONTINUOUS
 62
4
 10
3175.6400
 20
2009.1582
 11
3182.4490
 21
2010.2057
  0
LINE
  8
0_00
  6
CONTINUOUS
 62
4
 10
3185.9283
 20
1982.7667
 11
3185.9283
 21
1886.4809
  0
LINE
  8
0_00
  6
CENTER1
 62
6
 10
3382.4829
 20
2024.7794
 11
3382.4829
 21
1966.7390
  0
LINE
  8
0_00
  6
CONTINUOUS
 62
2
 10
3382.4829
 20
2011.6168
 11
3382.4829
 21
1981.4676
  0
LINE
  8
0_00
  6
CONTINUOUS
 62
2
 10
3391.2329
 20
2010.9666
 11
3391.2329
 21
1981.4676
  0
LINE
  8
0_00
  6
CONTINUOUS
 62
2
 10
3373.7329
 20
2010.9666
 11
3373.7329
 21
1981.4676
  0
LINE
  8
0_00
  6
CONTINUOUS
 62
2
 10
3382.4829
 20
2011.6168
 11
3373.7329
 21
2010.9666
  0
LINE
  8
0_00
  6
CONTINUOUS
 62
2
 10
3382.4829
 20
2011.6168
 11
3391.2329
 21
2010.9666
  0
LINE
  8
0_00
  6
CONTINUOUS
 62
2
 10
3373.7329
 20
1981.4676
 11
3391.2329
 21
1981.4676
  0
LINE
  8
0_00
  6
CONTINUOUS
 62
2
 10
3391.2329
 20
2009.0910
 11
3373.7329
 21
2009.0910
  0
LINE
  8
0_00
  6
CONTINUOUS
 62
2
 10
3391.2329
 20
1989.5712
 11
3373.7329
 21
1989.5712
  0
LINE
  8
0_00
  6
CONTINUOUS
 62
4
 10
3113.6710
 20
2010.2667
 11
3373.7329
 21
2010.2667
  0
LINE
  8
0_00
  6
CONTINUOUS
 62
4
 10
3391.2329
 20
2010.2667
 11
3939.8117
 21
2010.2667
  0
LINE
  8
0_00
  6
CONTINUOUS
 62
2
 10
3113.6710
 20
2008.7640
 11
3373.7329
 21
2008.7640
  0
LINE
  8
0_00
  6
CONTINUOUS
 62
2
 10
3391.2329
 20
2008.7640
 11
3939.8117
 21
2008.7640
  0
LINE
  8
16_10
  6
CONTINUOUS
 62
2
 10
3113.6710
 20
1989.2442
 11
3373.7329
 21
1989.2442
  0
LINE
  8
16_10
  6
CONTINUOUS
 62
2
 10
3391.2329
 20
1989.2442
 11
3939.8117
 21
1989.2442
  0
LINE
  8
0_00
  6
CONTINUOUS
 62
4
 10
3113.6710
 20
1982.7667
 11
3373.7329
 21
1982.7667
  0
LINE
  8
0_00
  6
CONTINUOUS
 62
4
 10
3391.2329
 20
1982.7667
 11
3939.8117
 21
1982.7667
  0
LINE
  8
14_0E
  6
CONTINUOUS
 62
4
 10
3173.0960
 20
2481.1938
 11
3173.2053
 21
2465.5275
  0
LINE
  8
0_00
  6
CONTINUOUS
 62
4
 10
3174.1043
 20
2458.5341
 11
3174.0692
 21
2463.5452
  0
LINE
  8
0_00
  6
CONTINUOUS
 62
4
 10
3175.6400
 20
2484.1800
 11
3182.4490
 21
2485.2277
  0
LINE
  8
0_00
  6
CONTINUOUS
 62
4
 10
3185.9283
 20
2457.7885
 11
3185.9283
 21
2361.5028
  0
LINE
  8
0_00
  6
CENTER1
 62
6
 10
3382.4829
 20
2499.8012
 11
3382.4829
 21
2441.7612
  0
LINE
  8
0_00
  6
CONTINUOUS
 62
2
 10
3382.4829
 20
2486.6385
 11
3382.4829
 21
2456.4896
  0
LINE
  8
0_00
  6
CONTINUOUS
 62
2
 10
3391.2329
 20
2485.9885
 11
3391.2329
 21
2456.4896
  0
LINE
  8
0_00
  6
CONTINUOUS
 62
2
 10
3373.7329
 20
2485.9885
 11
3373.7329
 21
2456.4896
  0
LINE
  8
0_00
  6
CONTINUOUS
 62
2
 10
3382.4829
 20
2486.6385
 11
3373.7329
 21
2485.9885
  0
LINE
  8
0_00
  6
CONTINUOUS
 62
2
 10
3382.4829
 20
2486.6385
 11
3391.2329
 21
2485.9885
  0
LINE
  8
0_00
  6
CONTINUOUS
 62
2
 10
3373.7329
 20
2456.4896
 11
3391.2329
 21
2456.4896
  0
LINE
  8
0_00
  6
CONTINUOUS
 62
2
 10
3391.2329
 20
2484.1130
 11
3373.7329
 21
2484.1130
  0
LINE
  8
0_00
  6
CONTINUOUS
 62
2
 10
3391.2329
 20
2464.5932
 11
3373.7329
 21
2464.5932
  0
LINE
  8
0_00
  6
CONTINUOUS
 62
4
 10
3113.6710
 20
2485.2888
 11
3373.7329
 21
2485.2888
  0
LINE
  8
0_00
  6
CONTINUOUS
 62
4
 10
3391.2329
 20
2485.2888
 11
3939.8117
 21
2485.2888
  0
LINE
  8
0_00
  6
CONTINUOUS
 62
2
 10
3113.6710
 20
2483.7860
 11
3373.7329
 21
2483.7860
  0
LINE
  8
0_00
  6
CONTINUOUS
 62
2
 10
3391.2329
 20
2483.7860
 11
3939.8117
 21
2483.7860
  0
LINE
  8
16_10
  6
CONTINUOUS
 62
2
 10
3113.6710
 20
2464.2661
 11
3373.7329
 21
2464.2661
  0
LINE
  8
16_10
  6
CONTINUOUS
 62
2
 10
3391.2329
 20
2464.2661
 11
3939.8117
 21
2464.2661
  0
LINE
  8
0_00
  6
CONTINUOUS
 62
4
 10
3113.6710
 20
2457.7885
 11
3373.7329
 21
2457.7885
  0
LINE
  8
0_00
  6
CONTINUOUS
 62
4
 10
3391.2329
 20
2457.7885
 11
3939.8117
 21
2457.7885
  0
LINE
  8
0_00
  6
CONTINUOUS
 62
4
 10
2761.2964
 20
1928.1210
 11
2611.9479
 21
1928.1210
  0
LINE
  8
0_00
  6
CONTINUOUS
 62
4
 10
2506.3426
 20
1822.5157
 11
2611.9479
 21
1928.1210
  0
LINE
  8
0_00
  6
CONTINUOUS
 62
2
 10
2492.5542
 20
1836.3043
 11
2603.8705
 21
1947.6210
  0
LINE
  8
0_00
  6
CONTINUOUS
 62
2
 10
2761.2964
 20
1947.6210
 11
2603.8705
 21
1947.6210
  0
LINE
  8
0_00
  6
CONTINUOUS
 62
2
 10
2761.2964
 20
2073.6209
 11
2551.6801
 21
2073.6209
  0
LINE
  8
0_00
  6
CONTINUOUS
 62
2
 10
2403.4587
 20
1925.3998
 11
2551.6801
 21
2073.6209
  0
LINE
  8
0_00
  6
CONTINUOUS
 62
4
 10
2389.6701
 20
1939.1884
 11
2543.6026
 21
2093.1209
  0
LINE
  8
0_00
  6
CONTINUOUS
 62
4
 10
2761.2964
 20
2093.1209
 11
2543.6026
 21
2093.1209
  0
LINE
  8
0_00
  6
DASHED
 62
6
 10
2597.7753
 20
2091.4211
 11
2657.7750
 21
2091.4211
  0
LINE
  8
0_00
  6
DASHED
 62
6
 10
2597.7753
 20
1969.9210
 11
2657.7750
 21
1969.9210
  0
LINE
  8
0_00
  6
DASHED
 62
6
 10
2657.7750
 20
2091.4211
 11
2657.7750
 21
1969.9210
  0
LINE
  8
0_00
  6
DASHED
 62
6
 10
2597.7753
 20
1969.9210
 11
2597.7753
 21
2091.4211
  0
LINE
  8
0_00
  6
CONTINUOUS
 62
4
 10
2761.2964
 20
2438.1429
 11
2611.9479
 21
2438.1429
  0
LINE
  8
0_00
  6
CONTINUOUS
 62
4
 10
2506.3426
 20
2332.5375
 11
2611.9479
 21
2438.1429
  0
LINE
  8
0_00
  6
CONTINUOUS
 62
2
 10
2492.5542
 20
2346.3261
 11
2603.8705
 21
2457.6428
  0
LINE
  8
0_00
  6
CONTINUOUS
 62
2
 10
2761.2964
 20
2457.6428
 11
2603.8705
 21
2457.6428
  0
LINE
  8
0_00
  6
CONTINUOUS
 62
2
 10
2761.2964
 20
2583.6429
 11
2551.6801
 21
2583.6429
  0
LINE
  8
0_00
  6
CONTINUOUS
 62
4
 10
2761.2964
 20
2603.1430
 11
2543.6026
 21
2603.1430
  0
LINE
  8
0_00
  6
CONTINUOUS
 62
4
 10
2389.6701
 20
2449.2104
 11
2543.6026
 21
2603.1430
  0
LINE
  8
0_00
  6
CONTINUOUS
 62
2
 10
2403.4587
 20
2435.4218
 11
2551.6801
 21
2583.6429
  0
LINE
  8
0_00
  6
CONTINUOUS
 62
6
 10
2423.6438
 20
611.0577
 11
2478.3855
 21
516.2428
  0
LINE
  8
0_00
  6
CONTINUOUS
 62
6
 10
2423.6438
 20
611.0577
 11
2431.3692
 21
587.2813
  0
LINE
  8
0_00
  6
CONTINUOUS
 62
6
 10
2423.6438
 20
611.0577
 11
2440.3723
 21
592.4791
  0
LINE
  8
0_00
  6
CONTINUOUS
 62
6
 10
2478.3855
 20
516.2428
 11
2700.3851
 21
516.2428
  0
LINE
  8
0_00
  6
CONTINUOUS
 62
3
 10
1824.7032
 20
324.0002
 11
1824.7032
 21
124.0001
  0
LINE
  8
0_00
  6
CONTINUOUS
 62
7
 10
182.3016
 20
374.0002
 11
4061.7035
 21
374.0002
  0
LINE
  8
0_00
  6
CONTINUOUS
 62
3
 10
4061.7035
 20
2838.9999
 11
4061.7035
 21
2883.9999
  0
LINE
  8
0_00
  6
CONTINUOUS
 62
7
 10
4061.7035
 20
124.0001
 11
4061.7035
 21
2838.9999
  0
LINE
  8
0_00
  6
CONTINUOUS
 62
3
 10
182.3016
 20
2838.9999
 11
182.3016
 21
2883.9999
  0
LINE
  8
0_00
  6
CONTINUOUS
 62
7
 10
182.3016
 20
124.0001
 11
182.3016
 21
2838.9999
  0
LINE
  8
0_00
  6
CONTINUOUS
 62
7
 10
182.3016
 20
2838.9999
 11
4061.7035
 21
2838.9999
  0
LINE
  8
0_00
  6
CONTINUOUS
 62
7
 10
182.3016
 20
124.0001
 11
4061.7035
 21
124.0001
  0
LINE
  8
0_00
  6
CONTINUOUS
 62
3
 10
132.3016
 20
74.0001
 11
132.3016
 21
2883.9999
  0
LINE
  8
0_00
  6
CONTINUOUS
 62
3
 10
4111.7032
 20
74.0001
 11
4111.7032
 21
2883.9999
  0
LINE
  8
0_00
  6
CONTINUOUS
 62
3
 10
132.3016
 20
2883.9999
 11
4111.7032
 21
2883.9999
  0
LINE
  8
0_00
  6
CONTINUOUS
 62
3
 10
3568.7033
 20
124.0001
 11
3568.7033
 21
374.0002
  0
LINE
  8
0_00
  6
CONTINUOUS
 62
3
 10
182.3016
 20
324.0002
 11
2709.2035
 21
324.0002
  0
LINE
  8
0_00
  6
CONTINUOUS
 62
7
 10
2709.2035
 20
324.0002
 11
4061.7035
 21
324.0002
  0
LINE
  8
0_00
  6
CONTINUOUS
 62
3
 10
3568.7033
 20
224.0001
 11
4061.7035
 21
224.0001
  0
LINE
  8
0_00
  6
CONTINUOUS
 62
3
 10
3668.7033
 20
374.0002
 11
3668.7033
 21
324.0002
  0
LINE
  8
0_00
  6
CONTINUOUS
 62
3
 10
2709.2035
 20
124.0001
 11
2709.2035
 21
324.0002
  0
LINE
  8
0_00
  6
CONTINUOUS
 62
7
 10
2709.2035
 20
324.0002
 11
2709.2035
 21
374.0002
  0
LINE
  8
0_00
  6
CONTINUOUS
 62
3
 10
2789.2035
 20
324.0002
 11
2789.2035
 21
374.0002
  0
LINE
  8
0_00
  6
CONTINUOUS
 62
3
 10
3041.7035
 20
124.0001
 11
3041.7035
 21
374.0002
  0
LINE
  8
0_00
  6
CONTINUOUS
 62
3
 10
3348.7033
 20
324.0002
 11
3348.7033
 21
374.0002
  0
LINE
  8
0_00
  6
CONTINUOUS
 62
3
 10
3440.7034
 20
124.0001
 11
3440.7034
 21
324.0002
  0
LINE
  8
0_00
  6
CONTINUOUS
 62
3
 10
3319.7031
 20
124.0001
 11
3319.7031
 21
324.0002
  0
LINE
  8
0_00
  6
CONTINUOUS
 62
3
 10
3198.7030
 20
124.0001
 11
3198.7030
 21
324.0002
  0
LINE
  8
0_00
  6
CONTINUOUS
 62
3
 10
1562.2032
 20
124.0001
 11
1562.2032
 21
374.0002
  0
LINE
  8
0_00
  6
CONTINUOUS
 62
3
 10
2087.2031
 20
124.0001
 11
2087.2031
 21
324.0002
  0
LINE
  8
0_00
  6
CONTINUOUS
 62
3
 10
182.3016
 20
274.0002
 11
1562.2032
 21
274.0002
  0
LINE
  8
0_00
  6
CONTINUOUS
 62
3
 10
182.3016
 20
224.0001
 11
3041.7035
 21
224.0001
  0
LINE
  8
0_00
  6
CONTINUOUS
 62
3
 10
582.3016
 20
174.0001
 11
1562.2032
 21
174.0001
  0
LINE
  8
0_00
  6
CONTINUOUS
 62
7
 10
182.3016
 20
174.0001
 11
582.3016
 21
174.0001
  0
LINE
  8
0_00
  6
CONTINUOUS
 62
3
 10
2726.7035
 20
2838.9999
 11
2726.7035
 21
2883.9999
  0
LINE
  8
0_00
  6
CONTINUOUS
 62
3
 10
2626.7035
 20
2838.9999
 11
2626.7035
 21
2883.9999
  0
LINE
  8
0_00
  6
CONTINUOUS
 62
3
 10
682.3016
 20
2838.9999
 11
682.3016
 21
2883.9999
  0
LINE
  8
0_00
  6
CONTINUOUS
 62
3
 10
2846.7032
 20
2838.9999
 11
2846.7032
 21
2883.9999
  0
LINE
  8
0_00
  6
CONTINUOUS
 62
3
 10
3051.7035
 20
2838.9999
 11
3051.7035
 21
2883.9999
  0
LINE
  8
0_00
  6
CONTINUOUS
 62
3
 10
3821.7032
 20
2838.9999
 11
3821.7032
 21
2883.9999
  0
LINE
  8
0_00
  6
CONTINUOUS
 62
3
 10
382.3016
 20
374.0002
 11
382.3016
 21
124.0001
  0
LINE
  8
0_00
  6
CONTINUOUS
 62
7
 10
582.3016
 20
374.0002
 11
582.3016
 21
124.0001
  0
LINE
  8
0_00
  6
CONTINUOUS
 62
3
 10
2899.2035
 20
224.0001
 11
2899.2035
 21
324.0002
  0
LINE
  8
0_00
  6
CONTINUOUS
 62
3
 10
2979.2035
 20
374.0002
 11
2979.2035
 21
324.0002
  0
LINE
  8
0_00
  6
CONTINUOUS
 62
3
 10
3041.7035
 20
274.0002
 11
3568.7033
 21
274.0002
  0
LINE
  8
0_00
  6
CONTINUOUS
 62
3
 10
3588.7033
 20
239.0001
 11
3595.2029
 21
239.0001
  0
LINE
  8
0_00
  6
CONTINUOUS
 62
3
 10
3595.2029
 20
239.0001
 11
3595.2029
 21
304.0001
  0
LINE
  8
0_00
  6
CONTINUOUS
 62
3
 10
3595.2029
 20
304.0001
 11
3588.7033
 21
304.0001
  0
LINE
  8
0_00
  6
CONTINUOUS
 62
3
 10
3588.7033
 20
239.0001
 11
3588.7033
 21
304.0001
  0
LINE
  8
0_00
  6
CONTINUOUS
 62
3
 10
3597.8030
 20
239.0001
 11
3604.3033
 21
239.0001
  0
LINE
  8
0_00
  6
CONTINUOUS
 62
3
 10
3604.3033
 20
239.0001
 11
3604.3033
 21
304.0001
  0
LINE
  8
0_00
  6
CONTINUOUS
 62
3
 10
3604.3033
 20
304.0001
 11
3597.8030
 21
304.0001
  0
LINE
  8
0_00
  6
CONTINUOUS
 62
3
 10
3597.8030
 20
239.0001
 11
3597.8030
 21
304.0001
  0
LINE
  8
0_00
  6
CONTINUOUS
 62
3
 10
3606.9034
 20
239.0001
 11
3613.4030
 21
239.0001
  0
LINE
  8
0_00
  6
CONTINUOUS
 62
3
 10
3613.4030
 20
239.0001
 11
3613.4030
 21
304.0001
  0
LINE
  8
0_00
  6
CONTINUOUS
 62
3
 10
3613.4030
 20
304.0001
 11
3606.9034
 21
304.0001
  0
LINE
  8
0_00
  6
CONTINUOUS
 62
3
 10
3606.9034
 20
239.0001
 11
3606.9034
 21
304.0001
  0
LINE
  8
0_00
  6
CONTINUOUS
 62
3
 10
3616.0031
 20
239.0001
 11
3622.5031
 21
239.0001
  0
LINE
  8
0_00
  6
CONTINUOUS
 62
3
 10
3622.5031
 20
304.0001
 11
3616.0031
 21
304.0001
  0
LINE
  8
0_00
  6
CONTINUOUS
 62
3
 10
3616.0031
 20
239.0001
 11
3616.0031
 21
304.0001
  0
LINE
  8
0_00
  6
CONTINUOUS
 62
3
 10
3641.3535
 20
239.0001
 11
3666.7032
 21
239.0001
  0
LINE
  8
0_00
  6
CONTINUOUS
 62
3
 10
3666.7032
 20
239.0001
 11
3666.7032
 21
244.8501
  0
LINE
  8
0_00
  6
CONTINUOUS
 62
3
 10
3666.7032
 20
244.8501
 11
3641.3535
 21
244.8501
  0
LINE
  8
0_00
  6
CONTINUOUS
 62
3
 10
3641.3535
 20
244.8501
 11
3641.3535
 21
239.0001
  0
LINE
  8
0_00
  6
CONTINUOUS
 62
3
 10
3641.3535
 20
247.4502
 11
3666.7032
 21
247.4502
  0
LINE
  8
0_00
  6
CONTINUOUS
 62
3
 10
3666.7032
 20
247.4502
 11
3666.7032
 21
253.3000
  0
LINE
  8
0_00
  6
CONTINUOUS
 62
3
 10
3666.7032
 20
253.3000
 11
3641.3535
 21
253.3000
  0
LINE
  8
0_00
  6
CONTINUOUS
 62
3
 10
3641.3535
 20
253.3000
 11
3641.3535
 21
247.4502
  0
LINE
  8
0_00
  6
CONTINUOUS
 62
3
 10
3641.3535
 20
255.9001
 11
3666.7032
 21
255.9001
  0
LINE
  8
0_00
  6
CONTINUOUS
 62
3
 10
3666.7032
 20
255.9001
 11
3666.7032
 21
261.7501
  0
LINE
  8
0_00
  6
CONTINUOUS
 62
3
 10
3666.7032
 20
261.7501
 11
3641.3535
 21
261.7501
  0
LINE
  8
0_00
  6
CONTINUOUS
 62
3
 10
3641.3535
 20
261.7501
 11
3641.3535
 21
255.9001
  0
LINE
  8
0_00
  6
CONTINUOUS
 62
3
 10
3641.3535
 20
264.3502
 11
3666.7032
 21
264.3502
  0
LINE
  8
0_00
  6
CONTINUOUS
 62
3
 10
3666.7032
 20
264.3502
 11
3666.7032
 21
270.2000
  0
LINE
  8
0_00
  6
CONTINUOUS
 62
3
 10
3666.7032
 20
270.2000
 11
3641.3535
 21
270.2000
  0
LINE
  8
0_00
  6
CONTINUOUS
 62
3
 10
3641.3535
 20
270.2000
 11
3641.3535
 21
264.3502
  0
LINE
  8
0_00
  6
CONTINUOUS
 62
3
 10
3641.3535
 20
272.8001
 11
3666.7032
 21
272.8001
  0
LINE
  8
0_00
  6
CONTINUOUS
 62
3
 10
3666.7032
 20
272.8001
 11
3666.7032
 21
278.6501
  0
LINE
  8
0_00
  6
CONTINUOUS
 62
3
 10
3666.7032
 20
278.6501
 11
3641.3535
 21
278.6501
  0
LINE
  8
0_00
  6
CONTINUOUS
 62
3
 10
3641.3535
 20
278.6501
 11
3641.3535
 21
272.8001
  0
LINE
  8
0_00
  6
CONTINUOUS
 62
3
 10
3641.3535
 20
281.2502
 11
3666.7032
 21
281.2502
  0
LINE
  8
0_00
  6
CONTINUOUS
 62
3
 10
3666.7032
 20
281.2502
 11
3666.7032
 21
287.1001
  0
LINE
  8
0_00
  6
CONTINUOUS
 62
3
 10
3666.7032
 20
287.1001
 11
3641.3535
 21
287.1001
  0
LINE
  8
0_00
  6
CONTINUOUS
 62
3
 10
3641.3535
 20
287.1001
 11
3641.3535
 21
281.2502
  0
LINE
  8
0_00
  6
CONTINUOUS
 62
3
 10
3641.3535
 20
289.7002
 11
3666.7032
 21
289.7002
  0
LINE
  8
0_00
  6
CONTINUOUS
 62
3
 10
3666.7032
 20
289.7002
 11
3666.7032
 21
295.5502
  0
LINE
  8
0_00
  6
CONTINUOUS
 62
3
 10
3666.7032
 20
295.5502
 11
3641.3535
 21
295.5502
  0
LINE
  8
0_00
  6
CONTINUOUS
 62
3
 10
3641.3535
 20
295.5502
 11
3641.3535
 21
289.7002
  0
LINE
  8
0_00
  6
CONTINUOUS
 62
3
 10
3641.3535
 20
298.1503
 11
3666.7032
 21
298.1503
  0
LINE
  8
0_00
  6
CONTINUOUS
 62
3
 10
3666.7032
 20
298.1503
 11
3666.7032
 21
304.0001
  0
LINE
  8
0_00
  6
CONTINUOUS
 62
3
 10
3666.7032
 20
304.0001
 11
3641.3535
 21
304.0001
  0
LINE
  8
0_00
  6
CONTINUOUS
 62
3
 10
3641.3535
 20
304.0001
 11
3641.3535
 21
298.1503
  0
LINE
  8
0_00
  6
CONTINUOUS
 62
3
 10
3625.1031
 20
239.0001
 11
3625.1031
 21
256.8752
  0
LINE
  8
0_00
  6
CONTINUOUS
 62
3
 10
3629.4583
 20
242.5749
 11
3629.4583
 21
256.8752
  0
LINE
  8
0_00
  6
CONTINUOUS
 62
3
 10
3625.1031
 20
239.0001
 11
3632.2531
 21
239.0001
  0
LINE
  8
0_00
  6
CONTINUOUS
 62
3
 10
3629.4583
 20
242.5749
 11
3632.2531
 21
242.5749
  0
LINE
  8
0_00
  6
CONTINUOUS
 62
3
 10
3632.0166
 20
266.0185
 11
3634.8532
 21
260.4502
  0
LINE
  8
0_00
  6
CONTINUOUS
 62
3
 10
3636.4697
 20
275.1509
 11
3632.0157
 21
266.0183
  0
LINE
  8
0_00
  6
CONTINUOUS
 62
3
 10
3622.5031
 20
284.5003
 11
3622.5031
 21
304.0001
  0
LINE
  8
0_00
  6
CONTINUOUS
 62
3
 10
3622.5031
 20
284.5003
 11
3630.6284
 21
284.5003
  0
LINE
  8
0_00
  6
CONTINUOUS
 62
3
 10
3622.5031
 20
280.6002
 11
3626.1105
 21
280.6002
  0
LINE
  8
0_00
  6
CONTINUOUS
 62
3
 10
3622.5031
 20
260.4502
 11
3634.8532
 21
260.4502
  0
LINE
  8
0_00
  6
CONTINUOUS
 62
3
 10
3622.5031
 20
273.2036
 11
3626.1111
 21
280.6003
  0
LINE
  8
0_00
  6
CONTINUOUS
 62
3
 10
3622.5031
 20
273.2042
 11
3622.5031
 21
280.6002
  0
LINE
  8
0_00
  6
CONTINUOUS
 62
3
 10
3622.5031
 20
260.4502
 11
3622.5031
 21
239.0001
  0
LINE
  8
0_00
  6
CONTINUOUS
 62
3
 10
3589.7031
 20
304.0001
 11
3589.7031
 21
239.0001
  0
LINE
  8
0_00
  6
CONTINUOUS
 62
3
 10
3590.7034
 20
304.0001
 11
3590.7034
 21
239.0001
  0
LINE
  8
0_00
  6
CONTINUOUS
 62
3
 10
3591.7032
 20
304.0001
 11
3591.7032
 21
239.0001
  0
LINE
  8
0_00
  6
CONTINUOUS
 62
3
 10
3592.7029
 20
304.0001
 11
3592.7029
 21
239.0001
  0
LINE
  8
0_00
  6
CONTINUOUS
 62
3
 10
3593.7033
 20
304.0001
 11
3593.7033
 21
239.0001
  0
LINE
  8
0_00
  6
CONTINUOUS
 62
3
 10
3598.8037
 20
304.0001
 11
3598.8037
 21
239.0001
  0
LINE
  8
0_00
  6
CONTINUOUS
 62
3
 10
3599.8032
 20
304.0001
 11
3599.8032
 21
239.0001
  0
LINE
  8
0_00
  6
CONTINUOUS
 62
3
 10
3600.8029
 20
304.0001
 11
3600.8029
 21
239.0001
  0
LINE
  8
0_00
  6
CONTINUOUS
 62
3
 10
3601.8033
 20
304.0001
 11
3601.8033
 21
239.0001
  0
LINE
  8
0_00
  6
CONTINUOUS
 62
3
 10
3602.8030
 20
304.0001
 11
3602.8030
 21
239.0001
  0
LINE
  8
0_00
  6
CONTINUOUS
 62
3
 10
3603.8037
 20
304.0001
 11
3603.8037
 21
239.0001
  0
LINE
  8
0_00
  6
CONTINUOUS
 62
3
 10
3607.9031
 20
304.0001
 11
3607.9031
 21
239.0001
  0
LINE
  8
0_00
  6
CONTINUOUS
 62
3
 10
3608.9035
 20
304.0001
 11
3608.9035
 21
239.0001
  0
LINE
  8
0_00
  6
CONTINUOUS
 62
3
 10
3609.9030
 20
304.0001
 11
3609.9030
 21
239.0001
  0
LINE
  8
0_00
  6
CONTINUOUS
 62
3
 10
3610.9030
 20
304.0001
 11
3610.9030
 21
239.0001
  0
LINE
  8
0_00
  6
CONTINUOUS
 62
3
 10
3611.9034
 20
304.0001
 11
3611.9034
 21
239.0001
  0
LINE
  8
0_00
  6
CONTINUOUS
 62
3
 10
3612.9031
 20
304.0001
 11
3612.9031
 21
239.0001
  0
LINE
  8
0_00
  6
CONTINUOUS
 62
3
 10
3641.3535
 20
240.0002
 11
3666.7032
 21
240.0002
  0
LINE
  8
0_00
  6
CONTINUOUS
 62
3
 10
3641.3535
 20
241.0002
 11
3666.7032
 21
241.0002
  0
LINE
  8
0_00
  6
CONTINUOUS
 62
3
 10
3641.3535
 20
242.0000
 11
3666.7032
 21
242.0000
  0
LINE
  8
0_00
  6
CONTINUOUS
 62
3
 10
3641.3535
 20
243.0001
 11
3666.7032
 21
243.0001
  0
LINE
  8
0_00
  6
CONTINUOUS
 62
3
 10
3641.3535
 20
244.0001
 11
3666.7032
 21
244.0001
  0
LINE
  8
0_00
  6
CONTINUOUS
 62
3
 10
3641.3535
 20
248.4502
 11
3666.7032
 21
248.4502
  0
LINE
  8
0_00
  6
CONTINUOUS
 62
3
 10
3641.3535
 20
249.4503
 11
3666.7032
 21
249.4503
  0
LINE
  8
0_00
  6
CONTINUOUS
 62
3
 10
3641.3535
 20
250.4501
 11
3666.7032
 21
250.4501
  0
LINE
  8
0_00
  6
CONTINUOUS
 62
3
 10
3641.3535
 20
251.4501
 11
3666.7032
 21
251.4501
  0
LINE
  8
0_00
  6
CONTINUOUS
 62
3
 10
3641.3535
 20
252.4502
 11
3666.7032
 21
252.4502
  0
LINE
  8
0_00
  6
CONTINUOUS
 62
3
 10
3641.3535
 20
256.9003
 11
3666.7032
 21
256.9003
  0
LINE
  8
0_00
  6
CONTINUOUS
 62
3
 10
3641.3535
 20
257.9002
 11
3666.7032
 21
257.9002
  0
LINE
  8
0_00
  6
CONTINUOUS
 62
3
 10
3641.3535
 20
258.9000
 11
3666.7032
 21
258.9000
  0
LINE
  8
0_00
  6
CONTINUOUS
 62
3
 10
3641.3535
 20
259.9001
 11
3666.7032
 21
259.9001
  0
LINE
  8
0_00
  6
CONTINUOUS
 62
3
 10
3641.3535
 20
260.9002
 11
3666.7032
 21
260.9002
  0
LINE
  8
0_00
  6
CONTINUOUS
 62
3
 10
3641.3535
 20
265.3502
 11
3666.7032
 21
265.3502
  0
LINE
  8
0_00
  6
CONTINUOUS
 62
3
 10
3641.3535
 20
266.3503
 11
3666.7032
 21
266.3503
  0
LINE
  8
0_00
  6
CONTINUOUS
 62
3
 10
3641.3535
 20
267.3501
 11
3666.7032
 21
267.3501
  0
LINE
  8
0_00
  6
CONTINUOUS
 62
3
 10
3641.3535
 20
268.3501
 11
3666.7032
 21
268.3501
  0
LINE
  8
0_00
  6
CONTINUOUS
 62
3
 10
3641.3535
 20
269.3502
 11
3666.7032
 21
269.3502
  0
LINE
  8
0_00
  6
CONTINUOUS
 62
3
 10
3641.3535
 20
273.8003
 11
3666.7032
 21
273.8003
  0
LINE
  8
0_00
  6
CONTINUOUS
 62
3
 10
3641.3535
 20
274.8003
 11
3666.7032
 21
274.8003
  0
LINE
  8
0_00
  6
CONTINUOUS
 62
3
 10
3641.3535
 20
275.8000
 11
3666.7032
 21
275.8000
  0
LINE
  8
0_00
  6
CONTINUOUS
 62
3
 10
3641.3535
 20
276.8002
 11
3666.7032
 21
276.8002
  0
LINE
  8
0_00
  6
CONTINUOUS
 62
3
 10
3641.3535
 20
277.8002
 11
3666.7032
 21
277.8002
  0
LINE
  8
0_00
  6
CONTINUOUS
 62
3
 10
3666.7032
 20
282.2503
 11
3641.3535
 21
282.2503
  0
LINE
  8
0_00
  6
CONTINUOUS
 62
3
 10
3666.7032
 20
283.2504
 11
3641.3535
 21
283.2504
  0
LINE
  8
0_00
  6
CONTINUOUS
 62
3
 10
3666.7032
 20
284.2501
 11
3641.3535
 21
284.2501
  0
LINE
  8
0_00
  6
CONTINUOUS
 62
3
 10
3666.7032
 20
285.2501
 11
3641.3535
 21
285.2501
  0
LINE
  8
0_00
  6
CONTINUOUS
 62
3
 10
3666.7032
 20
286.2502
 11
3641.3535
 21
286.2502
  0
LINE
  8
0_00
  6
CONTINUOUS
 62
3
 10
3641.3535
 20
290.7003
 11
3666.7032
 21
290.7003
  0
LINE
  8
0_00
  6
CONTINUOUS
 62
3
 10
3641.3535
 20
291.7003
 11
3666.7032
 21
291.7003
  0
LINE
  8
0_00
  6
CONTINUOUS
 62
3
 10
3641.3535
 20
292.7001
 11
3666.7032
 21
292.7001
  0
LINE
  8
0_00
  6
CONTINUOUS
 62
3
 10
3641.3535
 20
293.7002
 11
3666.7032
 21
293.7002
  0
LINE
  8
0_00
  6
CONTINUOUS
 62
3
 10
3641.3535
 20
294.7002
 11
3666.7032
 21
294.7002
  0
LINE
  8
0_00
  6
CONTINUOUS
 62
3
 10
3641.3535
 20
299.1503
 11
3666.7032
 21
299.1503
  0
LINE
  8
0_00
  6
CONTINUOUS
 62
3
 10
3641.3535
 20
300.1504
 11
3666.7032
 21
300.1504
  0
LINE
  8
0_00
  6
CONTINUOUS
 62
3
 10
3641.3535
 20
301.1501
 11
3666.7032
 21
301.1501
  0
LINE
  8
0_00
  6
CONTINUOUS
 62
3
 10
3641.3535
 20
302.1501
 11
3666.7032
 21
302.1501
  0
LINE
  8
0_00
  6
CONTINUOUS
 62
3
 10
3641.3535
 20
303.1503
 11
3666.7032
 21
303.1503
  0
LINE
  8
0_00
  6
CONTINUOUS
 62
3
 10
3617.0029
 20
304.0001
 11
3617.0029
 21
239.0001
  0
LINE
  8
0_00
  6
CONTINUOUS
 62
3
 10
3618.0032
 20
304.0001
 11
3618.0032
 21
239.0001
  0
LINE
  8
0_00
  6
CONTINUOUS
 62
3
 10
3619.0030
 20
304.0001
 11
3619.0030
 21
239.0001
  0
LINE
  8
0_00
  6
CONTINUOUS
 62
3
 10
3620.0027
 20
304.0001
 11
3620.0027
 21
239.0001
  0
LINE
  8
0_00
  6
CONTINUOUS
 62
3
 10
3621.0031
 20
304.0001
 11
3621.0031
 21
239.0001
  0
LINE
  8
0_00
  6
CONTINUOUS
 62
3
 10
3622.0029
 20
304.0001
 11
3622.0029
 21
239.0001
  0
LINE
  8
0_00
  6
CONTINUOUS
 62
3
 10
3626.1035
 20
239.0001
 11
3626.1035
 21
256.8752
  0
LINE
  8
0_00
  6
CONTINUOUS
 62
3
 10
3627.1036
 20
239.0001
 11
3627.1036
 21
256.8752
  0
LINE
  8
0_00
  6
CONTINUOUS
 62
3
 10
3628.1033
 20
239.0001
 11
3628.1033
 21
256.8752
  0
LINE
  8
0_00
  6
CONTINUOUS
 62
3
 10
3629.1031
 20
239.0001
 11
3629.1031
 21
256.8752
  0
LINE
  8
0_00
  6
CONTINUOUS
 62
3
 10
3629.4583
 20
241.5749
 11
3632.2531
 21
241.5749
  0
LINE
  8
0_00
  6
CONTINUOUS
 62
3
 10
3629.4583
 20
240.5748
 11
3632.2531
 21
240.5748
  0
LINE
  8
0_00
  6
CONTINUOUS
 62
3
 10
3629.4583
 20
239.5751
 11
3632.2531
 21
239.5751
  0
LINE
  8
0_00
  6
CONTINUOUS
 62
3
 10
3634.2746
 20
261.5859
 11
3622.6175
 21
261.5859
  0
LINE
  8
0_00
  6
CONTINUOUS
 62
3
 10
3633.6771
 20
262.7591
 11
3622.6175
 21
262.7591
  0
LINE
  8
0_00
  6
CONTINUOUS
 62
3
 10
3632.9791
 20
264.1280
 11
3622.5931
 21
264.1280
  0
LINE
  8
0_00
  6
CONTINUOUS
 62
3
 10
3632.4014
 20
265.2622
 11
3622.5809
 21
265.2622
  0
LINE
  8
0_00
  6
CONTINUOUS
 62
3
 10
3636.9528
 20
278.4206
 11
3630.5008
 21
265.1930
  0
LINE
  8
0_00
  6
CONTINUOUS
 62
3
 10
3636.6318
 20
280.0444
 11
3629.3683
 21
265.1528
  0
LINE
  8
0_00
  6
CONTINUOUS
 62
3
 10
3636.0278
 20
281.0859
 11
3628.3047
 21
265.2528
  0
LINE
  8
0_00
  6
CONTINUOUS
 62
3
 10
3635.3424
 20
281.9643
 11
3627.1512
 21
265.1693
  0
LINE
  8
0_00
  6
CONTINUOUS
 62
3
 10
3634.6695
 20
282.8654
 11
3626.2631
 21
265.6290
  0
LINE
  8
0_00
  6
CONTINUOUS
 62
3
 10
3633.7900
 20
283.3419
 11
3624.9692
 21
265.2581
  0
LINE
  8
0_00
  6
CONTINUOUS
 62
3
 10
3632.9202
 20
283.8402
 11
3623.8443
 21
265.2324
  0
LINE
  8
0_00
  6
CONTINUOUS
 62
3
 10
3631.8881
 20
284.0058
 11
3622.7951
 21
265.3624
  0
LINE
  8
0_00
  6
CONTINUOUS
 62
3
 10
3630.8328
 20
284.1224
 11
3622.3511
 21
266.7324
  0
LINE
  8
0_00
  6
CONTINUOUS
 62
3
 10
3629.7906
 20
284.2674
 11
3622.4429
 21
269.2024
  0
LINE
  8
0_00
  6
CONTINUOUS
 62
3
 10
3628.6520
 20
284.2143
 11
3622.1292
 21
270.8403
  0
LINE
  8
0_00
  6
CONTINUOUS
 62
3
 10
3626.6412
 20
281.6002
 11
3622.5031
 21
281.6002
  0
LINE
  8
0_00
  6
CONTINUOUS
 62
3
 10
3627.4515
 20
282.6003
 11
3622.5031
 21
282.6003
  0
LINE
  8
0_00
  6
CONTINUOUS
 62
3
 10
3627.8317
 20
283.6001
 11
3622.5031
 21
283.6001
  0
LINE
  8
0_00
  6
CONTINUOUS
 62
3
 10
2654.2035
 20
2841.6306
 11
2699.2035
 21
2841.6306
  0
LINE
  8
0_00
  6
CONTINUOUS
 62
3
 10
2657.2284
 20
2846.8695
 11
2654.2035
 21
2841.6306
  0
LINE
  8
0_00
  6
CONTINUOUS
 62
3
 10
2669.6429
 20
2868.3728
 11
2676.7035
 21
2880.6018
  0
LINE
  8
0_00
  6
CONTINUOUS
 62
3
 10
2696.1789
 20
2846.8695
 11
2699.2035
 21
2841.6306
  0
LINE
  8
0_00
  6
CONTINUOUS
 62
3
 10
2683.7640
 20
2868.3728
 11
2676.7035
 21
2880.6018
  0
LINE
  8
0_00
  6
CONTINUOUS
 62
3
 10
4061.7035
 20
514.0002
 11
4071.7035
 21
514.0002
  0
LINE
  8
0_00
  6
CONTINUOUS
 62
3
 10
4061.7035
 20
584.0002
 11
4071.7035
 21
584.0002
  0
LINE
  8
0_00
  6
CONTINUOUS
 62
3
 10
4061.7035
 20
654.0002
 11
4071.7035
 21
654.0002
  0
LINE
  8
0_00
  6
CONTINUOUS
 62
3
 10
4061.7035
 20
724.0002
 11
4071.7035
 21
724.0002
  0
LINE
  8
0_00
  6
CONTINUOUS
 62
3
 10
4061.7035
 20
794.0002
 11
4071.7035
 21
794.0002
  0
LINE
  8
0_00
  6
CONTINUOUS
 62
3
 10
4061.7035
 20
864.0002
 11
4071.7035
 21
864.0002
  0
LINE
  8
0_00
  6
CONTINUOUS
 62
3
 10
4061.7035
 20
934.0002
 11
4071.7035
 21
934.0002
  0
LINE
  8
0_00
  6
CONTINUOUS
 62
3
 10
4061.7035
 20
1004.0002
 11
4071.7035
 21
1004.0002
  0
LINE
  8
0_00
  6
CONTINUOUS
 62
3
 10
4061.7035
 20
1074.0002
 11
4071.7035
 21
1074.0002
  0
LINE
  8
0_00
  6
CONTINUOUS
 62
3
 10
4061.7035
 20
1144.0002
 11
4071.7035
 21
1144.0002
  0
LINE
  8
0_00
  6
CONTINUOUS
 62
3
 10
4061.7035
 20
1214.0002
 11
4071.7035
 21
1214.0002
  0
LINE
  8
0_00
  6
CONTINUOUS
 62
3
 10
4061.7035
 20
1284.0001
 11
4071.7035
 21
1284.0001
  0
LINE
  8
0_00
  6
CONTINUOUS
 62
3
 10
4061.7035
 20
1354.0002
 11
4071.7035
 21
1354.0002
  0
LINE
  8
0_00
  6
CONTINUOUS
 62
3
 10
4061.7035
 20
1424.0002
 11
4071.7035
 21
1424.0002
  0
LINE
  8
0_00
  6
CONTINUOUS
 62
3
 10
4061.7035
 20
1494.0002
 11
4071.7035
 21
1494.0002
  0
LINE
  8
0_00
  6
CONTINUOUS
 62
3
 10
4061.7035
 20
1564.0002
 11
4071.7035
 21
1564.0002
  0
LINE
  8
0_00
  6
CONTINUOUS
 62
3
 10
4061.7035
 20
1634.0001
 11
4071.7035
 21
1634.0001
  0
LINE
  8
0_00
  6
CONTINUOUS
 62
3
 10
4061.7035
 20
2778.9999
 11
4071.7035
 21
2778.9999
  0
LINE
  8
0_00
  6
CONTINUOUS
 62
3
 10
4061.7035
 20
2719.0002
 11
4071.7035
 21
2719.0002
  0
LINE
  8
0_00
  6
CONTINUOUS
 62
3
 10
4061.7035
 20
2659.0002
 11
4071.7035
 21
2659.0002
  0
LINE
  8
0_00
  6
CONTINUOUS
 62
3
 10
4061.7035
 20
2598.9999
 11
4071.7035
 21
2598.9999
  0
LINE
  8
0_00
  6
CONTINUOUS
 62
3
 10
4061.7035
 20
2539.0001
 11
4071.7035
 21
2539.0001
  0
LINE
  8
0_00
  6
CONTINUOUS
 62
3
 10
4061.7035
 20
2479.0001
 11
4071.7035
 21
2479.0001
  0
LINE
  8
0_00
  6
CONTINUOUS
 62
3
 10
4061.7035
 20
1704.0001
 11
4071.7035
 21
1704.0001
  0
LINE
  8
0_00
  6
CONTINUOUS
 62
3
 10
4061.7035
 20
1774.0001
 11
4071.7035
 21
1774.0001
  0
LINE
  8
0_00
  6
CONTINUOUS
 62
3
 10
4061.7035
 20
1844.0001
 11
4071.7035
 21
1844.0001
  0
LINE
  8
0_00
  6
CONTINUOUS
 62
3
 10
4061.7035
 20
1914.0001
 11
4071.7035
 21
1914.0001
  0
LINE
  8
0_00
  6
CONTINUOUS
 62
3
 10
4061.7035
 20
1984.0001
 11
4071.7035
 21
1984.0001
  0
LINE
  8
0_00
  6
CONTINUOUS
 62
3
 10
4061.7035
 20
2054.0002
 11
4071.7035
 21
2054.0002
  0
LINE
  8
0_00
  6
CONTINUOUS
 62
3
 10
4061.7035
 20
2124.0001
 11
4071.7035
 21
2124.0001
  0
LINE
  8
0_00
  6
CONTINUOUS
 62
3
 10
4061.7035
 20
2194.0001
 11
4071.7035
 21
2194.0001
  0
LINE
  8
0_00
  6
CONTINUOUS
 62
3
 10
4061.7035
 20
2264.0001
 11
4071.7035
 21
2264.0001
  0
LINE
  8
0_00
  6
CONTINUOUS
 62
3
 10
4061.7035
 20
2334.0001
 11
4071.7035
 21
2334.0001
  0
LINE
  8
0_00
  6
CONTINUOUS
 62
3
 10
4061.7035
 20
2404.0001
 11
4071.7035
 21
2404.0001
  0
LINE
  8
0_00
  6
CENTER1
 62
3
 10
2936.8030
 20
244.0002
 11
2936.8030
 21
304.0002
  0
LINE
  8
0_00
  6
CONTINUOUS
 62
4
 10
2971.8030
 20
261.5002
 11
2971.8030
 21
286.5002
  0
LINE
  8
0_00
  6
CONTINUOUS
 62
4
 10
3016.8030
 20
254.0002
 11
3016.8030
 21
294.0002
  0
LINE
  8
0_00
  6
CONTINUOUS
 62
4
 10
2971.8030
 20
286.5002
 11
3016.8030
 21
294.0002
  0
LINE
  8
0_00
  6
CONTINUOUS
 62
4
 10
2971.8030
 20
261.5002
 11
3016.8030
 21
254.0002
  0
LINE
  8
0_00
  6
CENTER1
 62
3
 10
2906.8030
 20
274.0002
 11
3024.5184
 21
274.0002
  0
LINE
  8
0_00
  6
CONTINUOUS
 62
3
 10
3971.7032
 20
124.0001
 11
3971.7032
 21
224.0001
  0
LINE
  8
0_00
  6
CONTINUOUS
 62
3
 10
132.3016
 20
74.0001
 11
4111.7032
 21
74.0001
  0
LINE
  8
0_00
  6
CONTINUOUS
 62
3
 10
3941.7035
 20
2883.9999
 11
3941.7035
 21
2838.9999
  0
LINE
  8
0_00
  6
CONTINUOUS
 62
3
 10
0.0000
 20
1479.0001
 11
132.3016
 21
1479.0001
  0
LINE
  8
0_00
  6
CONTINUOUS
 62
3
 10
2087.2031
 20
74.0001
 11
2087.2031
 21
0.0000
  0
LINE
  8
0_00
  6
CONTINUOUS
 62
3
 10
2087.2031
 20
2883.9999
 11
2087.2031
 21
2970.0000
  0
LINE
  8
0_00
  6
CONTINUOUS
 62
3
 10
4111.7032
 20
1479.0001
 11
4200.0000
 21
1479.0001
  0
LINE
  8
0_00
  6
CONTINUOUS
 62
6
 10
876.5746
 20
1123.9684
 11
887.7745
 21
1123.9684
  0
LINE
  8
0_00
  6
CONTINUOUS
 62
6
 10
874.0746
 20
1121.4684
 11
874.0746
 21
1102.7684
  0
LINE
  8
0_00
  6
DASHED
 62
6
 10
888.0745
 20
1123.6684
 11
887.7745
 21
1123.9684
  0
LINE
  8
0_00
  6
CONTINUOUS
 62
6
 10
884.7745
 20
1122.7683
 11
880.8643
 21
1122.7683
  0
LINE
  8
0_00
  6
DASHED
 62
6
 10
874.3745
 20
1102.4685
 11
874.0746
 21
1102.7684
  0
LINE
  8
0_00
  6
CONTINUOUS
 62
6
 10
888.0745
 20
1121.9685
 11
885.5746
 21
1121.9685
  0
LINE
  8
0_00
  6
CONTINUOUS
 62
6
 10
884.7745
 20
1122.7683
 11
885.5746
 21
1121.9685
  0
LINE
  8
0_00
  6
DASHED
 62
6
 10
874.3745
 20
1102.4685
 11
874.0746
 21
1102.1684
  0
LINE
  8
0_00
  6
DASHED
 62
6
 10
874.3745
 20
1102.4685
 11
874.0746
 21
1102.7684
  0
LINE
  8
0_00
  6
CONTINUOUS
 62
6
 10
899.5745
 20
1123.9684
 11
888.3746
 21
1123.9684
  0
LINE
  8
0_00
  6
CONTINUOUS
 62
6
 10
902.0745
 20
1121.4684
 11
902.0745
 21
1102.7684
  0
LINE
  8
0_00
  6
DASHED
 62
6
 10
888.0745
 20
1123.6684
 11
888.3746
 21
1123.9684
  0
LINE
  8
0_00
  6
CONTINUOUS
 62
6
 10
891.3746
 20
1122.7683
 11
895.2847
 21
1122.7683
  0
LINE
  8
0_00
  6
DASHED
 62
6
 10
901.7745
 20
1102.4685
 11
902.0745
 21
1102.7684
  0
LINE
  8
0_00
  6
CONTINUOUS
 62
6
 10
888.0745
 20
1121.9685
 11
890.5745
 21
1121.9685
  0
LINE
  8
0_00
  6
CONTINUOUS
 62
6
 10
891.3746
 20
1122.7683
 11
890.5745
 21
1121.9685
  0
LINE
  8
0_00
  6
DASHED
 62
6
 10
901.7745
 20
1102.4685
 11
902.0745
 21
1102.1684
  0
LINE
  8
0_00
  6
DASHED
 62
6
 10
901.7745
 20
1102.4685
 11
902.0745
 21
1102.7684
  0
LINE
  8
0_00
  6
CONTINUOUS
 62
6
 10
876.5746
 20
1080.9685
 11
887.7745
 21
1080.9685
  0
LINE
  8
0_00
  6
CONTINUOUS
 62
6
 10
874.0746
 20
1083.4685
 11
874.0746
 21
1102.1684
  0
LINE
  8
0_00
  6
DASHED
 62
6
 10
888.0745
 20
1081.2683
 11
887.7745
 21
1080.9685
  0
LINE
  8
0_00
  6
CONTINUOUS
 62
6
 10
884.7745
 20
1082.1684
 11
880.8643
 21
1082.1684
  0
LINE
  8
0_00
  6
DASHED
 62
6
 10
874.3745
 20
1102.4685
 11
874.0746
 21
1102.1684
  0
LINE
  8
0_00
  6
CONTINUOUS
 62
6
 10
875.2745
 20
1117.1786
 11
875.2745
 21
1087.7582
  0
LINE
  8
0_00
  6
CONTINUOUS
 62
6
 10
888.0745
 20
1082.9685
 11
885.5746
 21
1082.9685
  0
LINE
  8
0_00
  6
CONTINUOUS
 62
6
 10
884.7745
 20
1082.1684
 11
885.5746
 21
1082.9685
  0
LINE
  8
0_00
  6
DASHED
 62
6
 10
874.3745
 20
1102.4685
 11
874.0746
 21
1102.7684
  0
LINE
  8
0_00
  6
DASHED
 62
6
 10
874.3745
 20
1102.4685
 11
874.0746
 21
1102.1684
  0
LINE
  8
0_00
  6
CONTINUOUS
 62
6
 10
899.5745
 20
1080.9685
 11
888.3746
 21
1080.9685
  0
LINE
  8
0_00
  6
CONTINUOUS
 62
6
 10
902.0745
 20
1083.4685
 11
902.0745
 21
1102.1684
  0
LINE
  8
0_00
  6
DASHED
 62
6
 10
888.0745
 20
1081.2683
 11
888.3746
 21
1080.9685
  0
LINE
  8
0_00
  6
CONTINUOUS
 62
6
 10
891.3746
 20
1082.1684
 11
895.2847
 21
1082.1684
  0
LINE
  8
0_00
  6
DASHED
 62
6
 10
901.7745
 20
1102.4685
 11
902.0745
 21
1102.1684
  0
LINE
  8
0_00
  6
CONTINUOUS
 62
6
 10
900.8746
 20
1117.1786
 11
900.8746
 21
1087.7582
  0
LINE
  8
0_00
  6
CONTINUOUS
 62
6
 10
888.0745
 20
1082.9685
 11
890.5745
 21
1082.9685
  0
LINE
  8
0_00
  6
CONTINUOUS
 62
6
 10
891.3746
 20
1082.1684
 11
890.5745
 21
1082.9685
  0
LINE
  8
0_00
  6
DASHED
 62
6
 10
901.7745
 20
1102.4685
 11
902.0745
 21
1102.7684
  0
LINE
  8
0_00
  6
DASHED
 62
6
 10
901.7745
 20
1102.4685
 11
902.0745
 21
1102.1684
  0
LINE
  8
0_00
  6
CONTINUOUS
 62
6
 10
900.1836
 20
1121.0168
 11
900.5191
 21
1121.3522
  0
LINE
  8
0_00
  6
CONTINUOUS
 62
6
 10
900.5191
 20
1121.3522
 11
899.4585
 21
1122.4130
  0
LINE
  8
0_00
  6
CONTINUOUS
 62
6
 10
899.4585
 20
1122.4130
 11
899.1230
 21
1122.0776
  0
LINE
  8
0_00
  6
CONTINUOUS
 62
6
 10
898.0260
 20
1122.0776
 11
897.6907
 21
1122.4130
  0
LINE
  8
0_00
  6
CONTINUOUS
 62
6
 10
897.6907
 20
1122.4130
 11
896.6299
 21
1121.3522
  0
LINE
  8
0_00
  6
CONTINUOUS
 62
6
 10
896.6299
 20
1121.3522
 11
896.9654
 21
1121.0168
  0
LINE
  8
0_00
  6
CONTINUOUS
 62
6
 10
899.1230
 20
1118.8593
 11
899.4585
 21
1118.5239
  0
LINE
  8
0_00
  6
CONTINUOUS
 62
6
 10
899.4585
 20
1118.5239
 11
900.5191
 21
1119.5845
  0
LINE
  8
0_00
  6
CONTINUOUS
 62
6
 10
900.5191
 20
1119.5845
 11
900.1836
 21
1119.9199
  0
LINE
  8
0_00
  6
CONTINUOUS
 62
6
 10
875.9654
 20
1121.0168
 11
875.6300
 21
1121.3522
  0
LINE
  8
0_00
  6
CONTINUOUS
 62
6
 10
875.6300
 20
1121.3522
 11
876.6906
 21
1122.4130
  0
LINE
  8
0_00
  6
CONTINUOUS
 62
6
 10
876.6906
 20
1122.4130
 11
877.0261
 21
1122.0776
  0
LINE
  8
0_00
  6
CONTINUOUS
 62
6
 10
878.1229
 20
1122.0776
 11
878.4584
 21
1122.4130
  0
LINE
  8
0_00
  6
CONTINUOUS
 62
6
 10
878.4584
 20
1122.4130
 11
879.5191
 21
1121.3522
  0
LINE
  8
0_00
  6
CONTINUOUS
 62
6
 10
879.5191
 20
1121.3522
 11
879.1837
 21
1121.0168
  0
LINE
  8
0_00
  6
CONTINUOUS
 62
6
 10
877.0261
 20
1118.8593
 11
876.6906
 21
1118.5239
  0
LINE
  8
0_00
  6
CONTINUOUS
 62
6
 10
876.6906
 20
1118.5239
 11
875.6300
 21
1119.5845
  0
LINE
  8
0_00
  6
CONTINUOUS
 62
6
 10
875.6300
 20
1119.5845
 11
875.9654
 21
1119.9199
  0
LINE
  8
0_00
  6
CONTINUOUS
 62
6
 10
900.1836
 20
1083.9201
 11
900.5191
 21
1083.5845
  0
LINE
  8
0_00
  6
CONTINUOUS
 62
6
 10
900.5191
 20
1083.5845
 11
899.4585
 21
1082.5239
  0
LINE
  8
0_00
  6
CONTINUOUS
 62
6
 10
899.4585
 20
1082.5239
 11
899.1230
 21
1082.8593
  0
LINE
  8
0_00
  6
CONTINUOUS
 62
6
 10
898.0260
 20
1082.8593
 11
897.6907
 21
1082.5239
  0
LINE
  8
0_00
  6
CONTINUOUS
 62
6
 10
897.6907
 20
1082.5239
 11
896.6299
 21
1083.5845
  0
LINE
  8
0_00
  6
CONTINUOUS
 62
6
 10
896.6299
 20
1083.5845
 11
896.9654
 21
1083.9201
  0
LINE
  8
0_00
  6
CONTINUOUS
 62
6
 10
899.1230
 20
1086.0776
 11
899.4585
 21
1086.4130
  0
LINE
  8
0_00
  6
CONTINUOUS
 62
6
 10
899.4585
 20
1086.4130
 11
900.5191
 21
1085.3522
  0
LINE
  8
0_00
  6
CONTINUOUS
 62
6
 10
900.5191
 20
1085.3522
 11
900.1836
 21
1085.0168
  0
LINE
  8
0_00
  6
CONTINUOUS
 62
6
 10
875.9654
 20
1083.9201
 11
875.6300
 21
1083.5845
  0
LINE
  8
0_00
  6
CONTINUOUS
 62
6
 10
875.6300
 20
1083.5845
 11
876.6906
 21
1082.5239
  0
LINE
  8
0_00
  6
CONTINUOUS
 62
6
 10
876.6906
 20
1082.5239
 11
877.0261
 21
1082.8593
  0
LINE
  8
0_00
  6
CONTINUOUS
 62
6
 10
878.1229
 20
1082.8593
 11
878.4584
 21
1082.5239
  0
LINE
  8
0_00
  6
CONTINUOUS
 62
6
 10
878.4584
 20
1082.5239
 11
879.5191
 21
1083.5845
  0
LINE
  8
0_00
  6
CONTINUOUS
 62
6
 10
879.5191
 20
1083.5845
 11
879.1837
 21
1083.9201
  0
LINE
  8
0_00
  6
CONTINUOUS
 62
6
 10
877.0261
 20
1086.0776
 11
876.6906
 21
1086.4130
  0
LINE
  8
0_00
  6
CONTINUOUS
 62
6
 10
876.6906
 20
1086.4130
 11
875.6300
 21
1085.3522
  0
LINE
  8
0_00
  6
CONTINUOUS
 62
6
 10
875.6300
 20
1085.3522
 11
875.9654
 21
1085.0168
  0
LINE
  8
0_00
  6
CONTINUOUS
 62
6
 10
1776.5746
 20
1123.9684
 11
1787.7745
 21
1123.9684
  0
LINE
  8
0_00
  6
CONTINUOUS
 62
6
 10
1774.0746
 20
1121.4684
 11
1774.0746
 21
1102.7684
  0
LINE
  8
0_00
  6
DASHED
 62
6
 10
1788.0745
 20
1123.6684
 11
1787.7745
 21
1123.9684
  0
LINE
  8
0_00
  6
CONTINUOUS
 62
6
 10
1784.7743
 20
1122.7683
 11
1780.8641
 21
1122.7683
  0
LINE
  8
0_00
  6
DASHED
 62
6
 10
1774.3744
 20
1102.4685
 11
1774.0746
 21
1102.7684
  0
LINE
  8
0_00
  6
CONTINUOUS
 62
6
 10
1788.0745
 20
1121.9685
 11
1785.5745
 21
1121.9685
  0
LINE
  8
0_00
  6
CONTINUOUS
 62
6
 10
1784.7743
 20
1122.7683
 11
1785.5745
 21
1121.9685
  0
LINE
  8
0_00
  6
DASHED
 62
6
 10
1774.3744
 20
1102.4685
 11
1774.0746
 21
1102.1684
  0
LINE
  8
0_00
  6
DASHED
 62
6
 10
1774.3744
 20
1102.4685
 11
1774.0746
 21
1102.7684
  0
LINE
  8
0_00
  6
CONTINUOUS
 62
6
 10
1799.5746
 20
1123.9684
 11
1788.3743
 21
1123.9684
  0
LINE
  8
0_00
  6
CONTINUOUS
 62
6
 10
1802.0746
 20
1121.4684
 11
1802.0746
 21
1102.7684
  0
LINE
  8
0_00
  6
DASHED
 62
6
 10
1788.0745
 20
1123.6684
 11
1788.3743
 21
1123.9684
  0
LINE
  8
0_00
  6
CONTINUOUS
 62
6
 10
1791.3744
 20
1122.7683
 11
1795.2846
 21
1122.7683
  0
LINE
  8
0_00
  6
DASHED
 62
6
 10
1801.7744
 20
1102.4685
 11
1802.0746
 21
1102.7684
  0
LINE
  8
0_00
  6
CONTINUOUS
 62
6
 10
1788.0745
 20
1121.9685
 11
1790.5745
 21
1121.9685
  0
LINE
  8
0_00
  6
CONTINUOUS
 62
6
 10
1791.3744
 20
1122.7683
 11
1790.5745
 21
1121.9685
  0
LINE
  8
0_00
  6
DASHED
 62
6
 10
1801.7744
 20
1102.4685
 11
1802.0746
 21
1102.1684
  0
LINE
  8
0_00
  6
DASHED
 62
6
 10
1801.7744
 20
1102.4685
 11
1802.0746
 21
1102.7684
  0
LINE
  8
0_00
  6
CONTINUOUS
 62
6
 10
1776.5746
 20
1080.9685
 11
1787.7745
 21
1080.9685
  0
LINE
  8
0_00
  6
CONTINUOUS
 62
6
 10
1774.0746
 20
1083.4685
 11
1774.0746
 21
1102.1684
  0
LINE
  8
0_00
  6
DASHED
 62
6
 10
1788.0745
 20
1081.2683
 11
1787.7745
 21
1080.9685
  0
LINE
  8
0_00
  6
CONTINUOUS
 62
6
 10
1784.7743
 20
1082.1684
 11
1780.8641
 21
1082.1684
  0
LINE
  8
0_00
  6
DASHED
 62
6
 10
1774.3744
 20
1102.4685
 11
1774.0746
 21
1102.1684
  0
LINE
  8
0_00
  6
CONTINUOUS
 62
6
 10
1775.2745
 20
1117.1786
 11
1775.2745
 21
1087.7582
  0
LINE
  8
0_00
  6
CONTINUOUS
 62
6
 10
1788.0745
 20
1082.9685
 11
1785.5745
 21
1082.9685
  0
LINE
  8
0_00
  6
CONTINUOUS
 62
6
 10
1784.7743
 20
1082.1684
 11
1785.5745
 21
1082.9685
  0
LINE
  8
0_00
  6
DASHED
 62
6
 10
1774.3744
 20
1102.4685
 11
1774.0746
 21
1102.7684
  0
LINE
  8
0_00
  6
DASHED
 62
6
 10
1774.3744
 20
1102.4685
 11
1774.0746
 21
1102.1684
  0
LINE
  8
0_00
  6
CONTINUOUS
 62
6
 10
1799.5746
 20
1080.9685
 11
1788.3743
 21
1080.9685
  0
LINE
  8
0_00
  6
CONTINUOUS
 62
6
 10
1802.0746
 20
1083.4685
 11
1802.0746
 21
1102.1684
  0
LINE
  8
0_00
  6
DASHED
 62
6
 10
1788.0745
 20
1081.2683
 11
1788.3743
 21
1080.9685
  0
LINE
  8
0_00
  6
CONTINUOUS
 62
6
 10
1791.3744
 20
1082.1684
 11
1795.2846
 21
1082.1684
  0
LINE
  8
0_00
  6
DASHED
 62
6
 10
1801.7744
 20
1102.4685
 11
1802.0746
 21
1102.1684
  0
LINE
  8
0_00
  6
CONTINUOUS
 62
6
 10
1800.8745
 20
1117.1786
 11
1800.8745
 21
1087.7582
  0
LINE
  8
0_00
  6
CONTINUOUS
 62
6
 10
1788.0745
 20
1082.9685
 11
1790.5745
 21
1082.9685
  0
LINE
  8
0_00
  6
CONTINUOUS
 62
6
 10
1791.3744
 20
1082.1684
 11
1790.5745
 21
1082.9685
  0
LINE
  8
0_00
  6
DASHED
 62
6
 10
1801.7744
 20
1102.4685
 11
1802.0746
 21
1102.7684
  0
LINE
  8
0_00
  6
DASHED
 62
6
 10
1801.7744
 20
1102.4685
 11
1802.0746
 21
1102.1684
  0
LINE
  8
0_00
  6
CONTINUOUS
 62
6
 10
1800.1836
 20
1121.0168
 11
1800.5190
 21
1121.3522
  0
LINE
  8
0_00
  6
CONTINUOUS
 62
6
 10
1800.5190
 20
1121.3522
 11
1799.4583
 21
1122.4130
  0
LINE
  8
0_00
  6
CONTINUOUS
 62
6
 10
1799.4583
 20
1122.4130
 11
1799.1229
 21
1122.0776
  0
LINE
  8
0_00
  6
CONTINUOUS
 62
6
 10
1798.0260
 20
1122.0776
 11
1797.6906
 21
1122.4130
  0
LINE
  8
0_00
  6
CONTINUOUS
 62
6
 10
1797.6906
 20
1122.4130
 11
1796.6298
 21
1121.3522
  0
LINE
  8
0_00
  6
CONTINUOUS
 62
6
 10
1796.6298
 20
1121.3522
 11
1796.9653
 21
1121.0168
  0
LINE
  8
0_00
  6
CONTINUOUS
 62
6
 10
1799.1229
 20
1118.8593
 11
1799.4583
 21
1118.5239
  0
LINE
  8
0_00
  6
CONTINUOUS
 62
6
 10
1799.4583
 20
1118.5239
 11
1800.5190
 21
1119.5845
  0
LINE
  8
0_00
  6
CONTINUOUS
 62
6
 10
1800.5190
 20
1119.5845
 11
1800.1836
 21
1119.9199
  0
LINE
  8
0_00
  6
CONTINUOUS
 62
6
 10
1775.9653
 20
1121.0168
 11
1775.6299
 21
1121.3522
  0
LINE
  8
0_00
  6
CONTINUOUS
 62
6
 10
1775.6299
 20
1121.3522
 11
1776.6905
 21
1122.4130
  0
LINE
  8
0_00
  6
CONTINUOUS
 62
6
 10
1776.6905
 20
1122.4130
 11
1777.0261
 21
1122.0776
  0
LINE
  8
0_00
  6
CONTINUOUS
 62
6
 10
1778.1230
 20
1122.0776
 11
1778.4584
 21
1122.4130
  0
LINE
  8
0_00
  6
CONTINUOUS
 62
6
 10
1778.4584
 20
1122.4130
 11
1779.5189
 21
1121.3522
  0
LINE
  8
0_00
  6
CONTINUOUS
 62
6
 10
1779.5189
 20
1121.3522
 11
1779.1837
 21
1121.0168
  0
LINE
  8
0_00
  6
CONTINUOUS
 62
6
 10
1777.0261
 20
1118.8593
 11
1776.6905
 21
1118.5239
  0
LINE
  8
0_00
  6
CONTINUOUS
 62
6
 10
1776.6905
 20
1118.5239
 11
1775.6299
 21
1119.5845
  0
LINE
  8
0_00
  6
CONTINUOUS
 62
6
 10
1775.6299
 20
1119.5845
 11
1775.9653
 21
1119.9199
  0
LINE
  8
0_00
  6
CONTINUOUS
 62
6
 10
1800.1836
 20
1083.9201
 11
1800.5190
 21
1083.5845
  0
LINE
  8
0_00
  6
CONTINUOUS
 62
6
 10
1800.5190
 20
1083.5845
 11
1799.4583
 21
1082.5239
  0
LINE
  8
0_00
  6
CONTINUOUS
 62
6
 10
1799.4583
 20
1082.5239
 11
1799.1229
 21
1082.8593
  0
LINE
  8
0_00
  6
CONTINUOUS
 62
6
 10
1798.0260
 20
1082.8593
 11
1797.6906
 21
1082.5239
  0
LINE
  8
0_00
  6
CONTINUOUS
 62
6
 10
1797.6906
 20
1082.5239
 11
1796.6298
 21
1083.5845
  0
LINE
  8
0_00
  6
CONTINUOUS
 62
6
 10
1796.6298
 20
1083.5845
 11
1796.9653
 21
1083.9201
  0
LINE
  8
0_00
  6
CONTINUOUS
 62
6
 10
1799.1229
 20
1086.0776
 11
1799.4583
 21
1086.4130
  0
LINE
  8
0_00
  6
CONTINUOUS
 62
6
 10
1799.4583
 20
1086.4130
 11
1800.5190
 21
1085.3522
  0
LINE
  8
0_00
  6
CONTINUOUS
 62
6
 10
1800.5190
 20
1085.3522
 11
1800.1836
 21
1085.0168
  0
LINE
  8
0_00
  6
CONTINUOUS
 62
6
 10
1775.9653
 20
1083.9201
 11
1775.6299
 21
1083.5845
  0
LINE
  8
0_00
  6
CONTINUOUS
 62
6
 10
1775.6299
 20
1083.5845
 11
1776.6905
 21
1082.5239
  0
LINE
  8
0_00
  6
CONTINUOUS
 62
6
 10
1776.6905
 20
1082.5239
 11
1777.0261
 21
1082.8593
  0
LINE
  8
0_00
  6
CONTINUOUS
 62
6
 10
1778.1230
 20
1082.8593
 11
1778.4584
 21
1082.5239
  0
LINE
  8
0_00
  6
CONTINUOUS
 62
6
 10
1778.4584
 20
1082.5239
 11
1779.5189
 21
1083.5845
  0
LINE
  8
0_00
  6
CONTINUOUS
 62
6
 10
1779.5189
 20
1083.5845
 11
1779.1837
 21
1083.9201
  0
LINE
  8
0_00
  6
CONTINUOUS
 62
6
 10
1777.0261
 20
1086.0776
 11
1776.6905
 21
1086.4130
  0
LINE
  8
0_00
  6
CONTINUOUS
 62
6
 10
1776.6905
 20
1086.4130
 11
1775.6299
 21
1085.3522
  0
LINE
  8
0_00
  6
CONTINUOUS
 62
6
 10
1775.6299
 20
1085.3522
 11
1775.9653
 21
1085.0168
  0
LINE
  8
0_00
  6
CONTINUOUS
 62
6
 10
616.5746
 20
863.9684
 11
616.5746
 21
852.7684
  0
LINE
  8
0_00
  6
CONTINUOUS
 62
6
 10
619.0746
 20
866.4684
 11
637.7745
 21
866.4684
  0
LINE
  8
0_00
  6
DASHED
 62
6
 10
616.8746
 20
852.4685
 11
616.5746
 21
852.7684
  0
LINE
  8
0_00
  6
CONTINUOUS
 62
6
 10
617.7745
 20
855.7684
 11
617.7745
 21
859.6786
  0
LINE
  8
0_00
  6
DASHED
 62
6
 10
638.0745
 20
866.1684
 11
637.7745
 21
866.4684
  0
LINE
  8
0_00
  6
CONTINUOUS
 62
6
 10
618.5746
 20
852.4685
 11
618.5746
 21
854.9685
  0
LINE
  8
0_00
  6
CONTINUOUS
 62
6
 10
617.7745
 20
855.7684
 11
618.5746
 21
854.9685
  0
LINE
  8
0_00
  6
DASHED
 62
6
 10
638.0745
 20
866.1684
 11
638.3746
 21
866.4684
  0
LINE
  8
0_00
  6
DASHED
 62
6
 10
638.0745
 20
866.1684
 11
637.7745
 21
866.4684
  0
LINE
  8
0_00
  6
CONTINUOUS
 62
6
 10
616.5746
 20
840.9685
 11
616.5746
 21
852.1684
  0
LINE
  8
0_00
  6
CONTINUOUS
 62
6
 10
619.0746
 20
838.4685
 11
637.7745
 21
838.4685
  0
LINE
  8
0_00
  6
DASHED
 62
6
 10
616.8746
 20
852.4685
 11
616.5746
 21
852.1684
  0
LINE
  8
0_00
  6
CONTINUOUS
 62
6
 10
617.7745
 20
849.1684
 11
617.7745
 21
845.2582
  0
LINE
  8
0_00
  6
DASHED
 62
6
 10
638.0745
 20
838.7685
 11
637.7745
 21
838.4685
  0
LINE
  8
0_00
  6
CONTINUOUS
 62
6
 10
618.5746
 20
852.4685
 11
618.5746
 21
849.9685
  0
LINE
  8
0_00
  6
CONTINUOUS
 62
6
 10
617.7745
 20
849.1684
 11
618.5746
 21
849.9685
  0
LINE
  8
0_00
  6
DASHED
 62
6
 10
638.0745
 20
838.7685
 11
638.3746
 21
838.4685
  0
LINE
  8
0_00
  6
DASHED
 62
6
 10
638.0745
 20
838.7685
 11
637.7745
 21
838.4685
  0
LINE
  8
0_00
  6
CONTINUOUS
 62
6
 10
659.5745
 20
863.9684
 11
659.5745
 21
852.7684
  0
LINE
  8
0_00
  6
CONTINUOUS
 62
6
 10
657.0745
 20
866.4684
 11
638.3746
 21
866.4684
  0
LINE
  8
0_00
  6
DASHED
 62
6
 10
659.2745
 20
852.4685
 11
659.5745
 21
852.7684
  0
LINE
  8
0_00
  6
CONTINUOUS
 62
6
 10
658.3746
 20
855.7684
 11
658.3746
 21
859.6786
  0
LINE
  8
0_00
  6
DASHED
 62
6
 10
638.0745
 20
866.1684
 11
638.3746
 21
866.4684
  0
LINE
  8
0_00
  6
CONTINUOUS
 62
6
 10
623.3643
 20
865.2685
 11
652.7847
 21
865.2685
  0
LINE
  8
0_00
  6
CONTINUOUS
 62
6
 10
657.5745
 20
852.4685
 11
657.5745
 21
854.9685
  0
LINE
  8
0_00
  6
CONTINUOUS
 62
6
 10
658.3746
 20
855.7684
 11
657.5745
 21
854.9685
  0
LINE
  8
0_00
  6
DASHED
 62
6
 10
638.0745
 20
866.1684
 11
637.7745
 21
866.4684
  0
LINE
  8
0_00
  6
DASHED
 62
6
 10
638.0745
 20
866.1684
 11
638.3746
 21
866.4684
  0
LINE
  8
0_00
  6
CONTINUOUS
 62
6
 10
659.5745
 20
840.9685
 11
659.5745
 21
852.1684
  0
LINE
  8
0_00
  6
CONTINUOUS
 62
6
 10
657.0745
 20
838.4685
 11
638.3746
 21
838.4685
  0
LINE
  8
0_00
  6
DASHED
 62
6
 10
659.2745
 20
852.4685
 11
659.5745
 21
852.1684
  0
LINE
  8
0_00
  6
CONTINUOUS
 62
6
 10
658.3746
 20
849.1684
 11
658.3746
 21
845.2582
  0
LINE
  8
0_00
  6
DASHED
 62
6
 10
638.0745
 20
838.7685
 11
638.3746
 21
838.4685
  0
LINE
  8
0_00
  6
CONTINUOUS
 62
6
 10
623.3643
 20
839.6684
 11
652.7847
 21
839.6684
  0
LINE
  8
0_00
  6
CONTINUOUS
 62
6
 10
657.5745
 20
852.4685
 11
657.5745
 21
849.9685
  0
LINE
  8
0_00
  6
CONTINUOUS
 62
6
 10
658.3746
 20
849.1684
 11
657.5745
 21
849.9685
  0
LINE
  8
0_00
  6
DASHED
 62
6
 10
638.0745
 20
838.7685
 11
637.7745
 21
838.4685
  0
LINE
  8
0_00
  6
DASHED
 62
6
 10
638.0745
 20
838.7685
 11
638.3746
 21
838.4685
  0
LINE
  8
0_00
  6
CONTINUOUS
 62
6
 10
619.5261
 20
840.3593
 11
619.1906
 21
840.0239
  0
LINE
  8
0_00
  6
CONTINUOUS
 62
6
 10
619.1906
 20
840.0239
 11
618.1300
 21
841.0846
  0
LINE
  8
0_00
  6
CONTINUOUS
 62
6
 10
618.1300
 20
841.0846
 11
618.4654
 21
841.4200
  0
LINE
  8
0_00
  6
CONTINUOUS
 62
6
 10
618.4654
 20
842.5169
 11
618.1300
 21
842.8522
  0
LINE
  8
0_00
  6
CONTINUOUS
 62
6
 10
618.1300
 20
842.8522
 11
619.1906
 21
843.9130
  0
LINE
  8
0_00
  6
CONTINUOUS
 62
6
 10
619.1906
 20
843.9130
 11
619.5261
 21
843.5775
  0
LINE
  8
0_00
  6
CONTINUOUS
 62
6
 10
621.6837
 20
841.4200
 11
622.0191
 21
841.0846
  0
LINE
  8
0_00
  6
CONTINUOUS
 62
6
 10
622.0191
 20
841.0846
 11
620.9584
 21
840.0239
  0
LINE
  8
0_00
  6
CONTINUOUS
 62
6
 10
620.9584
 20
840.0239
 11
620.6230
 21
840.3593
  0
LINE
  8
0_00
  6
CONTINUOUS
 62
6
 10
619.5261
 20
864.5775
 11
619.1906
 21
864.9129
  0
LINE
  8
0_00
  6
CONTINUOUS
 62
6
 10
619.1906
 20
864.9129
 11
618.1300
 21
863.8523
  0
LINE
  8
0_00
  6
CONTINUOUS
 62
6
 10
618.1300
 20
863.8523
 11
618.4654
 21
863.5168
  0
LINE
  8
0_00
  6
CONTINUOUS
 62
6
 10
618.4654
 20
862.4200
 11
618.1300
 21
862.0846
  0
LINE
  8
0_00
  6
CONTINUOUS
 62
6
 10
618.1300
 20
862.0846
 11
619.1906
 21
861.0239
  0
LINE
  8
0_00
  6
CONTINUOUS
 62
6
 10
619.1906
 20
861.0239
 11
619.5261
 21
861.3593
  0
LINE
  8
0_00
  6
CONTINUOUS
 62
6
 10
621.6837
 20
863.5168
 11
622.0191
 21
863.8523
  0
LINE
  8
0_00
  6
CONTINUOUS
 62
6
 10
622.0191
 20
863.8523
 11
620.9584
 21
864.9129
  0
LINE
  8
0_00
  6
CONTINUOUS
 62
6
 10
620.9584
 20
864.9129
 11
620.6230
 21
864.5775
  0
LINE
  8
0_00
  6
CONTINUOUS
 62
6
 10
656.6230
 20
840.3593
 11
656.9585
 21
840.0239
  0
LINE
  8
0_00
  6
CONTINUOUS
 62
6
 10
656.9585
 20
840.0239
 11
658.0191
 21
841.0846
  0
LINE
  8
0_00
  6
CONTINUOUS
 62
6
 10
658.0191
 20
841.0846
 11
657.6836
 21
841.4200
  0
LINE
  8
0_00
  6
CONTINUOUS
 62
6
 10
657.6836
 20
842.5169
 11
658.0191
 21
842.8522
  0
LINE
  8
0_00
  6
CONTINUOUS
 62
6
 10
658.0191
 20
842.8522
 11
656.9585
 21
843.9130
  0
LINE
  8
0_00
  6
CONTINUOUS
 62
6
 10
656.9585
 20
843.9130
 11
656.6230
 21
843.5775
  0
LINE
  8
0_00
  6
CONTINUOUS
 62
6
 10
654.4654
 20
841.4200
 11
654.1300
 21
841.0846
  0
LINE
  8
0_00
  6
CONTINUOUS
 62
6
 10
654.1300
 20
841.0846
 11
655.1907
 21
840.0239
  0
LINE
  8
0_00
  6
CONTINUOUS
 62
6
 10
655.1907
 20
840.0239
 11
655.5261
 21
840.3593
  0
LINE
  8
0_00
  6
CONTINUOUS
 62
6
 10
656.6230
 20
864.5775
 11
656.9585
 21
864.9129
  0
LINE
  8
0_00
  6
CONTINUOUS
 62
6
 10
656.9585
 20
864.9129
 11
658.0191
 21
863.8523
  0
LINE
  8
0_00
  6
CONTINUOUS
 62
6
 10
658.0191
 20
863.8523
 11
657.6836
 21
863.5168
  0
LINE
  8
0_00
  6
CONTINUOUS
 62
6
 10
657.6836
 20
862.4200
 11
658.0191
 21
862.0846
  0
LINE
  8
0_00
  6
CONTINUOUS
 62
6
 10
658.0191
 20
862.0846
 11
656.9585
 21
861.0239
  0
LINE
  8
0_00
  6
CONTINUOUS
 62
6
 10
656.9585
 20
861.0239
 11
656.6230
 21
861.3593
  0
LINE
  8
0_00
  6
CONTINUOUS
 62
6
 10
654.4654
 20
863.5168
 11
654.1300
 21
863.8523
  0
LINE
  8
0_00
  6
CONTINUOUS
 62
6
 10
654.1300
 20
863.8523
 11
655.1907
 21
864.9129
  0
LINE
  8
0_00
  6
CONTINUOUS
 62
6
 10
655.1907
 20
864.9129
 11
655.5261
 21
864.5775
  0
LINE
  8
0_00
  6
CONTINUOUS
 62
6
 10
638.0745
 20
1272.4684
 11
638.0745
 21
1420.0000
  0
LINE
  8
0_00
  6
CONTINUOUS
 62
6
 10
688.0745
 20
1222.4684
 11
688.0745
 21
1420.0000
  0
LINE
  8
0_00
  6
CONTINUOUS
 62
6
 10
638.0745
 20
1399.9998
 11
688.0745
 21
1399.9998
  0
LINE
  8
0_00
  6
CONTINUOUS
 62
6
 10
401.0746
 20
1399.9998
 11
638.0745
 21
1399.9998
  0
LINE
  8
0_00
  6
CONTINUOUS
 62
6
 10
638.0745
 20
1399.9998
 11
613.6208
 21
1405.1976
  0
LINE
  8
0_00
  6
CONTINUOUS
 62
6
 10
638.0745
 20
1399.9998
 11
613.6208
 21
1394.8022
  0
LINE
  8
0_00
  6
CONTINUOUS
 62
6
 10
748.0746
 20
1399.9998
 11
688.0745
 21
1399.9998
  0
LINE
  8
0_00
  6
CONTINUOUS
 62
6
 10
688.0745
 20
1399.9998
 11
712.5282
 21
1394.8022
  0
LINE
  8
0_00
  6
CONTINUOUS
 62
6
 10
688.0745
 20
1399.9998
 11
712.5282
 21
1405.1976
  0
LINE
  8
0_00
  6
CONTINUOUS
 62
4
 10
1369.9248
 20
494.4051
 11
1591.9247
 21
494.4051
  0
LINE
  8
0_00
  6
CONTINUOUS
 62
6
 10
500.3516
 20
852.4685
 11
400.0000
 21
852.4685
  0
LINE
  8
0_00
  6
CONTINUOUS
 62
6
 10
588.0746
 20
1102.4685
 11
400.0000
 21
1102.4685
  0
LINE
  8
0_00
  6
CONTINUOUS
 62
6
 10
420.0000
 20
1102.4685
 11
420.0000
 21
852.4685
  0
LINE
  8
0_00
  6
CONTINUOUS
 62
6
 10
420.0000
 20
1102.4685
 11
414.8022
 21
1078.0148
  0
LINE
  8
0_00
  6
CONTINUOUS
 62
6
 10
420.0000
 20
1102.4685
 11
425.1978
 21
1078.0148
  0
LINE
  8
0_00
  6
CONTINUOUS
 62
6
 10
420.0000
 20
852.4685
 11
425.1978
 21
876.9221
  0
LINE
  8
0_00
  6
CONTINUOUS
 62
6
 10
420.0000
 20
852.4685
 11
414.8022
 21
876.9221
  0
LINE
  8
0_00
  6
CONTINUOUS
 62
4
 10
1823.5600
 20
1546.1703
 11
2069.5599
 21
1546.1703
  0
LINE
  8
0_00
  6
CONTINUOUS
 62
6
 10
638.0745
 20
1222.4684
 11
638.0745
 21
1349.9998
  0
LINE
  8
0_00
  6
CONTINUOUS
 62
6
 10
669.0744
 20
1154.6326
 11
669.0744
 21
1349.9998
  0
LINE
  8
0_00
  6
CONTINUOUS
 62
6
 10
638.0745
 20
1329.9998
 11
669.0744
 21
1329.9998
  0
LINE
  8
0_00
  6
CONTINUOUS
 62
6
 10
550.9394
 20
1329.9998
 11
638.0745
 21
1329.9998
  0
LINE
  8
0_00
  6
CONTINUOUS
 62
6
 10
638.0745
 20
1329.9998
 11
613.6208
 21
1335.1976
  0
LINE
  8
0_00
  6
CONTINUOUS
 62
6
 10
638.0745
 20
1329.9998
 11
613.6208
 21
1324.8022
  0
LINE
  8
0_00
  6
CONTINUOUS
 62
6
 10
729.0745
 20
1329.9998
 11
669.0744
 21
1329.9998
  0
LINE
  8
0_00
  6
CONTINUOUS
 62
6
 10
669.0744
 20
1329.9998
 11
693.5281
 21
1324.8022
  0
LINE
  8
0_00
  6
CONTINUOUS
 62
6
 10
669.0744
 20
1329.9998
 11
693.5281
 21
1335.1976
  0
LINE
  8
0_00
  6
CONTINUOUS
 62
6
 10
1174.7737
 20
2485.2888
 11
1029.9999
 21
2485.2888
  0
LINE
  8
0_00
  6
CONTINUOUS
 62
6
 10
1208.2819
 20
2585.2887
 11
1029.9999
 21
2585.2887
  0
LINE
  8
0_00
  6
CONTINUOUS
 62
6
 10
1050.0000
 20
2585.2887
 11
1050.0000
 21
2485.2888
  0
LINE
  8
0_00
  6
CONTINUOUS
 62
6
 10
1050.0000
 20
2645.2887
 11
1050.0000
 21
2585.2887
  0
LINE
  8
0_00
  6
CONTINUOUS
 62
6
 10
1050.0000
 20
2585.2887
 11
1055.1977
 21
2609.7427
  0
LINE
  8
0_00
  6
CONTINUOUS
 62
6
 10
1050.0000
 20
2585.2887
 11
1044.8022
 21
2609.7427
  0
LINE
  8
0_00
  6
CONTINUOUS
 62
6
 10
1050.0000
 20
2425.2885
 11
1050.0000
 21
2485.2888
  0
LINE
  8
0_00
  6
CONTINUOUS
 62
6
 10
1050.0000
 20
2485.2888
 11
1044.8022
 21
2460.8351
  0
LINE
  8
0_00
  6
CONTINUOUS
 62
6
 10
1050.0000
 20
2485.2888
 11
1055.1977
 21
2460.8351
  0
LINE
  8
0_00
  6
CONTINUOUS
 62
6
 10
1242.7820
 20
2657.0715
 11
1242.7820
 21
2750.0000
  0
LINE
  8
0_00
  6
CONTINUOUS
 62
6
 10
1367.7818
 20
2657.0715
 11
1367.7818
 21
2750.0000
  0
LINE
  8
0_00
  6
CONTINUOUS
 62
6
 10
1242.7820
 20
2729.9997
 11
1367.7818
 21
2729.9997
  0
LINE
  8
0_00
  6
CONTINUOUS
 62
6
 10
1242.7820
 20
2729.9997
 11
1267.2357
 21
2724.8022
  0
LINE
  8
0_00
  6
CONTINUOUS
 62
6
 10
1242.7820
 20
2729.9997
 11
1267.2357
 21
2735.1974
  0
LINE
  8
0_00
  6
CONTINUOUS
 62
6
 10
1367.7818
 20
2729.9997
 11
1343.3282
 21
2735.1974
  0
LINE
  8
0_00
  6
CONTINUOUS
 62
6
 10
1367.7818
 20
2729.9997
 11
1343.3282
 21
2724.8022
  0
LINE
  8
0_00
  6
CONTINUOUS
 62
6
 10
1817.7818
 20
2657.0715
 11
1817.7818
 21
2750.0000
  0
LINE
  8
0_00
  6
CONTINUOUS
 62
6
 10
1367.7818
 20
2729.9997
 11
1817.7818
 21
2729.9997
  0
LINE
  8
0_00
  6
CONTINUOUS
 62
6
 10
1367.7818
 20
2729.9997
 11
1392.2356
 21
2724.8022
  0
LINE
  8
0_00
  6
CONTINUOUS
 62
6
 10
1367.7818
 20
2729.9997
 11
1392.2356
 21
2735.1974
  0
LINE
  8
0_00
  6
CONTINUOUS
 62
6
 10
1817.7818
 20
2729.9997
 11
1793.3282
 21
2735.1974
  0
LINE
  8
0_00
  6
CONTINUOUS
 62
6
 10
1817.7818
 20
2729.9997
 11
1793.3282
 21
2724.8022
  0
LINE
  8
0_00
  6
CONTINUOUS
 62
6
 10
638.0745
 20
2235.6210
 11
638.0745
 21
2238.2220
  0
LINE
  8
0_00
  6
CONTINUOUS
 62
6
 10
1050.0000
 20
1072.4684
 11
1050.0000
 21
1132.4685
  0
LINE
  8
0_00
  6
CONTINUOUS
 62
6
 10
1050.0000
 20
1281.8761
 11
1050.0000
 21
1132.4685
  0
LINE
  8
0_00
  6
CONTINUOUS
 62
6
 10
1050.0000
 20
1132.4685
 11
1055.1977
 21
1156.9221
  0
LINE
  8
0_00
  6
CONTINUOUS
 62
6
 10
1050.0000
 20
1132.4685
 11
1044.8022
 21
1156.9221
  0
LINE
  8
0_00
  6
CONTINUOUS
 62
6
 10
1050.0000
 20
1022.4685
 11
1050.0000
 21
1072.4684
  0
LINE
  8
0_00
  6
CONTINUOUS
 62
6
 10
1050.0000
 20
1072.4684
 11
1044.8022
 21
1048.0147
  0
LINE
  8
0_00
  6
CONTINUOUS
 62
6
 10
1050.0000
 20
1072.4684
 11
1055.1977
 21
1048.0147
  0
LINE
  8
0_00
  6
CONTINUOUS
 62
6
 10
832.2907
 20
2155.6210
 11
930.0000
 21
2155.6210
  0
LINE
  8
0_00
  6
CONTINUOUS
 62
6
 10
832.2907
 20
2075.6210
 11
930.0000
 21
2075.6210
  0
LINE
  8
0_00
  6
CONTINUOUS
 62
6
 10
910.0000
 20
2155.6210
 11
910.0000
 21
2075.6210
  0
LINE
  8
0_00
  6
CONTINUOUS
 62
6
 10
910.0000
 20
2253.6211
 11
910.0000
 21
2155.6210
  0
LINE
  8
0_00
  6
CONTINUOUS
 62
6
 10
910.0000
 20
2155.6210
 11
915.1977
 21
2180.0745
  0
LINE
  8
0_00
  6
CONTINUOUS
 62
6
 10
910.0000
 20
2155.6210
 11
904.8022
 21
2180.0745
  0
LINE
  8
0_00
  6
CONTINUOUS
 62
6
 10
910.0000
 20
2015.6210
 11
910.0000
 21
2075.6210
  0
LINE
  8
0_00
  6
CONTINUOUS
 62
6
 10
910.0000
 20
2075.6210
 11
904.8022
 21
2051.1673
  0
LINE
  8
0_00
  6
CONTINUOUS
 62
6
 10
910.0000
 20
2075.6210
 11
915.1977
 21
2051.1673
  0
LINE
  8
0_00
  6
CONTINUOUS
 62
6
 10
678.8746
 20
2180.1215
 11
678.8746
 21
2315.0000
  0
LINE
  8
0_00
  6
CONTINUOUS
 62
6
 10
638.0745
 20
2180.1215
 11
638.0745
 21
2315.0000
  0
LINE
  8
0_00
  6
CONTINUOUS
 62
6
 10
638.0745
 20
2294.9998
 11
678.8746
 21
2294.9998
  0
LINE
  8
0_00
  6
CONTINUOUS
 62
6
 10
540.0745
 20
2294.9998
 11
638.0745
 21
2294.9998
  0
LINE
  8
0_00
  6
CONTINUOUS
 62
6
 10
638.0745
 20
2294.9998
 11
613.6208
 21
2300.1976
  0
LINE
  8
0_00
  6
CONTINUOUS
 62
6
 10
638.0745
 20
2294.9998
 11
613.6208
 21
2289.8021
  0
LINE
  8
0_00
  6
CONTINUOUS
 62
6
 10
738.8746
 20
2294.9998
 11
678.8746
 21
2294.9998
  0
LINE
  8
0_00
  6
CONTINUOUS
 62
6
 10
678.8746
 20
2294.9998
 11
703.3282
 21
2289.8021
  0
LINE
  8
0_00
  6
CONTINUOUS
 62
6
 10
678.8746
 20
2294.9998
 11
703.3282
 21
2300.1976
  0
LINE
  8
0_00
  6
CONTINUOUS
 62
6
 10
638.0745
 20
2640.6430
 11
638.0745
 21
2643.2440
  0
LINE
  8
0_00
  6
CONTINUOUS
 62
6
 10
638.0745
 20
2570.6430
 11
638.0745
 21
2720.0217
  0
LINE
  8
0_00
  6
CONTINUOUS
 62
6
 10
669.0746
 20
2570.6430
 11
669.0746
 21
2720.0217
  0
LINE
  8
0_00
  6
CONTINUOUS
 62
6
 10
638.0745
 20
2700.0217
 11
669.0746
 21
2700.0217
  0
LINE
  8
0_00
  6
CONTINUOUS
 62
6
 10
540.0745
 20
2700.0217
 11
638.0745
 21
2700.0217
  0
LINE
  8
0_00
  6
CONTINUOUS
 62
6
 10
638.0745
 20
2700.0217
 11
613.6208
 21
2705.2194
  0
LINE
  8
0_00
  6
CONTINUOUS
 62
6
 10
638.0745
 20
2700.0217
 11
613.6208
 21
2694.8239
  0
LINE
  8
0_00
  6
CONTINUOUS
 62
6
 10
729.0746
 20
2700.0217
 11
669.0746
 21
2700.0217
  0
LINE
  8
0_00
  6
CONTINUOUS
 62
6
 10
669.0746
 20
2700.0217
 11
693.5283
 21
2694.8239
  0
LINE
  8
0_00
  6
CONTINUOUS
 62
6
 10
669.0746
 20
2700.0217
 11
693.5283
 21
2705.2194
  0
LINE
  8
0_00
  6
CONTINUOUS
 62
6
 10
832.2907
 20
2549.6429
 11
930.0000
 21
2549.6429
  0
LINE
  8
0_00
  6
CONTINUOUS
 62
6
 10
832.2907
 20
2491.6431
 11
930.0000
 21
2491.6431
  0
LINE
  8
0_00
  6
CONTINUOUS
 62
6
 10
910.0000
 20
2549.6429
 11
910.0000
 21
2491.6431
  0
LINE
  8
0_00
  6
CONTINUOUS
 62
6
 10
910.0000
 20
2671.6428
 11
910.0000
 21
2549.6429
  0
LINE
  8
0_00
  6
CONTINUOUS
 62
6
 10
910.0000
 20
2549.6429
 11
915.1977
 21
2574.0964
  0
LINE
  8
0_00
  6
CONTINUOUS
 62
6
 10
910.0000
 20
2549.6429
 11
904.8022
 21
2574.0964
  0
LINE
  8
0_00
  6
CONTINUOUS
 62
6
 10
910.0000
 20
2431.6428
 11
910.0000
 21
2491.6431
  0
LINE
  8
0_00
  6
CONTINUOUS
 62
6
 10
910.0000
 20
2491.6431
 11
904.8022
 21
2467.1893
  0
LINE
  8
0_00
  6
CONTINUOUS
 62
6
 10
910.0000
 20
2491.6431
 11
915.1977
 21
2467.1893
  0
LINE
  8
0_00
  6
CONTINUOUS
 62
4
 10
1972.2476
 20
1102.2683
 11
1972.2476
 21
1040.2714
  0
LINE
  8
0_00
  6
CONTINUOUS
 62
4
 10
1972.2476
 20
1102.6685
 11
1972.2476
 21
1164.6655
  0
LINE
  8
0_00
  6
CONTINUOUS
 62
4
 10
1970.7477
 20
1164.6655
 11
1970.7477
 21
1040.2714
  0
LINE
  8
0_00
  6
CONTINUOUS
 62
4
 10
1972.2476
 20
1102.2683
 11
1972.0477
 21
1102.4685
  0
LINE
  8
0_00
  6
CONTINUOUS
 62
4
 10
1972.0477
 20
1102.4685
 11
1972.2476
 21
1102.6685
  0
LINE
  8
14_0E
  6
CONTINUOUS
 62
4
 10
1978.9369
 20
1019.9686
 11
2010.2701
 21
1020.1873
  0
LINE
  8
0_00
  6
CONTINUOUS
 62
4
 10
2024.2567
 20
1021.9850
 11
2014.2343
 21
1021.9150
  0
LINE
  8
0_00
  6
CONTINUOUS
 62
4
 10
2024.4476
 20
1023.2864
 11
2013.7036
 21
1023.2114
  0
LINE
  8
0_00
  6
CONTINUOUS
 62
4
 10
1989.4608
 20
1021.4421
 11
1989.7586
 21
1021.7442
  0
LINE
  8
0_00
  6
CONTINUOUS
 62
4
 10
1990.0606
 20
1021.4462
 11
1989.7586
 21
1021.7442
  0
LINE
  8
0_00
  6
CONTINUOUS
 62
4
 10
2009.2412
 20
1025.1203
 11
2008.8771
 21
1025.3272
  0
LINE
  8
0_00
  6
CONTINUOUS
 62
4
 10
2008.8771
 20
1025.3272
 11
2008.1361
 21
1024.0230
  0
LINE
  8
0_00
  6
CONTINUOUS
 62
4
 10
2008.1361
 20
1024.0230
 11
2008.5002
 21
1023.8161
  0
LINE
  8
0_00
  6
CONTINUOUS
 62
4
 10
2008.8124
 20
1022.6830
 11
2008.6057
 21
1022.3186
  0
LINE
  8
0_00
  6
CONTINUOUS
 62
4
 10
2008.6057
 20
1022.3186
 11
2009.9097
 21
1021.5778
  0
LINE
  8
0_00
  6
CONTINUOUS
 62
4
 10
2009.9097
 20
1021.5778
 11
2010.1167
 21
1021.9420
  0
LINE
  8
0_00
  6
CONTINUOUS
 62
4
 10
2011.2498
 20
1022.2541
 11
2011.6141
 21
1022.0472
  0
LINE
  8
0_00
  6
CONTINUOUS
 62
4
 10
2011.6141
 20
1022.0472
 11
2012.3549
 21
1023.3515
  0
LINE
  8
0_00
  6
CONTINUOUS
 62
4
 10
2012.3549
 20
1023.3515
 11
2011.9908
 21
1023.5583
  0
LINE
  8
0_00
  6
CONTINUOUS
 62
4
 10
2009.4199
 20
1026.4565
 11
2010.0407
 21
1026.1037
  0
LINE
  8
0_00
  6
CONTINUOUS
 62
4
 10
2013.0469
 20
1024.3961
 11
2012.4261
 21
1024.7487
  0
LINE
  8
0_00
  6
CONTINUOUS
 62
4
 10
1972.9649
 20
1025.0561
 11
1970.8698
 21
1038.6748
  0
LINE
  8
0_00
  6
CONTINUOUS
 62
4
 10
1978.9420
 20
1021.3686
 11
1989.4608
 21
1021.4421
  0
LINE
  8
0_00
  6
CONTINUOUS
 62
4
 10
1990.0606
 20
1021.4462
 11
1997.7605
 21
1021.5000
  0
LINE
  8
0_00
  6
CONTINUOUS
 62
4
 10
2001.1604
 20
1021.5237
 11
2005.8969
 21
1021.5569
  0
LINE
  8
0_00
  6
CONTINUOUS
 62
4
 10
1974.4629
 20
1025.1842
 11
1972.3523
 21
1038.9030
  0
LINE
  8
0_00
  6
CONTINUOUS
 62
4
 10
1972.9649
 20
1179.8808
 11
1970.8698
 21
1166.2621
  0
LINE
  8
0_00
  6
CONTINUOUS
 62
4
 10
1974.4629
 20
1179.7526
 11
1972.3523
 21
1166.0341
  0
LINE
  8
14_0E
  6
CONTINUOUS
 62
4
 10
1978.9369
 20
1184.9681
 11
2010.2701
 21
1184.7494
  0
LINE
  8
0_00
  6
CONTINUOUS
 62
4
 10
1978.9420
 20
1183.5681
 11
1989.4608
 21
1183.4948
  0
LINE
  8
0_00
  6
CONTINUOUS
 62
4
 10
1990.0606
 20
1183.4905
 11
1997.7605
 21
1183.4369
  0
LINE
  8
0_00
  6
CONTINUOUS
 62
4
 10
2001.1604
 20
1183.4130
 11
2005.8969
 21
1183.3801
  0
LINE
  8
0_00
  6
CONTINUOUS
 62
4
 10
1989.4608
 20
1183.4948
 11
1989.7586
 21
1183.1927
  0
LINE
  8
0_00
  6
CONTINUOUS
 62
4
 10
1990.0606
 20
1183.4905
 11
1989.7586
 21
1183.1927
  0
LINE
  8
0_00
  6
CONTINUOUS
 62
4
 10
2025.7396
 20
1024.4454
 11
2025.7463
 21
1023.4954
  0
LINE
  8
0_00
  6
CONTINUOUS
 62
4
 10
2024.4476
 20
1023.2864
 11
2024.4397
 21
1024.4363
  0
LINE
  8
0_00
  6
CONTINUOUS
 62
4
 10
2024.2567
 20
1182.9519
 11
2014.2343
 21
1183.0218
  0
LINE
  8
0_00
  6
CONTINUOUS
 62
4
 10
2024.4476
 20
1181.6505
 11
2013.7036
 21
1181.7255
  0
LINE
  8
0_00
  6
CONTINUOUS
 62
4
 10
2009.2412
 20
1179.8164
 11
2008.8771
 21
1179.6096
  0
LINE
  8
0_00
  6
CONTINUOUS
 62
4
 10
2008.8771
 20
1179.6096
 11
2008.1361
 21
1180.9138
  0
LINE
  8
0_00
  6
CONTINUOUS
 62
4
 10
2008.1361
 20
1180.9138
 11
2008.5002
 21
1181.1208
  0
LINE
  8
0_00
  6
CONTINUOUS
 62
4
 10
2008.8124
 20
1182.2540
 11
2008.6057
 21
1182.6181
  0
LINE
  8
0_00
  6
CONTINUOUS
 62
4
 10
2008.6057
 20
1182.6181
 11
2009.9097
 21
1183.3591
  0
LINE
  8
0_00
  6
CONTINUOUS
 62
4
 10
2009.9097
 20
1183.3591
 11
2010.1167
 21
1182.9948
  0
LINE
  8
0_00
  6
CONTINUOUS
 62
4
 10
2011.2498
 20
1182.6826
 11
2011.6141
 21
1182.8896
  0
LINE
  8
0_00
  6
CONTINUOUS
 62
4
 10
2011.6141
 20
1182.8896
 11
2012.3549
 21
1181.5854
  0
LINE
  8
0_00
  6
CONTINUOUS
 62
4
 10
2012.3549
 20
1181.5854
 11
2011.9908
 21
1181.3784
  0
LINE
  8
0_00
  6
CONTINUOUS
 62
4
 10
2009.4199
 20
1178.4804
 11
2010.0407
 21
1178.8331
  0
LINE
  8
0_00
  6
CONTINUOUS
 62
4
 10
2013.0469
 20
1180.5408
 11
2012.4261
 21
1180.1881
  0
LINE
  8
0_00
  6
CONTINUOUS
 62
4
 10
2025.7396
 20
1180.4913
 11
2025.7463
 21
1181.4414
  0
LINE
  8
0_00
  6
CONTINUOUS
 62
4
 10
2024.4476
 20
1181.6505
 11
2024.4397
 21
1180.5003
  0
LINE
  8
0_00
  6
CONTINUOUS
 62
4
 10
1998.7535
 20
1022.5069
 11
1998.7444
 21
1023.8069
  0
LINE
  8
0_00
  6
CONTINUOUS
 62
4
 10
2000.1535
 20
1022.5168
 11
2000.1443
 21
1023.8167
  0
LINE
  8
0_00
  6
CONTINUOUS
 62
4
 10
1998.7535
 20
1182.4299
 11
1998.7444
 21
1181.1298
  0
LINE
  8
0_00
  6
CONTINUOUS
 62
4
 10
2000.1535
 20
1182.4201
 11
2000.1443
 21
1181.1201
  0
LINE
  8
0_00
  6
CONTINUOUS
 62
6
 10
551.7887
 20
1170.3302
 11
514.4554
 21
1215.2631
  0
LINE
  8
0_00
  6
CONTINUOUS
 62
6
 10
551.7887
 20
1170.3302
 11
540.1591
 21
1192.4606
  0
LINE
  8
0_00
  6
CONTINUOUS
 62
6
 10
551.7887
 20
1170.3302
 11
532.1634
 21
1185.8173
  0
LINE
  8
0_00
  6
CONTINUOUS
 62
6
 10
514.4554
 20
1215.2631
 11
206.4554
 21
1215.2631
  0
LINE
  8
0_00
  6
CONTINUOUS
 62
6
 10
2816.2750
 20
913.9684
 11
2827.4756
 21
913.9684
  0
LINE
  8
0_00
  6
CONTINUOUS
 62
6
 10
2813.7753
 20
911.4684
 11
2813.7753
 21
892.7685
  0
LINE
  8
0_00
  6
DASHED
 62
6
 10
2827.7753
 20
913.6684
 11
2827.4756
 21
913.9684
  0
LINE
  8
0_00
  6
CONTINUOUS
 62
6
 10
2824.4754
 20
912.7685
 11
2820.5649
 21
912.7685
  0
LINE
  8
0_00
  6
DASHED
 62
6
 10
2814.0753
 20
892.4685
 11
2813.7753
 21
892.7685
  0
LINE
  8
0_00
  6
CONTINUOUS
 62
6
 10
2827.7753
 20
911.9685
 11
2825.2753
 21
911.9685
  0
LINE
  8
0_00
  6
CONTINUOUS
 62
6
 10
2824.4754
 20
912.7685
 11
2825.2753
 21
911.9685
  0
LINE
  8
0_00
  6
DASHED
 62
6
 10
2814.0753
 20
892.4685
 11
2813.7753
 21
892.1684
  0
LINE
  8
0_00
  6
DASHED
 62
6
 10
2814.0753
 20
892.4685
 11
2813.7753
 21
892.7685
  0
LINE
  8
0_00
  6
CONTINUOUS
 62
6
 10
2839.2752
 20
913.9684
 11
2828.0753
 21
913.9684
  0
LINE
  8
0_00
  6
CONTINUOUS
 62
6
 10
2841.7752
 20
911.4684
 11
2841.7752
 21
892.7685
  0
LINE
  8
0_00
  6
DASHED
 62
6
 10
2827.7753
 20
913.6684
 11
2828.0753
 21
913.9684
  0
LINE
  8
0_00
  6
CONTINUOUS
 62
6
 10
2831.0751
 20
912.7685
 11
2834.9857
 21
912.7685
  0
LINE
  8
0_00
  6
DASHED
 62
6
 10
2841.4755
 20
892.4685
 11
2841.7752
 21
892.7685
  0
LINE
  8
0_00
  6
CONTINUOUS
 62
6
 10
2827.7753
 20
911.9685
 11
2830.2753
 21
911.9685
  0
LINE
  8
0_00
  6
CONTINUOUS
 62
6
 10
2831.0751
 20
912.7685
 11
2830.2753
 21
911.9685
  0
LINE
  8
0_00
  6
DASHED
 62
6
 10
2841.4755
 20
892.4685
 11
2841.7752
 21
892.1684
  0
LINE
  8
0_00
  6
DASHED
 62
6
 10
2841.4755
 20
892.4685
 11
2841.7752
 21
892.7685
  0
LINE
  8
0_00
  6
CONTINUOUS
 62
6
 10
2816.2750
 20
870.9684
 11
2827.4756
 21
870.9684
  0
LINE
  8
0_00
  6
CONTINUOUS
 62
6
 10
2813.7753
 20
873.4685
 11
2813.7753
 21
892.1684
  0
LINE
  8
0_00
  6
DASHED
 62
6
 10
2827.7753
 20
871.2685
 11
2827.4756
 21
870.9684
  0
LINE
  8
0_00
  6
CONTINUOUS
 62
6
 10
2824.4754
 20
872.1684
 11
2820.5649
 21
872.1684
  0
LINE
  8
0_00
  6
DASHED
 62
6
 10
2814.0753
 20
892.4685
 11
2813.7753
 21
892.1684
  0
LINE
  8
0_00
  6
CONTINUOUS
 62
6
 10
2814.9753
 20
907.1786
 11
2814.9753
 21
877.7582
  0
LINE
  8
0_00
  6
CONTINUOUS
 62
6
 10
2827.7753
 20
872.9684
 11
2825.2753
 21
872.9684
  0
LINE
  8
0_00
  6
CONTINUOUS
 62
6
 10
2824.4754
 20
872.1684
 11
2825.2753
 21
872.9684
  0
LINE
  8
0_00
  6
DASHED
 62
6
 10
2814.0753
 20
892.4685
 11
2813.7753
 21
892.7685
  0
LINE
  8
0_00
  6
DASHED
 62
6
 10
2814.0753
 20
892.4685
 11
2813.7753
 21
892.1684
  0
LINE
  8
0_00
  6
CONTINUOUS
 62
6
 10
2839.2752
 20
870.9684
 11
2828.0753
 21
870.9684
  0
LINE
  8
0_00
  6
CONTINUOUS
 62
6
 10
2841.7752
 20
873.4685
 11
2841.7752
 21
892.1684
  0
LINE
  8
0_00
  6
DASHED
 62
6
 10
2827.7753
 20
871.2685
 11
2828.0753
 21
870.9684
  0
LINE
  8
0_00
  6
CONTINUOUS
 62
6
 10
2831.0751
 20
872.1684
 11
2834.9857
 21
872.1684
  0
LINE
  8
0_00
  6
DASHED
 62
6
 10
2841.4755
 20
892.4685
 11
2841.7752
 21
892.1684
  0
LINE
  8
0_00
  6
CONTINUOUS
 62
6
 10
2840.5753
 20
907.1786
 11
2840.5753
 21
877.7582
  0
LINE
  8
0_00
  6
CONTINUOUS
 62
6
 10
2827.7753
 20
872.9684
 11
2830.2753
 21
872.9684
  0
LINE
  8
0_00
  6
CONTINUOUS
 62
6
 10
2831.0751
 20
872.1684
 11
2830.2753
 21
872.9684
  0
LINE
  8
0_00
  6
DASHED
 62
6
 10
2841.4755
 20
892.4685
 11
2841.7752
 21
892.7685
  0
LINE
  8
0_00
  6
DASHED
 62
6
 10
2841.4755
 20
892.4685
 11
2841.7752
 21
892.1684
  0
LINE
  8
0_00
  6
CONTINUOUS
 62
6
 10
2839.8843
 20
911.0168
 11
2840.2200
 21
911.3523
  0
LINE
  8
0_00
  6
CONTINUOUS
 62
6
 10
2840.2200
 20
911.3523
 11
2839.1592
 21
912.4130
  0
LINE
  8
0_00
  6
CONTINUOUS
 62
6
 10
2839.1592
 20
912.4130
 11
2838.8239
 21
912.0776
  0
LINE
  8
0_00
  6
CONTINUOUS
 62
6
 10
2837.7271
 20
912.0776
 11
2837.3914
 21
912.4130
  0
LINE
  8
0_00
  6
CONTINUOUS
 62
6
 10
2837.3914
 20
912.4130
 11
2836.3309
 21
911.3523
  0
LINE
  8
0_00
  6
CONTINUOUS
 62
6
 10
2836.3309
 20
911.3523
 11
2836.6666
 21
911.0168
  0
LINE
  8
0_00
  6
CONTINUOUS
 62
6
 10
2838.8239
 20
908.8593
 11
2839.1592
 21
908.5239
  0
LINE
  8
0_00
  6
CONTINUOUS
 62
6
 10
2839.1592
 20
908.5239
 11
2840.2200
 21
909.5845
  0
LINE
  8
0_00
  6
CONTINUOUS
 62
6
 10
2840.2200
 20
909.5845
 11
2839.8843
 21
909.9200
  0
LINE
  8
0_00
  6
CONTINUOUS
 62
6
 10
2815.6662
 20
911.0168
 11
2815.3308
 21
911.3523
  0
LINE
  8
0_00
  6
CONTINUOUS
 62
6
 10
2815.3308
 20
911.3523
 11
2816.3916
 21
912.4130
  0
LINE
  8
0_00
  6
CONTINUOUS
 62
6
 10
2816.3916
 20
912.4130
 11
2816.7270
 21
912.0776
  0
LINE
  8
0_00
  6
CONTINUOUS
 62
6
 10
2817.8238
 20
912.0776
 11
2818.1592
 21
912.4130
  0
LINE
  8
0_00
  6
CONTINUOUS
 62
6
 10
2818.1592
 20
912.4130
 11
2819.2197
 21
911.3523
  0
LINE
  8
0_00
  6
CONTINUOUS
 62
6
 10
2819.2197
 20
911.3523
 11
2818.8843
 21
911.0168
  0
LINE
  8
0_00
  6
CONTINUOUS
 62
6
 10
2816.7270
 20
908.8593
 11
2816.3916
 21
908.5239
  0
LINE
  8
0_00
  6
CONTINUOUS
 62
6
 10
2816.3916
 20
908.5239
 11
2815.3308
 21
909.5845
  0
LINE
  8
0_00
  6
CONTINUOUS
 62
6
 10
2815.3308
 20
909.5845
 11
2815.6662
 21
909.9200
  0
LINE
  8
0_00
  6
CONTINUOUS
 62
6
 10
2839.8843
 20
873.9201
 11
2840.2200
 21
873.5845
  0
LINE
  8
0_00
  6
CONTINUOUS
 62
6
 10
2840.2200
 20
873.5845
 11
2839.1592
 21
872.5239
  0
LINE
  8
0_00
  6
CONTINUOUS
 62
6
 10
2839.1592
 20
872.5239
 11
2838.8239
 21
872.8593
  0
LINE
  8
0_00
  6
CONTINUOUS
 62
6
 10
2837.7271
 20
872.8593
 11
2837.3914
 21
872.5239
  0
LINE
  8
0_00
  6
CONTINUOUS
 62
6
 10
2837.3914
 20
872.5239
 11
2836.3309
 21
873.5845
  0
LINE
  8
0_00
  6
CONTINUOUS
 62
6
 10
2836.3309
 20
873.5845
 11
2836.6666
 21
873.9201
  0
LINE
  8
0_00
  6
CONTINUOUS
 62
6
 10
2838.8239
 20
876.0775
 11
2839.1592
 21
876.4130
  0
LINE
  8
0_00
  6
CONTINUOUS
 62
6
 10
2839.1592
 20
876.4130
 11
2840.2200
 21
875.3523
  0
LINE
  8
0_00
  6
CONTINUOUS
 62
6
 10
2840.2200
 20
875.3523
 11
2839.8843
 21
875.0169
  0
LINE
  8
0_00
  6
CONTINUOUS
 62
6
 10
2815.6662
 20
873.9201
 11
2815.3308
 21
873.5845
  0
LINE
  8
0_00
  6
CONTINUOUS
 62
6
 10
2815.3308
 20
873.5845
 11
2816.3916
 21
872.5239
  0
LINE
  8
0_00
  6
CONTINUOUS
 62
6
 10
2816.3916
 20
872.5239
 11
2816.7270
 21
872.8593
  0
LINE
  8
0_00
  6
CONTINUOUS
 62
6
 10
2817.8238
 20
872.8593
 11
2818.1592
 21
872.5239
  0
LINE
  8
0_00
  6
CONTINUOUS
 62
6
 10
2818.1592
 20
872.5239
 11
2819.2197
 21
873.5845
  0
LINE
  8
0_00
  6
CONTINUOUS
 62
6
 10
2819.2197
 20
873.5845
 11
2818.8843
 21
873.9201
  0
LINE
  8
0_00
  6
CONTINUOUS
 62
6
 10
2816.7270
 20
876.0775
 11
2816.3916
 21
876.4130
  0
LINE
  8
0_00
  6
CONTINUOUS
 62
6
 10
2816.3916
 20
876.4130
 11
2815.3308
 21
875.3523
  0
LINE
  8
0_00
  6
CONTINUOUS
 62
6
 10
2815.3308
 20
875.3523
 11
2815.6662
 21
875.0169
  0
LINE
  8
0_00
  6
CONTINUOUS
 62
6
 10
3716.2750
 20
913.9684
 11
3727.4753
 21
913.9684
  0
LINE
  8
0_00
  6
CONTINUOUS
 62
6
 10
3713.7753
 20
911.4684
 11
3713.7753
 21
892.7685
  0
LINE
  8
0_00
  6
DASHED
 62
6
 10
3727.7753
 20
913.6684
 11
3727.4753
 21
913.9684
  0
LINE
  8
0_00
  6
CONTINUOUS
 62
6
 10
3724.4754
 20
912.7685
 11
3720.5652
 21
912.7685
  0
LINE
  8
0_00
  6
DASHED
 62
6
 10
3714.0753
 20
892.4685
 11
3713.7753
 21
892.7685
  0
LINE
  8
0_00
  6
CONTINUOUS
 62
6
 10
3727.7753
 20
911.9685
 11
3725.2753
 21
911.9685
  0
LINE
  8
0_00
  6
CONTINUOUS
 62
6
 10
3724.4754
 20
912.7685
 11
3725.2753
 21
911.9685
  0
LINE
  8
0_00
  6
DASHED
 62
6
 10
3714.0753
 20
892.4685
 11
3713.7753
 21
892.1684
  0
LINE
  8
0_00
  6
DASHED
 62
6
 10
3714.0753
 20
892.4685
 11
3713.7753
 21
892.7685
  0
LINE
  8
0_00
  6
CONTINUOUS
 62
6
 10
3739.2752
 20
913.9684
 11
3728.0756
 21
913.9684
  0
LINE
  8
0_00
  6
CONTINUOUS
 62
6
 10
3741.7752
 20
911.4684
 11
3741.7752
 21
892.7685
  0
LINE
  8
0_00
  6
DASHED
 62
6
 10
3727.7753
 20
913.6684
 11
3728.0756
 21
913.9684
  0
LINE
  8
0_00
  6
CONTINUOUS
 62
6
 10
3731.0754
 20
912.7685
 11
3734.9857
 21
912.7685
  0
LINE
  8
0_00
  6
DASHED
 62
6
 10
3741.4755
 20
892.4685
 11
3741.7752
 21
892.7685
  0
LINE
  8
0_00
  6
CONTINUOUS
 62
6
 10
3727.7753
 20
911.9685
 11
3730.2750
 21
911.9685
  0
LINE
  8
0_00
  6
CONTINUOUS
 62
6
 10
3731.0754
 20
912.7685
 11
3730.2750
 21
911.9685
  0
LINE
  8
0_00
  6
DASHED
 62
6
 10
3741.4755
 20
892.4685
 11
3741.7752
 21
892.1684
  0
LINE
  8
0_00
  6
DASHED
 62
6
 10
3741.4755
 20
892.4685
 11
3741.7752
 21
892.7685
  0
LINE
  8
0_00
  6
CONTINUOUS
 62
6
 10
3716.2750
 20
870.9684
 11
3727.4753
 21
870.9684
  0
LINE
  8
0_00
  6
CONTINUOUS
 62
6
 10
3713.7753
 20
873.4685
 11
3713.7753
 21
892.1684
  0
LINE
  8
0_00
  6
DASHED
 62
6
 10
3727.7753
 20
871.2685
 11
3727.4753
 21
870.9684
  0
LINE
  8
0_00
  6
CONTINUOUS
 62
6
 10
3724.4754
 20
872.1684
 11
3720.5652
 21
872.1684
  0
LINE
  8
0_00
  6
DASHED
 62
6
 10
3714.0753
 20
892.4685
 11
3713.7753
 21
892.1684
  0
LINE
  8
0_00
  6
CONTINUOUS
 62
6
 10
3714.9753
 20
907.1786
 11
3714.9753
 21
877.7582
  0
LINE
  8
0_00
  6
CONTINUOUS
 62
6
 10
3727.7753
 20
872.9684
 11
3725.2753
 21
872.9684
  0
LINE
  8
0_00
  6
CONTINUOUS
 62
6
 10
3724.4754
 20
872.1684
 11
3725.2753
 21
872.9684
  0
LINE
  8
0_00
  6
DASHED
 62
6
 10
3714.0753
 20
892.4685
 11
3713.7753
 21
892.7685
  0
LINE
  8
0_00
  6
DASHED
 62
6
 10
3714.0753
 20
892.4685
 11
3713.7753
 21
892.1684
  0
LINE
  8
0_00
  6
CONTINUOUS
 62
6
 10
3739.2752
 20
870.9684
 11
3728.0756
 21
870.9684
  0
LINE
  8
0_00
  6
CONTINUOUS
 62
6
 10
3741.7752
 20
873.4685
 11
3741.7752
 21
892.1684
  0
LINE
  8
0_00
  6
DASHED
 62
6
 10
3727.7753
 20
871.2685
 11
3728.0756
 21
870.9684
  0
LINE
  8
0_00
  6
CONTINUOUS
 62
6
 10
3731.0754
 20
872.1684
 11
3734.9857
 21
872.1684
  0
LINE
  8
0_00
  6
DASHED
 62
6
 10
3741.4755
 20
892.4685
 11
3741.7752
 21
892.1684
  0
LINE
  8
0_00
  6
CONTINUOUS
 62
6
 10
3740.5756
 20
907.1786
 11
3740.5756
 21
877.7582
  0
LINE
  8
0_00
  6
CONTINUOUS
 62
6
 10
3727.7753
 20
872.9684
 11
3730.2750
 21
872.9684
  0
LINE
  8
0_00
  6
CONTINUOUS
 62
6
 10
3731.0754
 20
872.1684
 11
3730.2750
 21
872.9684
  0
LINE
  8
0_00
  6
DASHED
 62
6
 10
3741.4755
 20
892.4685
 11
3741.7752
 21
892.7685
  0
LINE
  8
0_00
  6
DASHED
 62
6
 10
3741.4755
 20
892.4685
 11
3741.7752
 21
892.1684
  0
LINE
  8
0_00
  6
CONTINUOUS
 62
6
 10
3739.8846
 20
911.0168
 11
3740.2200
 21
911.3523
  0
LINE
  8
0_00
  6
CONTINUOUS
 62
6
 10
3740.2200
 20
911.3523
 11
3739.1592
 21
912.4130
  0
LINE
  8
0_00
  6
CONTINUOUS
 62
6
 10
3739.1592
 20
912.4130
 11
3738.8239
 21
912.0776
  0
LINE
  8
0_00
  6
CONTINUOUS
 62
6
 10
3737.7267
 20
912.0776
 11
3737.3914
 21
912.4130
  0
LINE
  8
0_00
  6
CONTINUOUS
 62
6
 10
3737.3914
 20
912.4130
 11
3736.3309
 21
911.3523
  0
LINE
  8
0_00
  6
CONTINUOUS
 62
6
 10
3736.3309
 20
911.3523
 11
3736.6663
 21
911.0168
  0
LINE
  8
0_00
  6
CONTINUOUS
 62
6
 10
3738.8239
 20
908.8593
 11
3739.1592
 21
908.5239
  0
LINE
  8
0_00
  6
CONTINUOUS
 62
6
 10
3739.1592
 20
908.5239
 11
3740.2200
 21
909.5845
  0
LINE
  8
0_00
  6
CONTINUOUS
 62
6
 10
3740.2200
 20
909.5845
 11
3739.8846
 21
909.9200
  0
LINE
  8
0_00
  6
CONTINUOUS
 62
6
 10
3715.6662
 20
911.0168
 11
3715.3308
 21
911.3523
  0
LINE
  8
0_00
  6
CONTINUOUS
 62
6
 10
3715.3308
 20
911.3523
 11
3716.3916
 21
912.4130
  0
LINE
  8
0_00
  6
CONTINUOUS
 62
6
 10
3716.3916
 20
912.4130
 11
3716.7267
 21
912.0776
  0
LINE
  8
0_00
  6
CONTINUOUS
 62
6
 10
3717.8235
 20
912.0776
 11
3718.1592
 21
912.4130
  0
LINE
  8
0_00
  6
CONTINUOUS
 62
6
 10
3718.1592
 20
912.4130
 11
3719.2200
 21
911.3523
  0
LINE
  8
0_00
  6
CONTINUOUS
 62
6
 10
3719.2200
 20
911.3523
 11
3718.8846
 21
911.0168
  0
LINE
  8
0_00
  6
CONTINUOUS
 62
6
 10
3716.7267
 20
908.8593
 11
3716.3916
 21
908.5239
  0
LINE
  8
0_00
  6
CONTINUOUS
 62
6
 10
3716.3916
 20
908.5239
 11
3715.3308
 21
909.5845
  0
LINE
  8
0_00
  6
CONTINUOUS
 62
6
 10
3715.3308
 20
909.5845
 11
3715.6662
 21
909.9200
  0
LINE
  8
0_00
  6
CONTINUOUS
 62
6
 10
3739.8846
 20
873.9201
 11
3740.2200
 21
873.5845
  0
LINE
  8
0_00
  6
CONTINUOUS
 62
6
 10
3740.2200
 20
873.5845
 11
3739.1592
 21
872.5239
  0
LINE
  8
0_00
  6
CONTINUOUS
 62
6
 10
3739.1592
 20
872.5239
 11
3738.8239
 21
872.8593
  0
LINE
  8
0_00
  6
CONTINUOUS
 62
6
 10
3737.7267
 20
872.8593
 11
3737.3914
 21
872.5239
  0
LINE
  8
0_00
  6
CONTINUOUS
 62
6
 10
3737.3914
 20
872.5239
 11
3736.3309
 21
873.5845
  0
LINE
  8
0_00
  6
CONTINUOUS
 62
6
 10
3736.3309
 20
873.5845
 11
3736.6663
 21
873.9201
  0
LINE
  8
0_00
  6
CONTINUOUS
 62
6
 10
3738.8239
 20
876.0775
 11
3739.1592
 21
876.4130
  0
LINE
  8
0_00
  6
CONTINUOUS
 62
6
 10
3739.1592
 20
876.4130
 11
3740.2200
 21
875.3523
  0
LINE
  8
0_00
  6
CONTINUOUS
 62
6
 10
3740.2200
 20
875.3523
 11
3739.8846
 21
875.0169
  0
LINE
  8
0_00
  6
CONTINUOUS
 62
6
 10
3715.6662
 20
873.9201
 11
3715.3308
 21
873.5845
  0
LINE
  8
0_00
  6
CONTINUOUS
 62
6
 10
3715.3308
 20
873.5845
 11
3716.3916
 21
872.5239
  0
LINE
  8
0_00
  6
CONTINUOUS
 62
6
 10
3716.3916
 20
872.5239
 11
3716.7267
 21
872.8593
  0
LINE
  8
0_00
  6
CONTINUOUS
 62
6
 10
3717.8235
 20
872.8593
 11
3718.1592
 21
872.5239
  0
LINE
  8
0_00
  6
CONTINUOUS
 62
6
 10
3718.1592
 20
872.5239
 11
3719.2200
 21
873.5845
  0
LINE
  8
0_00
  6
CONTINUOUS
 62
6
 10
3719.2200
 20
873.5845
 11
3718.8846
 21
873.9201
  0
LINE
  8
0_00
  6
CONTINUOUS
 62
6
 10
3716.7267
 20
876.0775
 11
3716.3916
 21
876.4130
  0
LINE
  8
0_00
  6
CONTINUOUS
 62
6
 10
3716.3916
 20
876.4130
 11
3715.3308
 21
875.3523
  0
LINE
  8
0_00
  6
CONTINUOUS
 62
6
 10
3715.3308
 20
875.3523
 11
3715.6662
 21
875.0169
  0
LINE
  8
0_00
  6
CONTINUOUS
 62
6
 10
2393.9276
 20
739.0263
 11
2386.0080
 21
731.1066
  0
LINE
  8
0_00
  6
CONTINUOUS
 62
6
 10
2397.4632
 20
739.0263
 11
2410.6859
 21
725.8034
  0
LINE
  8
0_00
  6
DASHED
 62
6
 10
2386.0080
 20
730.6824
 11
2386.0080
 21
731.1066
  0
LINE
  8
0_00
  6
CONTINUOUS
 62
6
 10
2388.9778
 20
732.3795
 11
2391.7427
 21
735.1444
  0
LINE
  8
0_00
  6
DASHED
 62
6
 10
2410.6859
 20
725.3791
 11
2410.6859
 21
725.8034
  0
LINE
  8
0_00
  6
CONTINUOUS
 62
6
 10
2387.2101
 20
729.4803
 11
2388.9778
 21
731.2481
  0
LINE
  8
0_00
  6
CONTINUOUS
 62
6
 10
2388.9778
 20
732.3795
 11
2388.9778
 21
731.2481
  0
LINE
  8
0_00
  6
DASHED
 62
6
 10
2410.6859
 20
725.3791
 11
2411.1102
 21
725.3791
  0
LINE
  8
0_00
  6
DASHED
 62
6
 10
2410.6859
 20
725.3791
 11
2410.6859
 21
725.8034
  0
LINE
  8
0_00
  6
CONTINUOUS
 62
6
 10
2377.6640
 20
722.7628
 11
2385.5840
 21
730.6824
  0
LINE
  8
0_00
  6
CONTINUOUS
 62
6
 10
2377.6640
 20
719.2273
 11
2390.8870
 21
706.0043
  0
LINE
  8
0_00
  6
DASHED
 62
6
 10
2386.0080
 20
730.6824
 11
2385.5840
 21
730.6824
  0
LINE
  8
0_00
  6
CONTINUOUS
 62
6
 10
2384.3108
 20
727.7126
 11
2381.5459
 21
724.9476
  0
LINE
  8
0_00
  6
DASHED
 62
6
 10
2391.3113
 20
706.0043
 11
2390.8870
 21
706.0043
  0
LINE
  8
0_00
  6
CONTINUOUS
 62
6
 10
2387.2101
 20
729.4803
 11
2385.4424
 21
727.7126
  0
LINE
  8
0_00
  6
CONTINUOUS
 62
6
 10
2384.3108
 20
727.7126
 11
2385.4424
 21
727.7126
  0
LINE
  8
0_00
  6
DASHED
 62
6
 10
2391.3113
 20
706.0043
 11
2391.3113
 21
705.5801
  0
LINE
  8
0_00
  6
DASHED
 62
6
 10
2391.3113
 20
706.0043
 11
2390.8870
 21
706.0043
  0
LINE
  8
0_00
  6
CONTINUOUS
 62
6
 10
2424.3332
 20
708.6207
 11
2416.4137
 21
700.7011
  0
LINE
  8
0_00
  6
CONTINUOUS
 62
6
 10
2424.3332
 20
712.1562
 11
2411.1102
 21
725.3791
  0
LINE
  8
0_00
  6
DASHED
 62
6
 10
2415.9892
 20
700.7011
 11
2416.4137
 21
700.7011
  0
LINE
  8
0_00
  6
CONTINUOUS
 62
6
 10
2417.6865
 20
703.6709
 11
2420.4514
 21
706.4359
  0
LINE
  8
0_00
  6
DASHED
 62
6
 10
2410.6859
 20
725.3791
 11
2411.1102
 21
725.3791
  0
LINE
  8
0_00
  6
CONTINUOUS
 62
6
 10
2399.6478
 20
735.1444
 11
2420.4514
 21
714.3410
  0
LINE
  8
0_00
  6
CONTINUOUS
 62
6
 10
2414.7873
 20
701.9032
 11
2416.5549
 21
703.6709
  0
LINE
  8
0_00
  6
CONTINUOUS
 62
6
 10
2417.6865
 20
703.6709
 11
2416.5549
 21
703.6709
  0
LINE
  8
0_00
  6
DASHED
 62
6
 10
2410.6859
 20
725.3791
 11
2410.6859
 21
725.8034
  0
LINE
  8
0_00
  6
DASHED
 62
6
 10
2410.6859
 20
725.3791
 11
2411.1102
 21
725.3791
  0
LINE
  8
0_00
  6
CONTINUOUS
 62
6
 10
2408.0698
 20
692.3573
 11
2415.9892
 21
700.2769
  0
LINE
  8
0_00
  6
CONTINUOUS
 62
6
 10
2404.5343
 20
692.3573
 11
2391.3113
 21
705.5801
  0
LINE
  8
0_00
  6
DASHED
 62
6
 10
2415.9892
 20
700.7011
 11
2415.9892
 21
700.2769
  0
LINE
  8
0_00
  6
CONTINUOUS
 62
6
 10
2413.0193
 20
699.0041
 11
2410.2544
 21
696.2391
  0
LINE
  8
0_00
  6
DASHED
 62
6
 10
2391.3113
 20
706.0043
 11
2391.3113
 21
705.5801
  0
LINE
  8
0_00
  6
CONTINUOUS
 62
6
 10
2381.5459
 20
717.0425
 11
2402.3494
 21
696.2391
  0
LINE
  8
0_00
  6
CONTINUOUS
 62
6
 10
2414.7873
 20
701.9032
 11
2413.0193
 21
700.1354
  0
LINE
  8
0_00
  6
CONTINUOUS
 62
6
 10
2413.0193
 20
699.0041
 11
2413.0193
 21
700.1354
  0
LINE
  8
0_00
  6
DASHED
 62
6
 10
2391.3113
 20
706.0043
 11
2390.8870
 21
706.0043
  0
LINE
  8
0_00
  6
DASHED
 62
6
 10
2391.3113
 20
706.0043
 11
2391.3113
 21
705.5801
  0
LINE
  8
0_00
  6
CONTINUOUS
 62
6
 10
2379.3204
 20
720.2450
 11
2378.8461
 21
720.2450
  0
LINE
  8
0_00
  6
CONTINUOUS
 62
6
 10
2378.8461
 20
720.2450
 11
2378.8461
 21
721.7450
  0
LINE
  8
0_00
  6
CONTINUOUS
 62
6
 10
2378.8461
 20
721.7450
 11
2379.3204
 21
721.7450
  0
LINE
  8
0_00
  6
CONTINUOUS
 62
6
 10
2380.0961
 20
722.5206
 11
2380.0961
 21
722.9950
  0
LINE
  8
0_00
  6
CONTINUOUS
 62
6
 10
2380.0961
 20
722.9950
 11
2381.5962
 21
722.9950
  0
LINE
  8
0_00
  6
CONTINUOUS
 62
6
 10
2381.5962
 20
722.9950
 11
2381.5962
 21
722.5206
  0
LINE
  8
0_00
  6
CONTINUOUS
 62
6
 10
2381.5962
 20
719.4695
 11
2381.5962
 21
718.9951
  0
LINE
  8
0_00
  6
CONTINUOUS
 62
6
 10
2381.5962
 20
718.9951
 11
2380.0961
 21
718.9951
  0
LINE
  8
0_00
  6
CONTINUOUS
 62
6
 10
2380.0961
 20
718.9951
 11
2380.0961
 21
719.4695
  0
LINE
  8
0_00
  6
CONTINUOUS
 62
6
 10
2396.4455
 20
737.3698
 11
2396.4455
 21
737.8442
  0
LINE
  8
0_00
  6
CONTINUOUS
 62
6
 10
2396.4455
 20
737.8442
 11
2394.9455
 21
737.8442
  0
LINE
  8
0_00
  6
CONTINUOUS
 62
6
 10
2394.9455
 20
737.8442
 11
2394.9455
 21
737.3698
  0
LINE
  8
0_00
  6
CONTINUOUS
 62
6
 10
2394.1698
 20
736.5942
 11
2393.6955
 21
736.5942
  0
LINE
  8
0_00
  6
CONTINUOUS
 62
6
 10
2393.6955
 20
736.5942
 11
2393.6955
 21
735.0943
  0
LINE
  8
0_00
  6
CONTINUOUS
 62
6
 10
2393.6955
 20
735.0943
 11
2394.1698
 21
735.0943
  0
LINE
  8
0_00
  6
CONTINUOUS
 62
6
 10
2397.2209
 20
735.0943
 11
2397.6953
 21
735.0943
  0
LINE
  8
0_00
  6
CONTINUOUS
 62
6
 10
2397.6953
 20
735.0943
 11
2397.6953
 21
736.5942
  0
LINE
  8
0_00
  6
CONTINUOUS
 62
6
 10
2397.6953
 20
736.5942
 11
2397.2209
 21
736.5942
  0
LINE
  8
0_00
  6
CONTINUOUS
 62
6
 10
2405.5518
 20
694.0136
 11
2405.5518
 21
693.5392
  0
LINE
  8
0_00
  6
CONTINUOUS
 62
6
 10
2405.5518
 20
693.5392
 11
2407.0517
 21
693.5392
  0
LINE
  8
0_00
  6
CONTINUOUS
 62
6
 10
2407.0517
 20
693.5392
 11
2407.0517
 21
694.0136
  0
LINE
  8
0_00
  6
CONTINUOUS
 62
6
 10
2407.8275
 20
694.7892
 11
2408.3018
 21
694.7892
  0
LINE
  8
0_00
  6
CONTINUOUS
 62
6
 10
2408.3018
 20
694.7892
 11
2408.3018
 21
696.2892
  0
LINE
  8
0_00
  6
CONTINUOUS
 62
6
 10
2408.3018
 20
696.2892
 11
2407.8275
 21
696.2892
  0
LINE
  8
0_00
  6
CONTINUOUS
 62
6
 10
2404.7763
 20
696.2892
 11
2404.3019
 21
696.2892
  0
LINE
  8
0_00
  6
CONTINUOUS
 62
6
 10
2404.3019
 20
696.2892
 11
2404.3019
 21
694.7892
  0
LINE
  8
0_00
  6
CONTINUOUS
 62
6
 10
2404.3019
 20
694.7892
 11
2404.7763
 21
694.7892
  0
LINE
  8
0_00
  6
CONTINUOUS
 62
6
 10
2422.6768
 20
711.1385
 11
2423.1512
 21
711.1385
  0
LINE
  8
0_00
  6
CONTINUOUS
 62
6
 10
2423.1512
 20
711.1385
 11
2423.1512
 21
709.6384
  0
LINE
  8
0_00
  6
CONTINUOUS
 62
6
 10
2423.1512
 20
709.6384
 11
2422.6768
 21
709.6384
  0
LINE
  8
0_00
  6
CONTINUOUS
 62
6
 10
2421.9011
 20
708.8628
 11
2421.9011
 21
708.3884
  0
LINE
  8
0_00
  6
CONTINUOUS
 62
6
 10
2421.9011
 20
708.3884
 11
2420.4012
 21
708.3884
  0
LINE
  8
0_00
  6
CONTINUOUS
 62
6
 10
2420.4012
 20
708.3884
 11
2420.4012
 21
708.8628
  0
LINE
  8
0_00
  6
CONTINUOUS
 62
6
 10
2420.4012
 20
711.9141
 11
2420.4012
 21
712.3885
  0
LINE
  8
0_00
  6
CONTINUOUS
 62
6
 10
2420.4012
 20
712.3885
 11
2421.9011
 21
712.3885
  0
LINE
  8
0_00
  6
CONTINUOUS
 62
6
 10
2421.9011
 20
712.3885
 11
2421.9011
 21
711.9141
  0
LINE
  8
0_00
  6
CONTINUOUS
 62
6
 10
2577.7753
 20
1062.4685
 11
2577.7753
 21
1139.9999
  0
LINE
  8
0_00
  6
CONTINUOUS
 62
6
 10
2627.7753
 20
1012.4684
 11
2627.7753
 21
1139.9999
  0
LINE
  8
0_00
  6
CONTINUOUS
 62
6
 10
2577.7753
 20
1120.0000
 11
2627.7753
 21
1120.0000
  0
LINE
  8
0_00
  6
CONTINUOUS
 62
6
 10
2383.7753
 20
1120.0000
 11
2577.7753
 21
1120.0000
  0
LINE
  8
0_00
  6
CONTINUOUS
 62
6
 10
2577.7753
 20
1120.0000
 11
2553.3217
 21
1125.1977
  0
LINE
  8
0_00
  6
CONTINUOUS
 62
6
 10
2577.7753
 20
1120.0000
 11
2553.3217
 21
1114.8021
  0
LINE
  8
0_00
  6
CONTINUOUS
 62
6
 10
2687.7753
 20
1120.0000
 11
2627.7753
 21
1120.0000
  0
LINE
  8
0_00
  6
CONTINUOUS
 62
6
 10
2627.7753
 20
1120.0000
 11
2652.2290
 21
1114.8021
  0
LINE
  8
0_00
  6
CONTINUOUS
 62
6
 10
2627.7753
 20
1120.0000
 11
2652.2290
 21
1125.1977
  0
LINE
  8
0_00
  6
CONTINUOUS
 62
4
 10
3680.1086
 20
486.9582
 11
3902.1088
 21
486.9582
  0
LINE
  8
0_00
  6
CONTINUOUS
 62
4
 10
3323.8571
 20
546.8615
 11
3929.8572
 21
546.8615
  0
LINE
  8
0_00
  6
CONTINUOUS
 62
4
 10
3598.6649
 20
1379.7816
 11
3844.6646
 21
1379.7816
  0
LINE
  8
0_00
  6
CONTINUOUS
 62
6
 10
3089.0329
 20
1550.6387
 11
2969.7006
 21
1550.6387
  0
LINE
  8
0_00
  6
CONTINUOUS
 62
6
 10
3089.0329
 20
1650.6389
 11
2969.7006
 21
1650.6389
  0
LINE
  8
0_00
  6
CONTINUOUS
 62
6
 10
2989.7009
 20
1650.6389
 11
2989.7009
 21
1550.6387
  0
LINE
  8
0_00
  6
CONTINUOUS
 62
6
 10
2989.7009
 20
1710.6389
 11
2989.7009
 21
1650.6389
  0
LINE
  8
0_00
  6
CONTINUOUS
 62
6
 10
2989.7009
 20
1650.6389
 11
2994.8984
 21
1675.0925
  0
LINE
  8
0_00
  6
CONTINUOUS
 62
6
 10
2989.7009
 20
1650.6389
 11
2984.5032
 21
1675.0925
  0
LINE
  8
0_00
  6
CONTINUOUS
 62
6
 10
2989.7009
 20
1490.6389
 11
2989.7009
 21
1550.6387
  0
LINE
  8
0_00
  6
CONTINUOUS
 62
6
 10
2989.7009
 20
1550.6387
 11
2984.5032
 21
1526.1850
  0
LINE
  8
0_00
  6
CONTINUOUS
 62
6
 10
2989.7009
 20
1550.6387
 11
2994.8984
 21
1526.1850
  0
LINE
  8
0_00
  6
CONTINUOUS
 62
6
 10
3089.0329
 20
2010.2667
 11
2969.7006
 21
2010.2667
  0
LINE
  8
0_00
  6
CONTINUOUS
 62
6
 10
3089.0329
 20
2110.2667
 11
2969.7006
 21
2110.2667
  0
LINE
  8
0_00
  6
CONTINUOUS
 62
6
 10
2989.7009
 20
2110.2667
 11
2989.7009
 21
2010.2667
  0
LINE
  8
0_00
  6
CONTINUOUS
 62
6
 10
2989.7009
 20
2170.2667
 11
2989.7009
 21
2110.2667
  0
LINE
  8
0_00
  6
CONTINUOUS
 62
6
 10
2989.7009
 20
2110.2667
 11
2994.8984
 21
2134.7205
  0
LINE
  8
0_00
  6
CONTINUOUS
 62
6
 10
2989.7009
 20
2110.2667
 11
2984.5032
 21
2134.7205
  0
LINE
  8
0_00
  6
CONTINUOUS
 62
6
 10
2989.7009
 20
1950.2667
 11
2989.7009
 21
2010.2667
  0
LINE
  8
0_00
  6
CONTINUOUS
 62
6
 10
2989.7009
 20
2010.2667
 11
2984.5032
 21
1985.8130
  0
LINE
  8
0_00
  6
CONTINUOUS
 62
6
 10
2989.7009
 20
2010.2667
 11
2994.8984
 21
1985.8130
  0
LINE
  8
0_00
  6
CONTINUOUS
 62
6
 10
3182.4826
 20
2657.0715
 11
3182.4826
 21
2750.0000
  0
LINE
  8
0_00
  6
CONTINUOUS
 62
6
 10
3307.4829
 20
2657.0715
 11
3307.4829
 21
2750.0000
  0
LINE
  8
0_00
  6
CONTINUOUS
 62
6
 10
3182.4826
 20
2729.9997
 11
3307.4829
 21
2729.9997
  0
LINE
  8
0_00
  6
CONTINUOUS
 62
6
 10
3182.4826
 20
2729.9997
 11
3206.9363
 21
2724.8022
  0
LINE
  8
0_00
  6
CONTINUOUS
 62
6
 10
3182.4826
 20
2729.9997
 11
3206.9363
 21
2735.1974
  0
LINE
  8
0_00
  6
CONTINUOUS
 62
6
 10
3307.4829
 20
2729.9997
 11
3283.0292
 21
2735.1974
  0
LINE
  8
0_00
  6
CONTINUOUS
 62
6
 10
3307.4829
 20
2729.9997
 11
3283.0292
 21
2724.8022
  0
LINE
  8
0_00
  6
CONTINUOUS
 62
6
 10
3757.4829
 20
2657.0715
 11
3757.4829
 21
2750.0000
  0
LINE
  8
0_00
  6
CONTINUOUS
 62
6
 10
3307.4829
 20
2729.9997
 11
3757.4829
 21
2729.9997
  0
LINE
  8
0_00
  6
CONTINUOUS
 62
6
 10
3307.4829
 20
2729.9997
 11
3331.9363
 21
2724.8022
  0
LINE
  8
0_00
  6
CONTINUOUS
 62
6
 10
3307.4829
 20
2729.9997
 11
3331.9363
 21
2735.1974
  0
LINE
  8
0_00
  6
CONTINUOUS
 62
6
 10
3757.4829
 20
2729.9997
 11
3733.0292
 21
2735.1974
  0
LINE
  8
0_00
  6
CONTINUOUS
 62
6
 10
3757.4829
 20
2729.9997
 11
3733.0292
 21
2724.8022
  0
LINE
  8
0_00
  6
CONTINUOUS
 62
6
 10
3289.7009
 20
862.4684
 11
3289.7009
 21
922.4685
  0
LINE
  8
0_00
  6
CONTINUOUS
 62
6
 10
3289.7009
 20
702.0000
 11
3289.7009
 21
862.4684
  0
LINE
  8
0_00
  6
CONTINUOUS
 62
6
 10
3289.7009
 20
862.4684
 11
3284.5032
 21
838.0147
  0
LINE
  8
0_00
  6
CONTINUOUS
 62
6
 10
3289.7009
 20
862.4684
 11
3294.8984
 21
838.0147
  0
LINE
  8
0_00
  6
CONTINUOUS
 62
6
 10
3289.7009
 20
982.4685
 11
3289.7009
 21
922.4685
  0
LINE
  8
0_00
  6
CONTINUOUS
 62
6
 10
3289.7009
 20
922.4685
 11
3294.8984
 21
946.9221
  0
LINE
  8
0_00
  6
CONTINUOUS
 62
6
 10
3289.7009
 20
922.4685
 11
3284.5032
 21
946.9221
  0
LINE
  8
0_00
  6
CONTINUOUS
 62
6
 10
2771.9916
 20
2050.6210
 11
2869.7006
 21
2050.6210
  0
LINE
  8
0_00
  6
CONTINUOUS
 62
6
 10
2771.9916
 20
1970.6210
 11
2869.7006
 21
1970.6210
  0
LINE
  8
0_00
  6
CONTINUOUS
 62
6
 10
2849.7009
 20
2050.6210
 11
2849.7009
 21
1970.6210
  0
LINE
  8
0_00
  6
CONTINUOUS
 62
6
 10
2849.7009
 20
2148.6209
 11
2849.7009
 21
2050.6210
  0
LINE
  8
0_00
  6
CONTINUOUS
 62
6
 10
2849.7009
 20
2050.6210
 11
2854.8987
 21
2075.0746
  0
LINE
  8
0_00
  6
CONTINUOUS
 62
6
 10
2849.7009
 20
2050.6210
 11
2844.5032
 21
2075.0746
  0
LINE
  8
0_00
  6
CONTINUOUS
 62
6
 10
2849.7009
 20
1910.6209
 11
2849.7009
 21
1970.6210
  0
LINE
  8
0_00
  6
CONTINUOUS
 62
6
 10
2849.7009
 20
1970.6210
 11
2844.5032
 21
1946.1674
  0
LINE
  8
0_00
  6
CONTINUOUS
 62
6
 10
2849.7009
 20
1970.6210
 11
2854.8987
 21
1946.1674
  0
LINE
  8
0_00
  6
CONTINUOUS
 62
6
 10
2635.7751
 20
941.4650
 11
2635.7751
 21
1069.9999
  0
LINE
  8
0_00
  6
CONTINUOUS
 62
6
 10
2577.7753
 20
990.8701
 11
2577.7753
 21
1069.9999
  0
LINE
  8
0_00
  6
CONTINUOUS
 62
6
 10
2577.7753
 20
1050.0000
 11
2635.7751
 21
1050.0000
  0
LINE
  8
0_00
  6
CONTINUOUS
 62
6
 10
2479.7754
 20
1050.0000
 11
2577.7753
 21
1050.0000
  0
LINE
  8
0_00
  6
CONTINUOUS
 62
6
 10
2577.7753
 20
1050.0000
 11
2553.3217
 21
1055.1977
  0
LINE
  8
0_00
  6
CONTINUOUS
 62
6
 10
2577.7753
 20
1050.0000
 11
2553.3217
 21
1044.8022
  0
LINE
  8
0_00
  6
CONTINUOUS
 62
6
 10
2695.7751
 20
1050.0000
 11
2635.7751
 21
1050.0000
  0
LINE
  8
0_00
  6
CONTINUOUS
 62
6
 10
2635.7751
 20
1050.0000
 11
2660.2289
 21
1044.8022
  0
LINE
  8
0_00
  6
CONTINUOUS
 62
6
 10
2635.7751
 20
1050.0000
 11
2660.2289
 21
1055.1977
  0
LINE
  8
0_00
  6
CONTINUOUS
 62
6
 10
2521.4172
 20
719.4379
 11
2535.0742
 21
698.4975
  0
LINE
  8
0_00
  6
CONTINUOUS
 62
6
 10
2521.4172
 20
719.4379
 11
2542.4104
 21
705.8626
  0
LINE
  8
0_00
  6
CONTINUOUS
 62
6
 10
2739.9774
 20
809.9685
 11
2734.7324
 21
785.5249
  0
LINE
  8
0_00
  6
CONTINUOUS
 62
6
 10
2739.9774
 20
809.9685
 11
2745.1279
 21
785.5047
  0
LINE
  8
0_00
  6
CONTINUOUS
 62
4
 10
2552.1802
 20
613.8207
 11
2942.1805
 21
613.8207
  0
LINE
  8
0_00
  6
CONTINUOUS
 62
6
 10
2649.7751
 20
2082.8487
 11
2649.7751
 21
2224.9998
  0
LINE
  8
0_00
  6
CONTINUOUS
 62
6
 10
2577.7753
 20
2082.8487
 11
2577.7753
 21
2224.9998
  0
LINE
  8
0_00
  6
CONTINUOUS
 62
6
 10
2649.7751
 20
2204.9998
 11
2577.7753
 21
2204.9998
  0
LINE
  8
0_00
  6
CONTINUOUS
 62
6
 10
2479.7754
 20
2204.9998
 11
2577.7753
 21
2204.9998
  0
LINE
  8
0_00
  6
CONTINUOUS
 62
6
 10
2577.7753
 20
2204.9998
 11
2553.3217
 21
2210.1976
  0
LINE
  8
0_00
  6
CONTINUOUS
 62
6
 10
2577.7753
 20
2204.9998
 11
2553.3217
 21
2199.8021
  0
LINE
  8
0_00
  6
CONTINUOUS
 62
6
 10
2709.7754
 20
2204.9998
 11
2649.7751
 21
2204.9998
  0
LINE
  8
0_00
  6
CONTINUOUS
 62
6
 10
2649.7751
 20
2204.9998
 11
2674.2291
 21
2199.8021
  0
LINE
  8
0_00
  6
CONTINUOUS
 62
6
 10
2649.7751
 20
2204.9998
 11
2674.2291
 21
2210.1976
  0
LINE
  8
0_00
  6
CONTINUOUS
 62
6
 10
2547.2395
 20
1863.4126
 11
2560.4016
 21
1842.1579
  0
LINE
  8
0_00
  6
CONTINUOUS
 62
6
 10
2547.2395
 20
1863.4126
 11
2567.9086
 21
1849.3491
  0
LINE
  8
0_00
  6
CONTINUOUS
 62
6
 10
2703.4595
 20
1928.1210
 11
2698.7885
 21
1903.5612
  0
LINE
  8
0_00
  6
CONTINUOUS
 62
6
 10
2703.4595
 20
1928.1210
 11
2709.1818
 21
1903.7846
  0
LINE
  8
0_00
  6
CONTINUOUS
 62
2
 10
2577.1997
 20
2523.0229
 11
2577.1783
 21
2521.8153
  0
LINE
  8
0_00
  6
CONTINUOUS
 62
2
 10
2577.1783
 20
2521.8153
 11
2576.9955
 21
2521.4227
  0
LINE
  8
0_00
  6
CONTINUOUS
 62
2
 10
2576.9955
 20
2521.4227
 11
2576.6241
 21
2521.2497
  0
LINE
  8
0_00
  6
CONTINUOUS
 62
2
 10
2576.6241
 20
2521.2497
 11
2575.3934
 21
2521.2128
  0
LINE
  8
0_00
  6
CONTINUOUS
 62
2
 10
2578.3508
 20
2523.0229
 11
2578.3725
 21
2521.8153
  0
LINE
  8
0_00
  6
CONTINUOUS
 62
2
 10
2578.3725
 20
2521.8153
 11
2578.5550
 21
2521.4227
  0
LINE
  8
0_00
  6
CONTINUOUS
 62
2
 10
2578.5550
 20
2521.4227
 11
2578.9264
 21
2521.2497
  0
LINE
  8
0_00
  6
CONTINUOUS
 62
2
 10
2578.9264
 20
2521.2497
 11
2580.1572
 21
2521.2128
  0
LINE
  8
0_00
  6
CONTINUOUS
 62
2
 10
2577.1997
 20
2518.2631
 11
2577.1783
 21
2519.4707
  0
LINE
  8
0_00
  6
CONTINUOUS
 62
2
 10
2577.1783
 20
2519.4707
 11
2576.9955
 21
2519.8630
  0
LINE
  8
0_00
  6
CONTINUOUS
 62
2
 10
2576.9955
 20
2519.8630
 11
2576.6241
 21
2520.0363
  0
LINE
  8
0_00
  6
CONTINUOUS
 62
2
 10
2576.6241
 20
2520.0363
 11
2575.3934
 21
2520.0731
  0
LINE
  8
0_00
  6
CONTINUOUS
 62
2
 10
2578.3508
 20
2518.2631
 11
2578.3725
 21
2519.4707
  0
LINE
  8
0_00
  6
CONTINUOUS
 62
2
 10
2578.3725
 20
2519.4707
 11
2578.5550
 21
2519.8630
  0
LINE
  8
0_00
  6
CONTINUOUS
 62
2
 10
2578.5550
 20
2519.8630
 11
2578.9264
 21
2520.0363
  0
LINE
  8
0_00
  6
CONTINUOUS
 62
2
 10
2578.9264
 20
2520.0363
 11
2580.1572
 21
2520.0731
  0
LINE
  8
0_00
  6
CONTINUOUS
 62
6
 10
2638.7753
 20
2600.5453
 11
2638.7753
 21
2750.0000
  0
LINE
  8
0_00
  6
CONTINUOUS
 62
6
 10
2577.7753
 20
2627.4442
 11
2577.7753
 21
2750.0000
  0
LINE
  8
0_00
  6
CONTINUOUS
 62
6
 10
2577.7753
 20
2729.9997
 11
2638.7753
 21
2729.9997
  0
LINE
  8
0_00
  6
CONTINUOUS
 62
6
 10
2736.7752
 20
2729.9997
 11
2638.7753
 21
2729.9997
  0
LINE
  8
0_00
  6
CONTINUOUS
 62
6
 10
2638.7753
 20
2729.9997
 11
2663.2291
 21
2724.8022
  0
LINE
  8
0_00
  6
CONTINUOUS
 62
6
 10
2638.7753
 20
2729.9997
 11
2663.2291
 21
2735.1974
  0
LINE
  8
0_00
  6
CONTINUOUS
 62
6
 10
2517.7751
 20
2729.9997
 11
2577.7753
 21
2729.9997
  0
LINE
  8
0_00
  6
CONTINUOUS
 62
6
 10
2577.7753
 20
2729.9997
 11
2553.3217
 21
2735.1974
  0
LINE
  8
0_00
  6
CONTINUOUS
 62
6
 10
2577.7753
 20
2729.9997
 11
2553.3217
 21
2724.8022
  0
LINE
  8
0_00
  6
CONTINUOUS
 62
6
 10
2547.2395
 20
2373.4343
 11
2560.4016
 21
2352.1800
  0
LINE
  8
0_00
  6
CONTINUOUS
 62
6
 10
2547.2395
 20
2373.4343
 11
2567.9086
 21
2359.3709
  0
LINE
  8
0_00
  6
CONTINUOUS
 62
6
 10
2703.4595
 20
2438.1429
 11
2698.7885
 21
2413.5832
  0
LINE
  8
0_00
  6
CONTINUOUS
 62
6
 10
2703.4595
 20
2438.1429
 11
2709.1818
 21
2413.8063
  0
LINE
  8
0_00
  6
CONTINUOUS
 62
4
 10
3911.9485
 20
892.2684
 11
3911.9485
 21
830.2714
  0
LINE
  8
0_00
  6
CONTINUOUS
 62
4
 10
3911.9485
 20
892.6684
 11
3911.9485
 21
954.6655
  0
LINE
  8
0_00
  6
CONTINUOUS
 62
4
 10
3910.4486
 20
954.6655
 11
3910.4486
 21
830.2714
  0
LINE
  8
0_00
  6
CONTINUOUS
 62
4
 10
3911.9485
 20
892.2684
 11
3911.7484
 21
892.4685
  0
LINE
  8
0_00
  6
CONTINUOUS
 62
4
 10
3911.7484
 20
892.4685
 11
3911.9485
 21
892.6684
  0
LINE
  8
14_0E
  6
CONTINUOUS
 62
4
 10
3918.6380
 20
809.9686
 11
3949.9710
 21
810.1873
  0
LINE
  8
0_00
  6
CONTINUOUS
 62
4
 10
3963.9578
 20
811.9849
 11
3953.9352
 21
811.9151
  0
LINE
  8
0_00
  6
CONTINUOUS
 62
4
 10
3964.1489
 20
813.2864
 11
3953.4045
 21
813.2114
  0
LINE
  8
0_00
  6
CONTINUOUS
 62
4
 10
3929.1614
 20
811.4421
 11
3929.4595
 21
811.7442
  0
LINE
  8
0_00
  6
CONTINUOUS
 62
4
 10
3929.7617
 20
811.4462
 11
3929.4595
 21
811.7442
  0
LINE
  8
0_00
  6
CONTINUOUS
 62
4
 10
3948.9420
 20
815.1204
 11
3948.5779
 21
815.3272
  0
LINE
  8
0_00
  6
CONTINUOUS
 62
4
 10
3948.5779
 20
815.3272
 11
3947.8369
 21
814.0230
  0
LINE
  8
0_00
  6
CONTINUOUS
 62
4
 10
3947.8369
 20
814.0230
 11
3948.2010
 21
813.8161
  0
LINE
  8
0_00
  6
CONTINUOUS
 62
4
 10
3948.5132
 20
812.6829
 11
3948.3063
 21
812.3187
  0
LINE
  8
0_00
  6
CONTINUOUS
 62
4
 10
3948.3063
 20
812.3187
 11
3949.6106
 21
811.5778
  0
LINE
  8
0_00
  6
CONTINUOUS
 62
4
 10
3949.6106
 20
811.5778
 11
3949.8175
 21
811.9420
  0
LINE
  8
0_00
  6
CONTINUOUS
 62
4
 10
3950.9509
 20
812.2541
 11
3951.3150
 21
812.0473
  0
LINE
  8
0_00
  6
CONTINUOUS
 62
4
 10
3951.3150
 20
812.0473
 11
3952.0560
 21
813.3514
  0
LINE
  8
0_00
  6
CONTINUOUS
 62
4
 10
3952.0560
 20
813.3514
 11
3951.6916
 21
813.5583
  0
LINE
  8
0_00
  6
CONTINUOUS
 62
4
 10
3949.1211
 20
816.4565
 11
3949.7415
 21
816.1038
  0
LINE
  8
0_00
  6
CONTINUOUS
 62
4
 10
3952.7478
 20
814.3961
 11
3952.1268
 21
814.7487
  0
LINE
  8
0_00
  6
CONTINUOUS
 62
4
 10
3912.6657
 20
815.0562
 11
3910.5707
 21
828.6749
  0
LINE
  8
0_00
  6
CONTINUOUS
 62
4
 10
3918.6429
 20
811.3686
 11
3929.1614
 21
811.4421
  0
LINE
  8
0_00
  6
CONTINUOUS
 62
4
 10
3929.7617
 20
811.4462
 11
3937.4612
 21
811.5000
  0
LINE
  8
0_00
  6
CONTINUOUS
 62
4
 10
3940.8612
 20
811.5237
 11
3945.5975
 21
811.5569
  0
LINE
  8
0_00
  6
CONTINUOUS
 62
4
 10
3914.1638
 20
815.1843
 11
3912.0529
 21
828.9029
  0
LINE
  8
0_00
  6
CONTINUOUS
 62
4
 10
3912.6657
 20
969.8808
 11
3910.5707
 21
956.2621
  0
LINE
  8
0_00
  6
CONTINUOUS
 62
4
 10
3914.1638
 20
969.7526
 11
3912.0529
 21
956.0339
  0
LINE
  8
14_0E
  6
CONTINUOUS
 62
4
 10
3918.6380
 20
974.9683
 11
3949.9710
 21
974.7495
  0
LINE
  8
0_00
  6
CONTINUOUS
 62
4
 10
3918.6429
 20
973.5682
 11
3929.1614
 21
973.4947
  0
LINE
  8
0_00
  6
CONTINUOUS
 62
4
 10
3929.7617
 20
973.4905
 11
3937.4612
 21
973.4369
  0
LINE
  8
0_00
  6
CONTINUOUS
 62
4
 10
3940.8612
 20
973.4131
 11
3945.5975
 21
973.3800
  0
LINE
  8
0_00
  6
CONTINUOUS
 62
4
 10
3929.1614
 20
973.4947
 11
3929.4595
 21
973.1927
  0
LINE
  8
0_00
  6
CONTINUOUS
 62
4
 10
3929.7617
 20
973.4905
 11
3929.4595
 21
973.1927
  0
LINE
  8
0_00
  6
CONTINUOUS
 62
4
 10
3965.4404
 20
814.4454
 11
3965.4471
 21
813.4955
  0
LINE
  8
0_00
  6
CONTINUOUS
 62
4
 10
3964.1489
 20
813.2864
 11
3964.1403
 21
814.4363
  0
LINE
  8
0_00
  6
CONTINUOUS
 62
4
 10
3963.9578
 20
972.9519
 11
3953.9352
 21
973.0218
  0
LINE
  8
0_00
  6
CONTINUOUS
 62
4
 10
3964.1489
 20
971.6505
 11
3953.4045
 21
971.7255
  0
LINE
  8
0_00
  6
CONTINUOUS
 62
4
 10
3948.9420
 20
969.8165
 11
3948.5779
 21
969.6096
  0
LINE
  8
0_00
  6
CONTINUOUS
 62
4
 10
3948.5779
 20
969.6096
 11
3947.8369
 21
970.9138
  0
LINE
  8
0_00
  6
CONTINUOUS
 62
4
 10
3947.8369
 20
970.9138
 11
3948.2010
 21
971.1208
  0
LINE
  8
0_00
  6
CONTINUOUS
 62
4
 10
3948.5132
 20
972.2540
 11
3948.3063
 21
972.6182
  0
LINE
  8
0_00
  6
CONTINUOUS
 62
4
 10
3948.3063
 20
972.6182
 11
3949.6106
 21
973.3591
  0
LINE
  8
0_00
  6
CONTINUOUS
 62
4
 10
3949.6106
 20
973.3591
 11
3949.8175
 21
972.9948
  0
LINE
  8
0_00
  6
CONTINUOUS
 62
4
 10
3950.9509
 20
972.6827
 11
3951.3150
 21
972.8896
  0
LINE
  8
0_00
  6
CONTINUOUS
 62
4
 10
3951.3150
 20
972.8896
 11
3952.0560
 21
971.5854
  0
LINE
  8
0_00
  6
CONTINUOUS
 62
4
 10
3952.0560
 20
971.5854
 11
3951.6916
 21
971.3785
  0
LINE
  8
0_00
  6
CONTINUOUS
 62
4
 10
3949.1211
 20
968.4804
 11
3949.7415
 21
968.8331
  0
LINE
  8
0_00
  6
CONTINUOUS
 62
4
 10
3952.7478
 20
970.5408
 11
3952.1268
 21
970.1881
  0
LINE
  8
0_00
  6
CONTINUOUS
 62
4
 10
3965.4404
 20
970.4914
 11
3965.4471
 21
971.4414
  0
LINE
  8
0_00
  6
CONTINUOUS
 62
4
 10
3964.1489
 20
971.6505
 11
3964.1403
 21
970.5005
  0
LINE
  8
0_00
  6
CONTINUOUS
 62
4
 10
3938.4543
 20
812.5069
 11
3938.4451
 21
813.8069
  0
LINE
  8
0_00
  6
CONTINUOUS
 62
4
 10
3939.8544
 20
812.5167
 11
3939.8453
 21
813.8167
  0
LINE
  8
0_00
  6
CONTINUOUS
 62
4
 10
3938.4543
 20
972.4299
 11
3938.4451
 21
971.1299
  0
LINE
  8
0_00
  6
CONTINUOUS
 62
4
 10
3939.8544
 20
972.4201
 11
3939.8453
 21
971.1201
  0
LINE
  8
13_0D
  6
CONTINUOUS
 62
6
 10
2577.7753
 20
1005.8701
 11
2577.7753
 21
1204.9998
  0
LINE
  8
13_0D
  6
CONTINUOUS
 62
6
 10
2977.7753
 20
1017.6847
 11
2977.7753
 21
1204.9998
  0
LINE
  8
13_0D
  6
CONTINUOUS
 62
6
 10
2577.7753
 20
1189.9999
 11
2977.7753
 21
1189.9999
  0
LINE
  8
13_0D
  6
CONTINUOUS
 62
6
 10
2577.7753
 20
1189.9999
 11
2602.2290
 21
1184.8022
  0
LINE
  8
13_0D
  6
CONTINUOUS
 62
6
 10
2577.7753
 20
1189.9999
 11
2602.2290
 21
1195.1977
  0
LINE
  8
13_0D
  6
CONTINUOUS
 62
6
 10
2977.7753
 20
1189.9999
 11
2953.3218
 21
1195.1977
  0
LINE
  8
13_0D
  6
CONTINUOUS
 62
6
 10
2977.7753
 20
1189.9999
 11
2953.3218
 21
1184.8022
  0
LINE
  8
0_00
  6
CONTINUOUS
 62
6
 10
638.0745
 20
1154.6326
 11
638.0745
 21
1490.0000
  0
LINE
  8
0_00
  6
CONTINUOUS
 62
6
 10
888.0745
 20
1299.3991
 11
888.0745
 21
1490.0000
  0
LINE
  8
0_00
  6
CONTINUOUS
 62
6
 10
638.0745
 20
1469.9998
 11
888.0745
 21
1469.9998
  0
LINE
  8
0_00
  6
CONTINUOUS
 62
6
 10
638.0745
 20
1469.9998
 11
662.5283
 21
1464.8021
  0
LINE
  8
0_00
  6
CONTINUOUS
 62
6
 10
638.0745
 20
1469.9998
 11
662.5283
 21
1475.1976
  0
LINE
  8
0_00
  6
CONTINUOUS
 62
6
 10
888.0745
 20
1469.9998
 11
863.6208
 21
1475.1976
  0
LINE
  8
0_00
  6
CONTINUOUS
 62
6
 10
888.0745
 20
1469.9998
 11
863.6208
 21
1464.8021
  0
LINE
  8
0_00
  6
CONTINUOUS
 62
6
 10
1788.0745
 20
1249.5531
 11
1788.0745
 21
1490.0000
  0
LINE
  8
0_00
  6
CONTINUOUS
 62
6
 10
888.0745
 20
1469.9998
 11
1788.0745
 21
1469.9998
  0
LINE
  8
0_00
  6
CONTINUOUS
 62
6
 10
888.0745
 20
1469.9998
 11
912.5282
 21
1464.8021
  0
LINE
  8
0_00
  6
CONTINUOUS
 62
6
 10
888.0745
 20
1469.9998
 11
912.5282
 21
1475.1976
  0
LINE
  8
0_00
  6
CONTINUOUS
 62
6
 10
1788.0745
 20
1469.9998
 11
1763.6208
 21
1475.1976
  0
LINE
  8
0_00
  6
CONTINUOUS
 62
6
 10
1788.0745
 20
1469.9998
 11
1763.6208
 21
1464.8021
  0
LINE
  8
0_00
  6
CONTINUOUS
 62
4
 10
1049.6735
 20
554.3084
 11
1583.6736
 21
554.3084
  0
LINE
  8
0_00
  6
CONTINUOUS
 62
6
 10
1174.7737
 20
1745.6389
 11
1029.9999
 21
1745.6389
  0
LINE
  8
0_00
  6
CONTINUOUS
 62
6
 10
1208.2819
 20
1845.6387
 11
1029.9999
 21
1845.6387
  0
LINE
  8
0_00
  6
CONTINUOUS
 62
6
 10
1050.0000
 20
1845.6387
 11
1050.0000
 21
1745.6389
  0
LINE
  8
0_00
  6
CONTINUOUS
 62
6
 10
1050.0000
 20
1905.6389
 11
1050.0000
 21
1845.6387
  0
LINE
  8
0_00
  6
CONTINUOUS
 62
6
 10
1050.0000
 20
1845.6387
 11
1055.1977
 21
1870.0923
  0
LINE
  8
0_00
  6
CONTINUOUS
 62
6
 10
1050.0000
 20
1845.6387
 11
1044.8022
 21
1870.0923
  0
LINE
  8
0_00
  6
CONTINUOUS
 62
6
 10
1050.0000
 20
1685.6389
 11
1050.0000
 21
1745.6389
  0
LINE
  8
0_00
  6
CONTINUOUS
 62
6
 10
1050.0000
 20
1745.6389
 11
1044.8022
 21
1721.1852
  0
LINE
  8
0_00
  6
CONTINUOUS
 62
6
 10
1050.0000
 20
1745.6389
 11
1055.1977
 21
1721.1852
  0
LINE
  8
0_00
  6
CONTINUOUS
 62
6
 10
1174.7737
 20
2080.2667
 11
1029.9999
 21
2080.2667
  0
LINE
  8
0_00
  6
CONTINUOUS
 62
6
 10
1213.1820
 20
2180.2667
 11
1029.9999
 21
2180.2667
  0
LINE
  8
0_00
  6
CONTINUOUS
 62
6
 10
1050.0000
 20
2180.2667
 11
1050.0000
 21
2080.2667
  0
LINE
  8
0_00
  6
CONTINUOUS
 62
6
 10
1050.0000
 20
2240.2667
 11
1050.0000
 21
2180.2667
  0
LINE
  8
0_00
  6
CONTINUOUS
 62
6
 10
1050.0000
 20
2180.2667
 11
1055.1977
 21
2204.7205
  0
LINE
  8
0_00
  6
CONTINUOUS
 62
6
 10
1050.0000
 20
2180.2667
 11
1044.8022
 21
2204.7205
  0
LINE
  8
0_00
  6
CONTINUOUS
 62
6
 10
1050.0000
 20
2020.2667
 11
1050.0000
 21
2080.2667
  0
LINE
  8
0_00
  6
CONTINUOUS
 62
6
 10
1050.0000
 20
2080.2667
 11
1044.8022
 21
2055.8131
  0
LINE
  8
0_00
  6
CONTINUOUS
 62
6
 10
1050.0000
 20
2080.2667
 11
1055.1977
 21
2055.8131
  0
LINE
  8
0_00
  6
CONTINUOUS
 62
6
 10
2577.7753
 20
1012.4684
 11
2577.7753
 21
1279.9998
  0
LINE
  8
0_00
  6
CONTINUOUS
 62
6
 10
2827.7753
 20
1089.3991
 11
2827.7753
 21
1279.9998
  0
LINE
  8
0_00
  6
CONTINUOUS
 62
6
 10
2577.7753
 20
1259.9999
 11
2827.7753
 21
1259.9999
  0
LINE
  8
0_00
  6
CONTINUOUS
 62
6
 10
2577.7753
 20
1259.9999
 11
2602.2290
 21
1254.8022
  0
LINE
  8
0_00
  6
CONTINUOUS
 62
6
 10
2577.7753
 20
1259.9999
 11
2602.2290
 21
1265.1977
  0
LINE
  8
0_00
  6
CONTINUOUS
 62
6
 10
2827.7753
 20
1259.9999
 11
2803.3218
 21
1265.1977
  0
LINE
  8
0_00
  6
CONTINUOUS
 62
6
 10
2827.7753
 20
1259.9999
 11
2803.3218
 21
1254.8022
  0
LINE
  8
0_00
  6
CONTINUOUS
 62
6
 10
3727.7753
 20
1039.5532
 11
3727.7753
 21
1279.9998
  0
LINE
  8
0_00
  6
CONTINUOUS
 62
6
 10
2827.7753
 20
1259.9999
 11
3727.7753
 21
1259.9999
  0
LINE
  8
0_00
  6
CONTINUOUS
 62
6
 10
2827.7753
 20
1259.9999
 11
2852.2293
 21
1254.8022
  0
LINE
  8
0_00
  6
CONTINUOUS
 62
6
 10
2827.7753
 20
1259.9999
 11
2852.2293
 21
1265.1977
  0
LINE
  8
0_00
  6
CONTINUOUS
 62
6
 10
3727.7753
 20
1259.9999
 11
3703.3215
 21
1265.1977
  0
LINE
  8
0_00
  6
CONTINUOUS
 62
6
 10
3727.7753
 20
1259.9999
 11
3703.3215
 21
1254.8022
  0
LINE
  8
0_00
  6
CONTINUOUS
 62
6
 10
3089.0329
 20
2485.2888
 11
2969.7006
 21
2485.2888
  0
LINE
  8
0_00
  6
CONTINUOUS
 62
6
 10
3089.0329
 20
2585.2887
 11
2969.7006
 21
2585.2887
  0
LINE
  8
0_00
  6
CONTINUOUS
 62
6
 10
2989.7009
 20
2585.2887
 11
2989.7009
 21
2485.2888
  0
LINE
  8
0_00
  6
CONTINUOUS
 62
6
 10
2989.7009
 20
2645.2887
 11
2989.7009
 21
2585.2887
  0
LINE
  8
0_00
  6
CONTINUOUS
 62
6
 10
2989.7009
 20
2585.2887
 11
2994.8984
 21
2609.7427
  0
LINE
  8
0_00
  6
CONTINUOUS
 62
6
 10
2989.7009
 20
2585.2887
 11
2984.5032
 21
2609.7427
  0
LINE
  8
0_00
  6
CONTINUOUS
 62
6
 10
2989.7009
 20
2425.2885
 11
2989.7009
 21
2485.2888
  0
LINE
  8
0_00
  6
CONTINUOUS
 62
6
 10
2989.7009
 20
2485.2888
 11
2984.5032
 21
2460.8351
  0
LINE
  8
0_00
  6
CONTINUOUS
 62
6
 10
2989.7009
 20
2485.2888
 11
2994.8984
 21
2460.8351
  0
LINE
  8
0_00
  6
CONTINUOUS
 62
6
 10
2771.9916
 20
2549.6429
 11
2869.7006
 21
2549.6429
  0
LINE
  8
0_00
  6
CONTINUOUS
 62
6
 10
2771.9916
 20
2491.6431
 11
2869.7006
 21
2491.6431
  0
LINE
  8
0_00
  6
CONTINUOUS
 62
6
 10
2849.7009
 20
2549.6429
 11
2849.7009
 21
2491.6431
  0
LINE
  8
0_00
  6
CONTINUOUS
 62
6
 10
2849.7009
 20
2671.6428
 11
2849.7009
 21
2549.6429
  0
LINE
  8
0_00
  6
CONTINUOUS
 62
6
 10
2849.7009
 20
2549.6429
 11
2854.8987
 21
2574.0964
  0
LINE
  8
0_00
  6
CONTINUOUS
 62
6
 10
2849.7009
 20
2549.6429
 11
2844.5032
 21
2574.0964
  0
LINE
  8
0_00
  6
CONTINUOUS
 62
6
 10
2849.7009
 20
2431.6428
 11
2849.7009
 21
2491.6431
  0
LINE
  8
0_00
  6
CONTINUOUS
 62
6
 10
2849.7009
 20
2491.6431
 11
2844.5032
 21
2467.1893
  0
LINE
  8
0_00
  6
CONTINUOUS
 62
6
 10
2849.7009
 20
2491.6431
 11
2854.8987
 21
2467.1893
  0
LINE
  8
0_00
  6
CONTINUOUS
 62
4
 10
2749.0991
 20
1798.6769
 11
3139.0991
 21
1798.6769
  0
LINE
  8
0_00
  6
CONTINUOUS
 62
4
 10
2749.0991
 20
2308.6989
 11
3139.0991
 21
2308.6989
  0
LINE
  8
13_0D
  6
CONTINUOUS
 62
6
 10
2960.2753
 20
990.8701
 11
2960.2753
 21
1134.9999
  0
LINE
  8
13_0D
  6
CONTINUOUS
 62
6
 10
2995.2750
 20
990.8701
 11
2995.2750
 21
1134.9999
  0
LINE
  8
13_0D
  6
CONTINUOUS
 62
6
 10
2960.2753
 20
1120.0000
 11
2995.2750
 21
1120.0000
  0
LINE
  8
13_0D
  6
CONTINUOUS
 62
6
 10
3103.2751
 20
1120.0000
 11
2995.2750
 21
1120.0000
  0
LINE
  8
13_0D
  6
CONTINUOUS
 62
6
 10
2995.2750
 20
1120.0000
 11
3019.7290
 21
1114.8021
  0
LINE
  8
13_0D
  6
CONTINUOUS
 62
6
 10
2995.2750
 20
1120.0000
 11
3019.7290
 21
1125.1977
  0
LINE
  8
13_0D
  6
CONTINUOUS
 62
6
 10
2910.2753
 20
1120.0000
 11
2960.2753
 21
1120.0000
  0
LINE
  8
13_0D
  6
CONTINUOUS
 62
6
 10
2960.2753
 20
1120.0000
 11
2935.8215
 21
1125.1977
  0
LINE
  8
13_0D
  6
CONTINUOUS
 62
6
 10
2960.2753
 20
1120.0000
 11
2935.8215
 21
1114.8021
  0
LINE
  8
0_00
  6
CONTINUOUS
 62
6
 10
2977.7753
 20
933.2923
 11
3035.6897
 21
1033.6028
  0
LINE
  8
0_00
  6
CONTINUOUS
 62
6
 10
2977.7753
 20
933.2923
 11
2994.5038
 21
951.8710
  0
LINE
  8
0_00
  6
CONTINUOUS
 62
6
 10
2977.7753
 20
933.2923
 11
2985.5008
 21
957.0686
  0
LINE
  8
0_00
  6
CONTINUOUS
 62
6
 10
3035.6897
 20
1033.6028
 11
3247.6898
 21
1033.6028
  0
ARC
  8
2_02
  6
CONTINUOUS
 62
4
 10
1242.7820
 20
1744.8387
 40
101.1500
 50
89.8197
 51
97.0407
  0
ARC
  8
2_02
  6
CONTINUOUS
 62
4
 10
1230.7819
 20
1842.0007
 40
3.2500
 50
97.0407
 51
180.0000
  0
ARC
  8
2_02
  6
CONTINUOUS
 62
4
 10
1258.0319
 20
1845.7382
 40
0.2500
 50
0.0000
 51
90.0000
  0
ARC
  8
2_02
  6
CONTINUOUS
 62
4
 10
1258.0319
 20
1822.2388
 40
0.2500
 50
270.0000
 51
360.0000
  0
ARC
  8
2_02
  6
CONTINUOUS
 62
4
 10
1227.7819
 20
1822.2388
 40
0.2500
 50
180.0000
 51
270.0000
  0
ARC
  8
32_20
  6
CONTINUOUS
 62
4
 10
1230.4819
 20
2168.8397
 40
8.1000
 50
123.4747
 51
248.0903
  0
ARC
  8
32_20
  6
CONTINUOUS
 62
4
 10
1227.6461
 20
2161.7886
 40
0.5000
 50
248.0903
 51
270.0000
  0
ARC
  8
32_20
  6
CONTINUOUS
 62
4
 10
1257.9179
 20
2161.7886
 40
0.5000
 50
270.0000
 51
291.9097
  0
ARC
  8
32_20
  6
CONTINUOUS
 62
4
 10
1242.7820
 20
2150.2386
 40
30.4000
 50
90.0000
 51
123.4747
  0
ARC
  8
2_02
  6
CONTINUOUS
 62
4
 10
608.0746
 20
1071.9685
 40
0.5000
 50
180.0000
 51
270.0000
  0
ARC
  8
2_02
  6
CONTINUOUS
 62
4
 10
668.5744
 20
1132.4685
 40
0.5000
 50
0.0000
 51
90.0000
  0
ARC
  8
2_02
  6
CONTINUOUS
 62
4
 10
614.0746
 20
1126.4684
 40
6.5000
 50
90.0000
 51
180.0000
  0
ARC
  8
0_00
  6
CONTINUOUS
 62
4
 10
1362.0319
 20
2559.8833
 40
1.7500
 50
90.0000
 51
180.0000
  0
ARC
  8
0_00
  6
CONTINUOUS
 62
4
 10
1373.5320
 20
2559.8833
 40
1.7500
 50
0.0000
 51
90.0000
  0
ARC
  8
0_00
  6
CONTINUOUS
 62
4
 10
1242.7820
 20
2570.7886
 40
14.9000
 50
90.0000
 51
270.0000
  0
ARC
  8
0_00
  6
CONTINUOUS
 62
4
 10
1812.0319
 20
2559.8833
 40
1.7500
 50
90.0000
 51
180.0000
  0
ARC
  8
0_00
  6
CONTINUOUS
 62
4
 10
1823.5320
 20
2559.8833
 40
1.7500
 50
0.0000
 51
90.0000
  0
ARC
  8
0_00
  6
CONTINUOUS
 62
4
 10
603.7745
 20
2149.9210
 40
6.5000
 50
90.0000
 51
180.0000
  0
ARC
  8
0_00
  6
CONTINUOUS
 62
4
 10
667.8746
 20
2490.8427
 40
59.6000
 50
90.0000
 51
180.0000
  0
ARC
  8
16_10
  6
CONTINUOUS
 62
4
 10
1203.5113
 20
1742.6157
 40
4.2000
 50
98.4358
 51
181.8837
  0
ARC
  8
16_10
  6
CONTINUOUS
 62
4
 10
1203.0113
 20
1726.4386
 40
3.3000
 50
181.8837
 51
223.9454
  0
ARC
  8
16_10
  6
CONTINUOUS
 62
4
 10
1202.6376
 20
1719.0886
 40
1.9500
 50
181.8837
 51
271.8837
  0
ARC
  8
16_10
  6
CONTINUOUS
 62
4
 10
1293.6237
 20
1742.3271
 40
4.2000
 50
52.0455
 51
85.6846
  0
ARC
  8
16_10
  6
CONTINUOUS
 62
4
 10
1216.1740
 20
1742.2356
 40
3.2500
 50
98.4358
 51
181.8837
  0
ARC
  8
16_10
  6
CONTINUOUS
 62
4
 10
1213.3327
 20
1724.2332
 40
0.9000
 50
1.8837
 51
45.3477
  0
ARC
  8
16_10
  6
CONTINUOUS
 62
4
 10
1215.5114
 20
1726.4386
 40
2.2000
 50
181.8837
 51
225.3477
  0
ARC
  8
16_10
  6
CONTINUOUS
 62
4
 10
1215.1411
 20
1718.9886
 40
0.8500
 50
181.8837
 51
270.0000
  0
ARC
  8
16_10
  6
CONTINUOUS
 62
4
 10
1216.9498
 20
1718.7479
 40
1.1500
 50
271.8837
 51
328.0094
  0
ARC
  8
16_10
  6
CONTINUOUS
 62
4
 10
1203.5113
 20
2077.2437
 40
4.2000
 50
98.4358
 51
181.8837
  0
ARC
  8
16_10
  6
CONTINUOUS
 62
4
 10
1203.0113
 20
2061.0667
 40
3.3000
 50
181.8837
 51
223.9454
  0
ARC
  8
16_10
  6
CONTINUOUS
 62
4
 10
1202.6376
 20
2053.7167
 40
1.9500
 50
181.8837
 51
271.8837
  0
ARC
  8
16_10
  6
CONTINUOUS
 62
4
 10
1293.6237
 20
2076.9550
 40
4.2000
 50
52.0455
 51
85.6846
  0
ARC
  8
16_10
  6
CONTINUOUS
 62
4
 10
1216.1740
 20
2076.8634
 40
3.2500
 50
98.4358
 51
181.8837
  0
ARC
  8
16_10
  6
CONTINUOUS
 62
4
 10
1213.3327
 20
2058.8615
 40
0.9000
 50
1.8837
 51
45.3477
  0
ARC
  8
16_10
  6
CONTINUOUS
 62
4
 10
1215.5114
 20
2061.0667
 40
2.2000
 50
181.8837
 51
225.3477
  0
ARC
  8
16_10
  6
CONTINUOUS
 62
4
 10
1215.1411
 20
2053.6165
 40
0.8500
 50
181.8837
 51
270.0000
  0
ARC
  8
16_10
  6
CONTINUOUS
 62
4
 10
1216.9498
 20
2053.3762
 40
1.1500
 50
271.8837
 51
328.0094
  0
ARC
  8
16_10
  6
CONTINUOUS
 62
4
 10
1203.5113
 20
2482.2656
 40
4.2000
 50
98.4358
 51
181.8837
  0
ARC
  8
16_10
  6
CONTINUOUS
 62
4
 10
1203.0113
 20
2466.0887
 40
3.3000
 50
181.8837
 51
223.9454
  0
ARC
  8
16_10
  6
CONTINUOUS
 62
4
 10
1202.6376
 20
2458.7387
 40
1.9500
 50
181.8837
 51
271.8837
  0
ARC
  8
16_10
  6
CONTINUOUS
 62
4
 10
1293.6237
 20
2481.9768
 40
4.2000
 50
52.0455
 51
85.6846
  0
ARC
  8
16_10
  6
CONTINUOUS
 62
4
 10
1216.1740
 20
2481.8852
 40
3.2500
 50
98.4358
 51
181.8837
  0
ARC
  8
16_10
  6
CONTINUOUS
 62
4
 10
1213.3327
 20
2463.8832
 40
0.9000
 50
1.8837
 51
45.3477
  0
ARC
  8
16_10
  6
CONTINUOUS
 62
4
 10
1215.5114
 20
2466.0887
 40
2.2000
 50
181.8837
 51
225.3477
  0
ARC
  8
16_10
  6
CONTINUOUS
 62
4
 10
1215.1411
 20
2458.6385
 40
0.8500
 50
181.8837
 51
270.0000
  0
ARC
  8
16_10
  6
CONTINUOUS
 62
4
 10
1216.9498
 20
2458.3978
 40
1.1500
 50
271.8837
 51
328.0094
  0
ARC
  8
144_90
  6
CONTINUOUS
 62
4
 10
552.4932
 20
1164.0083
 40
0.5000
 50
181.8481
 51
225.0000
  0
ARC
  8
144_90
  6
CONTINUOUS
 62
4
 10
723.6893
 20
992.8120
 40
0.5000
 50
225.0000
 51
358.0245
  0
ARC
  8
144_90
  6
CONTINUOUS
 62
4
 10
576.5348
 20
1188.0499
 40
0.5000
 50
45.0000
 51
88.1519
  0
ARC
  8
144_90
  6
CONTINUOUS
 62
4
 10
747.7309
 20
1016.8536
 40
0.5000
 50
271.9755
 51
405.0000
  0
ARC
  8
144_90
  6
CONTINUOUS
 62
4
 10
723.6893
 20
2005.9645
 40
0.5000
 50
225.0000
 51
358.0245
  0
ARC
  8
144_90
  6
CONTINUOUS
 62
4
 10
747.7309
 20
2030.0063
 40
0.5000
 50
271.9755
 51
405.0000
  0
ARC
  8
144_90
  6
CONTINUOUS
 62
4
 10
552.4932
 20
2177.1609
 40
0.5000
 50
181.8481
 51
225.0000
  0
ARC
  8
144_90
  6
CONTINUOUS
 62
4
 10
576.5348
 20
2201.2027
 40
0.5000
 50
45.0000
 51
88.1519
  0
ARC
  8
144_90
  6
CONTINUOUS
 62
4
 10
723.6893
 20
2410.9863
 40
0.5000
 50
225.0000
 51
358.0245
  0
ARC
  8
144_90
  6
CONTINUOUS
 62
4
 10
747.7309
 20
2435.0281
 40
0.5000
 50
271.9755
 51
405.0000
  0
ARC
  8
144_90
  6
CONTINUOUS
 62
4
 10
552.4932
 20
2582.1826
 40
0.5000
 50
181.8481
 51
225.0000
  0
ARC
  8
144_90
  6
CONTINUOUS
 62
4
 10
576.5348
 20
2606.2244
 40
0.5000
 50
45.0000
 51
88.1519
  0
ARC
  8
0_00
  6
CONTINUOUS
 62
4
 10
3301.7328
 20
2559.8833
 40
1.7500
 50
90.0000
 51
180.0000
  0
ARC
  8
0_00
  6
CONTINUOUS
 62
4
 10
3313.2327
 20
2559.8833
 40
1.7500
 50
0.0000
 51
90.0000
  0
ARC
  8
0_00
  6
CONTINUOUS
 62
4
 10
3751.7328
 20
2559.8833
 40
1.7500
 50
90.0000
 51
180.0000
  0
ARC
  8
0_00
  6
CONTINUOUS
 62
4
 10
3763.2327
 20
2559.8833
 40
1.7500
 50
0.0000
 51
90.0000
  0
ARC
  8
3_03
  6
CONTINUOUS
 62
4
 10
3197.7325
 20
1627.2388
 40
0.2500
 50
270.0000
 51
360.0000
  0
ARC
  8
0_00
  6
CONTINUOUS
 62
4
 10
3212.0511
 20
1627.2383
 40
0.2500
 50
270.0000
 51
360.0000
  0
ARC
  8
0_00
  6
CONTINUOUS
 62
4
 10
3212.0511
 20
1650.7384
 40
0.2500
 50
0.0000
 51
90.0000
  0
ARC
  8
0_00
  6
CONTINUOUS
 62
4
 10
3196.9263
 20
1628.1133
 40
1.1250
 50
270.0000
 51
360.0000
  0
ARC
  8
0_00
  6
CONTINUOUS
 62
4
 10
3168.6758
 20
1628.1133
 40
1.1250
 50
180.0000
 51
270.0000
  0
ARC
  8
0_00
  6
CONTINUOUS
 62
4
 10
3182.8012
 20
1549.8383
 40
101.1500
 50
82.9593
 51
97.0407
  0
ARC
  8
0_00
  6
CONTINUOUS
 62
4
 10
3170.8011
 20
1647.0000
 40
3.2500
 50
97.0407
 51
180.0000
  0
ARC
  8
0_00
  6
CONTINUOUS
 62
4
 10
3194.8013
 20
1647.0000
 40
3.2500
 50
0.0000
 51
82.9593
  0
ARC
  8
0_00
  6
CONTINUOUS
 62
4
 10
3162.3862
 20
1627.2383
 40
0.2500
 50
180.0000
 51
270.0000
  0
ARC
  8
0_00
  6
CONTINUOUS
 62
4
 10
3162.3862
 20
1650.7384
 40
0.2500
 50
90.0000
 51
180.0000
  0
ARC
  8
2_02
  6
CONTINUOUS
 62
4
 10
2633.1149
 20
866.7184
 40
5.0000
 50
240.0000
 51
270.0000
  0
ARC
  8
2_02
  6
CONTINUOUS
 62
4
 10
2607.2430
 20
877.6142
 40
1.5000
 50
153.2480
 51
240.0000
  0
ARC
  8
2_02
  6
CONTINUOUS
 62
4
 10
2635.2753
 20
862.2185
 40
0.5000
 50
270.0000
 51
360.0000
  0
ARC
  8
2_02
  6
CONTINUOUS
 62
4
 10
2635.2753
 20
922.7184
 40
0.5000
 50
0.0000
 51
90.0000
  0
ARC
  8
2_02
  6
CONTINUOUS
 62
4
 10
2577.7753
 20
892.4685
 40
31.5000
 50
333.2480
 51
424.6518
  0
ARC
  8
2_02
  6
CONTINUOUS
 62
4
 10
2591.7746
 20
922.0193
 40
1.1991
 50
90.0000
 51
244.6518
  0
ARC
  8
2_02
  6
CONTINUOUS
 62
4
 10
2545.8490
 20
902.6147
 40
1.0000
 50
342.3696
 51
495.0000
  0
ARC
  8
2_02
  6
CONTINUOUS
 62
4
 10
2556.8521
 20
835.1294
 40
5.0000
 50
315.0000
 51
345.0000
  0
ARC
  8
2_02
  6
CONTINUOUS
 62
4
 10
2567.1826
 20
860.1605
 40
1.5000
 50
345.0000
 51
431.8476
  0
ARC
  8
2_02
  6
CONTINUOUS
 62
4
 10
2558.5068
 20
830.4198
 40
0.5000
 50
225.0000
 51
315.0000
  0
ARC
  8
2_02
  6
CONTINUOUS
 62
4
 10
2515.7266
 20
873.1998
 40
0.5000
 50
135.0000
 51
225.0000
  0
CIRCLE
  8
2_02
  6
CONTINUOUS
 62
4
 10
2577.7753
 20
892.4685
 40
31.0000
  0
ARC
  8
2_02
  6
CONTINUOUS
 62
4
 10
2577.7753
 20
892.4685
 40
32.5000
 50
162.3696
 51
251.8476
  0
ARC
  8
0_00
  6
CONTINUOUS
 62
4
 10
3218.9331
 20
2080.1216
 40
30.5000
 50
91.0376
 51
125.7770
  0
ARC
  8
2_02
  6
CONTINUOUS
 62
4
 10
3218.5513
 20
2110.3662
 40
0.2500
 50
0.0000
 51
90.0000
  0
ARC
  8
2_02
  6
CONTINUOUS
 62
4
 10
3218.5513
 20
2091.8665
 40
0.2500
 50
270.0000
 51
360.0000
  0
ARC
  8
0_00
  6
CONTINUOUS
 62
4
 10
3182.8012
 20
2080.1163
 40
30.5000
 50
55.5826
 51
124.4174
  0
ARC
  8
0_00
  6
CONTINUOUS
 62
4
 10
3195.8011
 20
2099.0900
 40
7.5000
 50
0.0000
 51
55.5826
  0
ARC
  8
0_00
  6
CONTINUOUS
 62
4
 10
3202.3010
 20
2095.1163
 40
1.0000
 50
270.0000
 51
360.0000
  0
ARC
  8
0_00
  6
CONTINUOUS
 62
4
 10
3194.9261
 20
2098.8663
 40
8.2500
 50
300.4503
 51
407.8355
  0
ARC
  8
0_00
  6
CONTINUOUS
 62
4
 10
3163.3011
 20
2092.6164
 40
1.0000
 50
180.0000
 51
270.0000
  0
ARC
  8
0_00
  6
CONTINUOUS
 62
4
 10
3162.5510
 20
2093.8664
 40
0.2500
 50
90.0000
 51
180.0000
  0
ARC
  8
0_00
  6
CONTINUOUS
 62
4
 10
3163.3011
 20
2095.1163
 40
1.0000
 50
180.0000
 51
270.0000
  0
ARC
  8
0_00
  6
CONTINUOUS
 62
4
 10
3169.8010
 20
2099.0900
 40
7.5000
 50
124.4174
 51
274.8028
  0
ARC
  8
2_02
  6
CONTINUOUS
 62
4
 10
3154.2670
 20
2110.3662
 40
0.2500
 50
90.0000
 51
180.0000
  0
ARC
  8
2_02
  6
CONTINUOUS
 62
4
 10
3154.2670
 20
2091.8665
 40
0.2500
 50
180.0000
 51
270.0000
  0
ARC
  8
0_00
  6
CONTINUOUS
 62
4
 10
3153.8846
 20
2080.1216
 40
30.5000
 50
61.6927
 51
88.9624
  0
ARC
  8
0_00
  6
CONTINUOUS
 62
4
 10
2649.2752
 20
2050.8710
 40
0.5000
 50
0.0000
 51
90.0000
  0
ARC
  8
0_00
  6
CONTINUOUS
 62
4
 10
2649.2752
 20
1970.3709
 40
0.5000
 50
270.0000
 51
360.0000
  0
ARC
  8
0_00
  6
CONTINUOUS
 62
4
 10
2615.8774
 20
1990.6903
 40
1.5000
 50
152.3865
 51
240.0000
  0
ARC
  8
0_00
  6
CONTINUOUS
 62
4
 10
2595.8951
 20
2049.7502
 40
1.6209
 50
90.0000
 51
245.1523
  0
ARC
  8
0_00
  6
CONTINUOUS
 62
4
 10
2577.7753
 20
2010.6210
 40
41.5000
 50
332.3865
 51
425.1523
  0
CIRCLE
  8
0_00
  6
CONTINUOUS
 62
4
 10
2577.7753
 20
2010.6210
 40
41.0000
  0
ARC
  8
0_00
  6
CONTINUOUS
 62
4
 10
2498.7563
 20
1988.5239
 40
0.5000
 50
135.0000
 51
225.0000
  0
ARC
  8
0_00
  6
CONTINUOUS
 62
4
 10
2555.6783
 20
1931.6019
 40
0.5000
 50
225.0000
 51
315.0000
  0
ARC
  8
0_00
  6
CONTINUOUS
 62
4
 10
2577.7753
 20
2520.6430
 40
29.5000
 50
71.3580
 51
135.0000
  0
ARC
  8
0_00
  6
CONTINUOUS
 62
4
 10
3182.4826
 20
2570.7886
 40
14.6000
 50
197.8627
 51
270.0000
  0
ARC
  8
0_00
  6
CONTINUOUS
 62
4
 10
3182.4826
 20
2570.7886
 40
14.6000
 50
90.0000
 51
162.1373
  0
ARC
  8
0_00
  6
CONTINUOUS
 62
4
 10
3169.0622
 20
2575.1135
 40
0.5000
 50
162.1373
 51
270.0000
  0
ARC
  8
0_00
  6
CONTINUOUS
 62
4
 10
3169.0622
 20
2566.4636
 40
0.5000
 50
90.0000
 51
197.8627
  0
ARC
  8
0_00
  6
CONTINUOUS
 62
4
 10
3182.4826
 20
2570.8636
 40
14.7500
 50
110.9509
 51
249.0491
  0
ARC
  8
0_00
  6
CONTINUOUS
 62
4
 10
3177.0560
 20
2585.0369
 40
0.4267
 50
290.9509
 51
450.0000
  0
ARC
  8
0_00
  6
CONTINUOUS
 62
4
 10
3177.0560
 20
2556.6902
 40
0.4267
 50
270.0000
 51
429.0491
  0
ARC
  8
0_00
  6
CONTINUOUS
 62
4
 10
3182.4826
 20
2570.8636
 40
14.6000
 50
345.1168
 51
374.8832
  0
ARC
  8
0_00
  6
CONTINUOUS
 62
4
 10
3168.8812
 20
2575.1135
 40
0.5000
 50
162.6477
 51
270.0000
  0
ARC
  8
0_00
  6
CONTINUOUS
 62
4
 10
3168.8812
 20
2566.6135
 40
0.5000
 50
90.0000
 51
197.3523
  0
ARC
  8
0_00
  6
CONTINUOUS
 62
4
 10
2961.2750
 20
975.3966
 40
1.0000
 50
91.6366
 51
180.0000
  0
ARC
  8
0_00
  6
CONTINUOUS
 62
4
 10
2994.2752
 20
975.3966
 40
1.0000
 50
0.0000
 51
88.3634
  0
ARC
  8
0_00
  6
CONTINUOUS
 62
4
 10
2961.2750
 20
809.5403
 40
1.0000
 50
180.0000
 51
268.3634
  0
ARC
  8
0_00
  6
CONTINUOUS
 62
4
 10
2994.2752
 20
809.5403
 40
1.0000
 50
271.6366
 51
360.0000
  0
ARC
  8
0_00
  6
CONTINUOUS
 62
4
 10
3173.0692
 20
1528.8885
 40
1.0000
 50
0.4000
 51
46.6979
  0
ARC
  8
0_00
  6
CONTINUOUS
 62
4
 10
3174.9551
 20
1530.8897
 40
1.7500
 50
180.4000
 51
226.6979
  0
ARC
  8
0_00
  6
CONTINUOUS
 62
4
 10
3183.2474
 20
1545.3888
 40
5.2500
 50
90.0000
 51
98.7462
  0
ARC
  8
0_00
  6
CONTINUOUS
 62
4
 10
3176.0959
 20
1546.5649
 40
3.0000
 50
98.7462
 51
180.4000
  0
ARC
  8
14_0E
  6
CONTINUOUS
 62
4
 10
3174.8544
 20
1523.8895
 40
0.7500
 50
180.4000
 51
270.4000
  0
ARC
  8
0_00
  6
CONTINUOUS
 62
4
 10
3173.0692
 20
1988.5165
 40
1.0000
 50
0.4000
 51
46.6979
  0
ARC
  8
0_00
  6
CONTINUOUS
 62
4
 10
3174.9551
 20
1990.5179
 40
1.7500
 50
180.4000
 51
226.6979
  0
ARC
  8
0_00
  6
CONTINUOUS
 62
4
 10
3183.2474
 20
2005.0168
 40
5.2500
 50
90.0000
 51
98.7462
  0
ARC
  8
0_00
  6
CONTINUOUS
 62
4
 10
3176.0959
 20
2006.1929
 40
3.0000
 50
98.7462
 51
180.4000
  0
ARC
  8
14_0E
  6
CONTINUOUS
 62
4
 10
3174.8544
 20
1983.5175
 40
0.7500
 50
180.4000
 51
270.4000
  0
ARC
  8
0_00
  6
CONTINUOUS
 62
4
 10
3173.0692
 20
2463.5384
 40
1.0000
 50
0.4000
 51
46.6979
  0
ARC
  8
0_00
  6
CONTINUOUS
 62
4
 10
3174.9551
 20
2465.5396
 40
1.7500
 50
180.4000
 51
226.6979
  0
ARC
  8
0_00
  6
CONTINUOUS
 62
4
 10
3183.2474
 20
2480.0386
 40
5.2500
 50
90.0000
 51
98.7462
  0
ARC
  8
0_00
  6
CONTINUOUS
 62
4
 10
3176.0959
 20
2481.2149
 40
3.0000
 50
98.7462
 51
180.4000
  0
ARC
  8
14_0E
  6
CONTINUOUS
 62
4
 10
3174.8544
 20
2458.5393
 40
0.7500
 50
180.4000
 51
270.4000
  0
ARC
  8
0_00
  6
CONTINUOUS
 62
3
 10
3632.2531
 20
240.7876
 40
1.7875
 50
270.0000
 51
450.0000
  0
ARC
  8
0_00
  6
CONTINUOUS
 62
3
 10
3627.2806
 20
256.8752
 40
2.1775
 50
0.0000
 51
180.0000
  0
ARC
  8
0_00
  6
CONTINUOUS
 62
3
 10
3630.6284
 20
278.0002
 40
6.5001
 50
333.9999
 51
450.0000
  0
CIRCLE
  8
0_00
  6
CONTINUOUS
 62
3
 10
3633.5532
 20
291.0001
 40
5.2000
  0
ARC
  8
0_00
  6
CONTINUOUS
 62
3
 10
3627.6035
 20
256.8752
 40
1.5000
 50
0.0000
 51
180.0000
  0
ARC
  8
0_00
  6
CONTINUOUS
 62
3
 10
3627.6035
 20
256.8752
 40
0.5000
 50
0.0000
 51
180.0000
  0
ARC
  8
0_00
  6
CONTINUOUS
 62
3
 10
3632.2531
 20
240.5752
 40
1.0000
 50
270.0000
 51
450.0000
  0
CIRCLE
  8
0_00
  6
CONTINUOUS
 62
3
 10
3633.5532
 20
291.0001
 40
4.4148
  0
CIRCLE
  8
0_00
  6
CONTINUOUS
 62
3
 10
3633.5532
 20
291.0001
 40
3.4185
  0
CIRCLE
  8
0_00
  6
CONTINUOUS
 62
3
 10
3633.5532
 20
291.0001
 40
2.3422
  0
CIRCLE
  8
0_00
  6
CONTINUOUS
 62
3
 10
3633.5532
 20
291.0001
 40
1.1467
  0
CIRCLE
  8
0_00
  6
CONTINUOUS
 62
3
 10
3633.5532
 20
291.0001
 40
0.5665
  0
CIRCLE
  8
0_00
  6
CONTINUOUS
 62
4
 10
2936.8030
 20
274.0002
 40
12.5000
  0
CIRCLE
  8
0_00
  6
CONTINUOUS
 62
4
 10
2936.8030
 20
274.0002
 40
20.0000
  0
ARC
  8
0_00
  6
CONTINUOUS
 62
6
 10
899.5745
 20
1121.4684
 40
2.5000
 50
0.0000
 51
90.0000
  0
ARC
  8
0_00
  6
CONTINUOUS
 62
6
 10
895.2847
 20
1122.2684
 40
0.5000
 50
331.3146
 51
450.0000
  0
ARC
  8
0_00
  6
CONTINUOUS
 62
6
 10
900.3745
 20
1117.1786
 40
0.5000
 50
0.0000
 51
118.6854
  0
ARC
  8
0_00
  6
CONTINUOUS
 62
6
 10
898.5745
 20
1120.4684
 40
1.7000
 50
161.1790
 51
176.7520
  0
ARC
  8
0_00
  6
CONTINUOUS
 62
6
 10
898.5745
 20
1120.4684
 40
3.2500
 50
273.2480
 51
298.6854
  0
ARC
  8
0_00
  6
CONTINUOUS
 62
6
 10
898.5745
 20
1120.4684
 40
3.2500
 50
151.3146
 51
176.7520
  0
ARC
  8
0_00
  6
CONTINUOUS
 62
6
 10
898.5745
 20
1120.4684
 40
1.7000
 50
341.1790
 51
378.8210
  0
ARC
  8
0_00
  6
CONTINUOUS
 62
6
 10
898.5745
 20
1120.4684
 40
1.7000
 50
71.1790
 51
108.8210
  0
ARC
  8
0_00
  6
CONTINUOUS
 62
6
 10
898.5745
 20
1120.4684
 40
1.7000
 50
273.2480
 51
288.8210
  0
ARC
  8
0_00
  6
CONTINUOUS
 62
6
 10
896.1034
 20
1120.6085
 40
0.7750
 50
176.7520
 51
356.7520
  0
ARC
  8
0_00
  6
CONTINUOUS
 62
6
 10
898.7148
 20
1117.9973
 40
0.7750
 50
93.2480
 51
273.2480
  0
ARC
  8
0_00
  6
CONTINUOUS
 62
6
 10
876.5746
 20
1121.4684
 40
2.5000
 50
90.0000
 51
180.0000
  0
ARC
  8
0_00
  6
CONTINUOUS
 62
6
 10
880.8643
 20
1122.2684
 40
0.5000
 50
90.0000
 51
208.6854
  0
ARC
  8
0_00
  6
CONTINUOUS
 62
6
 10
875.7745
 20
1117.1786
 40
0.5000
 50
61.3146
 51
180.0000
  0
ARC
  8
0_00
  6
CONTINUOUS
 62
6
 10
877.5745
 20
1120.4684
 40
1.7000
 50
3.2480
 51
18.8210
  0
ARC
  8
0_00
  6
CONTINUOUS
 62
6
 10
877.5745
 20
1120.4684
 40
3.2500
 50
241.3146
 51
266.7520
  0
ARC
  8
0_00
  6
CONTINUOUS
 62
6
 10
877.5745
 20
1120.4684
 40
3.2500
 50
3.2480
 51
28.6854
  0
ARC
  8
0_00
  6
CONTINUOUS
 62
6
 10
877.5745
 20
1120.4684
 40
1.7000
 50
161.1790
 51
198.8210
  0
ARC
  8
0_00
  6
CONTINUOUS
 62
6
 10
877.5745
 20
1120.4684
 40
1.7000
 50
71.1790
 51
108.8210
  0
ARC
  8
0_00
  6
CONTINUOUS
 62
6
 10
877.5745
 20
1120.4684
 40
1.7000
 50
251.1790
 51
266.7520
  0
ARC
  8
0_00
  6
CONTINUOUS
 62
6
 10
880.0455
 20
1120.6085
 40
0.7750
 50
183.2480
 51
363.2480
  0
ARC
  8
0_00
  6
CONTINUOUS
 62
6
 10
877.4343
 20
1117.9973
 40
0.7750
 50
266.7520
 51
446.7520
  0
ARC
  8
0_00
  6
CONTINUOUS
 62
6
 10
899.5745
 20
1083.4685
 40
2.5000
 50
270.0000
 51
360.0000
  0
ARC
  8
0_00
  6
CONTINUOUS
 62
6
 10
895.2847
 20
1082.6684
 40
0.5000
 50
270.0000
 51
388.6854
  0
ARC
  8
0_00
  6
CONTINUOUS
 62
6
 10
900.3745
 20
1087.7582
 40
0.5000
 50
241.3146
 51
360.0000
  0
ARC
  8
0_00
  6
CONTINUOUS
 62
6
 10
898.5745
 20
1084.4685
 40
1.7000
 50
183.2480
 51
198.8210
  0
ARC
  8
0_00
  6
CONTINUOUS
 62
6
 10
898.5745
 20
1084.4685
 40
3.2500
 50
61.3146
 51
86.7520
  0
ARC
  8
0_00
  6
CONTINUOUS
 62
6
 10
898.5745
 20
1084.4685
 40
3.2500
 50
183.2480
 51
208.6854
  0
ARC
  8
0_00
  6
CONTINUOUS
 62
6
 10
898.5745
 20
1084.4685
 40
1.7000
 50
341.1790
 51
378.8210
  0
ARC
  8
0_00
  6
CONTINUOUS
 62
6
 10
898.5745
 20
1084.4685
 40
1.7000
 50
251.1790
 51
288.8210
  0
ARC
  8
0_00
  6
CONTINUOUS
 62
6
 10
898.5745
 20
1084.4685
 40
1.7000
 50
71.1790
 51
86.7520
  0
ARC
  8
0_00
  6
CONTINUOUS
 62
6
 10
896.1034
 20
1084.3282
 40
0.7750
 50
3.2480
 51
183.2480
  0
ARC
  8
0_00
  6
CONTINUOUS
 62
6
 10
898.7148
 20
1086.9394
 40
0.7750
 50
86.7520
 51
266.7520
  0
ARC
  8
0_00
  6
CONTINUOUS
 62
6
 10
876.5746
 20
1083.4685
 40
2.5000
 50
180.0000
 51
270.0000
  0
ARC
  8
0_00
  6
CONTINUOUS
 62
6
 10
880.8643
 20
1082.6684
 40
0.5000
 50
151.3146
 51
270.0000
  0
ARC
  8
0_00
  6
CONTINUOUS
 62
6
 10
875.7745
 20
1087.7582
 40
0.5000
 50
180.0000
 51
298.6854
  0
ARC
  8
0_00
  6
CONTINUOUS
 62
6
 10
877.5745
 20
1084.4685
 40
1.7000
 50
341.1790
 51
356.7520
  0
ARC
  8
0_00
  6
CONTINUOUS
 62
6
 10
877.5745
 20
1084.4685
 40
3.2500
 50
93.2480
 51
118.6854
  0
ARC
  8
0_00
  6
CONTINUOUS
 62
6
 10
877.5745
 20
1084.4685
 40
3.2500
 50
331.3146
 51
356.7520
  0
ARC
  8
0_00
  6
CONTINUOUS
 62
6
 10
877.5745
 20
1084.4685
 40
1.7000
 50
161.1790
 51
198.8210
  0
ARC
  8
0_00
  6
CONTINUOUS
 62
6
 10
877.5745
 20
1084.4685
 40
1.7000
 50
251.1790
 51
288.8210
  0
ARC
  8
0_00
  6
CONTINUOUS
 62
6
 10
877.5745
 20
1084.4685
 40
1.7000
 50
93.2480
 51
108.8210
  0
ARC
  8
0_00
  6
CONTINUOUS
 62
6
 10
880.0455
 20
1084.3282
 40
0.7750
 50
356.7520
 51
536.7520
  0
ARC
  8
0_00
  6
CONTINUOUS
 62
6
 10
877.4343
 20
1086.9394
 40
0.7750
 50
273.2480
 51
453.2480
  0
ARC
  8
0_00
  6
CONTINUOUS
 62
6
 10
1799.5746
 20
1121.4684
 40
2.5000
 50
0.0000
 51
90.0000
  0
ARC
  8
0_00
  6
CONTINUOUS
 62
6
 10
1795.2846
 20
1122.2684
 40
0.5000
 50
331.3146
 51
450.0000
  0
ARC
  8
0_00
  6
CONTINUOUS
 62
6
 10
1800.3743
 20
1117.1786
 40
0.5000
 50
0.0000
 51
118.6854
  0
ARC
  8
0_00
  6
CONTINUOUS
 62
6
 10
1798.5745
 20
1120.4684
 40
1.7000
 50
161.1790
 51
176.7520
  0
ARC
  8
0_00
  6
CONTINUOUS
 62
6
 10
1798.5745
 20
1120.4684
 40
3.2500
 50
273.2480
 51
298.6854
  0
ARC
  8
0_00
  6
CONTINUOUS
 62
6
 10
1798.5745
 20
1120.4684
 40
3.2500
 50
151.3146
 51
176.7520
  0
ARC
  8
0_00
  6
CONTINUOUS
 62
6
 10
1798.5745
 20
1120.4684
 40
1.7000
 50
341.1790
 51
378.8210
  0
ARC
  8
0_00
  6
CONTINUOUS
 62
6
 10
1798.5745
 20
1120.4684
 40
1.7000
 50
71.1790
 51
108.8210
  0
ARC
  8
0_00
  6
CONTINUOUS
 62
6
 10
1798.5745
 20
1120.4684
 40
1.7000
 50
273.2480
 51
288.8210
  0
ARC
  8
0_00
  6
CONTINUOUS
 62
6
 10
1796.1034
 20
1120.6085
 40
0.7750
 50
176.7520
 51
356.7520
  0
ARC
  8
0_00
  6
CONTINUOUS
 62
6
 10
1798.7148
 20
1117.9973
 40
0.7750
 50
93.2480
 51
273.2480
  0
ARC
  8
0_00
  6
CONTINUOUS
 62
6
 10
1776.5746
 20
1121.4684
 40
2.5000
 50
90.0000
 51
180.0000
  0
ARC
  8
0_00
  6
CONTINUOUS
 62
6
 10
1780.8641
 20
1122.2684
 40
0.5000
 50
90.0000
 51
208.6854
  0
ARC
  8
0_00
  6
CONTINUOUS
 62
6
 10
1775.7744
 20
1117.1786
 40
0.5000
 50
61.3146
 51
180.0000
  0
ARC
  8
0_00
  6
CONTINUOUS
 62
6
 10
1777.5745
 20
1120.4684
 40
1.7000
 50
3.2480
 51
18.8210
  0
ARC
  8
0_00
  6
CONTINUOUS
 62
6
 10
1777.5745
 20
1120.4684
 40
3.2500
 50
241.3146
 51
266.7520
  0
ARC
  8
0_00
  6
CONTINUOUS
 62
6
 10
1777.5745
 20
1120.4684
 40
3.2500
 50
3.2480
 51
28.6854
  0
ARC
  8
0_00
  6
CONTINUOUS
 62
6
 10
1777.5745
 20
1120.4684
 40
1.7000
 50
161.1790
 51
198.8210
  0
ARC
  8
0_00
  6
CONTINUOUS
 62
6
 10
1777.5745
 20
1120.4684
 40
1.7000
 50
71.1790
 51
108.8210
  0
ARC
  8
0_00
  6
CONTINUOUS
 62
6
 10
1777.5745
 20
1120.4684
 40
1.7000
 50
251.1790
 51
266.7520
  0
ARC
  8
0_00
  6
CONTINUOUS
 62
6
 10
1780.0456
 20
1120.6085
 40
0.7750
 50
183.2480
 51
363.2480
  0
ARC
  8
0_00
  6
CONTINUOUS
 62
6
 10
1777.4342
 20
1117.9973
 40
0.7750
 50
266.7520
 51
446.7520
  0
ARC
  8
0_00
  6
CONTINUOUS
 62
6
 10
1799.5746
 20
1083.4685
 40
2.5000
 50
270.0000
 51
360.0000
  0
ARC
  8
0_00
  6
CONTINUOUS
 62
6
 10
1795.2846
 20
1082.6684
 40
0.5000
 50
270.0000
 51
388.6854
  0
ARC
  8
0_00
  6
CONTINUOUS
 62
6
 10
1800.3743
 20
1087.7582
 40
0.5000
 50
241.3146
 51
360.0000
  0
ARC
  8
0_00
  6
CONTINUOUS
 62
6
 10
1798.5745
 20
1084.4685
 40
1.7000
 50
183.2480
 51
198.8210
  0
ARC
  8
0_00
  6
CONTINUOUS
 62
6
 10
1798.5745
 20
1084.4685
 40
3.2500
 50
61.3146
 51
86.7520
  0
ARC
  8
0_00
  6
CONTINUOUS
 62
6
 10
1798.5745
 20
1084.4685
 40
3.2500
 50
183.2480
 51
208.6854
  0
ARC
  8
0_00
  6
CONTINUOUS
 62
6
 10
1798.5745
 20
1084.4685
 40
1.7000
 50
341.1790
 51
378.8210
  0
ARC
  8
0_00
  6
CONTINUOUS
 62
6
 10
1798.5745
 20
1084.4685
 40
1.7000
 50
251.1790
 51
288.8210
  0
ARC
  8
0_00
  6
CONTINUOUS
 62
6
 10
1798.5745
 20
1084.4685
 40
1.7000
 50
71.1790
 51
86.7520
  0
ARC
  8
0_00
  6
CONTINUOUS
 62
6
 10
1796.1034
 20
1084.3282
 40
0.7750
 50
3.2480
 51
183.2480
  0
ARC
  8
0_00
  6
CONTINUOUS
 62
6
 10
1798.7148
 20
1086.9394
 40
0.7750
 50
86.7520
 51
266.7520
  0
ARC
  8
0_00
  6
CONTINUOUS
 62
6
 10
1776.5746
 20
1083.4685
 40
2.5000
 50
180.0000
 51
270.0000
  0
ARC
  8
0_00
  6
CONTINUOUS
 62
6
 10
1780.8641
 20
1082.6684
 40
0.5000
 50
151.3146
 51
270.0000
  0
ARC
  8
0_00
  6
CONTINUOUS
 62
6
 10
1775.7744
 20
1087.7582
 40
0.5000
 50
180.0000
 51
298.6854
  0
ARC
  8
0_00
  6
CONTINUOUS
 62
6
 10
1777.5745
 20
1084.4685
 40
1.7000
 50
341.1790
 51
356.7520
  0
ARC
  8
0_00
  6
CONTINUOUS
 62
6
 10
1777.5745
 20
1084.4685
 40
3.2500
 50
93.2480
 51
118.6854
  0
ARC
  8
0_00
  6
CONTINUOUS
 62
6
 10
1777.5745
 20
1084.4685
 40
3.2500
 50
331.3146
 51
356.7520
  0
ARC
  8
0_00
  6
CONTINUOUS
 62
6
 10
1777.5745
 20
1084.4685
 40
1.7000
 50
161.1790
 51
198.8210
  0
ARC
  8
0_00
  6
CONTINUOUS
 62
6
 10
1777.5745
 20
1084.4685
 40
1.7000
 50
251.1790
 51
288.8210
  0
ARC
  8
0_00
  6
CONTINUOUS
 62
6
 10
1777.5745
 20
1084.4685
 40
1.7000
 50
93.2480
 51
108.8210
  0
ARC
  8
0_00
  6
CONTINUOUS
 62
6
 10
1780.0456
 20
1084.3282
 40
0.7750
 50
356.7520
 51
536.7520
  0
ARC
  8
0_00
  6
CONTINUOUS
 62
6
 10
1777.4342
 20
1086.9394
 40
0.7750
 50
273.2480
 51
453.2480
  0
ARC
  8
0_00
  6
CONTINUOUS
 62
6
 10
619.0746
 20
840.9685
 40
2.5000
 50
180.0000
 51
270.0000
  0
ARC
  8
0_00
  6
CONTINUOUS
 62
6
 10
618.2745
 20
845.2582
 40
0.5000
 50
180.0000
 51
298.6854
  0
ARC
  8
0_00
  6
CONTINUOUS
 62
6
 10
623.3643
 20
840.1685
 40
0.5000
 50
151.3146
 51
270.0000
  0
ARC
  8
0_00
  6
CONTINUOUS
 62
6
 10
620.0745
 20
841.9685
 40
1.7000
 50
93.2480
 51
108.8210
  0
ARC
  8
0_00
  6
CONTINUOUS
 62
6
 10
620.0745
 20
841.9685
 40
3.2500
 50
331.3146
 51
356.7520
  0
ARC
  8
0_00
  6
CONTINUOUS
 62
6
 10
620.0745
 20
841.9685
 40
3.2500
 50
93.2480
 51
118.6854
  0
ARC
  8
0_00
  6
CONTINUOUS
 62
6
 10
620.0745
 20
841.9685
 40
1.7000
 50
251.1790
 51
288.8210
  0
ARC
  8
0_00
  6
CONTINUOUS
 62
6
 10
620.0745
 20
841.9685
 40
1.7000
 50
161.1790
 51
198.8210
  0
ARC
  8
0_00
  6
CONTINUOUS
 62
6
 10
620.0745
 20
841.9685
 40
1.7000
 50
341.1790
 51
356.7520
  0
ARC
  8
0_00
  6
CONTINUOUS
 62
6
 10
619.9343
 20
844.4395
 40
0.7750
 50
273.2480
 51
453.2480
  0
ARC
  8
0_00
  6
CONTINUOUS
 62
6
 10
622.5456
 20
841.8282
 40
0.7750
 50
356.7520
 51
536.7520
  0
ARC
  8
0_00
  6
CONTINUOUS
 62
6
 10
619.0746
 20
863.9684
 40
2.5000
 50
90.0000
 51
180.0000
  0
ARC
  8
0_00
  6
CONTINUOUS
 62
6
 10
618.2745
 20
859.6786
 40
0.5000
 50
61.3146
 51
180.0000
  0
ARC
  8
0_00
  6
CONTINUOUS
 62
6
 10
623.3643
 20
864.7684
 40
0.5000
 50
90.0000
 51
208.6854
  0
ARC
  8
0_00
  6
CONTINUOUS
 62
6
 10
620.0745
 20
862.9684
 40
1.7000
 50
251.1790
 51
266.7520
  0
ARC
  8
0_00
  6
CONTINUOUS
 62
6
 10
620.0745
 20
862.9684
 40
3.2500
 50
3.2480
 51
28.6854
  0
ARC
  8
0_00
  6
CONTINUOUS
 62
6
 10
620.0745
 20
862.9684
 40
3.2500
 50
241.3146
 51
266.7520
  0
ARC
  8
0_00
  6
CONTINUOUS
 62
6
 10
620.0745
 20
862.9684
 40
1.7000
 50
71.1790
 51
108.8210
  0
ARC
  8
0_00
  6
CONTINUOUS
 62
6
 10
620.0745
 20
862.9684
 40
1.7000
 50
161.1790
 51
198.8210
  0
ARC
  8
0_00
  6
CONTINUOUS
 62
6
 10
620.0745
 20
862.9684
 40
1.7000
 50
3.2480
 51
18.8210
  0
ARC
  8
0_00
  6
CONTINUOUS
 62
6
 10
619.9343
 20
860.4974
 40
0.7750
 50
266.7520
 51
446.7520
  0
ARC
  8
0_00
  6
CONTINUOUS
 62
6
 10
622.5456
 20
863.1086
 40
0.7750
 50
183.2480
 51
363.2480
  0
ARC
  8
0_00
  6
CONTINUOUS
 62
6
 10
657.0745
 20
840.9685
 40
2.5000
 50
270.0000
 51
360.0000
  0
ARC
  8
0_00
  6
CONTINUOUS
 62
6
 10
657.8746
 20
845.2582
 40
0.5000
 50
241.3146
 51
360.0000
  0
ARC
  8
0_00
  6
CONTINUOUS
 62
6
 10
652.7847
 20
840.1685
 40
0.5000
 50
270.0000
 51
388.6854
  0
ARC
  8
0_00
  6
CONTINUOUS
 62
6
 10
656.0745
 20
841.9685
 40
1.7000
 50
71.1790
 51
86.7520
  0
ARC
  8
0_00
  6
CONTINUOUS
 62
6
 10
656.0745
 20
841.9685
 40
3.2500
 50
183.2480
 51
208.6854
  0
ARC
  8
0_00
  6
CONTINUOUS
 62
6
 10
656.0745
 20
841.9685
 40
3.2500
 50
61.3146
 51
86.7520
  0
ARC
  8
0_00
  6
CONTINUOUS
 62
6
 10
656.0745
 20
841.9685
 40
1.7000
 50
251.1790
 51
288.8210
  0
ARC
  8
0_00
  6
CONTINUOUS
 62
6
 10
656.0745
 20
841.9685
 40
1.7000
 50
341.1790
 51
378.8210
  0
ARC
  8
0_00
  6
CONTINUOUS
 62
6
 10
656.0745
 20
841.9685
 40
1.7000
 50
183.2480
 51
198.8210
  0
ARC
  8
0_00
  6
CONTINUOUS
 62
6
 10
656.2148
 20
844.4395
 40
0.7750
 50
86.7520
 51
266.7520
  0
ARC
  8
0_00
  6
CONTINUOUS
 62
6
 10
653.6035
 20
841.8282
 40
0.7750
 50
3.2480
 51
183.2480
  0
ARC
  8
0_00
  6
CONTINUOUS
 62
6
 10
657.0745
 20
863.9684
 40
2.5000
 50
0.0000
 51
90.0000
  0
ARC
  8
0_00
  6
CONTINUOUS
 62
6
 10
657.8746
 20
859.6786
 40
0.5000
 50
0.0000
 51
118.6854
  0
ARC
  8
0_00
  6
CONTINUOUS
 62
6
 10
652.7847
 20
864.7684
 40
0.5000
 50
331.3146
 51
450.0000
  0
ARC
  8
0_00
  6
CONTINUOUS
 62
6
 10
656.0745
 20
862.9684
 40
1.7000
 50
273.2480
 51
288.8210
  0
ARC
  8
0_00
  6
CONTINUOUS
 62
6
 10
656.0745
 20
862.9684
 40
3.2500
 50
151.3146
 51
176.7520
  0
ARC
  8
0_00
  6
CONTINUOUS
 62
6
 10
656.0745
 20
862.9684
 40
3.2500
 50
273.2480
 51
298.6854
  0
ARC
  8
0_00
  6
CONTINUOUS
 62
6
 10
656.0745
 20
862.9684
 40
1.7000
 50
71.1790
 51
108.8210
  0
ARC
  8
0_00
  6
CONTINUOUS
 62
6
 10
656.0745
 20
862.9684
 40
1.7000
 50
341.1790
 51
378.8210
  0
ARC
  8
0_00
  6
CONTINUOUS
 62
6
 10
656.0745
 20
862.9684
 40
1.7000
 50
161.1790
 51
176.7520
  0
ARC
  8
0_00
  6
CONTINUOUS
 62
6
 10
656.2148
 20
860.4974
 40
0.7750
 50
93.2480
 51
273.2480
  0
ARC
  8
0_00
  6
CONTINUOUS
 62
6
 10
653.6035
 20
863.1086
 40
0.7750
 50
176.7520
 51
356.7520
  0
ARC
  8
0_00
  6
CONTINUOUS
 62
4
 10
2014.2482
 20
1019.9151
 40
2.0000
 50
90.4000
 51
136.6979
  0
ARC
  8
0_00
  6
CONTINUOUS
 62
4
 10
2010.2455
 20
1023.6872
 40
3.5000
 50
270.4000
 51
316.6979
  0
ARC
  8
0_00
  6
CONTINUOUS
 62
4
 10
2010.2455
 20
1023.6872
 40
3.5000
 50
131.8470
 51
194.5490
  0
ARC
  8
0_00
  6
CONTINUOUS
 62
4
 10
2005.8899
 20
1022.5568
 40
1.0000
 50
270.4000
 51
374.5490
  0
ARC
  8
0_00
  6
CONTINUOUS
 62
4
 10
2008.7778
 20
1025.3261
 40
1.3000
 50
60.4000
 51
131.8470
  0
ARC
  8
0_00
  6
CONTINUOUS
 62
4
 10
2010.2455
 20
1023.6872
 40
1.7500
 50
100.5841
 51
125.0231
  0
ARC
  8
0_00
  6
CONTINUOUS
 62
4
 10
2010.2455
 20
1023.6872
 40
1.7500
 50
265.7769
 51
305.0231
  0
ARC
  8
0_00
  6
CONTINUOUS
 62
4
 10
2010.2455
 20
1023.6872
 40
1.7500
 50
175.7769
 51
215.0231
  0
ARC
  8
0_00
  6
CONTINUOUS
 62
4
 10
2009.8550
 20
1025.7769
 40
0.3759
 50
280.5841
 51
420.4000
  0
ARC
  8
0_00
  6
CONTINUOUS
 62
4
 10
2012.4048
 20
1023.2657
 40
1.3000
 50
357.6053
 51
420.4000
  0
ARC
  8
0_00
  6
CONTINUOUS
 62
4
 10
2010.2455
 20
1023.6872
 40
1.7500
 50
355.7769
 51
380.2159
  0
ARC
  8
0_00
  6
CONTINUOUS
 62
4
 10
2012.2404
 20
1024.4218
 40
0.3759
 50
60.4000
 51
200.2159
  0
ARC
  8
0_00
  6
CONTINUOUS
 62
4
 10
1981.2477
 20
1040.2714
 40
10.5000
 50
180.0000
 51
188.7462
  0
ARC
  8
0_00
  6
CONTINUOUS
 62
4
 10
1978.8951
 20
1025.9685
 40
6.0000
 50
188.7462
 51
270.4000
  0
ARC
  8
0_00
  6
CONTINUOUS
 62
4
 10
1981.2477
 20
1040.2714
 40
9.0000
 50
180.0000
 51
188.7462
  0
ARC
  8
0_00
  6
CONTINUOUS
 62
4
 10
1978.9105
 20
1025.8686
 40
4.5000
 50
188.7462
 51
270.4000
  0
ARC
  8
0_00
  6
CONTINUOUS
 62
4
 10
1981.2477
 20
1164.6655
 40
10.5000
 50
171.2538
 51
180.0000
  0
ARC
  8
0_00
  6
CONTINUOUS
 62
4
 10
1981.2477
 20
1164.6655
 40
9.0000
 50
171.2538
 51
180.0000
  0
ARC
  8
0_00
  6
CONTINUOUS
 62
4
 10
1978.8951
 20
1178.9685
 40
6.0000
 50
89.6000
 51
171.2538
  0
ARC
  8
0_00
  6
CONTINUOUS
 62
4
 10
1978.9105
 20
1179.0683
 40
4.5000
 50
89.6000
 51
171.2538
  0
ARC
  8
0_00
  6
CONTINUOUS
 62
4
 10
2025.0896
 20
1024.4409
 40
0.6500
 50
0.4000
 51
180.4000
  0
ARC
  8
14_0E
  6
CONTINUOUS
 62
4
 10
2024.2462
 20
1023.4849
 40
1.5000
 50
270.4000
 51
360.4000
  0
ARC
  8
0_00
  6
CONTINUOUS
 62
4
 10
2014.2482
 20
1185.0218
 40
2.0000
 50
223.3021
 51
269.6000
  0
ARC
  8
0_00
  6
CONTINUOUS
 62
4
 10
2010.2455
 20
1181.2496
 40
3.5000
 50
43.3021
 51
89.6000
  0
ARC
  8
0_00
  6
CONTINUOUS
 62
4
 10
2010.2455
 20
1181.2496
 40
3.5000
 50
165.4510
 51
228.1530
  0
ARC
  8
0_00
  6
CONTINUOUS
 62
4
 10
2005.8899
 20
1182.3801
 40
1.0000
 50
345.4510
 51
449.6000
  0
ARC
  8
0_00
  6
CONTINUOUS
 62
4
 10
2008.7778
 20
1179.6108
 40
1.3000
 50
228.1530
 51
299.6000
  0
ARC
  8
0_00
  6
CONTINUOUS
 62
4
 10
2010.2455
 20
1181.2496
 40
1.7500
 50
234.9769
 51
259.4159
  0
ARC
  8
0_00
  6
CONTINUOUS
 62
4
 10
2010.2455
 20
1181.2496
 40
1.7500
 50
54.9769
 51
94.2231
  0
ARC
  8
0_00
  6
CONTINUOUS
 62
4
 10
2010.2455
 20
1181.2496
 40
1.7500
 50
144.9769
 51
184.2231
  0
ARC
  8
0_00
  6
CONTINUOUS
 62
4
 10
2009.8550
 20
1179.1599
 40
0.3759
 50
299.6000
 51
439.4159
  0
ARC
  8
0_00
  6
CONTINUOUS
 62
4
 10
2012.4048
 20
1181.6711
 40
1.3000
 50
299.6000
 51
362.3947
  0
ARC
  8
0_00
  6
CONTINUOUS
 62
4
 10
2010.2455
 20
1181.2496
 40
1.7500
 50
339.7841
 51
364.2231
  0
ARC
  8
0_00
  6
CONTINUOUS
 62
4
 10
2012.2404
 20
1180.5150
 40
0.3759
 50
159.7841
 51
299.6000
  0
ARC
  8
0_00
  6
CONTINUOUS
 62
4
 10
2025.0896
 20
1180.4959
 40
0.6500
 50
179.6000
 51
359.6000
  0
ARC
  8
14_0E
  6
CONTINUOUS
 62
4
 10
2024.2462
 20
1181.4518
 40
1.5000
 50
359.6000
 51
449.6000
  0
ARC
  8
0_00
  6
CONTINUOUS
 62
4
 10
1997.7534
 20
1022.5000
 40
1.0000
 50
270.4000
 51
360.4000
  0
ARC
  8
0_00
  6
CONTINUOUS
 62
4
 10
2001.1534
 20
1022.5237
 40
1.0000
 50
180.4000
 51
270.4000
  0
ARC
  8
0_00
  6
CONTINUOUS
 62
4
 10
1999.4446
 20
1023.8118
 40
0.7000
 50
0.4000
 51
180.4000
  0
ARC
  8
0_00
  6
CONTINUOUS
 62
4
 10
1997.7534
 20
1182.4368
 40
1.0000
 50
359.6000
 51
449.6000
  0
ARC
  8
0_00
  6
CONTINUOUS
 62
4
 10
2001.1534
 20
1182.4131
 40
1.0000
 50
89.6000
 51
179.6000
  0
ARC
  8
0_00
  6
CONTINUOUS
 62
4
 10
1999.4446
 20
1181.1249
 40
0.7000
 50
179.6000
 51
359.6000
  0
ARC
  8
0_00
  6
CONTINUOUS
 62
6
 10
2839.2752
 20
911.4684
 40
2.5000
 50
0.0000
 51
90.0000
  0
ARC
  8
0_00
  6
CONTINUOUS
 62
6
 10
2834.9857
 20
912.2684
 40
0.5000
 50
331.3146
 51
450.0000
  0
ARC
  8
0_00
  6
CONTINUOUS
 62
6
 10
2840.0751
 20
907.1786
 40
0.5000
 50
0.0000
 51
118.6854
  0
ARC
  8
0_00
  6
CONTINUOUS
 62
6
 10
2838.2751
 20
910.4684
 40
1.7000
 50
161.1790
 51
176.7520
  0
ARC
  8
0_00
  6
CONTINUOUS
 62
6
 10
2838.2751
 20
910.4684
 40
3.2500
 50
273.2480
 51
298.6854
  0
ARC
  8
0_00
  6
CONTINUOUS
 62
6
 10
2838.2751
 20
910.4684
 40
3.2500
 50
151.3146
 51
176.7520
  0
ARC
  8
0_00
  6
CONTINUOUS
 62
6
 10
2838.2751
 20
910.4684
 40
1.7000
 50
341.1790
 51
378.8210
  0
ARC
  8
0_00
  6
CONTINUOUS
 62
6
 10
2838.2751
 20
910.4684
 40
1.7000
 50
71.1790
 51
108.8210
  0
ARC
  8
0_00
  6
CONTINUOUS
 62
6
 10
2838.2751
 20
910.4684
 40
1.7000
 50
273.2480
 51
288.8210
  0
ARC
  8
0_00
  6
CONTINUOUS
 62
6
 10
2835.8044
 20
910.6087
 40
0.7750
 50
176.7520
 51
356.7520
  0
ARC
  8
0_00
  6
CONTINUOUS
 62
6
 10
2838.4155
 20
907.9974
 40
0.7750
 50
93.2480
 51
273.2480
  0
ARC
  8
0_00
  6
CONTINUOUS
 62
6
 10
2816.2750
 20
911.4684
 40
2.5000
 50
90.0000
 51
180.0000
  0
ARC
  8
0_00
  6
CONTINUOUS
 62
6
 10
2820.5649
 20
912.2684
 40
0.5000
 50
90.0000
 51
208.6854
  0
ARC
  8
0_00
  6
CONTINUOUS
 62
6
 10
2815.4755
 20
907.1786
 40
0.5000
 50
61.3146
 51
180.0000
  0
ARC
  8
0_00
  6
CONTINUOUS
 62
6
 10
2817.2754
 20
910.4684
 40
1.7000
 50
3.2480
 51
18.8210
  0
ARC
  8
0_00
  6
CONTINUOUS
 62
6
 10
2817.2754
 20
910.4684
 40
3.2500
 50
241.3146
 51
266.7520
  0
ARC
  8
0_00
  6
CONTINUOUS
 62
6
 10
2817.2754
 20
910.4684
 40
3.2500
 50
3.2480
 51
28.6854
  0
ARC
  8
0_00
  6
CONTINUOUS
 62
6
 10
2817.2754
 20
910.4684
 40
1.7000
 50
161.1790
 51
198.8210
  0
ARC
  8
0_00
  6
CONTINUOUS
 62
6
 10
2817.2754
 20
910.4684
 40
1.7000
 50
71.1790
 51
108.8210
  0
ARC
  8
0_00
  6
CONTINUOUS
 62
6
 10
2817.2754
 20
910.4684
 40
1.7000
 50
251.1790
 51
266.7520
  0
ARC
  8
0_00
  6
CONTINUOUS
 62
6
 10
2819.7464
 20
910.6087
 40
0.7750
 50
183.2480
 51
363.2480
  0
ARC
  8
0_00
  6
CONTINUOUS
 62
6
 10
2817.1350
 20
907.9974
 40
0.7750
 50
266.7520
 51
446.7520
  0
ARC
  8
0_00
  6
CONTINUOUS
 62
6
 10
2839.2752
 20
873.4685
 40
2.5000
 50
270.0000
 51
360.0000
  0
ARC
  8
0_00
  6
CONTINUOUS
 62
6
 10
2834.9857
 20
872.6684
 40
0.5000
 50
270.0000
 51
388.6854
  0
ARC
  8
0_00
  6
CONTINUOUS
 62
6
 10
2840.0751
 20
877.7582
 40
0.5000
 50
241.3146
 51
360.0000
  0
ARC
  8
0_00
  6
CONTINUOUS
 62
6
 10
2838.2751
 20
874.4685
 40
1.7000
 50
183.2480
 51
198.8210
  0
ARC
  8
0_00
  6
CONTINUOUS
 62
6
 10
2838.2751
 20
874.4685
 40
3.2500
 50
61.3146
 51
86.7520
  0
ARC
  8
0_00
  6
CONTINUOUS
 62
6
 10
2838.2751
 20
874.4685
 40
3.2500
 50
183.2480
 51
208.6854
  0
ARC
  8
0_00
  6
CONTINUOUS
 62
6
 10
2838.2751
 20
874.4685
 40
1.7000
 50
341.1790
 51
378.8210
  0
ARC
  8
0_00
  6
CONTINUOUS
 62
6
 10
2838.2751
 20
874.4685
 40
1.7000
 50
251.1790
 51
288.8210
  0
ARC
  8
0_00
  6
CONTINUOUS
 62
6
 10
2838.2751
 20
874.4685
 40
1.7000
 50
71.1790
 51
86.7520
  0
ARC
  8
0_00
  6
CONTINUOUS
 62
6
 10
2835.8044
 20
874.3282
 40
0.7750
 50
3.2480
 51
183.2480
  0
ARC
  8
0_00
  6
CONTINUOUS
 62
6
 10
2838.4155
 20
876.9395
 40
0.7750
 50
86.7520
 51
266.7520
  0
ARC
  8
0_00
  6
CONTINUOUS
 62
6
 10
2816.2750
 20
873.4685
 40
2.5000
 50
180.0000
 51
270.0000
  0
ARC
  8
0_00
  6
CONTINUOUS
 62
6
 10
2820.5649
 20
872.6684
 40
0.5000
 50
151.3146
 51
270.0000
  0
ARC
  8
0_00
  6
CONTINUOUS
 62
6
 10
2815.4755
 20
877.7582
 40
0.5000
 50
180.0000
 51
298.6854
  0
ARC
  8
0_00
  6
CONTINUOUS
 62
6
 10
2817.2754
 20
874.4685
 40
1.7000
 50
341.1790
 51
356.7520
  0
ARC
  8
0_00
  6
CONTINUOUS
 62
6
 10
2817.2754
 20
874.4685
 40
3.2500
 50
93.2480
 51
118.6854
  0
ARC
  8
0_00
  6
CONTINUOUS
 62
6
 10
2817.2754
 20
874.4685
 40
3.2500
 50
331.3146
 51
356.7520
  0
ARC
  8
0_00
  6
CONTINUOUS
 62
6
 10
2817.2754
 20
874.4685
 40
1.7000
 50
161.1790
 51
198.8210
  0
ARC
  8
0_00
  6
CONTINUOUS
 62
6
 10
2817.2754
 20
874.4685
 40
1.7000
 50
251.1790
 51
288.8210
  0
ARC
  8
0_00
  6
CONTINUOUS
 62
6
 10
2817.2754
 20
874.4685
 40
1.7000
 50
93.2480
 51
108.8210
  0
ARC
  8
0_00
  6
CONTINUOUS
 62
6
 10
2819.7464
 20
874.3282
 40
0.7750
 50
356.7520
 51
536.7520
  0
ARC
  8
0_00
  6
CONTINUOUS
 62
6
 10
2817.1350
 20
876.9395
 40
0.7750
 50
273.2480
 51
453.2480
  0
ARC
  8
0_00
  6
CONTINUOUS
 62
6
 10
3739.2752
 20
911.4684
 40
2.5000
 50
0.0000
 51
90.0000
  0
ARC
  8
0_00
  6
CONTINUOUS
 62
6
 10
3734.9857
 20
912.2684
 40
0.5000
 50
331.3146
 51
450.0000
  0
ARC
  8
0_00
  6
CONTINUOUS
 62
6
 10
3740.0754
 20
907.1786
 40
0.5000
 50
0.0000
 51
118.6854
  0
ARC
  8
0_00
  6
CONTINUOUS
 62
6
 10
3738.2751
 20
910.4684
 40
1.7000
 50
161.1790
 51
176.7520
  0
ARC
  8
0_00
  6
CONTINUOUS
 62
6
 10
3738.2751
 20
910.4684
 40
3.2500
 50
273.2480
 51
298.6854
  0
ARC
  8
0_00
  6
CONTINUOUS
 62
6
 10
3738.2751
 20
910.4684
 40
3.2500
 50
151.3146
 51
176.7520
  0
ARC
  8
0_00
  6
CONTINUOUS
 62
6
 10
3738.2751
 20
910.4684
 40
1.7000
 50
341.1790
 51
378.8210
  0
ARC
  8
0_00
  6
CONTINUOUS
 62
6
 10
3738.2751
 20
910.4684
 40
1.7000
 50
71.1790
 51
108.8210
  0
ARC
  8
0_00
  6
CONTINUOUS
 62
6
 10
3738.2751
 20
910.4684
 40
1.7000
 50
273.2480
 51
288.8210
  0
ARC
  8
0_00
  6
CONTINUOUS
 62
6
 10
3735.8041
 20
910.6087
 40
0.7750
 50
176.7520
 51
356.7520
  0
ARC
  8
0_00
  6
CONTINUOUS
 62
6
 10
3738.4155
 20
907.9974
 40
0.7750
 50
93.2480
 51
273.2480
  0
ARC
  8
0_00
  6
CONTINUOUS
 62
6
 10
3716.2750
 20
911.4684
 40
2.5000
 50
90.0000
 51
180.0000
  0
ARC
  8
0_00
  6
CONTINUOUS
 62
6
 10
3720.5652
 20
912.2684
 40
0.5000
 50
90.0000
 51
208.6854
  0
ARC
  8
0_00
  6
CONTINUOUS
 62
6
 10
3715.4755
 20
907.1786
 40
0.5000
 50
61.3146
 51
180.0000
  0
ARC
  8
0_00
  6
CONTINUOUS
 62
6
 10
3717.2751
 20
910.4684
 40
1.7000
 50
3.2480
 51
18.8210
  0
ARC
  8
0_00
  6
CONTINUOUS
 62
6
 10
3717.2751
 20
910.4684
 40
3.2500
 50
241.3146
 51
266.7520
  0
ARC
  8
0_00
  6
CONTINUOUS
 62
6
 10
3717.2751
 20
910.4684
 40
3.2500
 50
3.2480
 51
28.6854
  0
ARC
  8
0_00
  6
CONTINUOUS
 62
6
 10
3717.2751
 20
910.4684
 40
1.7000
 50
161.1790
 51
198.8210
  0
ARC
  8
0_00
  6
CONTINUOUS
 62
6
 10
3717.2751
 20
910.4684
 40
1.7000
 50
71.1790
 51
108.8210
  0
ARC
  8
0_00
  6
CONTINUOUS
 62
6
 10
3717.2751
 20
910.4684
 40
1.7000
 50
251.1790
 51
266.7520
  0
ARC
  8
0_00
  6
CONTINUOUS
 62
6
 10
3719.7461
 20
910.6087
 40
0.7750
 50
183.2480
 51
363.2480
  0
ARC
  8
0_00
  6
CONTINUOUS
 62
6
 10
3717.1350
 20
907.9974
 40
0.7750
 50
266.7520
 51
446.7520
  0
ARC
  8
0_00
  6
CONTINUOUS
 62
6
 10
3739.2752
 20
873.4685
 40
2.5000
 50
270.0000
 51
360.0000
  0
ARC
  8
0_00
  6
CONTINUOUS
 62
6
 10
3734.9857
 20
872.6684
 40
0.5000
 50
270.0000
 51
388.6854
  0
ARC
  8
0_00
  6
CONTINUOUS
 62
6
 10
3740.0754
 20
877.7582
 40
0.5000
 50
241.3146
 51
360.0000
  0
ARC
  8
0_00
  6
CONTINUOUS
 62
6
 10
3738.2751
 20
874.4685
 40
1.7000
 50
183.2480
 51
198.8210
  0
ARC
  8
0_00
  6
CONTINUOUS
 62
6
 10
3738.2751
 20
874.4685
 40
3.2500
 50
61.3146
 51
86.7520
  0
ARC
  8
0_00
  6
CONTINUOUS
 62
6
 10
3738.2751
 20
874.4685
 40
3.2500
 50
183.2480
 51
208.6854
  0
ARC
  8
0_00
  6
CONTINUOUS
 62
6
 10
3738.2751
 20
874.4685
 40
1.7000
 50
341.1790
 51
378.8210
  0
ARC
  8
0_00
  6
CONTINUOUS
 62
6
 10
3738.2751
 20
874.4685
 40
1.7000
 50
251.1790
 51
288.8210
  0
ARC
  8
0_00
  6
CONTINUOUS
 62
6
 10
3738.2751
 20
874.4685
 40
1.7000
 50
71.1790
 51
86.7520
  0
ARC
  8
0_00
  6
CONTINUOUS
 62
6
 10
3735.8041
 20
874.3282
 40
0.7750
 50
3.2480
 51
183.2480
  0
ARC
  8
0_00
  6
CONTINUOUS
 62
6
 10
3738.4155
 20
876.9395
 40
0.7750
 50
86.7520
 51
266.7520
  0
ARC
  8
0_00
  6
CONTINUOUS
 62
6
 10
3716.2750
 20
873.4685
 40
2.5000
 50
180.0000
 51
270.0000
  0
ARC
  8
0_00
  6
CONTINUOUS
 62
6
 10
3720.5652
 20
872.6684
 40
0.5000
 50
151.3146
 51
270.0000
  0
ARC
  8
0_00
  6
CONTINUOUS
 62
6
 10
3715.4755
 20
877.7582
 40
0.5000
 50
180.0000
 51
298.6854
  0
ARC
  8
0_00
  6
CONTINUOUS
 62
6
 10
3717.2751
 20
874.4685
 40
1.7000
 50
341.1790
 51
356.7520
  0
ARC
  8
0_00
  6
CONTINUOUS
 62
6
 10
3717.2751
 20
874.4685
 40
3.2500
 50
93.2480
 51
118.6854
  0
ARC
  8
0_00
  6
CONTINUOUS
 62
6
 10
3717.2751
 20
874.4685
 40
3.2500
 50
331.3146
 51
356.7520
  0
ARC
  8
0_00
  6
CONTINUOUS
 62
6
 10
3717.2751
 20
874.4685
 40
1.7000
 50
161.1790
 51
198.8210
  0
ARC
  8
0_00
  6
CONTINUOUS
 62
6
 10
3717.2751
 20
874.4685
 40
1.7000
 50
251.1790
 51
288.8210
  0
ARC
  8
0_00
  6
CONTINUOUS
 62
6
 10
3717.2751
 20
874.4685
 40
1.7000
 50
93.2480
 51
108.8210
  0
ARC
  8
0_00
  6
CONTINUOUS
 62
6
 10
3719.7461
 20
874.3282
 40
0.7750
 50
356.7520
 51
536.7520
  0
ARC
  8
0_00
  6
CONTINUOUS
 62
6
 10
3717.1350
 20
876.9395
 40
0.7750
 50
273.2480
 51
453.2480
  0
ARC
  8
0_00
  6
CONTINUOUS
 62
6
 10
2379.4321
 20
720.9950
 40
2.5000
 50
135.0000
 51
225.0000
  0
ARC
  8
0_00
  6
CONTINUOUS
 62
6
 10
2381.8996
 20
724.5940
 40
0.5000
 50
135.0000
 51
253.6854
  0
ARC
  8
0_00
  6
CONTINUOUS
 62
6
 10
2381.8996
 20
717.3960
 40
0.5000
 50
106.3146
 51
225.0000
  0
ARC
  8
0_00
  6
CONTINUOUS
 62
6
 10
2380.8461
 20
720.9950
 40
1.7000
 50
48.2480
 51
63.8210
  0
ARC
  8
0_00
  6
CONTINUOUS
 62
6
 10
2380.8461
 20
720.9950
 40
3.2500
 50
286.3146
 51
311.7520
  0
ARC
  8
0_00
  6
CONTINUOUS
 62
6
 10
2380.8461
 20
720.9950
 40
3.2500
 50
48.2480
 51
73.6854
  0
ARC
  8
0_00
  6
CONTINUOUS
 62
6
 10
2380.8461
 20
720.9950
 40
1.7000
 50
206.1790
 51
243.8210
  0
ARC
  8
0_00
  6
CONTINUOUS
 62
6
 10
2380.8461
 20
720.9950
 40
1.7000
 50
116.1790
 51
153.8210
  0
ARC
  8
0_00
  6
CONTINUOUS
 62
6
 10
2380.8461
 20
720.9950
 40
1.7000
 50
296.1790
 51
311.7520
  0
ARC
  8
0_00
  6
CONTINUOUS
 62
6
 10
2382.4944
 20
722.8414
 40
0.7750
 50
228.2480
 51
408.2480
  0
ARC
  8
0_00
  6
CONTINUOUS
 62
6
 10
2382.4944
 20
719.1486
 40
0.7750
 50
311.7520
 51
491.7520
  0
ARC
  8
0_00
  6
CONTINUOUS
 62
6
 10
2395.6955
 20
737.2585
 40
2.5000
 50
45.0000
 51
135.0000
  0
ARC
  8
0_00
  6
CONTINUOUS
 62
6
 10
2392.0963
 20
734.7909
 40
0.5000
 50
16.3146
 51
135.0000
  0
ARC
  8
0_00
  6
CONTINUOUS
 62
6
 10
2399.2943
 20
734.7909
 40
0.5000
 50
45.0000
 51
163.6854
  0
ARC
  8
0_00
  6
CONTINUOUS
 62
6
 10
2395.6955
 20
735.8443
 40
1.7000
 50
206.1790
 51
221.7520
  0
ARC
  8
0_00
  6
CONTINUOUS
 62
6
 10
2395.6955
 20
735.8443
 40
3.2500
 50
318.2480
 51
343.6854
  0
ARC
  8
0_00
  6
CONTINUOUS
 62
6
 10
2395.6955
 20
735.8443
 40
3.2500
 50
196.3146
 51
221.7520
  0
ARC
  8
0_00
  6
CONTINUOUS
 62
6
 10
2395.6955
 20
735.8443
 40
1.7000
 50
26.1790
 51
63.8210
  0
ARC
  8
0_00
  6
CONTINUOUS
 62
6
 10
2395.6955
 20
735.8443
 40
1.7000
 50
116.1790
 51
153.8210
  0
ARC
  8
0_00
  6
CONTINUOUS
 62
6
 10
2395.6955
 20
735.8443
 40
1.7000
 50
318.2480
 51
333.8210
  0
ARC
  8
0_00
  6
CONTINUOUS
 62
6
 10
2393.8489
 20
734.1962
 40
0.7750
 50
221.7520
 51
401.7520
  0
ARC
  8
0_00
  6
CONTINUOUS
 62
6
 10
2397.5420
 20
734.1962
 40
0.7750
 50
138.2480
 51
318.2480
  0
ARC
  8
0_00
  6
CONTINUOUS
 62
6
 10
2406.3017
 20
694.1250
 40
2.5000
 50
225.0000
 51
315.0000
  0
ARC
  8
0_00
  6
CONTINUOUS
 62
6
 10
2409.9010
 20
696.5926
 40
0.5000
 50
196.3146
 51
315.0000
  0
ARC
  8
0_00
  6
CONTINUOUS
 62
6
 10
2402.7029
 20
696.5926
 40
0.5000
 50
225.0000
 51
343.6854
  0
ARC
  8
0_00
  6
CONTINUOUS
 62
6
 10
2406.3017
 20
695.5392
 40
1.7000
 50
26.1790
 51
41.7520
  0
ARC
  8
0_00
  6
CONTINUOUS
 62
6
 10
2406.3017
 20
695.5392
 40
3.2500
 50
138.2480
 51
163.6854
  0
ARC
  8
0_00
  6
CONTINUOUS
 62
6
 10
2406.3017
 20
695.5392
 40
3.2500
 50
16.3146
 51
41.7520
  0
ARC
  8
0_00
  6
CONTINUOUS
 62
6
 10
2406.3017
 20
695.5392
 40
1.7000
 50
206.1790
 51
243.8210
  0
ARC
  8
0_00
  6
CONTINUOUS
 62
6
 10
2406.3017
 20
695.5392
 40
1.7000
 50
296.1790
 51
333.8210
  0
ARC
  8
0_00
  6
CONTINUOUS
 62
6
 10
2406.3017
 20
695.5392
 40
1.7000
 50
138.2480
 51
153.8210
  0
ARC
  8
0_00
  6
CONTINUOUS
 62
6
 10
2408.1482
 20
697.1873
 40
0.7750
 50
41.7520
 51
221.7520
  0
ARC
  8
0_00
  6
CONTINUOUS
 62
6
 10
2404.4554
 20
697.1873
 40
0.7750
 50
318.2480
 51
498.2480
  0
ARC
  8
0_00
  6
CONTINUOUS
 62
6
 10
2422.5653
 20
710.3885
 40
2.5000
 50
315.0000
 51
405.0000
  0
ARC
  8
0_00
  6
CONTINUOUS
 62
6
 10
2420.0978
 20
706.7895
 40
0.5000
 50
315.0000
 51
433.6854
  0
ARC
  8
0_00
  6
CONTINUOUS
 62
6
 10
2420.0978
 20
713.9874
 40
0.5000
 50
286.3146
 51
405.0000
  0
ARC
  8
0_00
  6
CONTINUOUS
 62
6
 10
2421.1511
 20
710.3885
 40
1.7000
 50
228.2480
 51
243.8210
  0
ARC
  8
0_00
  6
CONTINUOUS
 62
6
 10
2421.1511
 20
710.3885
 40
3.2500
 50
106.3146
 51
131.7520
  0
ARC
  8
0_00
  6
CONTINUOUS
 62
6
 10
2421.1511
 20
710.3885
 40
3.2500
 50
228.2480
 51
253.6854
  0
ARC
  8
0_00
  6
CONTINUOUS
 62
6
 10
2421.1511
 20
710.3885
 40
1.7000
 50
26.1790
 51
63.8210
  0
ARC
  8
0_00
  6
CONTINUOUS
 62
6
 10
2421.1511
 20
710.3885
 40
1.7000
 50
296.1790
 51
333.8210
  0
ARC
  8
0_00
  6
CONTINUOUS
 62
6
 10
2421.1511
 20
710.3885
 40
1.7000
 50
116.1790
 51
131.7520
  0
ARC
  8
0_00
  6
CONTINUOUS
 62
6
 10
2419.5029
 20
708.5420
 40
0.7750
 50
48.2480
 51
228.2480
  0
ARC
  8
0_00
  6
CONTINUOUS
 62
6
 10
2419.5029
 20
712.2349
 40
0.7750
 50
131.7520
 51
311.7520
  0
ARC
  8
0_00
  6
CONTINUOUS
 62
6
 10
2615.0546
 20
802.4684
 40
125.1479
 50
221.5643
 51
363.4357
  0
ARC
  8
0_00
  6
CONTINUOUS
 62
6
 10
2615.0546
 20
1920.6210
 40
88.7224
 50
220.1508
 51
364.8492
  0
ARC
  8
0_00
  6
CONTINUOUS
 62
2
 10
2577.7753
 20
2520.6430
 40
2.4500
 50
166.4556
 51
180.0000
  0
ARC
  8
0_00
  6
CONTINUOUS
 62
2
 10
2577.7753
 20
2520.6430
 40
2.4500
 50
90.0000
 51
103.6333
  0
ARC
  8
0_00
  6
CONTINUOUS
 62
2
 10
2577.7753
 20
2520.6430
 40
2.4500
 50
0.0000
 51
13.5444
  0
ARC
  8
0_00
  6
CONTINUOUS
 62
2
 10
2577.7753
 20
2520.6430
 40
2.4500
 50
76.3667
 51
90.0000
  0
ARC
  8
0_00
  6
CONTINUOUS
 62
2
 10
2577.7753
 20
2520.6430
 40
2.4500
 50
180.0000
 51
193.5444
  0
ARC
  8
0_00
  6
CONTINUOUS
 62
2
 10
2577.7753
 20
2520.6430
 40
2.4500
 50
256.3667
 51
270.0000
  0
ARC
  8
0_00
  6
CONTINUOUS
 62
2
 10
2577.7753
 20
2520.6430
 40
2.4500
 50
346.4556
 51
360.0000
  0
ARC
  8
0_00
  6
CONTINUOUS
 62
2
 10
2577.7753
 20
2520.6430
 40
2.4500
 50
270.0000
 51
283.6334
  0
CIRCLE
  8
0_00
  6
CONTINUOUS
 62
2
 10
2577.7753
 20
2520.6430
 40
5.9000
  0
ARC
  8
0_00
  6
CONTINUOUS
 62
6
 10
2615.0546
 20
2430.6429
 40
88.7224
 50
220.1508
 51
364.8492
  0
ARC
  8
0_00
  6
CONTINUOUS
 62
4
 10
3953.9490
 20
809.9152
 40
2.0000
 50
90.4000
 51
136.6979
  0
ARC
  8
0_00
  6
CONTINUOUS
 62
4
 10
3949.9463
 20
813.6872
 40
3.5000
 50
270.4000
 51
316.6979
  0
ARC
  8
0_00
  6
CONTINUOUS
 62
4
 10
3949.9463
 20
813.6872
 40
3.5000
 50
131.8470
 51
194.5490
  0
ARC
  8
0_00
  6
CONTINUOUS
 62
4
 10
3945.5905
 20
812.5568
 40
1.0000
 50
270.4000
 51
374.5490
  0
ARC
  8
0_00
  6
CONTINUOUS
 62
4
 10
3948.4790
 20
815.3261
 40
1.3000
 50
60.4000
 51
131.8470
  0
ARC
  8
0_00
  6
CONTINUOUS
 62
4
 10
3949.9463
 20
813.6872
 40
1.7500
 50
100.5841
 51
125.0231
  0
ARC
  8
0_00
  6
CONTINUOUS
 62
4
 10
3949.9463
 20
813.6872
 40
1.7500
 50
265.7769
 51
305.0231
  0
ARC
  8
0_00
  6
CONTINUOUS
 62
4
 10
3949.9463
 20
813.6872
 40
1.7500
 50
175.7769
 51
215.0231
  0
ARC
  8
0_00
  6
CONTINUOUS
 62
4
 10
3949.5560
 20
815.7769
 40
0.3759
 50
280.5841
 51
420.4000
  0
ARC
  8
0_00
  6
CONTINUOUS
 62
4
 10
3952.1057
 20
813.2657
 40
1.3000
 50
357.6053
 51
420.4000
  0
ARC
  8
0_00
  6
CONTINUOUS
 62
4
 10
3949.9463
 20
813.6872
 40
1.7500
 50
355.7769
 51
380.2159
  0
ARC
  8
0_00
  6
CONTINUOUS
 62
4
 10
3951.9409
 20
814.4218
 40
0.3759
 50
60.4000
 51
200.2159
  0
ARC
  8
0_00
  6
CONTINUOUS
 62
4
 10
3920.9485
 20
830.2714
 40
10.5000
 50
180.0000
 51
188.7462
  0
ARC
  8
0_00
  6
CONTINUOUS
 62
4
 10
3918.5962
 20
815.9685
 40
6.0000
 50
188.7462
 51
270.4000
  0
ARC
  8
0_00
  6
CONTINUOUS
 62
4
 10
3920.9485
 20
830.2714
 40
9.0000
 50
180.0000
 51
188.7462
  0
ARC
  8
0_00
  6
CONTINUOUS
 62
4
 10
3918.6115
 20
815.8685
 40
4.5000
 50
188.7462
 51
270.4000
  0
ARC
  8
0_00
  6
CONTINUOUS
 62
4
 10
3920.9485
 20
954.6655
 40
10.5000
 50
171.2538
 51
180.0000
  0
ARC
  8
0_00
  6
CONTINUOUS
 62
4
 10
3920.9485
 20
954.6655
 40
9.0000
 50
171.2538
 51
180.0000
  0
ARC
  8
0_00
  6
CONTINUOUS
 62
4
 10
3918.5962
 20
968.9684
 40
6.0000
 50
89.6000
 51
171.2538
  0
ARC
  8
0_00
  6
CONTINUOUS
 62
4
 10
3918.6115
 20
969.0683
 40
4.5000
 50
89.6000
 51
171.2538
  0
ARC
  8
0_00
  6
CONTINUOUS
 62
4
 10
3964.7903
 20
814.4408
 40
0.6500
 50
0.4000
 51
180.4000
  0
ARC
  8
14_0E
  6
CONTINUOUS
 62
4
 10
3963.9471
 20
813.4850
 40
1.5000
 50
270.4000
 51
360.4000
  0
ARC
  8
0_00
  6
CONTINUOUS
 62
4
 10
3953.9490
 20
975.0217
 40
2.0000
 50
223.3021
 51
269.6000
  0
ARC
  8
0_00
  6
CONTINUOUS
 62
4
 10
3949.9463
 20
971.2496
 40
3.5000
 50
43.3021
 51
89.6000
  0
ARC
  8
0_00
  6
CONTINUOUS
 62
4
 10
3949.9463
 20
971.2496
 40
3.5000
 50
165.4510
 51
228.1530
  0
ARC
  8
0_00
  6
CONTINUOUS
 62
4
 10
3945.5905
 20
972.3801
 40
1.0000
 50
345.4510
 51
449.6000
  0
ARC
  8
0_00
  6
CONTINUOUS
 62
4
 10
3948.4790
 20
969.6107
 40
1.3000
 50
228.1530
 51
299.6000
  0
ARC
  8
0_00
  6
CONTINUOUS
 62
4
 10
3949.9463
 20
971.2496
 40
1.7500
 50
234.9769
 51
259.4159
  0
ARC
  8
0_00
  6
CONTINUOUS
 62
4
 10
3949.9463
 20
971.2496
 40
1.7500
 50
54.9769
 51
94.2231
  0
ARC
  8
0_00
  6
CONTINUOUS
 62
4
 10
3949.9463
 20
971.2496
 40
1.7500
 50
144.9769
 51
184.2231
  0
ARC
  8
0_00
  6
CONTINUOUS
 62
4
 10
3949.5560
 20
969.1599
 40
0.3759
 50
299.6000
 51
439.4159
  0
ARC
  8
0_00
  6
CONTINUOUS
 62
4
 10
3952.1057
 20
971.6711
 40
1.3000
 50
299.6000
 51
362.3947
  0
ARC
  8
0_00
  6
CONTINUOUS
 62
4
 10
3949.9463
 20
971.2496
 40
1.7500
 50
339.7841
 51
364.2231
  0
ARC
  8
0_00
  6
CONTINUOUS
 62
4
 10
3951.9409
 20
970.5150
 40
0.3759
 50
159.7841
 51
299.6000
  0
ARC
  8
0_00
  6
CONTINUOUS
 62
4
 10
3964.7903
 20
970.4960
 40
0.6500
 50
179.6000
 51
359.6000
  0
ARC
  8
14_0E
  6
CONTINUOUS
 62
4
 10
3963.9471
 20
971.4518
 40
1.5000
 50
359.6000
 51
449.6000
  0
ARC
  8
0_00
  6
CONTINUOUS
 62
4
 10
3937.4545
 20
812.5000
 40
1.0000
 50
270.4000
 51
360.4000
  0
ARC
  8
0_00
  6
CONTINUOUS
 62
4
 10
3940.8542
 20
812.5238
 40
1.0000
 50
180.4000
 51
270.4000
  0
ARC
  8
0_00
  6
CONTINUOUS
 62
4
 10
3939.1452
 20
813.8118
 40
0.7000
 50
0.4000
 51
180.4000
  0
ARC
  8
0_00
  6
CONTINUOUS
 62
4
 10
3937.4545
 20
972.4368
 40
1.0000
 50
359.6000
 51
449.6000
  0
ARC
  8
0_00
  6
CONTINUOUS
 62
4
 10
3940.8542
 20
972.4131
 40
1.0000
 50
89.6000
 51
179.6000
  0
ARC
  8
0_00
  6
CONTINUOUS
 62
4
 10
3939.1452
 20
971.1250
 40
0.7000
 50
179.6000
 51
359.6000
  0
TEXT
  8
15_0F
 62
7
 10
2747.2034
 20
234.0001
 40
25.00
 41
1.00
 50
0.0000
  1
１
  0
TEXT
  8
15_0F
 62
7
 10
2830.2036
 20
234.0001
 40
25.00
 41
1.00
 50
0.0000
  1
１０
  0
TEXT
  8
15_0F
 62
7
 10
2347.7034
 20
249.0001
 40
25.00
 41
1.00
 50
0.0000
  1
納まり図
  0
TEXT
  8
15_0F
 62
7
 10
1705.7033
 20
139.0001
 40
25.00
 41
1.00
 50
0.0000
  1
木造
  0
TEXT
  8
15_0F
 62
7
 10
1705.7033
 20
239.0001
 40
25.00
 41
1.00
 50
0.0000
  1
低層
  0
TEXT
  8
15_0F
 62
7
 10
1920.2032
 20
239.0001
 40
25.00
 41
1.00
 50
0.0000
  1
手すり付笠木
  0
TEXT
  8
15_0F
 62
7
 10
1840.5367
 20
141.5001
 40
20.00
 41
1.00
 50
0.0000
  1
ＫＡＭ、ＤＡＭ、ＭＡＭ型
  0
TEXT
  8
15_0F
 62
7
 10
2131.7032
 20
149.0001
 40
25.00
 41
1.00
 50
0.0000
  1
トップレール手すり［コーナー部］納まり図－１
  0
TEXT
  8
15_0F
 62
7
 10
670.3016
 20
334.0002
 40
25.00
 41
1.00
 50
0.0000
  1
1）Ｈ、Ｌ、ＬＣ、ＬＣＦは発注寸法とする。
  0
TEXT
  8
15_0F
 62
7
 10
668.4573
 20
281.5089
 40
25.00
 41
1.00
 50
0.0000
  1
　（躯体寸法発注の場合、Ｌは標準割付寸法、ＬＣ、ＬＣＦは標準寸法とする。）
  0
TEXT
  8
15_0F
 62
7
 10
668.3452
 20
229.5669
 40
25.00
 41
1.00
 50
0.0000
  1
２）［　］内寸法は標準寸法とする。
  0
TEXT
  8
0_00
 62
7
 10
740.4117
 20
1251.6029
 40
25.00
 41
1.00
 50
0.0000
  1
コーナーブラケット
  0
TEXT
  8
0_00
 62
7
 10
226.8353
 20
1290.7938
 40
25.00
 41
1.00
 50
0.0000
  1
Ｋ型笠木９０度コーナー金具
  0
TEXT
  8
0_00
 62
7
 10
252.3244
 20
2236.7392
 40
25.00
 41
1.00
 50
0.0000
  1
Ｄ型笠木９０度コーナー金具
  0
TEXT
  8
0_00
 62
7
 10
302.6070
 20
2637.8073
 40
25.00
 41
1.00
 50
0.0000
  1
Ｍ型笠木９０度コーナー
  0
TEXT
  8
15_0F
 62
7
 10
295.3697
 20
1762.7760
 40
25.00
 41
1.00
 50
0.0000
  1
［ＫＡＭ型］
  0
TEXT
  8
15_0F
 62
7
 10
295.3697
 20
2102.2375
 40
25.00
 41
1.00
 50
0.0000
  1
［ＤＡＭ型］
  0
TEXT
  8
15_0F
 62
7
 10
295.3697
 20
2506.8878
 40
25.00
 41
1.00
 50
0.0000
  1
［ＭＡＭ型］
  0
TEXT
  8
0_00
 62
7
 10
752.5349
 20
1209.9023
 40
25.00
 41
1.00
 50
0.0000
  1
片側、現場切断品
  0
TEXT
  8
0_00
 62
7
 10
1221.5713
 20
1251.6029
 40
25.00
 41
1.00
 50
0.0000
  1
９０度コーナー笠木
  0
TEXT
  8
13_0D
 62
7
 10
851.8111
 20
851.1102
 40
22.50
 41
0.75
 50
45.0000
  1
35
  0
TEXT
  8
0_00
 62
7
 10
2723.1638
 20
1041.6029
 40
25.00
 41
1.00
 50
0.0000
  1
コーナーブラケット
  0
TEXT
  8
15_0F
 62
7
 10
2235.0706
 20
1567.7759
 40
25.00
 41
1.00
 50
0.0000
  1
［ＫＡＭ型］
  0
TEXT
  8
15_0F
 62
7
 10
2235.0706
 20
2042.2377
 40
25.00
 41
1.00
 50
0.0000
  1
［ＤＡＭ型］
  0
TEXT
  8
15_0F
 62
7
 10
2235.0706
 20
2506.8878
 40
25.00
 41
1.00
 50
0.0000
  1
［ＭＡＭ型］
  0
TEXT
  8
0_00
 62
7
 10
2173.7172
 20
985.5634
 40
25.00
 41
1.00
 50
0.0000
  1
Ｋ型笠木横自在コーナー金具
  0
TEXT
  8
0_00
 62
7
 10
2174.6088
 20
2134.0413
 40
25.00
 41
1.00
 50
0.0000
  1
Ｄ型笠木横自在コーナー金具
  0
TEXT
  8
0_00
 62
7
 10
2229.5651
 20
2650.7202
 40
25.00
 41
1.00
 50
0.0000
  1
Ｍ型笠木自在コーナー
  0
TEXT
  8
0_00
 62
7
 10
2735.2869
 20
999.9022
 40
25.00
 41
1.00
 50
0.0000
  1
片側、現場切断品
  0
TEXT
  8
0_00
 62
7
 10
2493.3853
 20
524.2428
 40
25.00
 41
1.00
 50
0.0000
  1
変角コーナー笠木
  0
TEXT
  8
0_00
 62
7
 10
234.3016
 20
134.0002
 40
25.00
 41
1.00
 50
0.0000
  1
適用製品
  0
TEXT
  8
0_00
 62
7
 10
434.3016
 20
134.0002
 40
25.00
 41
1.00
 50
0.0000
  1
適用日付
  0
TEXT
  8
0_00
 62
7
 10
595.3016
 20
334.0002
 40
25.00
 41
1.00
 50
0.0000
  1
記事
  0
TEXT
  8
0_00
 62
7
 10
1575.2032
 20
284.0002
 40
25.00
 41
1.00
 50
0.0000
  1
階層仕様
  0
TEXT
  8
0_00
 62
7
 10
1575.2032
 20
184.0001
 40
25.00
 41
1.00
 50
0.0000
  1
適用躯体
  0
TEXT
  8
0_00
 62
7
 10
2100.2031
 20
284.0002
 40
25.00
 41
1.00
 50
0.0000
  1
名　称
  0
TEXT
  8
0_00
 62
7
 10
2100.2031
 20
184.0001
 40
25.00
 41
1.00
 50
0.0000
  1
図　名
  0
TEXT
  8
0_00
 62
7
 10
2716.4557
 20
334.1526
 40
25.00
 41
1.00
 50
0.0000
  1
Ｎｏ．
  0
TEXT
  8
0_00
 62
7
 10
3745.2032
 20
334.0002
 40
25.00
 41
1.00
 50
0.0000
  1
適　　　　　　　　用
  0
TEXT
  8
0_00
 62
7
 10
3594.7037
 20
334.0002
 40
25.00
 41
1.00
 50
0.0000
  1
個数
  0
TEXT
  8
0_00
 62
7
 10
3410.7034
 20
334.0002
 40
25.00
 41
1.00
 50
0.0000
  1
材　　質
  0
TEXT
  8
0_00
 62
7
 10
3087.2034
 20
334.0002
 40
25.00
 41
1.00
 50
0.0000
  1
部　　　品　　　名
  0
TEXT
  8
0_00
 62
7
 10
2986.4532
 20
334.0002
 40
25.00
 41
1.00
 50
0.0000
  1
品番
  0
TEXT
  8
0_00
 62
7
 10
2836.2036
 20
334.0002
 40
25.00
 41
1.00
 50
0.0000
  1
図　　番
  0
TEXT
  8
0_00
 62
7
 10
2722.2034
 20
284.0002
 40
25.00
 41
1.00
 50
0.0000
  1
尺度
  0
TEXT
  8
0_00
 62
7
 10
2722.2034
 20
184.0001
 40
25.00
 41
1.00
 50
0.0000
  1
日付
  0
TEXT
  8
0_00
 62
7
 10
3094.6469
 20
284.0002
 40
25.00
 41
1.00
 50
0.0000
  1
承認
  0
TEXT
  8
0_00
 62
7
 10
3235.2032
 20
284.0002
 40
25.00
 41
1.00
 50
0.0000
  1
検図
  0
TEXT
  8
0_00
 62
7
 10
3356.2033
 20
284.0002
 40
25.00
 41
1.00
 50
0.0000
  1
設計
  0
TEXT
  8
0_00
 62
7
 10
3480.7034
 20
284.0002
 40
25.00
 41
1.00
 50
0.0000
  1
製図
  0
TEXT
  8
0_00
 62
7
 10
3581.7032
 20
184.0001
 40
25.00
 41
1.00
 50
0.0000
  1
図番
  0
TEXT
  8
0_00
 62
2
 10
3679.7394
 20
247.4502
 40
40.00
 41
1.00
 50
0.0000
  1
文化シヤッター株式会社
  0
TEXT
  8
0_00
 62
7
 10
669.3016
 20
2876.4999
 40
25.00
 41
1.00
 50
180.0000
  1
図番
  0
TEXT
  8
0_00
 62
7
 10
2663.5034
 20
2846.7230
 40
20.00
 41
1.00
 50
0.0000
  1
ＮＯ
  0
TEXT
  8
0_00
 62
7
 10
2750.7034
 20
2846.5002
 40
25.00
 41
1.00
 50
0.0000
  1
個　数
  0
TEXT
  8
0_00
 62
7
 10
2901.2033
 20
2846.5002
 40
25.00
 41
1.00
 50
0.0000
  1
日　　付
  0
TEXT
  8
0_00
 62
7
 10
3280.7034
 20
2846.5002
 40
25.00
 41
1.00
 50
0.0000
  1
訂　　　正　　　記　　　事
  0
TEXT
  8
0_00
 62
7
 10
2794.7034
 20
234.0001
 40
22.50
 41
0.75
 50
0.0000
  1
:
  0
TEXT
  8
0_00
 62
7
 10
3792.9041
 20
89.0001
 40
20.00
 41
1.00
 50
0.0000
  1
ＪＩＳ　Ａ－３
  0
TEXT
  8
0_00
 62
7
 10
3931.6614
 20
88.9943
 40
20.00
 41
1.00
 50
0.0000
  1
（２９７×４２０）
  0
TEXT
  8
0_00
 62
7
 10
3843.7033
 20
2846.5002
 40
25.00
 41
1.00
 50
0.0000
  1
担　当
  0
TEXT
  8
0_00
 62
7
 10
3963.7033
 20
2846.5002
 40
25.00
 41
1.00
 50
0.0000
  1
承　認
  0
TEXT
  8
0_00
 62
7
 10
1837.7032
 20
284.0002
 40
25.00
 41
1.00
 50
0.0000
  1
機種名
  0
TEXT
  8
0_00
 62
7
 10
1837.7032
 20
184.0001
 40
25.00
 41
1.00
 50
0.0000
  1
型　式
  0
TEXT
  8
0_00
 62
7
 10
416.0746
 20
1410.0000
 40
22.50
 41
0.75
 50
0.0000
  1
(50～100)
  0
TEXT
  8
0_00
 62
7
 10
1372.9247
 20
497.4051
 40
25.00
 41
1.00
 50
0.0000
  1
平面図（１：１０）
  0
TEXT
  8
0_00
 62
7
 10
410.0000
 20
797.4685
 40
25.00
 41
1.00
 50
90.0000
  1
２２０≦ＬＣ［２５０］≦４５５
  0
TEXT
  8
0_00
 62
7
 10
1826.5601
 20
1549.1704
 40
25.00
 41
1.00
 50
0.0000
  1
外観姿図（１：２０）
  0
TEXT
  8
0_00
 62
7
 10
560.0745
 20
1340.0000
 40
22.50
 41
0.75
 50
0.0000
  1
31
  0
TEXT
  8
0_00
 62
7
 10
1039.9999
 20
2520.3337
 40
22.50
 41
0.75
 50
90.0000
  1
H
  0
TEXT
  8
0_00
 62
7
 10
1281.2819
 20
2740.0000
 40
22.50
 41
0.75
 50
0.0000
  1
LC
  0
TEXT
  8
0_00
 62
7
 10
1580.7819
 20
2740.0000
 40
22.50
 41
0.75
 50
0.0000
  1
L
  0
TEXT
  8
0_00
 62
7
 10
1045.0000
 20
1218.8762
 40
22.50
 41
0.75
 50
90.0000
  1
60
  0
TEXT
  8
0_00
 62
7
 10
899.9999
 20
2185.6209
 40
22.50
 41
0.75
 50
90.0000
  1
80
  0
TEXT
  8
0_00
 62
7
 10
560.0745
 20
2304.9998
 40
22.50
 41
0.75
 50
0.0000
  1
41
  0
TEXT
  8
0_00
 62
7
 10
560.0745
 20
2710.0217
 40
22.50
 41
0.75
 50
0.0000
  1
31
  0
TEXT
  8
0_00
 62
7
 10
899.9999
 20
2579.6429
 40
22.50
 41
0.75
 50
90.0000
  1
φ58
  0
TEXT
  8
0_00
 62
7
 10
216.4554
 20
1220.2631
 40
25.00
 41
1.00
 50
0.0000
  1
コーナージョイントカバー
  0
TEXT
  8
0_00
 62
7
 10
2379.7752
 20
1129.9998
 40
22.50
 41
0.75
 50
0.0000
  1
(３0～50)
  0
TEXT
  8
0_00
 62
7
 10
3683.1085
 20
489.9582
 40
25.00
 41
1.00
 50
0.0000
  1
平面図（１：１０）
  0
TEXT
  8
0_00
 62
7
 10
3326.8573
 20
549.8615
 40
25.00
 41
1.00
 50
0.0000
  1
※Ｌ：柱スパン寸法、ＬＣＦ：自在コーナースパン寸法
  0
TEXT
  8
0_00
 62
7
 10
3601.6647
 20
1382.7817
 40
25.00
 41
1.00
 50
0.0000
  1
外観姿図（１：２０）
  0
TEXT
  8
0_00
 62
7
 10
2979.7006
 20
1587.9146
 40
22.50
 41
0.75
 50
90.0000
  1
H
  0
TEXT
  8
0_00
 62
7
 10
2979.7006
 20
2045.1256
 40
22.50
 41
0.75
 50
90.0000
  1
H
  0
TEXT
  8
0_00
 62
7
 10
3220.9827
 20
2740.0000
 40
22.50
 41
0.75
 50
0.0000
  1
LC
  0
TEXT
  8
0_00
 62
7
 10
3520.4828
 20
2740.0000
 40
22.50
 41
0.75
 50
0.0000
  1
L
  0
TEXT
  8
0_00
 62
7
 10
3279.7006
 20
722.0000
 40
22.50
 41
0.75
 50
90.0000
  1
60
  0
TEXT
  8
0_00
 62
7
 10
2839.7009
 20
2080.6210
 40
22.50
 41
0.75
 50
90.0000
  1
80
  0
TEXT
  8
0_00
 62
7
 10
2499.7751
 20
1059.9999
 40
22.50
 41
0.75
 50
0.0000
  1
58
  0
TEXT
  8
0_00
 62
7
 10
2648.0331
 20
691.4935
 40
25.00
 41
1.00
 50
22.5000
  1
θ
  0
TEXT
  8
0_00
 62
7
 10
2555.1804
 20
616.8207
 40
25.00
 41
1.00
 50
0.0000
  1
６０゜≦θ（自在角度）≦１８０゜
  0
TEXT
  8
0_00
 62
7
 10
2499.7751
 20
2214.9998
 40
22.50
 41
0.75
 50
0.0000
  1
72
  0
TEXT
  8
0_00
 62
7
 10
2634.0939
 20
1843.2988
 40
25.00
 41
1.00
 50
22.5001
  1
θ
  0
TEXT
  8
0_00
 62
7
 10
2668.7753
 20
2740.0000
 40
22.50
 41
0.75
 50
0.0000
  1
61
  0
TEXT
  8
0_00
 62
7
 10
2634.0939
 20
2353.3208
 40
25.00
 41
1.00
 50
22.4998
  1
θ
  0
TEXT
  8
13_0D
 62
7
 10
2741.7752
 20
1195.0000
 40
22.50
 41
0.75
 50
0.0000
  1
400
  0
TEXT
  8
0_00
 62
7
 10
583.0746
 20
1479.9998
 40
25.00
 41
1.00
 50
0.0000
  1
２２０≦ＬＣ［２５０］≦４５５
  0
TEXT
  8
0_00
 62
7
 10
1218.0745
 20
1479.9998
 40
25.00
 41
1.00
 50
0.0000
  1
１７５≦Ｌ≦１３６５
  0
TEXT
  8
0_00
 62
7
 10
1052.6736
 20
557.3085
 40
25.00
 41
1.00
 50
0.0000
  1
※Ｌ：柱スパン寸法、ＬＣ：コーナースパン寸法
  0
TEXT
  8
0_00
 62
7
 10
1039.9999
 20
1782.9146
 40
22.50
 41
0.75
 50
90.0000
  1
H
  0
TEXT
  8
0_00
 62
7
 10
1039.9999
 20
2115.1254
 40
22.50
 41
0.75
 50
90.0000
  1
H
  0
TEXT
  8
0_00
 62
7
 10
2510.7753
 20
1270.0000
 40
25.00
 41
1.00
 50
0.0000
  1
２２０≦ＬＣＦ［２５０］≦３００
  0
TEXT
  8
0_00
 62
7
 10
3157.7753
 20
1270.0000
 40
25.00
 41
1.00
 50
0.0000
  1
１７５≦Ｌ≦１３６５
  0
TEXT
  8
0_00
 62
7
 10
2979.7006
 20
2520.3337
 40
22.50
 41
0.75
 50
90.0000
  1
H
  0
TEXT
  8
0_00
 62
7
 10
2839.7009
 20
2579.6429
 40
22.50
 41
0.75
 50
90.0000
  1
φ58
  0
TEXT
  8
0_00
 62
7
 10
2752.0993
 20
1801.6769
 40
25.00
 41
1.00
 50
0.0000
  1
６０゜≦θ（自在角度）≦１８０゜
  0
TEXT
  8
0_00
 62
7
 10
2752.0993
 20
2311.6989
 40
25.00
 41
1.00
 50
0.0000
  1
９０゜≦θ（自在角度）≦１８０゜
  0
TEXT
  8
13_0D
 62
7
 10
3040.2753
 20
1125.0000
 40
22.50
 41
0.75
 50
0.0000
  1
35
  0
TEXT
  8
0_00
 62
7
 10
3045.6897
 20
1038.6028
 40
25.00
 41
1.00
 50
0.0000
  1
ジョイントカバー
  0
POINT
  8
2_02
 62
5
 10
1242.7820
 20
1845.9883
  0
POINT
  8
2_02
 62
5
 10
638.0745
 20
1102.4685
  0
POINT
  8
0_00
 62
2
 10
2577.7753
 20
2520.6430
  0
POINT
  8
0_00
 62
5
 10
2469.3683
 20
2120.5553
  0
POINT
  8
0_00
 62
2
 10
80.3016
 20
49.9968
  0
POINT
  8
0_00
 62
2
 10
80.3016
 20
49.9968
  0
POINT
  8
0_00
 62
2
 10
282.3016
 20
199.0002
  0
POINT
  8
0_00
 62
2
 10
282.3016
 20
249.0002
  0
POINT
  8
0_00
 62
2
 10
282.3016
 20
299.0002
  0
POINT
  8
0_00
 62
2
 10
282.3016
 20
349.0002
  0
POINT
  8
0_00
 62
2
 10
1729.7034
 20
254.0001
  0
POINT
  8
0_00
 62
2
 10
1729.7034
 20
154.0001
  0
POINT
  8
0_00
 62
2
 10
2395.7031
 20
264.0001
  0
POINT
  8
0_00
 62
2
 10
2395.7031
 20
164.0001
  0
POINT
  8
0_00
 62
2
 10
3659.2035
 20
174.0001
  0
POINT
  8
0_00
 62
2
 10
3380.2032
 20
199.0002
  0
POINT
  8
0_00
 62
2
 10
482.3016
 20
199.0002
  0
POINT
  8
0_00
 62
2
 10
482.3016
 20
249.0002
  0
POINT
  8
0_00
 62
2
 10
482.3016
 20
299.0002
  0
POINT
  8
0_00
 62
2
 10
482.3016
 20
349.0002
  0
POINT
  8
0_00
 62
2
 10
2854.2035
 20
249.0001
  0
POINT
  8
0_00
 62
2
 10
2759.2035
 20
249.0001
  0
POINT
  8
0_00
 62
2
 10
682.3016
 20
349.0002
  0
POINT
  8
0_00
 62
2
 10
682.3016
 20
299.0002
  0
POINT
  8
0_00
 62
2
 10
682.3016
 20
249.0002
  0
POINT
  8
0_00
 62
2
 10
682.3016
 20
199.0002
  0
POINT
  8
0_00
 62
2
 10
682.3016
 20
149.0002
  0
POINT
  8
0_00
 62
2
 10
3504.7034
 20
199.0002
  0
POINT
  8
0_00
 62
2
 10
282.3016
 20
149.0002
  0
POINT
  8
0_00
 62
2
 10
482.3016
 20
149.0002
  0
POINT
  8
0_00
 62
2
 10
582.3016
 20
2861.4996
  0
POINT
  8
0_00
 62
2
 10
2875.4535
 20
164.0001
  0
POINT
  8
0_00
 62
2
 10
1992.2032
 20
254.0001
  0
POINT
  8
0_00
 62
2
 10
1992.2032
 20
154.0001
  0
POINT
  8
0_00
 62
5
 10
1985.7477
 20
1102.4685
  0
POINT
  8
0_00
 62
2
 10
2577.7753
 20
2520.6430
  0
POINT
  8
0_00
 62
5
 10
3925.4483
 20
892.4685
  0
ENDSEC
  0
EOF
