999
  
  0
SECTION
  2
HEADER
  9
$EXTMIN
 10
0
 20
0
  9
$EXTMAX
 10
840
 20
592
  9
$LTSCALE
 40
2.00
  9
$PDMODE
 70
33
  9
$PDSIZE
 40
1.20
  0
ENDSEC
  0
SECTION
  2
TABLES
  0
TABLE
  2
LTYPE
 70
9
  0
LTYPE
  2
CONTINUOUS
 70
64
  3
実線
 72
65
 73
0
 40
0.00
  0
LTYPE
  2
DASHED
 70
64
  3
__  __  __  __  __  __  __ 
 72
65
 73
2
 40
1.00
 49
0.50
 49
-0.50
  0
LTYPE
  2
HIDDEN1
 70
64
  3
____    ____    ____    ___
 72
65
 73
2
 40
2.20
 49
1.20
 49
-1.00
  0
LTYPE
  2
HIDDEN2
 70
64
  3
______  ______  ______  ___
 72
65
 73
2
 40
4.50
 49
3.50
 49
-1.00
  0
LTYPE
  2
CENTER1
 70
64
  3
_______ _ _______ _ _______
 72
65
 73
4
 40
20.00
 49
17.00
 49
-1.00
 49
1.00
 49
-1.00
  0
LTYPE
  2
CENTER2
 70
64
  3
___________  __  __________
 72
65
 73
4
 40
40.00
 49
34.00
 49
-2.00
 49
2.00
 49
-2.00
  0
LTYPE
  2
PHANTOM1
 70
64
  3
______ _ _ ______ _ _ _____
 72
65
 73
6
 40
20.00
 49
15.00
 49
-1.00
 49
1.00
 49
-1.00
 49
1.00
 49
-1.00
  0
LTYPE
  2
PHANTOM2
 70
64
  3
__________  _  _  _________
 72
65
 73
6
 40
40.00
 49
30.00
 49
-2.00
 49
2.00
 49
-2.00
 49
2.00
 49
-2.00
  0
LTYPE
  2
DOT
 70
64
  3
 .  .  .  .  .  .  .  .  . 
 72
65
 73
2
 40
1.00
 49
0.00
 49
-1.00
  0
ENDTAB
  0
TABLE
  2
STYLE
 70
1
  0
STYLE
  2
STANDARD
 70
64
 40
0.0
 41
1.0
 42
0.0
 50
0.0
 71
0
  3
ROMANS
  4
BIGFONT
  0
ENDTAB
  0
TABLE
  2
LAYER
 70
4
  0
LAYER
  2
0_00
 70
64
 62
7
  6
CONTINUOUS
  0
LAYER
  2
5_05
 70
64
 62
7
  6
CONTINUOUS
  0
LAYER
  2
12_0C
 70
64
 62
7
  6
CONTINUOUS
  0
LAYER
  2
15_0F
 70
64
 62
7
  6
CONTINUOUS
  0
ENDTAB
  0
ENDSEC
  0
SECTION
  2
ENTITIES
  0
LINE
  8
0_00
  6
CONTINUOUS
 62
7
 10
424.4005
 20
567.8000
 11
424.4005
 21
74.8000
  0
LINE
  8
0_00
  6
CONTINUOUS
 62
7
 10
36.4603
 20
321.3000
 11
812.3407
 21
321.3000
  0
LINE
  8
0_00
  6
CENTER1
 62
6
 10
230.4304
 20
504.8939
 11
230.4304
 21
370.3408
  0
LINE
  8
0_00
  6
CENTER1
 62
6
 10
618.3706
 20
504.8939
 11
618.3706
 21
370.3408
  0
LINE
  8
15_0F
  6
CONTINUOUS
 62
6
 10
545.8706
 20
373.2561
 11
545.8706
 21
342.2963
  0
LINE
  8
15_0F
  6
CONTINUOUS
 62
6
 10
535.8706
 20
345.2963
 11
545.8706
 21
345.2963
  0
LINE
  8
15_0F
  6
CONTINUOUS
 62
6
 10
514.2706
 20
345.2963
 11
535.8706
 21
345.2963
  0
LINE
  8
15_0F
  6
CONTINUOUS
 62
6
 10
535.8706
 20
345.2963
 11
530.9799
 21
346.3358
  0
LINE
  8
15_0F
  6
CONTINUOUS
 62
6
 10
535.8706
 20
345.2963
 11
530.9799
 21
344.2567
  0
LINE
  8
15_0F
  6
CONTINUOUS
 62
6
 10
548.3706
 20
373.2561
 11
548.3706
 21
342.2963
  0
LINE
  8
15_0F
  6
CONTINUOUS
 62
6
 10
545.8706
 20
345.2963
 11
548.3706
 21
345.2963
  0
LINE
  8
15_0F
  6
CONTINUOUS
 62
6
 10
688.3706
 20
373.2561
 11
688.3706
 21
342.2963
  0
LINE
  8
15_0F
  6
CONTINUOUS
 62
6
 10
548.3706
 20
345.2963
 11
688.3706
 21
345.2963
  0
LINE
  8
15_0F
  6
CONTINUOUS
 62
6
 10
548.3706
 20
345.2963
 11
553.2614
 21
344.2567
  0
LINE
  8
15_0F
  6
CONTINUOUS
 62
6
 10
548.3706
 20
345.2963
 11
553.2614
 21
346.3358
  0
LINE
  8
15_0F
  6
CONTINUOUS
 62
6
 10
688.3706
 20
345.2963
 11
683.4799
 21
346.3358
  0
LINE
  8
15_0F
  6
CONTINUOUS
 62
6
 10
688.3706
 20
345.2963
 11
683.4799
 21
344.2567
  0
LINE
  8
15_0F
  6
CONTINUOUS
 62
6
 10
690.8706
 20
373.2561
 11
690.8706
 21
342.2963
  0
LINE
  8
15_0F
  6
CONTINUOUS
 62
6
 10
688.3706
 20
345.2963
 11
690.8706
 21
345.2963
  0
LINE
  8
15_0F
  6
CONTINUOUS
 62
6
 10
690.8706
 20
345.2963
 11
700.8706
 21
345.2963
  0
LINE
  8
15_0F
  6
CONTINUOUS
 62
6
 10
722.4706
 20
345.2963
 11
700.8706
 21
345.2963
  0
LINE
  8
15_0F
  6
CONTINUOUS
 62
6
 10
700.8706
 20
345.2963
 11
705.7614
 21
344.2567
  0
LINE
  8
15_0F
  6
CONTINUOUS
 62
6
 10
700.8706
 20
345.2963
 11
705.7614
 21
346.3358
  0
LINE
  8
0_00
  6
CONTINUOUS
 62
6
 10
694.4479
 20
480.9818
 11
715.9325
 21
502.4665
  0
LINE
  8
0_00
  6
CONTINUOUS
 62
6
 10
694.4479
 20
480.9818
 11
698.6412
 21
483.7050
  0
LINE
  8
0_00
  6
CONTINUOUS
 62
6
 10
694.4479
 20
480.9818
 11
697.1710
 21
485.1751
  0
LINE
  8
0_00
  6
CONTINUOUS
 62
6
 10
715.9325
 20
502.4665
 11
760.3325
 21
502.4665
  0
LINE
  8
0_00
  6
CONTINUOUS
 62
6
 10
645.9639
 20
492.4147
 11
665.5913
 21
512.0421
  0
LINE
  8
0_00
  6
CONTINUOUS
 62
6
 10
645.9639
 20
492.4147
 11
650.1572
 21
495.1379
  0
LINE
  8
0_00
  6
CONTINUOUS
 62
6
 10
645.9639
 20
492.4147
 11
648.6871
 21
496.6081
  0
LINE
  8
0_00
  6
CONTINUOUS
 62
6
 10
665.5913
 20
512.0421
 11
695.5913
 21
512.0421
  0
LINE
  8
15_0F
  6
CONTINUOUS
 62
6
 10
700.8706
 20
434.9108
 11
700.8706
 21
342.2963
  0
LINE
  8
15_0F
  6
CONTINUOUS
 62
6
 10
535.8706
 20
384.9842
 11
535.8706
 21
342.2963
  0
LINE
  8
0_00
  6
CONTINUOUS
 62
4
 10
230.2304
 20
491.8561
 11
175.7334
 21
491.8561
  0
LINE
  8
0_00
  6
CONTINUOUS
 62
4
 10
230.6304
 20
491.8561
 11
285.1274
 21
491.8561
  0
LINE
  8
0_00
  6
CONTINUOUS
 62
4
 10
285.1274
 20
493.2561
 11
175.7334
 21
493.2561
  0
LINE
  8
0_00
  6
CONTINUOUS
 62
4
 10
230.2304
 20
491.8561
 11
230.4304
 21
492.0561
  0
LINE
  8
0_00
  6
CONTINUOUS
 62
4
 10
230.4304
 20
492.0561
 11
230.6304
 21
491.8561
  0
LINE
  8
0_00
  6
CONTINUOUS
 62
4
 10
155.4306
 20
485.0667
 11
155.6493
 21
453.7338
  0
LINE
  8
0_00
  6
CONTINUOUS
 62
4
 10
157.4470
 20
439.7460
 11
157.3770
 21
449.7696
  0
LINE
  8
0_00
  6
CONTINUOUS
 62
4
 10
158.6734
 20
450.3001
 11
158.7484
 21
439.5551
  0
LINE
  8
0_00
  6
CONTINUOUS
 62
4
 10
160.5823
 20
454.7626
 11
160.7892
 21
455.1267
  0
LINE
  8
0_00
  6
CONTINUOUS
 62
4
 10
160.7892
 20
455.1267
 11
159.4850
 21
455.8677
  0
LINE
  8
0_00
  6
CONTINUOUS
 62
4
 10
159.4850
 20
455.8677
 11
159.2781
 21
455.5035
  0
LINE
  8
0_00
  6
CONTINUOUS
 62
4
 10
158.1449
 20
455.1913
 11
157.7807
 21
455.3983
  0
LINE
  8
0_00
  6
CONTINUOUS
 62
4
 10
157.7807
 20
455.3983
 11
157.0398
 21
454.0940
  0
LINE
  8
0_00
  6
CONTINUOUS
 62
4
 10
157.0398
 20
454.0940
 11
157.4040
 21
453.8871
  0
LINE
  8
0_00
  6
CONTINUOUS
 62
4
 10
157.7161
 20
452.7539
 11
157.5092
 21
452.3897
  0
LINE
  8
0_00
  6
CONTINUOUS
 62
4
 10
157.5092
 20
452.3897
 11
158.8135
 21
451.6488
  0
LINE
  8
0_00
  6
CONTINUOUS
 62
4
 10
158.8135
 20
451.6488
 11
159.0204
 21
452.0130
  0
LINE
  8
0_00
  6
CONTINUOUS
 62
4
 10
161.9184
 20
454.5838
 11
161.5658
 21
453.9631
  0
LINE
  8
0_00
  6
CONTINUOUS
 62
4
 10
159.8580
 20
450.9569
 11
160.2107
 21
451.5776
  0
LINE
  8
0_00
  6
CONTINUOUS
 62
4
 10
160.5181
 20
491.0388
 11
174.1368
 21
493.1341
  0
LINE
  8
0_00
  6
CONTINUOUS
 62
4
 10
156.8305
 20
485.0765
 11
156.9620
 21
466.2433
  0
LINE
  8
0_00
  6
CONTINUOUS
 62
4
 10
156.9857
 20
462.8434
 11
157.0188
 21
458.1069
  0
LINE
  8
0_00
  6
CONTINUOUS
 62
4
 10
158.9575
 20
438.2566
 11
159.8897
 21
438.2630
  0
LINE
  8
0_00
  6
CONTINUOUS
 62
4
 10
158.7484
 20
439.5551
 11
159.8806
 21
439.5630
  0
LINE
  8
0_00
  6
CONTINUOUS
 62
4
 10
160.7310
 20
489.6551
 11
173.6304
 21
491.6397
  0
LINE
  8
0_00
  6
CONTINUOUS
 62
4
 10
305.4303
 20
485.0667
 11
305.2115
 21
453.7338
  0
LINE
  8
0_00
  6
CONTINUOUS
 62
4
 10
303.4138
 20
439.7460
 11
303.4838
 21
449.7696
  0
LINE
  8
0_00
  6
CONTINUOUS
 62
4
 10
302.1125
 20
439.5551
 11
302.1875
 21
450.3001
  0
LINE
  8
0_00
  6
CONTINUOUS
 62
4
 10
300.2785
 20
454.7626
 11
300.0716
 21
455.1267
  0
LINE
  8
0_00
  6
CONTINUOUS
 62
4
 10
300.0716
 20
455.1267
 11
301.3759
 21
455.8677
  0
LINE
  8
0_00
  6
CONTINUOUS
 62
4
 10
301.3759
 20
455.8677
 11
301.5828
 21
455.5035
  0
LINE
  8
0_00
  6
CONTINUOUS
 62
4
 10
302.7159
 20
455.1913
 11
303.0801
 21
455.3983
  0
LINE
  8
0_00
  6
CONTINUOUS
 62
4
 10
303.0801
 20
455.3983
 11
303.8210
 21
454.0940
  0
LINE
  8
0_00
  6
CONTINUOUS
 62
4
 10
303.8210
 20
454.0940
 11
303.4568
 21
453.8871
  0
LINE
  8
0_00
  6
CONTINUOUS
 62
4
 10
303.1447
 20
452.7539
 11
303.3516
 21
452.3897
  0
LINE
  8
0_00
  6
CONTINUOUS
 62
4
 10
303.3516
 20
452.3897
 11
302.0474
 21
451.6488
  0
LINE
  8
0_00
  6
CONTINUOUS
 62
4
 10
302.0474
 20
451.6488
 11
301.8405
 21
452.0130
  0
LINE
  8
0_00
  6
CONTINUOUS
 62
4
 10
298.9424
 20
454.5838
 11
299.2951
 21
453.9631
  0
LINE
  8
0_00
  6
CONTINUOUS
 62
4
 10
301.0028
 20
450.9569
 11
300.6502
 21
451.5776
  0
LINE
  8
0_00
  6
CONTINUOUS
 62
4
 10
300.3428
 20
491.0388
 11
286.7241
 21
493.1341
  0
LINE
  8
0_00
  6
CONTINUOUS
 62
4
 10
304.0303
 20
485.0765
 11
303.8988
 21
466.2433
  0
LINE
  8
0_00
  6
CONTINUOUS
 62
4
 10
303.8751
 20
462.8434
 11
303.8420
 21
458.1069
  0
LINE
  8
0_00
  6
CONTINUOUS
 62
4
 10
301.9034
 20
438.2566
 11
300.9712
 21
438.2630
  0
LINE
  8
0_00
  6
CONTINUOUS
 62
4
 10
302.1125
 20
439.5551
 11
300.9803
 21
439.5630
  0
LINE
  8
0_00
  6
CONTINUOUS
 62
4
 10
300.1299
 20
489.6551
 11
287.2304
 21
491.6397
  0
LINE
  8
0_00
  6
CONTINUOUS
 62
4
 10
287.2304
 20
491.6397
 11
286.5112
 21
491.7503
  0
LINE
  8
0_00
  6
CONTINUOUS
 62
4
 10
173.6304
 20
491.6397
 11
174.3497
 21
491.7503
  0
LINE
  8
0_00
  6
CONTINUOUS
 62
4
 10
159.2690
 20
465.2594
 11
157.9690
 21
465.2502
  0
LINE
  8
0_00
  6
CONTINUOUS
 62
4
 10
159.2787
 20
463.8594
 11
157.9788
 21
463.8503
  0
LINE
  8
0_00
  6
CONTINUOUS
 62
4
 10
301.5919
 20
465.2594
 11
302.8919
 21
465.2502
  0
LINE
  8
0_00
  6
CONTINUOUS
 62
4
 10
301.5821
 20
463.8594
 11
302.8821
 21
463.8503
  0
LINE
  8
0_00
  6
CONTINUOUS
 62
4
 10
275.4304
 20
463.2561
 11
275.4304
 21
378.2561
  0
LINE
  8
0_00
  6
CONTINUOUS
 62
4
 10
185.4304
 20
463.2561
 11
185.4304
 21
378.2561
  0
LINE
  8
0_00
  6
CONTINUOUS
 62
4
 10
170.4304
 20
450.2561
 11
170.4304
 21
378.2561
  0
LINE
  8
0_00
  6
CONTINUOUS
 62
4
 10
170.4304
 20
463.2561
 11
290.4304
 21
463.2561
  0
LINE
  8
0_00
  6
CONTINUOUS
 62
4
 10
170.4304
 20
450.2561
 11
185.4304
 21
450.2561
  0
LINE
  8
0_00
  6
CONTINUOUS
 62
4
 10
170.4304
 20
463.2561
 11
170.4304
 21
478.2561
  0
LINE
  8
0_00
  6
CONTINUOUS
 62
4
 10
275.4304
 20
450.2561
 11
290.4304
 21
450.2561
  0
LINE
  8
0_00
  6
CONTINUOUS
 62
4
 10
290.4304
 20
478.2561
 11
290.4304
 21
463.2561
  0
LINE
  8
0_00
  6
CONTINUOUS
 62
4
 10
290.4304
 20
450.2561
 11
290.4304
 21
378.2561
  0
LINE
  8
15_0F
  6
CONTINUOUS
 62
6
 10
165.4304
 20
373.2561
 11
165.4304
 21
342.2963
  0
LINE
  8
15_0F
  6
CONTINUOUS
 62
6
 10
155.4304
 20
345.2963
 11
165.4304
 21
345.2963
  0
LINE
  8
15_0F
  6
CONTINUOUS
 62
6
 10
133.8304
 20
345.2963
 11
155.4304
 21
345.2963
  0
LINE
  8
15_0F
  6
CONTINUOUS
 62
6
 10
155.4304
 20
345.2963
 11
150.5397
 21
346.3358
  0
LINE
  8
15_0F
  6
CONTINUOUS
 62
6
 10
155.4304
 20
345.2963
 11
150.5397
 21
344.2567
  0
LINE
  8
15_0F
  6
CONTINUOUS
 62
6
 10
170.4304
 20
373.2561
 11
170.4304
 21
342.2963
  0
LINE
  8
15_0F
  6
CONTINUOUS
 62
6
 10
165.4304
 20
345.2963
 11
170.4304
 21
345.2963
  0
LINE
  8
15_0F
  6
CONTINUOUS
 62
6
 10
290.4304
 20
373.2561
 11
290.4304
 21
342.2963
  0
LINE
  8
15_0F
  6
CONTINUOUS
 62
6
 10
170.4304
 20
345.2963
 11
290.4304
 21
345.2963
  0
LINE
  8
15_0F
  6
CONTINUOUS
 62
6
 10
170.4304
 20
345.2963
 11
175.3212
 21
344.2567
  0
LINE
  8
15_0F
  6
CONTINUOUS
 62
6
 10
170.4304
 20
345.2963
 11
175.3212
 21
346.3358
  0
LINE
  8
15_0F
  6
CONTINUOUS
 62
6
 10
290.4304
 20
345.2963
 11
285.5397
 21
346.3358
  0
LINE
  8
15_0F
  6
CONTINUOUS
 62
6
 10
290.4304
 20
345.2963
 11
285.5397
 21
344.2567
  0
LINE
  8
15_0F
  6
CONTINUOUS
 62
6
 10
295.4304
 20
373.2561
 11
295.4304
 21
342.2963
  0
LINE
  8
15_0F
  6
CONTINUOUS
 62
6
 10
290.4304
 20
345.2963
 11
295.4304
 21
345.2963
  0
LINE
  8
15_0F
  6
CONTINUOUS
 62
6
 10
305.4304
 20
434.9108
 11
305.4304
 21
342.2963
  0
LINE
  8
15_0F
  6
CONTINUOUS
 62
6
 10
295.4304
 20
345.2963
 11
305.4304
 21
345.2963
  0
LINE
  8
15_0F
  6
CONTINUOUS
 62
6
 10
327.0304
 20
345.2963
 11
305.4304
 21
345.2963
  0
LINE
  8
15_0F
  6
CONTINUOUS
 62
6
 10
305.4304
 20
345.2963
 11
310.3212
 21
344.2567
  0
LINE
  8
15_0F
  6
CONTINUOUS
 62
6
 10
305.4304
 20
345.2963
 11
310.3212
 21
346.3358
  0
LINE
  8
0_00
  6
CONTINUOUS
 62
6
 10
298.6743
 20
480.5980
 11
320.1590
 21
502.0827
  0
LINE
  8
0_00
  6
CONTINUOUS
 62
6
 10
298.6743
 20
480.5980
 11
302.8677
 21
483.3212
  0
LINE
  8
0_00
  6
CONTINUOUS
 62
6
 10
298.6743
 20
480.5980
 11
301.3975
 21
484.7913
  0
LINE
  8
0_00
  6
CONTINUOUS
 62
6
 10
320.1590
 20
502.0827
 11
364.5590
 21
502.0827
  0
LINE
  8
0_00
  6
CONTINUOUS
 62
6
 10
249.0876
 20
494.0980
 11
268.7150
 21
513.7255
  0
LINE
  8
0_00
  6
CONTINUOUS
 62
6
 10
249.0876
 20
494.0980
 11
253.2809
 21
496.8212
  0
LINE
  8
0_00
  6
CONTINUOUS
 62
6
 10
249.0876
 20
494.0980
 11
251.8108
 21
498.2914
  0
LINE
  8
0_00
  6
CONTINUOUS
 62
6
 10
268.7150
 20
513.7255
 11
298.7150
 21
513.7255
  0
LINE
  8
15_0F
  6
CONTINUOUS
 62
6
 10
155.4304
 20
386.4214
 11
155.4304
 21
342.2963
  0
LINE
  8
0_00
  6
CONTINUOUS
 62
4
 10
275.4304
 20
418.2561
 11
185.4304
 21
418.2561
  0
LINE
  8
0_00
  6
CONTINUOUS
 62
4
 10
275.4304
 20
463.2561
 11
185.4304
 21
418.2561
  0
LINE
  8
0_00
  6
CONTINUOUS
 62
2
 10
177.1918
 20
478.2561
 11
170.4304
 21
471.4947
  0
LINE
  8
0_00
  6
CONTINUOUS
 62
2
 10
180.0202
 20
478.2561
 11
170.4304
 21
468.6663
  0
LINE
  8
0_00
  6
CONTINUOUS
 62
2
 10
212.5472
 20
478.2561
 11
197.5472
 21
463.2561
  0
LINE
  8
0_00
  6
CONTINUOUS
 62
2
 10
215.3756
 20
478.2561
 11
200.3756
 21
463.2561
  0
LINE
  8
0_00
  6
CONTINUOUS
 62
2
 10
247.9025
 20
478.2561
 11
232.9025
 21
463.2561
  0
LINE
  8
0_00
  6
CONTINUOUS
 62
2
 10
250.7309
 20
478.2561
 11
235.7309
 21
463.2561
  0
LINE
  8
0_00
  6
CONTINUOUS
 62
2
 10
283.2578
 20
478.2561
 11
268.2578
 21
463.2561
  0
LINE
  8
0_00
  6
CONTINUOUS
 62
2
 10
286.0863
 20
478.2561
 11
271.0863
 21
463.2561
  0
LINE
  8
0_00
  6
CONTINUOUS
 62
2
 10
178.2607
 20
450.2561
 11
170.4304
 21
442.4259
  0
LINE
  8
0_00
  6
CONTINUOUS
 62
2
 10
181.0891
 20
450.2561
 11
170.4304
 21
439.5974
  0
LINE
  8
0_00
  6
CONTINUOUS
 62
2
 10
185.4304
 20
422.0705
 11
170.4304
 21
407.0705
  0
LINE
  8
0_00
  6
CONTINUOUS
 62
2
 10
185.4304
 20
419.2421
 11
170.4304
 21
404.2421
  0
LINE
  8
0_00
  6
CONTINUOUS
 62
2
 10
185.4304
 20
386.7151
 11
176.9714
 21
378.2561
  0
LINE
  8
0_00
  6
CONTINUOUS
 62
2
 10
185.4304
 20
383.8867
 11
179.7998
 21
378.2561
  0
LINE
  8
0_00
  6
CONTINUOUS
 62
2
 10
283.2607
 20
450.2561
 11
275.4304
 21
442.4259
  0
LINE
  8
0_00
  6
CONTINUOUS
 62
2
 10
286.0891
 20
450.2561
 11
275.4304
 21
439.5974
  0
LINE
  8
0_00
  6
CONTINUOUS
 62
2
 10
290.4304
 20
422.0705
 11
275.4304
 21
407.0705
  0
LINE
  8
0_00
  6
CONTINUOUS
 62
2
 10
290.4304
 20
419.2421
 11
275.4304
 21
404.2421
  0
LINE
  8
0_00
  6
CONTINUOUS
 62
2
 10
290.4304
 20
386.7151
 11
281.9714
 21
378.2561
  0
LINE
  8
0_00
  6
CONTINUOUS
 62
2
 10
290.4304
 20
383.8867
 11
285.1813
 21
378.6376
  0
LINE
  8
0_00
  6
CONTINUOUS
 62
6
 10
173.5688
 20
463.2561
 11
171.7346
 21
461.4219
  0
LINE
  8
0_00
  6
CONTINUOUS
 62
6
 10
176.3972
 20
463.2561
 11
172.5583
 21
459.4172
  0
LINE
  8
0_00
  6
CONTINUOUS
 62
6
 10
179.2256
 20
463.2561
 11
172.9283
 21
456.9588
  0
LINE
  8
0_00
  6
CONTINUOUS
 62
6
 10
182.0541
 20
463.2561
 11
172.4051
 21
453.6071
  0
LINE
  8
0_00
  6
CONTINUOUS
 62
6
 10
184.8825
 20
463.2561
 11
171.8825
 21
450.2561
  0
LINE
  8
0_00
  6
CONTINUOUS
 62
6
 10
185.4304
 20
460.9756
 11
174.7109
 21
450.2561
  0
LINE
  8
0_00
  6
CONTINUOUS
 62
6
 10
185.4304
 20
458.1472
 11
177.5393
 21
450.2561
  0
LINE
  8
0_00
  6
CONTINUOUS
 62
6
 10
185.4304
 20
455.3188
 11
180.3678
 21
450.2561
  0
LINE
  8
0_00
  6
CONTINUOUS
 62
6
 10
185.4304
 20
452.4904
 11
183.1962
 21
450.2561
  0
LINE
  8
0_00
  6
CONTINUOUS
 62
6
 10
278.1632
 20
463.2561
 11
275.4304
 21
460.5234
  0
LINE
  8
0_00
  6
CONTINUOUS
 62
6
 10
280.9916
 20
463.2561
 11
275.4304
 21
457.6949
  0
LINE
  8
0_00
  6
CONTINUOUS
 62
6
 10
283.8200
 20
463.2561
 11
275.4304
 21
454.8665
  0
LINE
  8
0_00
  6
CONTINUOUS
 62
6
 10
286.6485
 20
463.2561
 11
275.4304
 21
452.0381
  0
LINE
  8
0_00
  6
CONTINUOUS
 62
6
 10
289.4769
 20
463.2561
 11
276.4769
 21
450.2561
  0
LINE
  8
0_00
  6
CONTINUOUS
 62
6
 10
288.2413
 20
459.1921
 11
279.3053
 21
450.2561
  0
LINE
  8
0_00
  6
CONTINUOUS
 62
6
 10
287.9543
 20
456.0766
 11
282.1337
 21
450.2561
  0
LINE
  8
0_00
  6
CONTINUOUS
 62
6
 10
288.4199
 20
453.7138
 11
284.9622
 21
450.2561
  0
LINE
  8
0_00
  6
CONTINUOUS
 62
6
 10
289.3080
 20
451.7735
 11
287.7906
 21
450.2561
  0
LINE
  8
0_00
  6
CONTINUOUS
 62
6
 10
227.9304
 20
455.5415
 11
167.6748
 21
395.2858
  0
LINE
  8
0_00
  6
CONTINUOUS
 62
6
 10
227.9304
 20
455.5415
 11
223.7371
 21
452.8183
  0
LINE
  8
0_00
  6
CONTINUOUS
 62
6
 10
227.9304
 20
455.5415
 11
225.2072
 21
451.3481
  0
LINE
  8
0_00
  6
CONTINUOUS
 62
6
 10
186.5533
 20
414.1643
 11
112.5532
 21
414.1643
  0
LINE
  8
0_00
  6
PHANTOM1
 62
2
 10
295.4304
 20
478.2561
 11
295.4304
 21
378.2561
  0
LINE
  8
0_00
  6
PHANTOM1
 62
2
 10
165.4304
 20
478.2561
 11
165.4304
 21
378.2561
  0
LINE
  8
0_00
  6
CONTINUOUS
 62
4
 10
618.1706
 20
491.7561
 11
556.1736
 21
491.7561
  0
LINE
  8
0_00
  6
CONTINUOUS
 62
4
 10
618.5706
 20
491.7561
 11
680.5676
 21
491.7561
  0
LINE
  8
0_00
  6
CONTINUOUS
 62
4
 10
680.5676
 20
493.2561
 11
556.1736
 21
493.2561
  0
LINE
  8
0_00
  6
CONTINUOUS
 62
4
 10
618.1706
 20
491.7561
 11
618.3706
 21
491.9561
  0
LINE
  8
0_00
  6
CONTINUOUS
 62
4
 10
618.3706
 20
491.9561
 11
618.5706
 21
491.7561
  0
LINE
  8
0_00
  6
CONTINUOUS
 62
4
 10
535.8707
 20
485.0667
 11
536.0895
 21
453.7338
  0
LINE
  8
0_00
  6
CONTINUOUS
 62
4
 10
537.8872
 20
439.7460
 11
537.8172
 21
449.7696
  0
LINE
  8
0_00
  6
CONTINUOUS
 62
4
 10
539.1886
 20
439.5551
 11
539.1135
 21
450.3001
  0
LINE
  8
0_00
  6
CONTINUOUS
 62
4
 10
541.0225
 20
454.7626
 11
541.2294
 21
455.1267
  0
LINE
  8
0_00
  6
CONTINUOUS
 62
4
 10
541.2294
 20
455.1267
 11
539.9252
 21
455.8677
  0
LINE
  8
0_00
  6
CONTINUOUS
 62
4
 10
539.9252
 20
455.8677
 11
539.7183
 21
455.5035
  0
LINE
  8
0_00
  6
CONTINUOUS
 62
4
 10
538.5851
 20
455.1913
 11
538.2209
 21
455.3983
  0
LINE
  8
0_00
  6
CONTINUOUS
 62
4
 10
538.2209
 20
455.3983
 11
537.4800
 21
454.0940
  0
LINE
  8
0_00
  6
CONTINUOUS
 62
4
 10
537.4800
 20
454.0940
 11
537.8442
 21
453.8871
  0
LINE
  8
0_00
  6
CONTINUOUS
 62
4
 10
538.1563
 20
452.7539
 11
537.9494
 21
452.3897
  0
LINE
  8
0_00
  6
CONTINUOUS
 62
4
 10
537.9494
 20
452.3897
 11
539.2537
 21
451.6488
  0
LINE
  8
0_00
  6
CONTINUOUS
 62
4
 10
539.2537
 20
451.6488
 11
539.4606
 21
452.0130
  0
LINE
  8
0_00
  6
CONTINUOUS
 62
4
 10
542.3586
 20
454.5838
 11
542.0060
 21
453.9631
  0
LINE
  8
0_00
  6
CONTINUOUS
 62
4
 10
540.2982
 20
450.9569
 11
540.6509
 21
451.5776
  0
LINE
  8
0_00
  6
CONTINUOUS
 62
4
 10
540.9583
 20
491.0388
 11
554.5770
 21
493.1341
  0
LINE
  8
0_00
  6
CONTINUOUS
 62
4
 10
537.2708
 20
485.0618
 11
537.3442
 21
474.5431
  0
LINE
  8
0_00
  6
CONTINUOUS
 62
4
 10
537.3484
 20
473.9431
 11
537.4022
 21
466.2433
  0
LINE
  8
0_00
  6
CONTINUOUS
 62
4
 10
537.4260
 20
462.8434
 11
537.4590
 21
458.1069
  0
LINE
  8
0_00
  6
CONTINUOUS
 62
4
 10
541.0864
 20
489.5409
 11
554.8051
 21
491.6514
  0
LINE
  8
0_00
  6
CONTINUOUS
 62
4
 10
695.7830
 20
491.0388
 11
682.1642
 21
493.1341
  0
LINE
  8
0_00
  6
CONTINUOUS
 62
4
 10
695.6548
 20
489.5409
 11
681.9362
 21
491.6514
  0
LINE
  8
0_00
  6
CONTINUOUS
 62
4
 10
539.3976
 20
438.2566
 11
540.3298
 21
438.2630
  0
LINE
  8
0_00
  6
CONTINUOUS
 62
4
 10
539.1886
 20
439.5551
 11
540.3208
 21
439.5630
  0
LINE
  8
0_00
  6
CONTINUOUS
 62
4
 10
700.8705
 20
485.0667
 11
700.6517
 21
453.7338
  0
LINE
  8
0_00
  6
CONTINUOUS
 62
4
 10
698.8540
 20
439.7460
 11
698.9240
 21
449.7696
  0
LINE
  8
0_00
  6
CONTINUOUS
 62
4
 10
697.5526
 20
439.5551
 11
697.6277
 21
450.3001
  0
LINE
  8
0_00
  6
CONTINUOUS
 62
4
 10
695.7187
 20
454.7626
 11
695.5118
 21
455.1267
  0
LINE
  8
0_00
  6
CONTINUOUS
 62
4
 10
695.5118
 20
455.1267
 11
696.8160
 21
455.8677
  0
LINE
  8
0_00
  6
CONTINUOUS
 62
4
 10
696.8160
 20
455.8677
 11
697.0229
 21
455.5035
  0
LINE
  8
0_00
  6
CONTINUOUS
 62
4
 10
698.1561
 20
455.1913
 11
698.5203
 21
455.3983
  0
LINE
  8
0_00
  6
CONTINUOUS
 62
4
 10
698.5203
 20
455.3983
 11
699.2612
 21
454.0940
  0
LINE
  8
0_00
  6
CONTINUOUS
 62
4
 10
699.2612
 20
454.0940
 11
698.8971
 21
453.8871
  0
LINE
  8
0_00
  6
CONTINUOUS
 62
4
 10
698.5849
 20
452.7539
 11
698.7918
 21
452.3897
  0
LINE
  8
0_00
  6
CONTINUOUS
 62
4
 10
698.7918
 20
452.3897
 11
697.4875
 21
451.6488
  0
LINE
  8
0_00
  6
CONTINUOUS
 62
4
 10
697.4875
 20
451.6488
 11
697.2806
 21
452.0130
  0
LINE
  8
0_00
  6
CONTINUOUS
 62
4
 10
694.3826
 20
454.5838
 11
694.7352
 21
453.9631
  0
LINE
  8
0_00
  6
CONTINUOUS
 62
4
 10
696.4430
 20
450.9569
 11
696.0903
 21
451.5776
  0
LINE
  8
0_00
  6
CONTINUOUS
 62
4
 10
699.4704
 20
485.0618
 11
699.3970
 21
474.5431
  0
LINE
  8
0_00
  6
CONTINUOUS
 62
4
 10
699.3928
 20
473.9431
 11
699.3390
 21
466.2433
  0
LINE
  8
0_00
  6
CONTINUOUS
 62
4
 10
699.3153
 20
462.8503
 11
699.2822
 21
458.1069
  0
LINE
  8
0_00
  6
CONTINUOUS
 62
4
 10
697.3436
 20
438.2566
 11
696.4114
 21
438.2630
  0
LINE
  8
0_00
  6
CONTINUOUS
 62
4
 10
697.5526
 20
439.5551
 11
696.4204
 21
439.5630
  0
LINE
  8
5_05
  6
CONTINUOUS
 62
2
 10
556.5706
 20
491.7561
 11
556.5706
 21
489.4561
  0
LINE
  8
5_05
  6
CONTINUOUS
 62
2
 10
566.5706
 20
491.7561
 11
566.5706
 21
489.4561
  0
LINE
  8
5_05
  6
CONTINUOUS
 62
2
 10
670.1706
 20
491.7561
 11
670.1706
 21
489.4561
  0
LINE
  8
5_05
  6
CONTINUOUS
 62
2
 10
680.1707
 20
491.7561
 11
680.1707
 21
489.4561
  0
LINE
  8
0_00
  6
CONTINUOUS
 62
4
 10
699.3970
 20
474.5431
 11
699.0948
 21
474.2452
  0
LINE
  8
0_00
  6
CONTINUOUS
 62
4
 10
699.3928
 20
473.9431
 11
699.0948
 21
474.2452
  0
LINE
  8
0_00
  6
CONTINUOUS
 62
4
 10
538.4092
 20
465.2502
 11
539.7091
 21
465.2594
  0
LINE
  8
0_00
  6
CONTINUOUS
 62
4
 10
538.4189
 20
463.8503
 11
539.7189
 21
463.8594
  0
LINE
  8
0_00
  6
CONTINUOUS
 62
4
 10
698.3320
 20
465.2502
 11
697.0321
 21
465.2594
  0
LINE
  8
0_00
  6
CONTINUOUS
 62
4
 10
698.3223
 20
463.8503
 11
697.0223
 21
463.8594
  0
LINE
  8
0_00
  6
CONTINUOUS
 62
4
 10
537.3442
 20
474.5431
 11
537.6464
 21
474.2452
  0
LINE
  8
0_00
  6
CONTINUOUS
 62
4
 10
537.3484
 20
473.9431
 11
537.6464
 21
474.2452
  0
LINE
  8
0_00
  6
CONTINUOUS
 62
4
 10
548.3706
 20
463.2561
 11
688.3706
 21
463.2561
  0
LINE
  8
0_00
  6
CONTINUOUS
 62
4
 10
670.8706
 20
463.2561
 11
670.8706
 21
378.2561
  0
LINE
  8
0_00
  6
CONTINUOUS
 62
4
 10
565.8706
 20
463.2561
 11
565.8706
 21
378.2561
  0
LINE
  8
0_00
  6
CONTINUOUS
 62
4
 10
670.8706
 20
413.2561
 11
565.8706
 21
413.2561
  0
LINE
  8
0_00
  6
CONTINUOUS
 62
4
 10
565.8706
 20
413.2561
 11
670.8706
 21
463.2561
  0
LINE
  8
0_00
  6
CONTINUOUS
 62
4
 10
676.3706
 20
463.2561
 11
676.3706
 21
378.2561
  0
LINE
  8
0_00
  6
CONTINUOUS
 62
2
 10
672.7040
 20
463.2561
 11
672.7040
 21
378.2561
  0
LINE
  8
0_00
  6
CONTINUOUS
 62
2
 10
674.5373
 20
463.2561
 11
674.5373
 21
378.2561
  0
LINE
  8
0_00
  6
CONTINUOUS
 62
4
 10
560.3706
 20
463.2561
 11
560.3706
 21
378.2561
  0
LINE
  8
0_00
  6
CONTINUOUS
 62
2
 10
564.0373
 20
463.2561
 11
564.0373
 21
378.2561
  0
LINE
  8
0_00
  6
CONTINUOUS
 62
2
 10
562.2040
 20
463.2561
 11
562.2040
 21
378.2561
  0
LINE
  8
0_00
  6
CONTINUOUS
 62
4
 10
688.3706
 20
478.2561
 11
688.3706
 21
463.2561
  0
LINE
  8
0_00
  6
CONTINUOUS
 62
4
 10
688.3706
 20
451.2561
 11
688.3706
 21
378.2561
  0
LINE
  8
0_00
  6
CONTINUOUS
 62
4
 10
548.3706
 20
451.2561
 11
560.3706
 21
451.2561
  0
LINE
  8
0_00
  6
CONTINUOUS
 62
4
 10
676.3706
 20
451.2561
 11
688.3706
 21
451.2561
  0
LINE
  8
0_00
  6
CONTINUOUS
 62
4
 10
548.3706
 20
478.2561
 11
548.3706
 21
463.2561
  0
LINE
  8
0_00
  6
CONTINUOUS
 62
4
 10
548.3706
 20
451.2561
 11
548.3706
 21
378.2561
  0
LINE
  8
0_00
  6
CONTINUOUS
 62
6
 10
549.5360
 20
463.2561
 11
548.9272
 21
462.6474
  0
LINE
  8
0_00
  6
CONTINUOUS
 62
6
 10
552.3644
 20
463.2561
 11
550.0328
 21
460.9245
  0
LINE
  8
0_00
  6
CONTINUOUS
 62
6
 10
555.1929
 20
463.2561
 11
550.7297
 21
458.7930
  0
LINE
  8
0_00
  6
CONTINUOUS
 62
6
 10
558.0212
 20
463.2561
 11
550.7787
 21
456.0136
  0
LINE
  8
0_00
  6
CONTINUOUS
 62
6
 10
560.3706
 20
462.7770
 11
548.8497
 21
451.2561
  0
LINE
  8
0_00
  6
CONTINUOUS
 62
6
 10
560.3706
 20
459.9486
 11
551.6781
 21
451.2561
  0
LINE
  8
0_00
  6
CONTINUOUS
 62
6
 10
560.3706
 20
457.1202
 11
554.5066
 21
451.2561
  0
LINE
  8
0_00
  6
CONTINUOUS
 62
6
 10
560.3706
 20
454.2917
 11
557.3350
 21
451.2561
  0
LINE
  8
0_00
  6
CONTINUOUS
 62
6
 10
560.3706
 20
451.4633
 11
560.1634
 21
451.2561
  0
LINE
  8
0_00
  6
CONTINUOUS
 62
6
 10
677.3036
 20
463.2561
 11
676.3706
 21
462.3231
  0
LINE
  8
0_00
  6
CONTINUOUS
 62
6
 10
680.1321
 20
463.2561
 11
676.3706
 21
459.4947
  0
LINE
  8
0_00
  6
CONTINUOUS
 62
6
 10
682.9605
 20
463.2561
 11
676.3706
 21
456.6662
  0
LINE
  8
0_00
  6
CONTINUOUS
 62
6
 10
685.7889
 20
463.2561
 11
676.3706
 21
453.8378
  0
LINE
  8
0_00
  6
CONTINUOUS
 62
6
 10
687.2608
 20
461.8996
 11
676.6173
 21
451.2561
  0
LINE
  8
0_00
  6
CONTINUOUS
 62
6
 10
685.8818
 20
457.6922
 11
679.4458
 21
451.2561
  0
LINE
  8
0_00
  6
CONTINUOUS
 62
6
 10
686.1436
 20
455.1255
 11
682.2742
 21
451.2561
  0
LINE
  8
0_00
  6
CONTINUOUS
 62
6
 10
686.9573
 20
453.1107
 11
685.1027
 21
451.2561
  0
LINE
  8
0_00
  6
CONTINUOUS
 62
6
 10
688.1539
 20
451.4790
 11
687.9310
 21
451.2561
  0
LINE
  8
15_0F
  6
CONTINUOUS
 62
6
 10
700.8706
 20
498.2561
 11
700.8706
 21
544.2963
  0
LINE
  8
15_0F
  6
CONTINUOUS
 62
6
 10
535.8706
 20
498.2561
 11
535.8706
 21
544.2963
  0
LINE
  8
15_0F
  6
CONTINUOUS
 62
6
 10
535.8706
 20
541.2963
 11
700.8706
 21
541.2963
  0
LINE
  8
15_0F
  6
CONTINUOUS
 62
6
 10
535.8706
 20
541.2963
 11
540.7614
 21
540.2567
  0
LINE
  8
15_0F
  6
CONTINUOUS
 62
6
 10
535.8706
 20
541.2963
 11
540.7614
 21
542.3358
  0
LINE
  8
15_0F
  6
CONTINUOUS
 62
6
 10
700.8706
 20
541.2963
 11
695.9799
 21
542.3358
  0
LINE
  8
15_0F
  6
CONTINUOUS
 62
6
 10
700.8706
 20
541.2963
 11
695.9799
 21
540.2567
  0
LINE
  8
12_0C
  6
DASHED
 62
2
 10
232.9304
 20
481.7561
 11
232.9304
 21
436.0862
  0
LINE
  8
12_0C
  6
CONTINUOUS
 62
2
 10
224.5304
 20
481.7561
 11
236.3304
 21
481.7561
  0
LINE
  8
12_0C
  6
CONTINUOUS
 62
2
 10
236.3304
 20
482.1038
 11
236.3304
 21
481.7561
  0
LINE
  8
12_0C
  6
DASHED
 62
2
 10
232.1804
 20
481.7561
 11
232.1804
 21
434.7872
  0
LINE
  8
12_0C
  6
DASHED
 62
2
 10
230.4304
 20
431.7561
 11
232.9304
 21
436.0862
  0
LINE
  8
12_0C
  6
DASHED
 62
2
 10
227.9304
 20
481.7561
 11
227.9304
 21
436.0862
  0
LINE
  8
12_0C
  6
CONTINUOUS
 62
2
 10
224.5304
 20
482.1038
 11
224.5304
 21
481.7561
  0
LINE
  8
12_0C
  6
DASHED
 62
2
 10
228.6804
 20
481.7561
 11
228.6804
 21
434.7872
  0
LINE
  8
12_0C
  6
DASHED
 62
2
 10
230.4304
 20
431.7561
 11
227.9304
 21
436.0862
  0
LINE
  8
12_0C
  6
CONTINUOUS
 62
2
 10
224.5304
 20
482.1038
 11
236.3304
 21
482.1038
  0
LINE
  8
5_05
  6
CONTINUOUS
 62
2
 10
277.2304
 20
491.8561
 11
285.1274
 21
491.8561
  0
LINE
  8
5_05
  6
CONTINUOUS
 62
2
 10
287.2304
 20
491.6397
 11
286.5112
 21
491.7503
  0
LINE
  8
5_05
  6
CONTINUOUS
 62
2
 10
287.2304
 20
489.5562
 11
287.2304
 21
491.6397
  0
LINE
  8
5_05
  6
CONTINUOUS
 62
2
 10
277.2304
 20
489.5562
 11
277.2304
 21
491.8561
  0
LINE
  8
5_05
  6
CONTINUOUS
 62
2
 10
279.5304
 20
489.5562
 11
277.2304
 21
491.8561
  0
LINE
  8
5_05
  6
CONTINUOUS
 62
2
 10
280.9446
 20
489.5562
 11
278.6447
 21
491.8561
  0
LINE
  8
5_05
  6
CONTINUOUS
 62
2
 10
282.3588
 20
489.5562
 11
280.0588
 21
491.8561
  0
LINE
  8
5_05
  6
CONTINUOUS
 62
2
 10
283.7730
 20
489.5562
 11
281.4731
 21
491.8561
  0
LINE
  8
5_05
  6
CONTINUOUS
 62
2
 10
285.1873
 20
489.5562
 11
282.8873
 21
491.8561
  0
LINE
  8
5_05
  6
CONTINUOUS
 62
2
 10
286.6015
 20
489.5562
 11
284.3015
 21
491.8561
  0
LINE
  8
5_05
  6
CONTINUOUS
 62
2
 10
287.2304
 20
490.3414
 11
285.7361
 21
491.8357
  0
LINE
  8
5_05
  6
CONTINUOUS
 62
2
 10
278.1162
 20
489.5562
 11
277.2304
 21
490.4419
  0
LINE
  8
5_05
  6
CONTINUOUS
 62
2
 10
279.5304
 20
491.8561
 11
277.2304
 21
489.5562
  0
LINE
  8
5_05
  6
CONTINUOUS
 62
2
 10
280.9446
 20
491.8561
 11
278.6447
 21
489.5562
  0
LINE
  8
5_05
  6
CONTINUOUS
 62
2
 10
282.3588
 20
491.8561
 11
280.0588
 21
489.5562
  0
LINE
  8
5_05
  6
CONTINUOUS
 62
2
 10
283.7730
 20
491.8561
 11
281.4731
 21
489.5562
  0
LINE
  8
5_05
  6
CONTINUOUS
 62
2
 10
285.1871
 20
491.8559
 11
282.8873
 21
489.5562
  0
LINE
  8
5_05
  6
CONTINUOUS
 62
2
 10
286.4977
 20
491.7524
 11
284.3015
 21
489.5562
  0
LINE
  8
5_05
  6
CONTINUOUS
 62
2
 10
287.2304
 20
491.0709
 11
285.7157
 21
489.5562
  0
LINE
  8
5_05
  6
CONTINUOUS
 62
2
 10
287.2304
 20
489.6566
 11
287.1299
 21
489.5562
  0
LINE
  8
5_05
  6
CONTINUOUS
 62
2
 10
278.1162
 20
491.8561
 11
277.2304
 21
490.9703
  0
LINE
  8
5_05
  6
CONTINUOUS
 62
2
 10
183.6304
 20
491.8561
 11
175.7334
 21
491.8561
  0
LINE
  8
5_05
  6
CONTINUOUS
 62
2
 10
173.6304
 20
491.6397
 11
174.3497
 21
491.7503
  0
LINE
  8
5_05
  6
CONTINUOUS
 62
2
 10
173.6304
 20
489.5562
 11
173.6304
 21
491.6397
  0
LINE
  8
5_05
  6
CONTINUOUS
 62
2
 10
183.6304
 20
489.5562
 11
183.6304
 21
491.8561
  0
LINE
  8
5_05
  6
CONTINUOUS
 62
2
 10
181.3304
 20
489.5562
 11
183.6304
 21
491.8561
  0
LINE
  8
5_05
  6
CONTINUOUS
 62
2
 10
179.9162
 20
489.5562
 11
182.2162
 21
491.8561
  0
LINE
  8
5_05
  6
CONTINUOUS
 62
2
 10
178.5020
 20
489.5562
 11
180.8020
 21
491.8561
  0
LINE
  8
5_05
  6
CONTINUOUS
 62
2
 10
177.0878
 20
489.5562
 11
179.3878
 21
491.8561
  0
LINE
  8
5_05
  6
CONTINUOUS
 62
2
 10
175.6736
 20
489.5562
 11
177.9736
 21
491.8561
  0
LINE
  8
5_05
  6
CONTINUOUS
 62
2
 10
174.2594
 20
489.5562
 11
176.5594
 21
491.8561
  0
LINE
  8
5_05
  6
CONTINUOUS
 62
2
 10
173.6304
 20
490.3414
 11
175.1248
 21
491.8357
  0
LINE
  8
5_05
  6
CONTINUOUS
 62
2
 10
182.7447
 20
489.5562
 11
183.6304
 21
490.4419
  0
LINE
  8
5_05
  6
CONTINUOUS
 62
2
 10
181.3304
 20
491.8561
 11
183.6304
 21
489.5562
  0
LINE
  8
5_05
  6
CONTINUOUS
 62
2
 10
179.9162
 20
491.8561
 11
182.2162
 21
489.5562
  0
LINE
  8
5_05
  6
CONTINUOUS
 62
2
 10
178.5020
 20
491.8561
 11
180.8020
 21
489.5562
  0
LINE
  8
5_05
  6
CONTINUOUS
 62
2
 10
177.0878
 20
491.8561
 11
179.3878
 21
489.5562
  0
LINE
  8
5_05
  6
CONTINUOUS
 62
2
 10
175.6738
 20
491.8559
 11
177.9736
 21
489.5562
  0
LINE
  8
5_05
  6
CONTINUOUS
 62
2
 10
174.3631
 20
491.7524
 11
176.5594
 21
489.5562
  0
LINE
  8
5_05
  6
CONTINUOUS
 62
2
 10
173.6304
 20
491.0709
 11
175.1451
 21
489.5562
  0
LINE
  8
5_05
  6
CONTINUOUS
 62
2
 10
173.6304
 20
489.6566
 11
173.7309
 21
489.5562
  0
LINE
  8
5_05
  6
CONTINUOUS
 62
2
 10
182.7447
 20
491.8561
 11
183.6304
 21
490.9703
  0
LINE
  8
0_00
  6
CONTINUOUS
 62
4
 10
170.4304
 20
478.2561
 11
290.4304
 21
478.2561
  0
LINE
  8
0_00
  6
CONTINUOUS
 62
4
 10
274.2304
 20
481.7561
 11
230.7304
 21
481.7561
  0
LINE
  8
0_00
  6
CONTINUOUS
 62
4
 10
230.1304
 20
481.7561
 11
186.6304
 21
481.7561
  0
LINE
  8
0_00
  6
CONTINUOUS
 62
4
 10
230.4304
 20
481.4561
 11
230.1304
 21
481.7561
  0
LINE
  8
0_00
  6
CONTINUOUS
 62
4
 10
230.4304
 20
481.4561
 11
230.7304
 21
481.7561
  0
LINE
  8
0_00
  6
CONTINUOUS
 62
4
 10
173.6304
 20
489.5562
 11
184.6304
 21
489.5562
  0
LINE
  8
0_00
  6
CONTINUOUS
 62
4
 10
186.1304
 20
489.2562
 11
186.1304
 21
488.1561
  0
LINE
  8
0_00
  6
CONTINUOUS
 62
4
 10
186.6304
 20
485.6561
 11
186.6304
 21
481.7561
  0
LINE
  8
0_00
  6
CONTINUOUS
 62
4
 10
184.6304
 20
489.7562
 11
185.6304
 21
489.7562
  0
LINE
  8
0_00
  6
CONTINUOUS
 62
4
 10
184.6304
 20
489.7562
 11
184.6304
 21
489.5562
  0
LINE
  8
0_00
  6
CONTINUOUS
 62
4
 10
183.1304
 20
485.5562
 11
183.1304
 21
480.2561
  0
LINE
  8
0_00
  6
CONTINUOUS
 62
4
 10
176.1304
 20
486.5562
 11
182.1304
 21
486.5562
  0
LINE
  8
0_00
  6
CONTINUOUS
 62
4
 10
186.1304
 20
488.1561
 11
189.1304
 21
488.1561
  0
LINE
  8
0_00
  6
CONTINUOUS
 62
4
 10
189.4304
 20
487.8562
 11
189.4304
 21
485.9561
  0
LINE
  8
0_00
  6
CONTINUOUS
 62
4
 10
189.1304
 20
485.6561
 11
186.6304
 21
485.6561
  0
LINE
  8
0_00
  6
CONTINUOUS
 62
4
 10
173.6304
 20
489.7562
 11
173.6304
 21
489.5562
  0
LINE
  8
0_00
  6
CONTINUOUS
 62
4
 10
172.1304
 20
489.2562
 11
172.1304
 21
487.1561
  0
LINE
  8
0_00
  6
CONTINUOUS
 62
4
 10
172.6304
 20
489.7562
 11
173.6304
 21
489.7562
  0
LINE
  8
0_00
  6
CONTINUOUS
 62
4
 10
175.1304
 20
485.5562
 11
175.1304
 21
484.6561
  0
LINE
  8
0_00
  6
CONTINUOUS
 62
4
 10
165.1624
 20
487.1561
 11
172.1304
 21
487.1561
  0
LINE
  8
0_00
  6
CONTINUOUS
 62
4
 10
165.4668
 20
484.1562
 11
174.6304
 21
484.1562
  0
LINE
  8
0_00
  6
CONTINUOUS
 62
4
 10
158.1304
 20
465.3562
 11
158.7304
 21
465.3562
  0
LINE
  8
0_00
  6
CONTINUOUS
 62
4
 10
164.5118
 20
483.4530
 11
158.7304
 21
465.3562
  0
LINE
  8
0_00
  6
CONTINUOUS
 62
4
 10
161.7672
 20
484.5059
 11
157.1603
 21
466.5989
  0
LINE
  8
0_00
  6
CONTINUOUS
 62
4
 10
287.2304
 20
489.5562
 11
276.2304
 21
489.5562
  0
LINE
  8
0_00
  6
CONTINUOUS
 62
4
 10
274.7304
 20
489.2562
 11
274.7304
 21
488.1561
  0
LINE
  8
0_00
  6
CONTINUOUS
 62
4
 10
274.2304
 20
485.6561
 11
274.2304
 21
481.7561
  0
LINE
  8
0_00
  6
CONTINUOUS
 62
4
 10
276.2304
 20
489.7562
 11
275.2304
 21
489.7562
  0
LINE
  8
0_00
  6
CONTINUOUS
 62
4
 10
276.2304
 20
489.7562
 11
276.2304
 21
489.5562
  0
LINE
  8
0_00
  6
CONTINUOUS
 62
4
 10
277.7304
 20
485.5562
 11
277.7304
 21
480.2561
  0
LINE
  8
0_00
  6
CONTINUOUS
 62
4
 10
284.7304
 20
486.5562
 11
278.7304
 21
486.5562
  0
LINE
  8
0_00
  6
CONTINUOUS
 62
4
 10
274.7304
 20
488.1561
 11
271.7304
 21
488.1561
  0
LINE
  8
0_00
  6
CONTINUOUS
 62
4
 10
271.4304
 20
487.8562
 11
271.4304
 21
485.9561
  0
LINE
  8
0_00
  6
CONTINUOUS
 62
4
 10
271.7304
 20
485.6561
 11
274.2304
 21
485.6561
  0
LINE
  8
0_00
  6
CONTINUOUS
 62
4
 10
287.2304
 20
489.7562
 11
287.2304
 21
489.5562
  0
LINE
  8
0_00
  6
CONTINUOUS
 62
4
 10
288.7304
 20
489.2562
 11
288.7304
 21
487.1561
  0
LINE
  8
0_00
  6
CONTINUOUS
 62
4
 10
288.2304
 20
489.7562
 11
287.2304
 21
489.7562
  0
LINE
  8
0_00
  6
CONTINUOUS
 62
4
 10
285.7304
 20
485.5562
 11
285.7304
 21
484.6561
  0
LINE
  8
0_00
  6
CONTINUOUS
 62
4
 10
295.6984
 20
487.1561
 11
288.7304
 21
487.1561
  0
LINE
  8
0_00
  6
CONTINUOUS
 62
4
 10
295.3941
 20
484.1562
 11
286.2304
 21
484.1562
  0
LINE
  8
0_00
  6
CONTINUOUS
 62
4
 10
302.7304
 20
465.3562
 11
302.1304
 21
465.3562
  0
LINE
  8
0_00
  6
CONTINUOUS
 62
4
 10
296.3490
 20
483.4530
 11
302.1304
 21
465.3562
  0
LINE
  8
0_00
  6
CONTINUOUS
 62
4
 10
299.0937
 20
484.5059
 11
303.7005
 21
466.5989
  0
LINE
  8
15_0F
  6
CONTINUOUS
 62
6
 10
305.4304
 20
498.2561
 11
305.4304
 21
544.2963
  0
LINE
  8
15_0F
  6
CONTINUOUS
 62
6
 10
155.4304
 20
498.2561
 11
155.4304
 21
544.2963
  0
LINE
  8
15_0F
  6
CONTINUOUS
 62
6
 10
155.4304
 20
541.2963
 11
305.4304
 21
541.2963
  0
LINE
  8
15_0F
  6
CONTINUOUS
 62
6
 10
155.4304
 20
541.2963
 11
160.3212
 21
540.2567
  0
LINE
  8
15_0F
  6
CONTINUOUS
 62
6
 10
155.4304
 20
541.2963
 11
160.3212
 21
542.3358
  0
LINE
  8
15_0F
  6
CONTINUOUS
 62
6
 10
305.4304
 20
541.2963
 11
300.5397
 21
542.3358
  0
LINE
  8
15_0F
  6
CONTINUOUS
 62
6
 10
305.4304
 20
541.2963
 11
300.5397
 21
540.2567
  0
LINE
  8
15_0F
  6
CONTINUOUS
 62
6
 10
150.4304
 20
438.2564
 11
99.6805
 21
438.2564
  0
LINE
  8
15_0F
  6
CONTINUOUS
 62
6
 10
150.4304
 20
493.2561
 11
99.6805
 21
493.2561
  0
LINE
  8
15_0F
  6
CONTINUOUS
 62
6
 10
102.6805
 20
493.2561
 11
102.6805
 21
438.2564
  0
LINE
  8
15_0F
  6
CONTINUOUS
 62
6
 10
102.6805
 20
493.2561
 11
101.6410
 21
488.3654
  0
LINE
  8
15_0F
  6
CONTINUOUS
 62
6
 10
102.6805
 20
493.2561
 11
103.7201
 21
488.3654
  0
LINE
  8
15_0F
  6
CONTINUOUS
 62
6
 10
102.6805
 20
438.2564
 11
103.7201
 21
443.1472
  0
LINE
  8
15_0F
  6
CONTINUOUS
 62
6
 10
102.6805
 20
438.2564
 11
101.6410
 21
443.1472
  0
LINE
  8
15_0F
  6
CONTINUOUS
 62
6
 10
150.4304
 20
478.2561
 11
113.6805
 21
478.2561
  0
LINE
  8
15_0F
  6
CONTINUOUS
 62
6
 10
116.6805
 20
493.2561
 11
116.6805
 21
478.2561
  0
LINE
  8
15_0F
  6
CONTINUOUS
 62
6
 10
116.6805
 20
514.8561
 11
116.6805
 21
493.2561
  0
LINE
  8
15_0F
  6
CONTINUOUS
 62
6
 10
116.6805
 20
493.2561
 11
117.7201
 21
498.1469
  0
LINE
  8
15_0F
  6
CONTINUOUS
 62
6
 10
116.6805
 20
493.2561
 11
115.6410
 21
498.1469
  0
LINE
  8
15_0F
  6
CONTINUOUS
 62
6
 10
116.6805
 20
468.2561
 11
116.6805
 21
478.2561
  0
LINE
  8
15_0F
  6
CONTINUOUS
 62
6
 10
116.6805
 20
478.2561
 11
115.6410
 21
473.3654
  0
LINE
  8
15_0F
  6
CONTINUOUS
 62
6
 10
116.6805
 20
478.2561
 11
117.7201
 21
473.3654
  0
LINE
  8
5_05
  6
CONTINUOUS
 62
2
 10
564.2706
 20
489.4561
 11
566.5706
 21
491.7561
  0
LINE
  8
5_05
  6
CONTINUOUS
 62
2
 10
562.8564
 20
489.4561
 11
565.1564
 21
491.7561
  0
LINE
  8
5_05
  6
CONTINUOUS
 62
2
 10
561.4422
 20
489.4561
 11
563.7422
 21
491.7561
  0
LINE
  8
5_05
  6
CONTINUOUS
 62
2
 10
560.0280
 20
489.4561
 11
562.3280
 21
491.7561
  0
LINE
  8
5_05
  6
CONTINUOUS
 62
2
 10
558.6138
 20
489.4561
 11
560.9138
 21
491.7561
  0
LINE
  8
5_05
  6
CONTINUOUS
 62
2
 10
557.1996
 20
489.4561
 11
559.4995
 21
491.7561
  0
LINE
  8
5_05
  6
CONTINUOUS
 62
2
 10
556.5706
 20
490.2414
 11
558.0853
 21
491.7561
  0
LINE
  8
5_05
  6
CONTINUOUS
 62
2
 10
556.5706
 20
491.6556
 11
556.6711
 21
491.7561
  0
LINE
  8
5_05
  6
CONTINUOUS
 62
2
 10
565.6848
 20
489.4561
 11
566.5706
 21
490.3419
  0
LINE
  8
5_05
  6
CONTINUOUS
 62
2
 10
564.5116
 20
491.7561
 11
566.5706
 21
489.6971
  0
LINE
  8
5_05
  6
CONTINUOUS
 62
2
 10
563.0974
 20
491.7561
 11
565.3973
 21
489.4561
  0
LINE
  8
5_05
  6
CONTINUOUS
 62
2
 10
561.6831
 20
491.7561
 11
563.9831
 21
489.4561
  0
LINE
  8
5_05
  6
CONTINUOUS
 62
2
 10
560.2689
 20
491.7561
 11
562.5689
 21
489.4561
  0
LINE
  8
5_05
  6
CONTINUOUS
 62
2
 10
558.8547
 20
491.7561
 11
561.1547
 21
489.4561
  0
LINE
  8
5_05
  6
CONTINUOUS
 62
2
 10
557.4405
 20
491.7561
 11
559.7405
 21
489.4561
  0
LINE
  8
5_05
  6
CONTINUOUS
 62
2
 10
556.5706
 20
491.2118
 11
558.3263
 21
489.4561
  0
LINE
  8
5_05
  6
CONTINUOUS
 62
2
 10
556.5706
 20
489.7976
 11
556.9120
 21
489.4561
  0
LINE
  8
5_05
  6
CONTINUOUS
 62
2
 10
565.9258
 20
491.7561
 11
566.5706
 21
491.1113
  0
LINE
  8
5_05
  6
CONTINUOUS
 62
2
 10
677.8706
 20
489.4561
 11
680.1707
 21
491.7561
  0
LINE
  8
5_05
  6
CONTINUOUS
 62
2
 10
676.4564
 20
489.4561
 11
678.7564
 21
491.7561
  0
LINE
  8
5_05
  6
CONTINUOUS
 62
2
 10
675.0422
 20
489.4561
 11
677.3422
 21
491.7561
  0
LINE
  8
5_05
  6
CONTINUOUS
 62
2
 10
673.6280
 20
489.4561
 11
675.9280
 21
491.7561
  0
LINE
  8
5_05
  6
CONTINUOUS
 62
2
 10
672.2137
 20
489.4561
 11
674.5138
 21
491.7561
  0
LINE
  8
5_05
  6
CONTINUOUS
 62
2
 10
670.7996
 20
489.4561
 11
673.0995
 21
491.7561
  0
LINE
  8
5_05
  6
CONTINUOUS
 62
2
 10
670.1706
 20
490.2414
 11
671.6853
 21
491.7561
  0
LINE
  8
5_05
  6
CONTINUOUS
 62
2
 10
670.1706
 20
491.6556
 11
670.2711
 21
491.7561
  0
LINE
  8
5_05
  6
CONTINUOUS
 62
2
 10
679.2849
 20
489.4561
 11
680.1707
 21
490.3419
  0
LINE
  8
5_05
  6
CONTINUOUS
 62
2
 10
678.1116
 20
491.7561
 11
680.1707
 21
489.6971
  0
LINE
  8
5_05
  6
CONTINUOUS
 62
2
 10
676.6974
 20
491.7561
 11
678.9973
 21
489.4561
  0
LINE
  8
5_05
  6
CONTINUOUS
 62
2
 10
675.2831
 20
491.7561
 11
677.5831
 21
489.4561
  0
LINE
  8
5_05
  6
CONTINUOUS
 62
2
 10
673.8689
 20
491.7561
 11
676.1689
 21
489.4561
  0
LINE
  8
5_05
  6
CONTINUOUS
 62
2
 10
672.4547
 20
491.7561
 11
674.7547
 21
489.4561
  0
LINE
  8
5_05
  6
CONTINUOUS
 62
2
 10
671.0405
 20
491.7561
 11
673.3405
 21
489.4561
  0
LINE
  8
5_05
  6
CONTINUOUS
 62
2
 10
670.1706
 20
491.2118
 11
671.9263
 21
489.4561
  0
LINE
  8
5_05
  6
CONTINUOUS
 62
2
 10
670.1706
 20
489.7976
 11
670.5121
 21
489.4561
  0
LINE
  8
5_05
  6
CONTINUOUS
 62
2
 10
679.5258
 20
491.7561
 11
680.1707
 21
491.1113
  0
LINE
  8
0_00
  6
CONTINUOUS
 62
4
 10
548.3706
 20
478.2561
 11
688.3706
 21
478.2561
  0
LINE
  8
0_00
  6
CONTINUOUS
 62
4
 10
662.1706
 20
481.7561
 11
618.6706
 21
481.7561
  0
LINE
  8
0_00
  6
CONTINUOUS
 62
4
 10
618.0706
 20
481.7561
 11
603.0706
 21
481.7561
  0
LINE
  8
0_00
  6
CONTINUOUS
 62
4
 10
603.0706
 20
481.7561
 11
574.5706
 21
481.7561
  0
LINE
  8
0_00
  6
CONTINUOUS
 62
4
 10
618.3706
 20
481.4561
 11
618.0706
 21
481.7561
  0
LINE
  8
0_00
  6
CONTINUOUS
 62
4
 10
618.3706
 20
481.4561
 11
618.6706
 21
481.7561
  0
LINE
  8
0_00
  6
CONTINUOUS
 62
4
 10
680.1707
 20
489.4561
 11
664.1706
 21
489.4561
  0
LINE
  8
0_00
  6
CONTINUOUS
 62
4
 10
662.6706
 20
489.1561
 11
662.6706
 21
488.0562
  0
LINE
  8
0_00
  6
CONTINUOUS
 62
4
 10
662.1706
 20
485.5561
 11
662.1706
 21
481.7561
  0
LINE
  8
0_00
  6
CONTINUOUS
 62
4
 10
664.1706
 20
489.6561
 11
663.1706
 21
489.6561
  0
LINE
  8
0_00
  6
CONTINUOUS
 62
4
 10
664.1706
 20
489.6561
 11
664.1706
 21
489.4561
  0
LINE
  8
0_00
  6
CONTINUOUS
 62
4
 10
680.1707
 20
489.6561
 11
680.1707
 21
489.4561
  0
LINE
  8
0_00
  6
CONTINUOUS
 62
4
 10
681.6707
 20
489.1561
 11
681.6707
 21
487.1561
  0
LINE
  8
0_00
  6
CONTINUOUS
 62
4
 10
681.1707
 20
489.6561
 11
680.1707
 21
489.6561
  0
LINE
  8
0_00
  6
CONTINUOUS
 62
4
 10
665.6706
 20
485.4561
 11
665.6706
 21
480.2561
  0
LINE
  8
0_00
  6
CONTINUOUS
 62
4
 10
677.6707
 20
486.4561
 11
666.6706
 21
486.4561
  0
LINE
  8
0_00
  6
CONTINUOUS
 62
4
 10
678.6707
 20
485.4561
 11
678.6707
 21
484.6561
  0
LINE
  8
0_00
  6
CONTINUOUS
 62
4
 10
662.6706
 20
488.0562
 11
659.6706
 21
488.0562
  0
LINE
  8
0_00
  6
CONTINUOUS
 62
4
 10
659.3706
 20
487.7561
 11
659.3706
 21
485.8561
  0
LINE
  8
0_00
  6
CONTINUOUS
 62
4
 10
659.6706
 20
485.5561
 11
662.1706
 21
485.5561
  0
LINE
  8
0_00
  6
CONTINUOUS
 62
4
 10
698.1707
 20
465.3562
 11
697.5706
 21
465.3562
  0
LINE
  8
0_00
  6
CONTINUOUS
 62
4
 10
691.1547
 20
487.1561
 11
681.6707
 21
487.1561
  0
LINE
  8
0_00
  6
CONTINUOUS
 62
4
 10
690.8401
 20
484.1562
 11
679.1707
 21
484.1562
  0
LINE
  8
0_00
  6
CONTINUOUS
 62
4
 10
694.5450
 20
484.5253
 11
699.1393
 21
466.6044
  0
LINE
  8
0_00
  6
CONTINUOUS
 62
4
 10
691.7927
 20
483.4602
 11
695.9592
 21
470.4052
  0
LINE
  8
0_00
  6
CONTINUOUS
 62
4
 10
696.1416
 20
469.8336
 11
697.5706
 21
465.3562
  0
LINE
  8
0_00
  6
CONTINUOUS
 62
4
 10
556.5706
 20
489.4561
 11
572.5706
 21
489.4561
  0
LINE
  8
0_00
  6
CONTINUOUS
 62
4
 10
574.0706
 20
489.1561
 11
574.0706
 21
488.0562
  0
LINE
  8
0_00
  6
CONTINUOUS
 62
4
 10
574.5706
 20
485.5561
 11
574.5706
 21
481.7561
  0
LINE
  8
0_00
  6
CONTINUOUS
 62
4
 10
572.5706
 20
489.6561
 11
573.5706
 21
489.6561
  0
LINE
  8
0_00
  6
CONTINUOUS
 62
4
 10
572.5706
 20
489.6561
 11
572.5706
 21
489.4561
  0
LINE
  8
0_00
  6
CONTINUOUS
 62
4
 10
556.5706
 20
489.6561
 11
556.5706
 21
489.4561
  0
LINE
  8
0_00
  6
CONTINUOUS
 62
4
 10
555.0706
 20
489.1561
 11
555.0706
 21
487.1561
  0
LINE
  8
0_00
  6
CONTINUOUS
 62
4
 10
555.5706
 20
489.6561
 11
556.5706
 21
489.6561
  0
LINE
  8
0_00
  6
CONTINUOUS
 62
4
 10
571.0706
 20
485.4561
 11
571.0706
 21
480.2561
  0
LINE
  8
0_00
  6
CONTINUOUS
 62
4
 10
559.0706
 20
486.4561
 11
570.0706
 21
486.4561
  0
LINE
  8
0_00
  6
CONTINUOUS
 62
4
 10
558.0706
 20
485.4561
 11
558.0706
 21
484.6561
  0
LINE
  8
0_00
  6
CONTINUOUS
 62
4
 10
574.0706
 20
488.0562
 11
577.0706
 21
488.0562
  0
LINE
  8
0_00
  6
CONTINUOUS
 62
4
 10
577.3706
 20
487.7561
 11
577.3706
 21
485.8561
  0
LINE
  8
0_00
  6
CONTINUOUS
 62
4
 10
577.0706
 20
485.5561
 11
574.5706
 21
485.5561
  0
LINE
  8
0_00
  6
CONTINUOUS
 62
4
 10
538.5706
 20
465.3562
 11
539.1706
 21
465.3562
  0
LINE
  8
0_00
  6
CONTINUOUS
 62
4
 10
545.5865
 20
487.1561
 11
555.0706
 21
487.1561
  0
LINE
  8
0_00
  6
CONTINUOUS
 62
4
 10
545.9011
 20
484.1562
 11
557.5706
 21
484.1562
  0
LINE
  8
0_00
  6
CONTINUOUS
 62
4
 10
542.1962
 20
484.5253
 11
537.6019
 21
466.6044
  0
LINE
  8
0_00
  6
CONTINUOUS
 62
4
 10
544.9485
 20
483.4602
 11
539.1706
 21
465.3562
  0
LINE
  8
0_00
  6
CONTINUOUS
 62
4
 10
695.9592
 20
470.4052
 11
695.7646
 21
470.0282
  0
LINE
  8
0_00
  6
CONTINUOUS
 62
4
 10
695.7646
 20
470.0282
 11
696.1416
 21
469.8336
  0
LINE
  8
0_00
  6
CONTINUOUS
 62
2
 10
554.5066
 20
451.2561
 11
548.3706
 21
445.1202
  0
LINE
  8
0_00
  6
CONTINUOUS
 62
2
 10
557.3350
 20
451.2561
 11
548.3706
 21
442.2917
  0
LINE
  8
0_00
  6
CONTINUOUS
 62
2
 10
560.3706
 20
421.7648
 11
548.3706
 21
409.7648
  0
LINE
  8
0_00
  6
CONTINUOUS
 62
2
 10
560.3706
 20
418.9364
 11
548.3706
 21
406.9364
  0
LINE
  8
0_00
  6
CONTINUOUS
 62
2
 10
560.3706
 20
386.4095
 11
552.2172
 21
378.2561
  0
LINE
  8
0_00
  6
CONTINUOUS
 62
2
 10
560.3706
 20
383.5811
 11
555.0457
 21
378.2561
  0
LINE
  8
0_00
  6
CONTINUOUS
 62
2
 10
682.5066
 20
451.2561
 11
676.3706
 21
445.1202
  0
LINE
  8
0_00
  6
CONTINUOUS
 62
2
 10
685.3350
 20
451.2561
 11
676.3706
 21
442.2917
  0
LINE
  8
0_00
  6
CONTINUOUS
 62
2
 10
688.3706
 20
421.7648
 11
676.3706
 21
409.7648
  0
LINE
  8
0_00
  6
CONTINUOUS
 62
2
 10
688.3706
 20
418.9364
 11
676.3706
 21
406.9364
  0
LINE
  8
0_00
  6
CONTINUOUS
 62
2
 10
688.3706
 20
386.4095
 11
680.2172
 21
378.2561
  0
LINE
  8
0_00
  6
CONTINUOUS
 62
2
 10
688.3706
 20
383.5811
 11
683.0457
 21
378.2561
  0
LINE
  8
12_0C
  6
DASHED
 62
2
 10
620.8706
 20
481.7561
 11
620.8706
 21
436.0862
  0
LINE
  8
12_0C
  6
CONTINUOUS
 62
2
 10
612.4706
 20
481.7561
 11
624.2706
 21
481.7561
  0
LINE
  8
12_0C
  6
CONTINUOUS
 62
2
 10
624.2706
 20
482.1038
 11
624.2706
 21
481.7561
  0
LINE
  8
12_0C
  6
DASHED
 62
2
 10
620.1206
 20
481.7561
 11
620.1206
 21
434.7872
  0
LINE
  8
12_0C
  6
DASHED
 62
2
 10
618.3706
 20
431.7561
 11
620.8706
 21
436.0862
  0
LINE
  8
12_0C
  6
DASHED
 62
2
 10
615.8706
 20
481.7561
 11
615.8706
 21
436.0862
  0
LINE
  8
12_0C
  6
CONTINUOUS
 62
2
 10
612.4706
 20
482.1038
 11
612.4706
 21
481.7561
  0
LINE
  8
12_0C
  6
DASHED
 62
2
 10
616.6206
 20
481.7561
 11
616.6206
 21
434.7872
  0
LINE
  8
12_0C
  6
DASHED
 62
2
 10
618.3706
 20
431.7561
 11
615.8706
 21
436.0862
  0
LINE
  8
12_0C
  6
CONTINUOUS
 62
2
 10
612.4706
 20
482.1038
 11
624.2706
 21
482.1038
  0
LINE
  8
15_0F
  6
CONTINUOUS
 62
6
 10
530.8706
 20
438.2564
 11
477.6805
 21
438.2564
  0
LINE
  8
15_0F
  6
CONTINUOUS
 62
6
 10
530.8706
 20
493.2561
 11
477.6805
 21
493.2561
  0
LINE
  8
15_0F
  6
CONTINUOUS
 62
6
 10
480.6805
 20
493.2561
 11
480.6805
 21
438.2564
  0
LINE
  8
15_0F
  6
CONTINUOUS
 62
6
 10
480.6805
 20
493.2561
 11
479.6410
 21
488.3654
  0
LINE
  8
15_0F
  6
CONTINUOUS
 62
6
 10
480.6805
 20
493.2561
 11
481.7201
 21
488.3654
  0
LINE
  8
15_0F
  6
CONTINUOUS
 62
6
 10
480.6805
 20
438.2564
 11
481.7201
 21
443.1472
  0
LINE
  8
15_0F
  6
CONTINUOUS
 62
6
 10
480.6805
 20
438.2564
 11
479.6410
 21
443.1472
  0
LINE
  8
15_0F
  6
CONTINUOUS
 62
6
 10
530.8706
 20
478.2561
 11
491.6805
 21
478.2561
  0
LINE
  8
15_0F
  6
CONTINUOUS
 62
6
 10
494.6805
 20
493.2561
 11
494.6805
 21
478.2561
  0
LINE
  8
15_0F
  6
CONTINUOUS
 62
6
 10
494.6805
 20
514.8561
 11
494.6805
 21
493.2561
  0
LINE
  8
15_0F
  6
CONTINUOUS
 62
6
 10
494.6805
 20
493.2561
 11
495.7201
 21
498.1469
  0
LINE
  8
15_0F
  6
CONTINUOUS
 62
6
 10
494.6805
 20
493.2561
 11
493.6410
 21
498.1469
  0
LINE
  8
15_0F
  6
CONTINUOUS
 62
6
 10
494.6805
 20
468.2561
 11
494.6805
 21
478.2561
  0
LINE
  8
15_0F
  6
CONTINUOUS
 62
6
 10
494.6805
 20
478.2561
 11
493.6410
 21
473.3654
  0
LINE
  8
15_0F
  6
CONTINUOUS
 62
6
 10
494.6805
 20
478.2561
 11
495.7201
 21
473.3654
  0
LINE
  8
0_00
  6
CONTINUOUS
 62
6
 10
155.4304
 20
422.8006
 11
155.4304
 21
434.9108
  0
LINE
  8
0_00
  6
CONTINUOUS
 62
6
 10
535.8706
 20
423.8903
 11
535.8706
 21
436.0005
  0
LINE
  8
0_00
  6
PHANTOM1
 62
2
 10
690.8706
 20
478.2561
 11
690.8706
 21
378.2561
  0
LINE
  8
0_00
  6
PHANTOM1
 62
2
 10
545.8706
 20
478.2561
 11
545.8706
 21
378.2561
  0
LINE
  8
0_00
  6
CONTINUOUS
 62
6
 10
167.6748
 20
395.2858
 11
112.5532
 21
395.2858
  0
LINE
  8
0_00
  6
CONTINUOUS
 62
6
 10
574.4934
 20
414.1643
 11
492.4934
 21
414.1643
  0
LINE
  8
0_00
  6
CONTINUOUS
 62
6
 10
555.6150
 20
395.2858
 11
492.4934
 21
395.2858
  0
LINE
  8
0_00
  6
CONTINUOUS
 62
6
 10
615.8706
 20
455.5415
 11
555.6150
 21
395.2858
  0
LINE
  8
0_00
  6
CONTINUOUS
 62
6
 10
615.8706
 20
455.5415
 11
611.6772
 21
452.8183
  0
LINE
  8
0_00
  6
CONTINUOUS
 62
6
 10
615.8706
 20
455.5415
 11
613.1474
 21
451.3481
  0
LINE
  8
0_00
  6
CONTINUOUS
 62
4
 10
688.3706
 20
478.2561
 11
548.3706
 21
463.2561
  0
LINE
  8
0_00
  6
CENTER1
 62
6
 10
618.3706
 20
258.3939
 11
618.3706
 21
123.8407
  0
LINE
  8
0_00
  6
CENTER1
 62
6
 10
230.4304
 20
258.3939
 11
230.4304
 21
123.8407
  0
LINE
  8
15_0F
  6
CONTINUOUS
 62
6
 10
150.4304
 20
117.2522
 11
150.4304
 21
95.7963
  0
LINE
  8
15_0F
  6
CONTINUOUS
 62
6
 10
140.4304
 20
98.7963
 11
150.4304
 21
98.7963
  0
LINE
  8
15_0F
  6
CONTINUOUS
 62
6
 10
118.8304
 20
98.7963
 11
140.4304
 21
98.7963
  0
LINE
  8
15_0F
  6
CONTINUOUS
 62
6
 10
140.4304
 20
98.7963
 11
135.5397
 21
99.8358
  0
LINE
  8
15_0F
  6
CONTINUOUS
 62
6
 10
140.4304
 20
98.7963
 11
135.5397
 21
97.7567
  0
LINE
  8
15_0F
  6
CONTINUOUS
 62
6
 10
155.4304
 20
117.2522
 11
155.4304
 21
95.7963
  0
LINE
  8
15_0F
  6
CONTINUOUS
 62
6
 10
150.4304
 20
98.7963
 11
155.4304
 21
98.7963
  0
LINE
  8
15_0F
  6
CONTINUOUS
 62
6
 10
305.4304
 20
126.7561
 11
305.4304
 21
95.7963
  0
LINE
  8
15_0F
  6
CONTINUOUS
 62
6
 10
155.4304
 20
98.7963
 11
305.4304
 21
98.7963
  0
LINE
  8
15_0F
  6
CONTINUOUS
 62
6
 10
155.4304
 20
98.7963
 11
160.3212
 21
97.7567
  0
LINE
  8
15_0F
  6
CONTINUOUS
 62
6
 10
155.4304
 20
98.7963
 11
160.3212
 21
99.8358
  0
LINE
  8
15_0F
  6
CONTINUOUS
 62
6
 10
305.4304
 20
98.7963
 11
300.5397
 21
99.8358
  0
LINE
  8
15_0F
  6
CONTINUOUS
 62
6
 10
305.4304
 20
98.7963
 11
300.5397
 21
97.7567
  0
LINE
  8
15_0F
  6
CONTINUOUS
 62
6
 10
310.4304
 20
126.7561
 11
310.4304
 21
95.7963
  0
LINE
  8
15_0F
  6
CONTINUOUS
 62
6
 10
305.4304
 20
98.7963
 11
310.4304
 21
98.7963
  0
LINE
  8
15_0F
  6
CONTINUOUS
 62
6
 10
310.4304
 20
98.7963
 11
320.4304
 21
98.7963
  0
LINE
  8
15_0F
  6
CONTINUOUS
 62
6
 10
342.0304
 20
98.7963
 11
320.4304
 21
98.7963
  0
LINE
  8
15_0F
  6
CONTINUOUS
 62
6
 10
320.4304
 20
98.7963
 11
325.3212
 21
97.7567
  0
LINE
  8
15_0F
  6
CONTINUOUS
 62
6
 10
320.4304
 20
98.7963
 11
325.3212
 21
99.8358
  0
LINE
  8
0_00
  6
CONTINUOUS
 62
6
 10
314.1964
 20
229.2217
 11
335.6811
 21
250.7063
  0
LINE
  8
0_00
  6
CONTINUOUS
 62
6
 10
314.1964
 20
229.2217
 11
318.3898
 21
231.9449
  0
LINE
  8
0_00
  6
CONTINUOUS
 62
6
 10
314.1964
 20
229.2217
 11
316.9196
 21
233.4150
  0
LINE
  8
0_00
  6
CONTINUOUS
 62
6
 10
335.6811
 20
250.7063
 11
380.0811
 21
250.7063
  0
LINE
  8
0_00
  6
CONTINUOUS
 62
6
 10
257.8625
 20
247.1209
 11
277.4899
 21
266.7484
  0
LINE
  8
0_00
  6
CONTINUOUS
 62
6
 10
257.8625
 20
247.1209
 11
262.0558
 21
249.8441
  0
LINE
  8
0_00
  6
CONTINUOUS
 62
6
 10
257.8625
 20
247.1209
 11
260.5857
 21
251.3143
  0
LINE
  8
0_00
  6
CONTINUOUS
 62
6
 10
277.4899
 20
266.7484
 11
307.4899
 21
266.7484
  0
LINE
  8
15_0F
  6
CONTINUOUS
 62
6
 10
320.4304
 20
184.0061
 11
320.4304
 21
95.7963
  0
LINE
  8
0_00
  6
CONTINUOUS
 62
4
 10
230.2304
 20
245.2561
 11
160.7334
 21
245.2561
  0
LINE
  8
0_00
  6
CONTINUOUS
 62
4
 10
230.6304
 20
245.2561
 11
300.1274
 21
245.2561
  0
LINE
  8
0_00
  6
CONTINUOUS
 62
4
 10
300.1274
 20
246.7561
 11
160.7334
 21
246.7561
  0
LINE
  8
0_00
  6
CONTINUOUS
 62
4
 10
230.2304
 20
245.2561
 11
230.4304
 21
245.4561
  0
LINE
  8
0_00
  6
CONTINUOUS
 62
4
 10
230.4304
 20
245.4561
 11
230.6304
 21
245.2561
  0
LINE
  8
0_00
  6
CONTINUOUS
 62
4
 10
140.4306
 20
238.5667
 11
140.6493
 21
207.2338
  0
LINE
  8
0_00
  6
CONTINUOUS
 62
4
 10
142.4470
 20
193.2460
 11
142.3770
 21
203.2696
  0
LINE
  8
0_00
  6
CONTINUOUS
 62
4
 10
143.7484
 20
193.0551
 11
143.6734
 21
203.8001
  0
LINE
  8
0_00
  6
CONTINUOUS
 62
4
 10
145.5823
 20
208.2626
 11
145.7892
 21
208.6268
  0
LINE
  8
0_00
  6
CONTINUOUS
 62
4
 10
145.7892
 20
208.6268
 11
144.4850
 21
209.3677
  0
LINE
  8
0_00
  6
CONTINUOUS
 62
4
 10
144.4850
 20
209.3677
 11
144.2781
 21
209.0035
  0
LINE
  8
0_00
  6
CONTINUOUS
 62
4
 10
143.1449
 20
208.6913
 11
142.7807
 21
208.8983
  0
LINE
  8
0_00
  6
CONTINUOUS
 62
4
 10
142.7807
 20
208.8983
 11
142.0398
 21
207.5940
  0
LINE
  8
0_00
  6
CONTINUOUS
 62
4
 10
142.0398
 20
207.5940
 11
142.4040
 21
207.3871
  0
LINE
  8
0_00
  6
CONTINUOUS
 62
4
 10
142.7161
 20
206.2539
 11
142.5092
 21
205.8897
  0
LINE
  8
0_00
  6
CONTINUOUS
 62
4
 10
142.5092
 20
205.8897
 11
143.8135
 21
205.1488
  0
LINE
  8
0_00
  6
CONTINUOUS
 62
4
 10
143.8135
 20
205.1488
 11
144.0204
 21
205.5130
  0
LINE
  8
0_00
  6
CONTINUOUS
 62
4
 10
146.9184
 20
208.0838
 11
146.5658
 21
207.4630
  0
LINE
  8
0_00
  6
CONTINUOUS
 62
4
 10
144.8580
 20
204.4569
 11
145.2107
 21
205.0777
  0
LINE
  8
0_00
  6
CONTINUOUS
 62
4
 10
145.5181
 20
244.5388
 11
159.1368
 21
246.6340
  0
LINE
  8
0_00
  6
CONTINUOUS
 62
4
 10
141.8306
 20
238.5618
 11
141.8831
 21
231.0430
  0
LINE
  8
0_00
  6
CONTINUOUS
 62
4
 10
141.9083
 20
227.4431
 11
141.9620
 21
219.7433
  0
LINE
  8
0_00
  6
CONTINUOUS
 62
4
 10
141.9857
 20
216.3434
 11
142.0188
 21
211.6070
  0
LINE
  8
0_00
  6
CONTINUOUS
 62
4
 10
145.6463
 20
243.0409
 11
159.3649
 21
245.1514
  0
LINE
  8
0_00
  6
CONTINUOUS
 62
4
 10
315.3428
 20
244.5388
 11
301.7241
 21
246.6340
  0
LINE
  8
0_00
  6
CONTINUOUS
 62
4
 10
315.2146
 20
243.0409
 11
301.4960
 21
245.1514
  0
LINE
  8
0_00
  6
CONTINUOUS
 62
4
 10
143.9575
 20
191.7565
 11
144.8897
 21
191.7630
  0
LINE
  8
0_00
  6
CONTINUOUS
 62
4
 10
143.7484
 20
193.0551
 11
144.8806
 21
193.0630
  0
LINE
  8
0_00
  6
CONTINUOUS
 62
4
 10
320.4303
 20
238.5667
 11
320.2115
 21
207.2338
  0
LINE
  8
0_00
  6
CONTINUOUS
 62
4
 10
318.4138
 20
193.2460
 11
318.4838
 21
203.2696
  0
LINE
  8
0_00
  6
CONTINUOUS
 62
4
 10
317.1125
 20
193.0551
 11
317.1875
 21
203.8001
  0
LINE
  8
0_00
  6
CONTINUOUS
 62
4
 10
319.0302
 20
238.5618
 11
318.9777
 21
231.0430
  0
LINE
  8
0_00
  6
CONTINUOUS
 62
4
 10
318.9526
 20
227.4431
 11
318.8988
 21
219.7433
  0
LINE
  8
0_00
  6
CONTINUOUS
 62
4
 10
318.8751
 20
216.3434
 11
318.8420
 21
211.6070
  0
LINE
  8
0_00
  6
CONTINUOUS
 62
4
 10
316.9034
 20
191.7565
 11
315.9712
 21
191.7630
  0
LINE
  8
0_00
  6
CONTINUOUS
 62
4
 10
317.1125
 20
193.0551
 11
315.9803
 21
193.0630
  0
LINE
  8
5_05
  6
CONTINUOUS
 62
2
 10
282.2304
 20
245.2561
 11
282.2304
 21
242.9561
  0
LINE
  8
5_05
  6
CONTINUOUS
 62
2
 10
292.2304
 20
245.2561
 11
292.2304
 21
242.9561
  0
LINE
  8
5_05
  6
CONTINUOUS
 62
2
 10
289.9305
 20
242.9561
 11
292.2304
 21
245.2561
  0
LINE
  8
5_05
  6
CONTINUOUS
 62
2
 10
288.5162
 20
242.9561
 11
290.8162
 21
245.2561
  0
LINE
  8
5_05
  6
CONTINUOUS
 62
2
 10
287.1020
 20
242.9561
 11
289.4020
 21
245.2561
  0
LINE
  8
5_05
  6
CONTINUOUS
 62
2
 10
285.6878
 20
242.9561
 11
287.9878
 21
245.2561
  0
LINE
  8
5_05
  6
CONTINUOUS
 62
2
 10
284.2736
 20
242.9561
 11
286.5736
 21
245.2561
  0
LINE
  8
5_05
  6
CONTINUOUS
 62
2
 10
282.8594
 20
242.9561
 11
285.1594
 21
245.2561
  0
LINE
  8
5_05
  6
CONTINUOUS
 62
2
 10
282.2304
 20
243.7414
 11
283.7451
 21
245.2561
  0
LINE
  8
5_05
  6
CONTINUOUS
 62
2
 10
282.2304
 20
245.1556
 11
282.3309
 21
245.2561
  0
LINE
  8
5_05
  6
CONTINUOUS
 62
2
 10
291.3447
 20
242.9561
 11
292.2304
 21
243.8419
  0
LINE
  8
5_05
  6
CONTINUOUS
 62
2
 10
290.1714
 20
245.2561
 11
292.2304
 21
243.1971
  0
LINE
  8
5_05
  6
CONTINUOUS
 62
2
 10
288.7572
 20
245.2561
 11
291.0571
 21
242.9561
  0
LINE
  8
5_05
  6
CONTINUOUS
 62
2
 10
287.3430
 20
245.2561
 11
289.6429
 21
242.9561
  0
LINE
  8
5_05
  6
CONTINUOUS
 62
2
 10
285.9287
 20
245.2561
 11
288.2287
 21
242.9561
  0
LINE
  8
5_05
  6
CONTINUOUS
 62
2
 10
284.5145
 20
245.2561
 11
286.8145
 21
242.9561
  0
LINE
  8
5_05
  6
CONTINUOUS
 62
2
 10
283.1003
 20
245.2561
 11
285.4003
 21
242.9561
  0
LINE
  8
5_05
  6
CONTINUOUS
 62
2
 10
282.2304
 20
244.7118
 11
283.9861
 21
242.9561
  0
LINE
  8
5_05
  6
CONTINUOUS
 62
2
 10
282.2304
 20
243.2976
 11
282.5719
 21
242.9561
  0
LINE
  8
5_05
  6
CONTINUOUS
 62
2
 10
291.5856
 20
245.2561
 11
292.2304
 21
244.6113
  0
LINE
  8
5_05
  6
CONTINUOUS
 62
2
 10
168.6304
 20
245.2561
 11
168.6304
 21
242.9561
  0
LINE
  8
5_05
  6
CONTINUOUS
 62
2
 10
178.6304
 20
245.2561
 11
178.6304
 21
242.9561
  0
LINE
  8
5_05
  6
CONTINUOUS
 62
2
 10
176.3304
 20
242.9561
 11
178.6304
 21
245.2561
  0
LINE
  8
5_05
  6
CONTINUOUS
 62
2
 10
174.9162
 20
242.9561
 11
177.2162
 21
245.2561
  0
LINE
  8
5_05
  6
CONTINUOUS
 62
2
 10
173.5020
 20
242.9561
 11
175.8020
 21
245.2561
  0
LINE
  8
5_05
  6
CONTINUOUS
 62
2
 10
172.0878
 20
242.9561
 11
174.3878
 21
245.2561
  0
LINE
  8
5_05
  6
CONTINUOUS
 62
2
 10
170.6736
 20
242.9561
 11
172.9736
 21
245.2561
  0
LINE
  8
5_05
  6
CONTINUOUS
 62
2
 10
169.2594
 20
242.9561
 11
171.5594
 21
245.2561
  0
LINE
  8
5_05
  6
CONTINUOUS
 62
2
 10
168.6304
 20
243.7414
 11
170.1451
 21
245.2561
  0
LINE
  8
5_05
  6
CONTINUOUS
 62
2
 10
168.6304
 20
245.1556
 11
168.7309
 21
245.2561
  0
LINE
  8
5_05
  6
CONTINUOUS
 62
2
 10
177.7447
 20
242.9561
 11
178.6304
 21
243.8419
  0
LINE
  8
5_05
  6
CONTINUOUS
 62
2
 10
176.5714
 20
245.2561
 11
178.6304
 21
243.1971
  0
LINE
  8
5_05
  6
CONTINUOUS
 62
2
 10
175.1572
 20
245.2561
 11
177.4571
 21
242.9561
  0
LINE
  8
5_05
  6
CONTINUOUS
 62
2
 10
173.7430
 20
245.2561
 11
176.0429
 21
242.9561
  0
LINE
  8
5_05
  6
CONTINUOUS
 62
2
 10
172.3287
 20
245.2561
 11
174.6287
 21
242.9561
  0
LINE
  8
5_05
  6
CONTINUOUS
 62
2
 10
170.9145
 20
245.2561
 11
173.2145
 21
242.9561
  0
LINE
  8
5_05
  6
CONTINUOUS
 62
2
 10
169.5003
 20
245.2561
 11
171.8003
 21
242.9561
  0
LINE
  8
5_05
  6
CONTINUOUS
 62
2
 10
168.6304
 20
244.7118
 11
170.3861
 21
242.9561
  0
LINE
  8
5_05
  6
CONTINUOUS
 62
2
 10
168.6304
 20
243.2976
 11
168.9719
 21
242.9561
  0
LINE
  8
5_05
  6
CONTINUOUS
 62
2
 10
177.9856
 20
245.2561
 11
178.6304
 21
244.6113
  0
LINE
  8
0_00
  6
CONTINUOUS
 62
4
 10
318.9777
 20
231.0430
 11
318.6756
 21
230.7451
  0
LINE
  8
0_00
  6
CONTINUOUS
 62
4
 10
318.9735
 20
230.4430
 11
318.6756
 21
230.7451
  0
LINE
  8
0_00
  6
CONTINUOUS
 62
4
 10
318.9568
 20
228.0431
 11
318.6547
 21
227.7452
  0
LINE
  8
0_00
  6
CONTINUOUS
 62
4
 10
318.9526
 20
227.4431
 11
318.6547
 21
227.7452
  0
LINE
  8
0_00
  6
CONTINUOUS
 62
4
 10
318.9735
 20
230.4430
 11
318.9568
 21
228.0431
  0
LINE
  8
0_00
  6
CONTINUOUS
 62
4
 10
142.9690
 20
218.7503
 11
144.2690
 21
218.7593
  0
LINE
  8
0_00
  6
CONTINUOUS
 62
4
 10
142.9788
 20
217.3503
 11
144.2787
 21
217.3594
  0
LINE
  8
0_00
  6
CONTINUOUS
 62
4
 10
315.2785
 20
208.2626
 11
315.0716
 21
208.6268
  0
LINE
  8
0_00
  6
CONTINUOUS
 62
4
 10
315.0716
 20
208.6268
 11
316.3759
 21
209.3677
  0
LINE
  8
0_00
  6
CONTINUOUS
 62
4
 10
316.3759
 20
209.3677
 11
316.5828
 21
209.0035
  0
LINE
  8
0_00
  6
CONTINUOUS
 62
4
 10
317.7159
 20
208.6913
 11
318.0801
 21
208.8983
  0
LINE
  8
0_00
  6
CONTINUOUS
 62
4
 10
318.0801
 20
208.8983
 11
318.8210
 21
207.5940
  0
LINE
  8
0_00
  6
CONTINUOUS
 62
4
 10
318.8210
 20
207.5940
 11
318.4568
 21
207.3871
  0
LINE
  8
0_00
  6
CONTINUOUS
 62
4
 10
318.1447
 20
206.2539
 11
318.3516
 21
205.8897
  0
LINE
  8
0_00
  6
CONTINUOUS
 62
4
 10
318.3516
 20
205.8897
 11
317.0474
 21
205.1488
  0
LINE
  8
0_00
  6
CONTINUOUS
 62
4
 10
317.0474
 20
205.1488
 11
316.8405
 21
205.5130
  0
LINE
  8
0_00
  6
CONTINUOUS
 62
4
 10
313.9424
 20
208.0838
 11
314.2951
 21
207.4630
  0
LINE
  8
0_00
  6
CONTINUOUS
 62
4
 10
316.0028
 20
204.4569
 11
315.6502
 21
205.0777
  0
LINE
  8
0_00
  6
CONTINUOUS
 62
4
 10
317.8919
 20
218.7503
 11
316.5919
 21
218.7593
  0
LINE
  8
0_00
  6
CONTINUOUS
 62
4
 10
317.8821
 20
217.3503
 11
316.5821
 21
217.3594
  0
LINE
  8
0_00
  6
CONTINUOUS
 62
4
 10
141.8831
 20
231.0430
 11
142.1852
 21
230.7451
  0
LINE
  8
0_00
  6
CONTINUOUS
 62
4
 10
141.8873
 20
230.4430
 11
142.1852
 21
230.7451
  0
LINE
  8
0_00
  6
CONTINUOUS
 62
4
 10
141.9041
 20
228.0431
 11
142.2062
 21
227.7452
  0
LINE
  8
0_00
  6
CONTINUOUS
 62
4
 10
141.9083
 20
227.4431
 11
142.2062
 21
227.7452
  0
LINE
  8
0_00
  6
CONTINUOUS
 62
4
 10
141.8873
 20
230.4430
 11
141.9041
 21
228.0431
  0
LINE
  8
0_00
  6
CONTINUOUS
 62
4
 10
282.9304
 20
216.7561
 11
282.9304
 21
131.7561
  0
LINE
  8
0_00
  6
CONTINUOUS
 62
4
 10
177.9304
 20
216.7561
 11
177.9304
 21
131.7561
  0
LINE
  8
0_00
  6
CONTINUOUS
 62
4
 10
288.4304
 20
216.7561
 11
288.4304
 21
131.7561
  0
LINE
  8
0_00
  6
CONTINUOUS
 62
4
 10
305.4304
 20
131.7561
 11
305.4304
 21
221.7561
  0
LINE
  8
0_00
  6
CONTINUOUS
 62
4
 10
172.4304
 20
216.7561
 11
288.4304
 21
216.7561
  0
LINE
  8
0_00
  6
CONTINUOUS
 62
4
 10
172.4304
 20
216.7561
 11
172.4304
 21
131.7561
  0
LINE
  8
0_00
  6
CONTINUOUS
 62
4
 10
155.4304
 20
131.7561
 11
155.4304
 21
221.7561
  0
LINE
  8
0_00
  6
CONTINUOUS
 62
4
 10
295.4304
 20
231.7561
 11
305.4304
 21
221.7561
  0
LINE
  8
0_00
  6
CONTINUOUS
 62
4
 10
165.4304
 20
231.7561
 11
155.4304
 21
221.7561
  0
LINE
  8
0_00
  6
CONTINUOUS
 62
4
 10
165.4304
 20
231.7561
 11
295.4304
 21
231.7561
  0
LINE
  8
0_00
  6
CONTINUOUS
 62
4
 10
274.2304
 20
235.2561
 11
230.7304
 21
235.2561
  0
LINE
  8
0_00
  6
CONTINUOUS
 62
4
 10
230.1304
 20
235.2561
 11
186.6304
 21
235.2561
  0
LINE
  8
0_00
  6
CONTINUOUS
 62
4
 10
230.4304
 20
234.9561
 11
230.1304
 21
235.2561
  0
LINE
  8
0_00
  6
CONTINUOUS
 62
4
 10
230.4304
 20
234.9561
 11
230.7304
 21
235.2561
  0
LINE
  8
0_00
  6
CONTINUOUS
 62
4
 10
168.6304
 20
242.9561
 11
184.6304
 21
242.9561
  0
LINE
  8
0_00
  6
CONTINUOUS
 62
4
 10
186.1304
 20
242.6561
 11
186.1304
 21
241.5561
  0
LINE
  8
0_00
  6
CONTINUOUS
 62
4
 10
186.6304
 20
239.0561
 11
186.6304
 21
235.2561
  0
LINE
  8
0_00
  6
CONTINUOUS
 62
4
 10
184.6304
 20
243.1561
 11
185.6304
 21
243.1561
  0
LINE
  8
0_00
  6
CONTINUOUS
 62
4
 10
184.6304
 20
243.1561
 11
184.6304
 21
242.9561
  0
LINE
  8
0_00
  6
CONTINUOUS
 62
4
 10
183.1304
 20
238.9561
 11
183.1304
 21
233.7561
  0
LINE
  8
0_00
  6
CONTINUOUS
 62
4
 10
171.1304
 20
239.9561
 11
182.1304
 21
239.9561
  0
LINE
  8
0_00
  6
CONTINUOUS
 62
4
 10
186.1304
 20
241.5561
 11
189.1304
 21
241.5561
  0
LINE
  8
0_00
  6
CONTINUOUS
 62
4
 10
189.4304
 20
241.2561
 11
189.4304
 21
239.3561
  0
LINE
  8
0_00
  6
CONTINUOUS
 62
4
 10
189.1304
 20
239.0561
 11
186.6304
 21
239.0561
  0
LINE
  8
0_00
  6
CONTINUOUS
 62
4
 10
292.2304
 20
242.9561
 11
276.2304
 21
242.9561
  0
LINE
  8
0_00
  6
CONTINUOUS
 62
4
 10
274.7304
 20
242.6561
 11
274.7304
 21
241.5561
  0
LINE
  8
0_00
  6
CONTINUOUS
 62
4
 10
274.2304
 20
239.0561
 11
274.2304
 21
235.2561
  0
LINE
  8
0_00
  6
CONTINUOUS
 62
4
 10
276.2304
 20
243.1561
 11
275.2304
 21
243.1561
  0
LINE
  8
0_00
  6
CONTINUOUS
 62
4
 10
276.2304
 20
243.1561
 11
276.2304
 21
242.9561
  0
LINE
  8
0_00
  6
CONTINUOUS
 62
4
 10
292.2304
 20
243.1561
 11
292.2304
 21
242.9561
  0
LINE
  8
0_00
  6
CONTINUOUS
 62
4
 10
293.7304
 20
242.6561
 11
293.7304
 21
240.6561
  0
LINE
  8
0_00
  6
CONTINUOUS
 62
4
 10
293.2304
 20
243.1561
 11
292.2304
 21
243.1561
  0
LINE
  8
0_00
  6
CONTINUOUS
 62
4
 10
277.7304
 20
238.9561
 11
277.7304
 21
233.7561
  0
LINE
  8
0_00
  6
CONTINUOUS
 62
4
 10
289.7304
 20
239.9561
 11
278.7304
 21
239.9561
  0
LINE
  8
0_00
  6
CONTINUOUS
 62
4
 10
290.7304
 20
238.9561
 11
290.7304
 21
238.1561
  0
LINE
  8
0_00
  6
CONTINUOUS
 62
4
 10
310.6984
 20
240.6561
 11
293.7304
 21
240.6561
  0
LINE
  8
0_00
  6
CONTINUOUS
 62
4
 10
310.3941
 20
237.6561
 11
291.2304
 21
237.6561
  0
LINE
  8
0_00
  6
CONTINUOUS
 62
4
 10
274.7304
 20
241.5561
 11
271.7304
 21
241.5561
  0
LINE
  8
0_00
  6
CONTINUOUS
 62
4
 10
271.4304
 20
241.2561
 11
271.4304
 21
239.3561
  0
LINE
  8
0_00
  6
CONTINUOUS
 62
4
 10
271.7304
 20
239.0561
 11
274.2304
 21
239.0561
  0
LINE
  8
0_00
  6
CONTINUOUS
 62
4
 10
317.7304
 20
218.8561
 11
317.1304
 21
218.8561
  0
LINE
  8
0_00
  6
CONTINUOUS
 62
4
 10
311.3490
 20
236.9530
 11
314.6046
 21
226.7625
  0
LINE
  8
0_00
  6
CONTINUOUS
 62
4
 10
314.7872
 20
226.1909
 11
315.5175
 21
223.9047
  0
LINE
  8
0_00
  6
CONTINUOUS
 62
4
 10
315.7001
 20
223.3332
 11
317.1304
 21
218.8561
  0
LINE
  8
0_00
  6
CONTINUOUS
 62
4
 10
314.0937
 20
238.0059
 11
318.7005
 21
220.0989
  0
LINE
  8
0_00
  6
CONTINUOUS
 62
4
 10
168.6304
 20
243.1561
 11
168.6304
 21
242.9561
  0
LINE
  8
0_00
  6
CONTINUOUS
 62
4
 10
167.1304
 20
242.6561
 11
167.1304
 21
240.6561
  0
LINE
  8
0_00
  6
CONTINUOUS
 62
4
 10
167.6304
 20
243.1561
 11
168.6304
 21
243.1561
  0
LINE
  8
0_00
  6
CONTINUOUS
 62
4
 10
170.1304
 20
238.9561
 11
170.1304
 21
238.1561
  0
LINE
  8
0_00
  6
CONTINUOUS
 62
4
 10
150.1624
 20
240.6561
 11
167.1304
 21
240.6561
  0
LINE
  8
0_00
  6
CONTINUOUS
 62
4
 10
150.4668
 20
237.6561
 11
169.6304
 21
237.6561
  0
LINE
  8
0_00
  6
CONTINUOUS
 62
4
 10
143.1304
 20
218.8561
 11
143.7304
 21
218.8561
  0
LINE
  8
0_00
  6
CONTINUOUS
 62
4
 10
149.5118
 20
236.9530
 11
143.7304
 21
218.8561
  0
LINE
  8
0_00
  6
CONTINUOUS
 62
4
 10
146.7672
 20
238.0059
 11
142.1603
 21
220.0989
  0
LINE
  8
0_00
  6
CONTINUOUS
 62
4
 10
315.3231
 20
223.5277
 11
315.5175
 21
223.9047
  0
LINE
  8
0_00
  6
CONTINUOUS
 62
4
 10
315.3231
 20
223.5277
 11
315.7001
 21
223.3332
  0
LINE
  8
0_00
  6
CONTINUOUS
 62
4
 10
314.4101
 20
226.3854
 11
314.6046
 21
226.7625
  0
LINE
  8
0_00
  6
CONTINUOUS
 62
4
 10
314.4101
 20
226.3854
 11
314.7872
 21
226.1909
  0
LINE
  8
0_00
  6
CONTINUOUS
 62
4
 10
282.9304
 20
166.7561
 11
177.9304
 21
166.7561
  0
LINE
  8
0_00
  6
CONTINUOUS
 62
4
 10
282.9304
 20
216.7561
 11
177.9304
 21
166.7561
  0
LINE
  8
0_00
  6
CONTINUOUS
 62
2
 10
286.5971
 20
216.7561
 11
286.5971
 21
131.7561
  0
LINE
  8
0_00
  6
CONTINUOUS
 62
2
 10
284.7638
 20
216.7561
 11
284.7638
 21
131.7561
  0
LINE
  8
0_00
  6
CONTINUOUS
 62
2
 10
174.2638
 20
216.7561
 11
174.2638
 21
131.7561
  0
LINE
  8
0_00
  6
CONTINUOUS
 62
2
 10
176.0971
 20
216.7561
 11
176.0971
 21
131.7561
  0
LINE
  8
12_0C
  6
DASHED
 62
2
 10
232.9304
 20
235.2561
 11
232.9304
 21
189.5862
  0
LINE
  8
12_0C
  6
CONTINUOUS
 62
2
 10
224.5304
 20
235.2561
 11
236.3304
 21
235.2561
  0
LINE
  8
12_0C
  6
CONTINUOUS
 62
2
 10
236.3304
 20
235.6039
 11
236.3304
 21
235.2561
  0
LINE
  8
12_0C
  6
DASHED
 62
2
 10
232.1804
 20
235.2561
 11
232.1804
 21
188.2872
  0
LINE
  8
12_0C
  6
DASHED
 62
2
 10
230.4304
 20
185.2561
 11
232.9304
 21
189.5862
  0
LINE
  8
12_0C
  6
DASHED
 62
2
 10
227.9304
 20
235.2561
 11
227.9304
 21
189.5862
  0
LINE
  8
12_0C
  6
CONTINUOUS
 62
2
 10
224.5304
 20
235.6039
 11
224.5304
 21
235.2561
  0
LINE
  8
12_0C
  6
DASHED
 62
2
 10
228.6804
 20
235.2561
 11
228.6804
 21
188.2872
  0
LINE
  8
12_0C
  6
DASHED
 62
2
 10
230.4304
 20
185.2561
 11
227.9304
 21
189.5862
  0
LINE
  8
12_0C
  6
CONTINUOUS
 62
2
 10
224.5304
 20
235.6039
 11
236.3304
 21
235.6039
  0
LINE
  8
0_00
  6
PHANTOM1
 62
2
 10
310.4304
 20
231.7561
 11
310.4304
 21
131.7561
  0
LINE
  8
0_00
  6
PHANTOM1
 62
2
 10
150.4304
 20
231.7561
 11
150.4304
 21
131.7561
  0
LINE
  8
15_0F
  6
CONTINUOUS
 62
6
 10
135.4304
 20
191.7565
 11
85.6805
 21
191.7565
  0
LINE
  8
15_0F
  6
CONTINUOUS
 62
6
 10
135.4304
 20
246.7561
 11
85.6805
 21
246.7561
  0
LINE
  8
15_0F
  6
CONTINUOUS
 62
6
 10
88.6805
 20
246.7561
 11
88.6805
 21
191.7565
  0
LINE
  8
15_0F
  6
CONTINUOUS
 62
6
 10
88.6805
 20
246.7561
 11
87.6410
 21
241.8654
  0
LINE
  8
15_0F
  6
CONTINUOUS
 62
6
 10
88.6805
 20
246.7561
 11
89.7201
 21
241.8654
  0
LINE
  8
15_0F
  6
CONTINUOUS
 62
6
 10
88.6805
 20
191.7565
 11
89.7201
 21
196.6472
  0
LINE
  8
15_0F
  6
CONTINUOUS
 62
6
 10
88.6805
 20
191.7565
 11
87.6410
 21
196.6472
  0
LINE
  8
15_0F
  6
CONTINUOUS
 62
6
 10
135.4304
 20
231.7561
 11
99.6805
 21
231.7561
  0
LINE
  8
15_0F
  6
CONTINUOUS
 62
6
 10
102.6805
 20
246.7561
 11
102.6805
 21
231.7561
  0
LINE
  8
15_0F
  6
CONTINUOUS
 62
6
 10
102.6805
 20
268.3561
 11
102.6805
 21
246.7561
  0
LINE
  8
15_0F
  6
CONTINUOUS
 62
6
 10
102.6805
 20
246.7561
 11
103.7201
 21
251.6468
  0
LINE
  8
15_0F
  6
CONTINUOUS
 62
6
 10
102.6805
 20
246.7561
 11
101.6410
 21
251.6468
  0
LINE
  8
15_0F
  6
CONTINUOUS
 62
6
 10
102.6805
 20
221.7561
 11
102.6805
 21
231.7561
  0
LINE
  8
15_0F
  6
CONTINUOUS
 62
6
 10
102.6805
 20
231.7561
 11
101.6410
 21
226.8654
  0
LINE
  8
15_0F
  6
CONTINUOUS
 62
6
 10
102.6805
 20
231.7561
 11
103.7201
 21
226.8654
  0
LINE
  8
15_0F
  6
CONTINUOUS
 62
6
 10
140.4304
 20
251.7561
 11
140.4304
 21
297.7963
  0
LINE
  8
15_0F
  6
CONTINUOUS
 62
6
 10
140.4304
 20
294.7963
 11
320.4304
 21
294.7963
  0
LINE
  8
15_0F
  6
CONTINUOUS
 62
6
 10
140.4304
 20
294.7963
 11
145.3212
 21
293.7567
  0
LINE
  8
15_0F
  6
CONTINUOUS
 62
6
 10
140.4304
 20
294.7963
 11
145.3212
 21
295.8358
  0
LINE
  8
15_0F
  6
CONTINUOUS
 62
6
 10
320.4304
 20
294.7963
 11
315.5397
 21
295.8358
  0
LINE
  8
15_0F
  6
CONTINUOUS
 62
6
 10
320.4304
 20
294.7963
 11
315.5397
 21
293.7567
  0
LINE
  8
15_0F
  6
CONTINUOUS
 62
6
 10
320.4304
 20
251.7561
 11
320.4304
 21
297.7963
  0
LINE
  8
0_00
  6
CONTINUOUS
 62
4
 10
565.8706
 20
219.7561
 11
679.8706
 21
219.7561
  0
LINE
  8
0_00
  6
CONTINUOUS
 62
4
 10
700.8706
 20
221.7561
 11
700.8706
 21
131.7561
  0
LINE
  8
0_00
  6
CONTINUOUS
 62
4
 10
618.1706
 20
245.1561
 11
541.1736
 21
245.1561
  0
LINE
  8
0_00
  6
CONTINUOUS
 62
4
 10
618.5706
 20
245.1561
 11
695.5676
 21
245.1561
  0
LINE
  8
0_00
  6
CONTINUOUS
 62
4
 10
695.5676
 20
246.7561
 11
541.1736
 21
246.7561
  0
LINE
  8
0_00
  6
CONTINUOUS
 62
4
 10
618.1706
 20
245.1561
 11
618.3706
 21
245.3561
  0
LINE
  8
0_00
  6
CONTINUOUS
 62
4
 10
618.3706
 20
245.3561
 11
618.5706
 21
245.1561
  0
LINE
  8
0_00
  6
CONTINUOUS
 62
4
 10
520.8707
 20
238.5667
 11
521.0895
 21
207.2338
  0
LINE
  8
0_00
  6
CONTINUOUS
 62
4
 10
522.8872
 20
193.2460
 11
522.8172
 21
203.2696
  0
LINE
  8
0_00
  6
CONTINUOUS
 62
4
 10
524.1886
 20
193.0551
 11
524.1135
 21
203.8001
  0
LINE
  8
0_00
  6
CONTINUOUS
 62
4
 10
522.3233
 20
231.0430
 11
522.6254
 21
230.7451
  0
LINE
  8
0_00
  6
CONTINUOUS
 62
4
 10
522.3275
 20
230.4430
 11
522.6254
 21
230.7451
  0
LINE
  8
0_00
  6
CONTINUOUS
 62
4
 10
522.3442
 20
228.0431
 11
522.6464
 21
227.7452
  0
LINE
  8
0_00
  6
CONTINUOUS
 62
4
 10
522.3484
 20
227.4431
 11
522.6464
 21
227.7452
  0
LINE
  8
0_00
  6
CONTINUOUS
 62
4
 10
526.0225
 20
208.2626
 11
526.2294
 21
208.6268
  0
LINE
  8
0_00
  6
CONTINUOUS
 62
4
 10
526.2294
 20
208.6268
 11
524.9252
 21
209.3677
  0
LINE
  8
0_00
  6
CONTINUOUS
 62
4
 10
524.9252
 20
209.3677
 11
524.7183
 21
209.0035
  0
LINE
  8
0_00
  6
CONTINUOUS
 62
4
 10
523.5851
 20
208.6913
 11
523.2209
 21
208.8983
  0
LINE
  8
0_00
  6
CONTINUOUS
 62
4
 10
523.2209
 20
208.8983
 11
522.4800
 21
207.5940
  0
LINE
  8
0_00
  6
CONTINUOUS
 62
4
 10
522.4800
 20
207.5940
 11
522.8442
 21
207.3871
  0
LINE
  8
0_00
  6
CONTINUOUS
 62
4
 10
523.1563
 20
206.2539
 11
522.9494
 21
205.8897
  0
LINE
  8
0_00
  6
CONTINUOUS
 62
4
 10
522.9494
 20
205.8897
 11
524.2537
 21
205.1488
  0
LINE
  8
0_00
  6
CONTINUOUS
 62
4
 10
524.2537
 20
205.1488
 11
524.4606
 21
205.5130
  0
LINE
  8
0_00
  6
CONTINUOUS
 62
4
 10
527.3586
 20
208.0838
 11
527.0060
 21
207.4630
  0
LINE
  8
0_00
  6
CONTINUOUS
 62
4
 10
525.2982
 20
204.4569
 11
525.6509
 21
205.0777
  0
LINE
  8
0_00
  6
CONTINUOUS
 62
4
 10
525.9583
 20
244.5388
 11
539.5770
 21
246.6340
  0
LINE
  8
0_00
  6
CONTINUOUS
 62
4
 10
522.2709
 20
238.5471
 11
522.3024
 21
234.0429
  0
LINE
  8
0_00
  6
CONTINUOUS
 62
4
 10
522.3066
 20
233.4429
 11
522.3233
 21
231.0430
  0
LINE
  8
0_00
  6
CONTINUOUS
 62
4
 10
522.3275
 20
230.4430
 11
522.3442
 21
228.0431
  0
LINE
  8
0_00
  6
CONTINUOUS
 62
4
 10
522.3484
 20
227.4431
 11
522.4022
 21
219.7433
  0
LINE
  8
0_00
  6
CONTINUOUS
 62
4
 10
522.4260
 20
216.3434
 11
522.4590
 21
211.6070
  0
LINE
  8
0_00
  6
CONTINUOUS
 62
4
 10
710.7830
 20
244.5388
 11
697.1642
 21
246.6340
  0
LINE
  8
0_00
  6
CONTINUOUS
 62
4
 10
524.3976
 20
191.7565
 11
525.3298
 21
191.7630
  0
LINE
  8
0_00
  6
CONTINUOUS
 62
4
 10
524.1886
 20
193.0551
 11
525.3208
 21
193.0630
  0
LINE
  8
0_00
  6
CONTINUOUS
 62
4
 10
715.8705
 20
238.5667
 11
715.6517
 21
207.2338
  0
LINE
  8
0_00
  6
CONTINUOUS
 62
4
 10
713.8540
 20
193.2460
 11
713.9240
 21
203.2696
  0
LINE
  8
0_00
  6
CONTINUOUS
 62
4
 10
712.5526
 20
193.0551
 11
712.6277
 21
203.8001
  0
LINE
  8
0_00
  6
CONTINUOUS
 62
4
 10
714.4703
 20
238.5471
 11
714.4388
 21
234.0429
  0
LINE
  8
0_00
  6
CONTINUOUS
 62
4
 10
712.3436
 20
191.7565
 11
711.4114
 21
191.7630
  0
LINE
  8
0_00
  6
CONTINUOUS
 62
4
 10
712.5526
 20
193.0551
 11
711.4204
 21
193.0630
  0
LINE
  8
0_00
  6
CONTINUOUS
 62
4
 10
526.0018
 20
242.9267
 11
539.8203
 21
245.0526
  0
LINE
  8
0_00
  6
CONTINUOUS
 62
4
 10
696.9210
 20
245.0526
 11
710.7394
 21
242.9267
  0
LINE
  8
0_00
  6
CONTINUOUS
 62
4
 10
522.3024
 20
234.0429
 11
522.6045
 21
233.7450
  0
LINE
  8
0_00
  6
CONTINUOUS
 62
4
 10
522.3066
 20
233.4429
 11
522.6045
 21
233.7450
  0
LINE
  8
5_05
  6
CONTINUOUS
 62
2
 10
670.1706
 20
245.1561
 11
670.1706
 21
242.8561
  0
LINE
  8
5_05
  6
CONTINUOUS
 62
2
 10
680.1707
 20
245.1561
 11
680.1707
 21
242.8561
  0
LINE
  8
5_05
  6
CONTINUOUS
 62
2
 10
556.5706
 20
245.1561
 11
556.5706
 21
242.8561
  0
LINE
  8
5_05
  6
CONTINUOUS
 62
2
 10
566.5706
 20
245.1561
 11
566.5706
 21
242.8561
  0
LINE
  8
0_00
  6
CONTINUOUS
 62
4
 10
523.4092
 20
218.7503
 11
524.7091
 21
218.7593
  0
LINE
  8
0_00
  6
CONTINUOUS
 62
4
 10
523.4189
 20
217.3503
 11
524.7189
 21
217.3594
  0
LINE
  8
0_00
  6
CONTINUOUS
 62
4
 10
714.4179
 20
231.0430
 11
714.1158
 21
230.7451
  0
LINE
  8
0_00
  6
CONTINUOUS
 62
4
 10
714.4137
 20
230.4430
 11
714.1158
 21
230.7451
  0
LINE
  8
0_00
  6
CONTINUOUS
 62
4
 10
714.3970
 20
228.0431
 11
714.0948
 21
227.7452
  0
LINE
  8
0_00
  6
CONTINUOUS
 62
4
 10
714.3928
 20
227.4431
 11
714.0948
 21
227.7452
  0
LINE
  8
0_00
  6
CONTINUOUS
 62
4
 10
710.7187
 20
208.2626
 11
710.5118
 21
208.6268
  0
LINE
  8
0_00
  6
CONTINUOUS
 62
4
 10
710.5118
 20
208.6268
 11
711.8160
 21
209.3677
  0
LINE
  8
0_00
  6
CONTINUOUS
 62
4
 10
711.8160
 20
209.3677
 11
712.0229
 21
209.0035
  0
LINE
  8
0_00
  6
CONTINUOUS
 62
4
 10
713.1561
 20
208.6913
 11
713.5203
 21
208.8983
  0
LINE
  8
0_00
  6
CONTINUOUS
 62
4
 10
713.5203
 20
208.8983
 11
714.2612
 21
207.5940
  0
LINE
  8
0_00
  6
CONTINUOUS
 62
4
 10
714.2612
 20
207.5940
 11
713.8971
 21
207.3871
  0
LINE
  8
0_00
  6
CONTINUOUS
 62
4
 10
713.5849
 20
206.2539
 11
713.7918
 21
205.8897
  0
LINE
  8
0_00
  6
CONTINUOUS
 62
4
 10
713.7918
 20
205.8897
 11
712.4875
 21
205.1488
  0
LINE
  8
0_00
  6
CONTINUOUS
 62
4
 10
712.4875
 20
205.1488
 11
712.2806
 21
205.5130
  0
LINE
  8
0_00
  6
CONTINUOUS
 62
4
 10
709.3826
 20
208.0838
 11
709.7352
 21
207.4630
  0
LINE
  8
0_00
  6
CONTINUOUS
 62
4
 10
711.4430
 20
204.4569
 11
711.0903
 21
205.0777
  0
LINE
  8
0_00
  6
CONTINUOUS
 62
4
 10
714.4347
 20
233.4429
 11
714.4179
 21
231.0430
  0
LINE
  8
0_00
  6
CONTINUOUS
 62
4
 10
714.4137
 20
230.4430
 11
714.3970
 21
228.0431
  0
LINE
  8
0_00
  6
CONTINUOUS
 62
4
 10
714.3928
 20
227.4431
 11
714.3390
 21
219.7433
  0
LINE
  8
0_00
  6
CONTINUOUS
 62
4
 10
714.3153
 20
216.3434
 11
714.2822
 21
211.6070
  0
LINE
  8
0_00
  6
CONTINUOUS
 62
4
 10
714.4388
 20
234.0429
 11
714.1367
 21
233.7450
  0
LINE
  8
0_00
  6
CONTINUOUS
 62
4
 10
714.4347
 20
233.4429
 11
714.1367
 21
233.7450
  0
LINE
  8
0_00
  6
CONTINUOUS
 62
4
 10
713.3320
 20
218.7503
 11
712.0321
 21
218.7593
  0
LINE
  8
0_00
  6
CONTINUOUS
 62
4
 10
713.3223
 20
217.3503
 11
712.0223
 21
217.3594
  0
LINE
  8
0_00
  6
CONTINUOUS
 62
4
 10
565.8706
 20
219.7561
 11
565.8706
 21
131.7561
  0
LINE
  8
0_00
  6
CONTINUOUS
 62
4
 10
577.8706
 20
219.7561
 11
577.8706
 21
131.7561
  0
LINE
  8
0_00
  6
CONTINUOUS
 62
4
 10
667.8706
 20
219.7561
 11
667.8706
 21
131.7561
  0
LINE
  8
0_00
  6
CONTINUOUS
 62
4
 10
679.8706
 20
219.7561
 11
679.8706
 21
131.7561
  0
LINE
  8
0_00
  6
CONTINUOUS
 62
4
 10
550.8706
 20
226.7561
 11
535.8706
 21
226.7561
  0
LINE
  8
0_00
  6
CONTINUOUS
 62
4
 10
550.8706
 20
166.7561
 11
535.8706
 21
166.7561
  0
LINE
  8
0_00
  6
CONTINUOUS
 62
4
 10
550.8706
 20
151.7561
 11
535.8706
 21
151.7561
  0
LINE
  8
0_00
  6
CONTINUOUS
 62
4
 10
550.8706
 20
151.7561
 11
550.8706
 21
131.7561
  0
LINE
  8
0_00
  6
CONTINUOUS
 62
4
 10
550.8706
 20
226.7561
 11
550.8706
 21
166.7561
  0
LINE
  8
0_00
  6
CONTINUOUS
 62
4
 10
535.8706
 20
226.7561
 11
535.8706
 21
166.7561
  0
LINE
  8
0_00
  6
CONTINUOUS
 62
4
 10
535.8706
 20
151.7561
 11
535.8706
 21
131.7561
  0
LINE
  8
5_05
  6
CONTINUOUS
 62
2
 10
677.8706
 20
242.8561
 11
680.1707
 21
245.1561
  0
LINE
  8
5_05
  6
CONTINUOUS
 62
2
 10
676.4564
 20
242.8561
 11
678.7564
 21
245.1561
  0
LINE
  8
5_05
  6
CONTINUOUS
 62
2
 10
675.0422
 20
242.8561
 11
677.3422
 21
245.1561
  0
LINE
  8
5_05
  6
CONTINUOUS
 62
2
 10
673.6280
 20
242.8561
 11
675.9280
 21
245.1561
  0
LINE
  8
5_05
  6
CONTINUOUS
 62
2
 10
672.2137
 20
242.8561
 11
674.5138
 21
245.1561
  0
LINE
  8
5_05
  6
CONTINUOUS
 62
2
 10
670.7996
 20
242.8561
 11
673.0995
 21
245.1561
  0
LINE
  8
5_05
  6
CONTINUOUS
 62
2
 10
670.1706
 20
243.6414
 11
671.6853
 21
245.1561
  0
LINE
  8
5_05
  6
CONTINUOUS
 62
2
 10
670.1706
 20
245.0556
 11
670.2711
 21
245.1561
  0
LINE
  8
5_05
  6
CONTINUOUS
 62
2
 10
679.2849
 20
242.8561
 11
680.1707
 21
243.7419
  0
LINE
  8
5_05
  6
CONTINUOUS
 62
2
 10
678.1116
 20
245.1561
 11
680.1707
 21
243.0971
  0
LINE
  8
5_05
  6
CONTINUOUS
 62
2
 10
676.6974
 20
245.1561
 11
678.9973
 21
242.8561
  0
LINE
  8
5_05
  6
CONTINUOUS
 62
2
 10
675.2831
 20
245.1561
 11
677.5831
 21
242.8561
  0
LINE
  8
5_05
  6
CONTINUOUS
 62
2
 10
673.8689
 20
245.1561
 11
676.1689
 21
242.8561
  0
LINE
  8
5_05
  6
CONTINUOUS
 62
2
 10
672.4547
 20
245.1561
 11
674.7547
 21
242.8561
  0
LINE
  8
5_05
  6
CONTINUOUS
 62
2
 10
671.0405
 20
245.1561
 11
673.3405
 21
242.8561
  0
LINE
  8
5_05
  6
CONTINUOUS
 62
2
 10
670.1706
 20
244.6118
 11
671.9263
 21
242.8561
  0
LINE
  8
5_05
  6
CONTINUOUS
 62
2
 10
670.1706
 20
243.1976
 11
670.5121
 21
242.8561
  0
LINE
  8
5_05
  6
CONTINUOUS
 62
2
 10
679.5258
 20
245.1561
 11
680.1707
 21
244.5113
  0
LINE
  8
5_05
  6
CONTINUOUS
 62
2
 10
564.2706
 20
242.8561
 11
566.5706
 21
245.1561
  0
LINE
  8
5_05
  6
CONTINUOUS
 62
2
 10
562.8564
 20
242.8561
 11
565.1564
 21
245.1561
  0
LINE
  8
5_05
  6
CONTINUOUS
 62
2
 10
561.4422
 20
242.8561
 11
563.7422
 21
245.1561
  0
LINE
  8
5_05
  6
CONTINUOUS
 62
2
 10
560.0280
 20
242.8561
 11
562.3280
 21
245.1561
  0
LINE
  8
5_05
  6
CONTINUOUS
 62
2
 10
558.6138
 20
242.8561
 11
560.9138
 21
245.1561
  0
LINE
  8
5_05
  6
CONTINUOUS
 62
2
 10
557.1996
 20
242.8561
 11
559.4995
 21
245.1561
  0
LINE
  8
5_05
  6
CONTINUOUS
 62
2
 10
556.5706
 20
243.6414
 11
558.0853
 21
245.1561
  0
LINE
  8
5_05
  6
CONTINUOUS
 62
2
 10
556.5706
 20
245.0556
 11
556.6711
 21
245.1561
  0
LINE
  8
5_05
  6
CONTINUOUS
 62
2
 10
565.6848
 20
242.8561
 11
566.5706
 21
243.7419
  0
LINE
  8
5_05
  6
CONTINUOUS
 62
2
 10
564.5116
 20
245.1561
 11
566.5706
 21
243.0971
  0
LINE
  8
5_05
  6
CONTINUOUS
 62
2
 10
563.0974
 20
245.1561
 11
565.3973
 21
242.8561
  0
LINE
  8
5_05
  6
CONTINUOUS
 62
2
 10
561.6831
 20
245.1561
 11
563.9831
 21
242.8561
  0
LINE
  8
5_05
  6
CONTINUOUS
 62
2
 10
560.2689
 20
245.1561
 11
562.5689
 21
242.8561
  0
LINE
  8
5_05
  6
CONTINUOUS
 62
2
 10
558.8547
 20
245.1561
 11
561.1547
 21
242.8561
  0
LINE
  8
5_05
  6
CONTINUOUS
 62
2
 10
557.4405
 20
245.1561
 11
559.7405
 21
242.8561
  0
LINE
  8
5_05
  6
CONTINUOUS
 62
2
 10
556.5706
 20
244.6118
 11
558.3263
 21
242.8561
  0
LINE
  8
5_05
  6
CONTINUOUS
 62
2
 10
556.5706
 20
243.1976
 11
556.9120
 21
242.8561
  0
LINE
  8
5_05
  6
CONTINUOUS
 62
2
 10
565.9258
 20
245.1561
 11
566.5706
 21
244.5113
  0
LINE
  8
0_00
  6
CONTINUOUS
 62
4
 10
662.1706
 20
235.2561
 11
618.6706
 21
235.2561
  0
LINE
  8
0_00
  6
CONTINUOUS
 62
4
 10
618.0706
 20
235.2561
 11
574.5706
 21
235.2561
  0
LINE
  8
0_00
  6
CONTINUOUS
 62
4
 10
618.3706
 20
234.9561
 11
618.0706
 21
235.2561
  0
LINE
  8
0_00
  6
CONTINUOUS
 62
4
 10
618.3706
 20
234.9561
 11
618.6706
 21
235.2561
  0
LINE
  8
0_00
  6
CONTINUOUS
 62
4
 10
556.5706
 20
242.8561
 11
572.5706
 21
242.8561
  0
LINE
  8
0_00
  6
CONTINUOUS
 62
4
 10
574.0706
 20
242.5562
 11
574.0706
 21
241.5561
  0
LINE
  8
0_00
  6
CONTINUOUS
 62
4
 10
574.5706
 20
239.0561
 11
574.5706
 21
235.2561
  0
LINE
  8
0_00
  6
CONTINUOUS
 62
4
 10
572.5706
 20
243.0562
 11
573.5706
 21
243.0562
  0
LINE
  8
0_00
  6
CONTINUOUS
 62
4
 10
572.5706
 20
243.0562
 11
572.5706
 21
242.8561
  0
LINE
  8
0_00
  6
CONTINUOUS
 62
4
 10
571.0706
 20
238.8561
 11
571.0706
 21
233.7561
  0
LINE
  8
0_00
  6
CONTINUOUS
 62
4
 10
559.0706
 20
239.8561
 11
570.0706
 21
239.8561
  0
LINE
  8
0_00
  6
CONTINUOUS
 62
4
 10
574.0706
 20
241.5561
 11
577.0706
 21
241.5561
  0
LINE
  8
0_00
  6
CONTINUOUS
 62
4
 10
577.3706
 20
241.2561
 11
577.3706
 21
239.3561
  0
LINE
  8
0_00
  6
CONTINUOUS
 62
4
 10
577.0706
 20
239.0561
 11
574.5706
 21
239.0561
  0
LINE
  8
0_00
  6
CONTINUOUS
 62
4
 10
680.1707
 20
242.8561
 11
664.1706
 21
242.8561
  0
LINE
  8
0_00
  6
CONTINUOUS
 62
4
 10
662.6706
 20
242.5562
 11
662.6706
 21
241.5561
  0
LINE
  8
0_00
  6
CONTINUOUS
 62
4
 10
662.1706
 20
239.0561
 11
662.1706
 21
235.2561
  0
LINE
  8
0_00
  6
CONTINUOUS
 62
4
 10
664.1706
 20
243.0562
 11
663.1706
 21
243.0562
  0
LINE
  8
0_00
  6
CONTINUOUS
 62
4
 10
664.1706
 20
243.0562
 11
664.1706
 21
242.8561
  0
LINE
  8
0_00
  6
CONTINUOUS
 62
4
 10
680.1707
 20
243.0562
 11
680.1707
 21
242.8561
  0
LINE
  8
0_00
  6
CONTINUOUS
 62
4
 10
681.6707
 20
242.5562
 11
681.6707
 21
240.6561
  0
LINE
  8
0_00
  6
CONTINUOUS
 62
4
 10
681.1707
 20
243.0562
 11
680.1707
 21
243.0562
  0
LINE
  8
0_00
  6
CONTINUOUS
 62
4
 10
665.6706
 20
238.8561
 11
665.6706
 21
233.7561
  0
LINE
  8
0_00
  6
CONTINUOUS
 62
4
 10
677.6707
 20
239.8561
 11
666.6706
 21
239.8561
  0
LINE
  8
0_00
  6
CONTINUOUS
 62
4
 10
678.6707
 20
238.8561
 11
678.6707
 21
238.1561
  0
LINE
  8
0_00
  6
CONTINUOUS
 62
4
 10
706.1386
 20
240.6561
 11
681.6707
 21
240.6561
  0
LINE
  8
0_00
  6
CONTINUOUS
 62
4
 10
705.8343
 20
237.6561
 11
679.1707
 21
237.6561
  0
LINE
  8
0_00
  6
CONTINUOUS
 62
4
 10
662.6706
 20
241.5561
 11
659.6706
 21
241.5561
  0
LINE
  8
0_00
  6
CONTINUOUS
 62
4
 10
659.3706
 20
241.2561
 11
659.3706
 21
239.3561
  0
LINE
  8
0_00
  6
CONTINUOUS
 62
4
 10
659.6706
 20
239.0561
 11
662.1706
 21
239.0561
  0
LINE
  8
0_00
  6
CONTINUOUS
 62
4
 10
713.1707
 20
218.8561
 11
712.5706
 21
218.8561
  0
LINE
  8
0_00
  6
CONTINUOUS
 62
4
 10
706.7892
 20
236.9530
 11
709.1318
 21
229.6202
  0
LINE
  8
0_00
  6
CONTINUOUS
 62
4
 10
709.3145
 20
229.0486
 11
710.0448
 21
226.7625
  0
LINE
  8
0_00
  6
CONTINUOUS
 62
4
 10
711.1403
 20
223.3332
 11
712.5706
 21
218.8561
  0
LINE
  8
0_00
  6
CONTINUOUS
 62
4
 10
709.5339
 20
238.0059
 11
714.1407
 21
220.0989
  0
LINE
  8
0_00
  6
CONTINUOUS
 62
4
 10
556.5706
 20
243.0562
 11
556.5706
 21
242.8561
  0
LINE
  8
0_00
  6
CONTINUOUS
 62
4
 10
555.0706
 20
242.5562
 11
555.0706
 21
240.6561
  0
LINE
  8
0_00
  6
CONTINUOUS
 62
4
 10
555.5706
 20
243.0562
 11
556.5706
 21
243.0562
  0
LINE
  8
0_00
  6
CONTINUOUS
 62
4
 10
558.0706
 20
238.8561
 11
558.0706
 21
238.1561
  0
LINE
  8
0_00
  6
CONTINUOUS
 62
4
 10
530.6026
 20
240.6561
 11
555.0706
 21
240.6561
  0
LINE
  8
0_00
  6
CONTINUOUS
 62
4
 10
530.9069
 20
237.6561
 11
557.5706
 21
237.6561
  0
LINE
  8
0_00
  6
CONTINUOUS
 62
4
 10
523.5706
 20
218.8561
 11
524.1706
 21
218.8561
  0
LINE
  8
0_00
  6
CONTINUOUS
 62
4
 10
529.9520
 20
236.9530
 11
524.1706
 21
218.8561
  0
LINE
  8
0_00
  6
CONTINUOUS
 62
4
 10
527.2073
 20
238.0059
 11
522.6005
 21
220.0989
  0
LINE
  8
0_00
  6
CONTINUOUS
 62
4
 10
710.2274
 20
226.1909
 11
710.9578
 21
223.9047
  0
LINE
  8
0_00
  6
CONTINUOUS
 62
4
 10
710.7632
 20
223.5277
 11
710.9578
 21
223.9047
  0
LINE
  8
0_00
  6
CONTINUOUS
 62
4
 10
710.7632
 20
223.5277
 11
711.1403
 21
223.3332
  0
LINE
  8
0_00
  6
CONTINUOUS
 62
4
 10
709.8503
 20
226.3854
 11
710.0448
 21
226.7625
  0
LINE
  8
0_00
  6
CONTINUOUS
 62
4
 10
709.8503
 20
226.3854
 11
710.2274
 21
226.1909
  0
LINE
  8
0_00
  6
CONTINUOUS
 62
4
 10
708.9374
 20
229.2431
 11
709.1318
 21
229.6202
  0
LINE
  8
0_00
  6
CONTINUOUS
 62
4
 10
708.9374
 20
229.2431
 11
709.3145
 21
229.0486
  0
LINE
  8
0_00
  6
CONTINUOUS
 62
4
 10
544.8706
 20
231.7561
 11
690.8706
 21
231.7561
  0
LINE
  8
0_00
  6
CONTINUOUS
 62
4
 10
700.8706
 20
221.7561
 11
690.8706
 21
231.7561
  0
LINE
  8
0_00
  6
CONTINUOUS
 62
4
 10
667.8706
 20
219.7561
 11
579.8706
 21
131.7561
  0
LINE
  8
0_00
  6
CONTINUOUS
 62
4
 10
577.8706
 20
219.7561
 11
665.8706
 21
131.7561
  0
LINE
  8
0_00
  6
CONTINUOUS
 62
4
 10
544.8706
 20
231.7561
 11
544.8706
 21
226.7561
  0
LINE
  8
0_00
  6
CONTINUOUS
 62
4
 10
544.8706
 20
166.7561
 11
544.8706
 21
151.7561
  0
LINE
  8
0_00
  6
CONTINUOUS
 62
2
 10
676.8706
 20
219.7561
 11
676.8706
 21
131.7561
  0
LINE
  8
0_00
  6
CONTINUOUS
 62
2
 10
673.8706
 20
219.7561
 11
673.8706
 21
131.7561
  0
LINE
  8
0_00
  6
CONTINUOUS
 62
2
 10
670.8706
 20
219.7561
 11
670.8706
 21
131.7561
  0
LINE
  8
0_00
  6
CONTINUOUS
 62
2
 10
568.8706
 20
219.7561
 11
568.8706
 21
131.7561
  0
LINE
  8
0_00
  6
CONTINUOUS
 62
2
 10
571.8706
 20
219.7561
 11
571.8706
 21
131.7561
  0
LINE
  8
0_00
  6
CONTINUOUS
 62
2
 10
574.8706
 20
219.7561
 11
574.8706
 21
131.7561
  0
LINE
  8
15_0F
  6
CONTINUOUS
 62
6
 10
530.8706
 20
117.2522
 11
530.8706
 21
95.7963
  0
LINE
  8
15_0F
  6
CONTINUOUS
 62
6
 10
520.8706
 20
98.7963
 11
530.8706
 21
98.7963
  0
LINE
  8
15_0F
  6
CONTINUOUS
 62
6
 10
499.2706
 20
98.7963
 11
520.8706
 21
98.7963
  0
LINE
  8
15_0F
  6
CONTINUOUS
 62
6
 10
520.8706
 20
98.7963
 11
515.9799
 21
99.8358
  0
LINE
  8
15_0F
  6
CONTINUOUS
 62
6
 10
520.8706
 20
98.7963
 11
515.9799
 21
97.7567
  0
LINE
  8
15_0F
  6
CONTINUOUS
 62
6
 10
535.8706
 20
117.2522
 11
535.8706
 21
95.7963
  0
LINE
  8
15_0F
  6
CONTINUOUS
 62
6
 10
530.8706
 20
98.7963
 11
535.8706
 21
98.7963
  0
LINE
  8
15_0F
  6
CONTINUOUS
 62
6
 10
700.8706
 20
126.7561
 11
700.8706
 21
95.7963
  0
LINE
  8
15_0F
  6
CONTINUOUS
 62
6
 10
535.8706
 20
98.7963
 11
700.8706
 21
98.7963
  0
LINE
  8
15_0F
  6
CONTINUOUS
 62
6
 10
535.8706
 20
98.7963
 11
540.7614
 21
97.7567
  0
LINE
  8
15_0F
  6
CONTINUOUS
 62
6
 10
535.8706
 20
98.7963
 11
540.7614
 21
99.8358
  0
LINE
  8
15_0F
  6
CONTINUOUS
 62
6
 10
700.8706
 20
98.7963
 11
695.9799
 21
99.8358
  0
LINE
  8
15_0F
  6
CONTINUOUS
 62
6
 10
700.8706
 20
98.7963
 11
695.9799
 21
97.7567
  0
LINE
  8
15_0F
  6
CONTINUOUS
 62
6
 10
705.8706
 20
126.7561
 11
705.8706
 21
95.7963
  0
LINE
  8
15_0F
  6
CONTINUOUS
 62
6
 10
700.8706
 20
98.7963
 11
705.8706
 21
98.7963
  0
LINE
  8
15_0F
  6
CONTINUOUS
 62
6
 10
705.8706
 20
98.7963
 11
715.8706
 21
98.7963
  0
LINE
  8
15_0F
  6
CONTINUOUS
 62
6
 10
737.4706
 20
98.7963
 11
715.8706
 21
98.7963
  0
LINE
  8
15_0F
  6
CONTINUOUS
 62
6
 10
715.8706
 20
98.7963
 11
720.7614
 21
97.7567
  0
LINE
  8
15_0F
  6
CONTINUOUS
 62
6
 10
715.8706
 20
98.7963
 11
720.7614
 21
99.8358
  0
LINE
  8
0_00
  6
CONTINUOUS
 62
6
 10
709.7296
 20
234.6439
 11
731.2143
 21
256.1286
  0
LINE
  8
0_00
  6
CONTINUOUS
 62
6
 10
709.7296
 20
234.6439
 11
713.9230
 21
237.3671
  0
LINE
  8
0_00
  6
CONTINUOUS
 62
6
 10
709.7296
 20
234.6439
 11
712.4528
 21
238.8372
  0
LINE
  8
0_00
  6
CONTINUOUS
 62
6
 10
731.2143
 20
256.1286
 11
775.6143
 21
256.1286
  0
LINE
  8
0_00
  6
CONTINUOUS
 62
6
 10
645.8027
 20
247.1209
 11
665.4301
 21
266.7484
  0
LINE
  8
0_00
  6
CONTINUOUS
 62
6
 10
645.8027
 20
247.1209
 11
649.9960
 21
249.8441
  0
LINE
  8
0_00
  6
CONTINUOUS
 62
6
 10
645.8027
 20
247.1209
 11
648.5259
 21
251.3143
  0
LINE
  8
0_00
  6
CONTINUOUS
 62
6
 10
665.4301
 20
266.7484
 11
695.4301
 21
266.7484
  0
LINE
  8
15_0F
  6
CONTINUOUS
 62
6
 10
715.8706
 20
184.0061
 11
715.8706
 21
95.7963
  0
LINE
  8
15_0F
  6
CONTINUOUS
 62
6
 10
515.8706
 20
191.7565
 11
462.6805
 21
191.7565
  0
LINE
  8
15_0F
  6
CONTINUOUS
 62
6
 10
515.8706
 20
246.7561
 11
462.6805
 21
246.7561
  0
LINE
  8
15_0F
  6
CONTINUOUS
 62
6
 10
465.6805
 20
246.7561
 11
465.6805
 21
191.7565
  0
LINE
  8
15_0F
  6
CONTINUOUS
 62
6
 10
465.6805
 20
246.7561
 11
464.6410
 21
241.8654
  0
LINE
  8
15_0F
  6
CONTINUOUS
 62
6
 10
465.6805
 20
246.7561
 11
466.7201
 21
241.8654
  0
LINE
  8
15_0F
  6
CONTINUOUS
 62
6
 10
465.6805
 20
191.7565
 11
466.7201
 21
196.6472
  0
LINE
  8
15_0F
  6
CONTINUOUS
 62
6
 10
465.6805
 20
191.7565
 11
464.6410
 21
196.6472
  0
LINE
  8
15_0F
  6
CONTINUOUS
 62
6
 10
515.8706
 20
231.7561
 11
476.6805
 21
231.7561
  0
LINE
  8
15_0F
  6
CONTINUOUS
 62
6
 10
479.6805
 20
246.7561
 11
479.6805
 21
231.7561
  0
LINE
  8
15_0F
  6
CONTINUOUS
 62
6
 10
479.6805
 20
268.3561
 11
479.6805
 21
246.7561
  0
LINE
  8
15_0F
  6
CONTINUOUS
 62
6
 10
479.6805
 20
246.7561
 11
480.7201
 21
251.6468
  0
LINE
  8
15_0F
  6
CONTINUOUS
 62
6
 10
479.6805
 20
246.7561
 11
478.6410
 21
251.6468
  0
LINE
  8
15_0F
  6
CONTINUOUS
 62
6
 10
479.6805
 20
221.7561
 11
479.6805
 21
231.7561
  0
LINE
  8
15_0F
  6
CONTINUOUS
 62
6
 10
479.6805
 20
231.7561
 11
478.6410
 21
226.8654
  0
LINE
  8
15_0F
  6
CONTINUOUS
 62
6
 10
479.6805
 20
231.7561
 11
480.7201
 21
226.8654
  0
LINE
  8
15_0F
  6
CONTINUOUS
 62
6
 10
520.8706
 20
251.7561
 11
520.8706
 21
297.7963
  0
LINE
  8
15_0F
  6
CONTINUOUS
 62
6
 10
520.8706
 20
294.7963
 11
715.8706
 21
294.7963
  0
LINE
  8
15_0F
  6
CONTINUOUS
 62
6
 10
520.8706
 20
294.7963
 11
525.7614
 21
293.7567
  0
LINE
  8
15_0F
  6
CONTINUOUS
 62
6
 10
520.8706
 20
294.7963
 11
525.7614
 21
295.8358
  0
LINE
  8
15_0F
  6
CONTINUOUS
 62
6
 10
715.8706
 20
294.7963
 11
710.9799
 21
295.8358
  0
LINE
  8
15_0F
  6
CONTINUOUS
 62
6
 10
715.8706
 20
294.7963
 11
710.9799
 21
293.7567
  0
LINE
  8
15_0F
  6
CONTINUOUS
 62
6
 10
715.8706
 20
251.7561
 11
715.8706
 21
297.7963
  0
LINE
  8
0_00
  6
CONTINUOUS
 62
2
 10
539.3364
 20
226.7561
 11
535.8706
 21
223.2903
  0
LINE
  8
0_00
  6
CONTINUOUS
 62
2
 10
544.9933
 20
226.7561
 11
535.8706
 21
217.6334
  0
LINE
  8
0_00
  6
CONTINUOUS
 62
2
 10
550.6501
 20
226.7561
 11
535.8706
 21
211.9766
  0
LINE
  8
0_00
  6
CONTINUOUS
 62
2
 10
550.8706
 20
221.3197
 11
535.8706
 21
206.3197
  0
LINE
  8
0_00
  6
CONTINUOUS
 62
2
 10
550.8706
 20
215.6629
 11
535.8706
 21
200.6629
  0
LINE
  8
0_00
  6
CONTINUOUS
 62
2
 10
550.8706
 20
210.0060
 11
535.8706
 21
195.0060
  0
LINE
  8
0_00
  6
CONTINUOUS
 62
2
 10
550.8706
 20
204.3492
 11
535.8706
 21
189.3492
  0
LINE
  8
0_00
  6
CONTINUOUS
 62
2
 10
550.8706
 20
198.6923
 11
535.8706
 21
183.6923
  0
LINE
  8
0_00
  6
CONTINUOUS
 62
2
 10
550.8706
 20
193.0354
 11
535.8706
 21
178.0354
  0
LINE
  8
0_00
  6
CONTINUOUS
 62
2
 10
550.8706
 20
187.3786
 11
535.8706
 21
172.3786
  0
LINE
  8
0_00
  6
CONTINUOUS
 62
2
 10
550.8706
 20
181.7217
 11
535.9050
 21
166.7561
  0
LINE
  8
0_00
  6
CONTINUOUS
 62
2
 10
550.8706
 20
176.0649
 11
541.5618
 21
166.7561
  0
LINE
  8
0_00
  6
CONTINUOUS
 62
2
 10
550.8706
 20
170.4080
 11
547.2187
 21
166.7561
  0
LINE
  8
0_00
  6
CONTINUOUS
 62
2
 10
539.3364
 20
151.7561
 11
535.8706
 21
148.2903
  0
LINE
  8
0_00
  6
CONTINUOUS
 62
2
 10
544.9933
 20
151.7561
 11
535.8706
 21
142.6334
  0
LINE
  8
0_00
  6
CONTINUOUS
 62
2
 10
550.6501
 20
151.7561
 11
535.8706
 21
136.9766
  0
LINE
  8
0_00
  6
CONTINUOUS
 62
2
 10
550.8706
 20
146.3197
 11
536.3070
 21
131.7561
  0
LINE
  8
0_00
  6
CONTINUOUS
 62
2
 10
550.8706
 20
140.6629
 11
541.9639
 21
131.7561
  0
LINE
  8
0_00
  6
CONTINUOUS
 62
2
 10
550.8706
 20
135.0060
 11
547.6207
 21
131.7561
  0
LINE
  8
15_0F
  6
CONTINUOUS
 62
6
 10
140.4304
 20
184.0061
 11
140.4304
 21
156.6854
  0
LINE
  8
15_0F
  6
CONTINUOUS
 62
6
 10
140.4304
 20
117.2522
 11
140.4304
 21
95.7963
  0
LINE
  8
12_0C
  6
CONTINUOUS
 62
2
 10
612.4706
 20
235.2561
 11
624.2706
 21
235.2561
  0
LINE
  8
12_0C
  6
CONTINUOUS
 62
2
 10
624.2706
 20
235.6039
 11
624.2706
 21
235.2561
  0
LINE
  8
12_0C
  6
CONTINUOUS
 62
2
 10
612.4706
 20
235.6039
 11
612.4706
 21
235.2561
  0
LINE
  8
12_0C
  6
CONTINUOUS
 62
2
 10
612.4706
 20
235.6039
 11
624.2706
 21
235.6039
  0
LINE
  8
12_0C
  6
DASHED
 62
2
 10
620.8706
 20
235.2561
 11
620.8706
 21
189.5862
  0
LINE
  8
12_0C
  6
DASHED
 62
2
 10
620.1206
 20
235.2561
 11
620.1206
 21
188.2872
  0
LINE
  8
12_0C
  6
DASHED
 62
2
 10
618.3706
 20
185.2561
 11
620.8706
 21
189.5862
  0
LINE
  8
12_0C
  6
DASHED
 62
2
 10
615.8706
 20
235.2561
 11
615.8706
 21
189.5862
  0
LINE
  8
12_0C
  6
DASHED
 62
2
 10
616.6206
 20
235.2561
 11
616.6206
 21
188.2872
  0
LINE
  8
12_0C
  6
DASHED
 62
2
 10
618.3706
 20
185.2561
 11
615.8706
 21
189.5862
  0
LINE
  8
0_00
  6
PHANTOM1
 62
2
 10
705.8706
 20
231.7561
 11
705.8706
 21
131.7561
  0
LINE
  8
0_00
  6
PHANTOM1
 62
2
 10
530.8706
 20
231.7561
 11
530.8706
 21
131.7561
  0
LINE
  8
15_0F
  6
CONTINUOUS
 62
6
 10
520.8706
 20
184.0061
 11
520.8706
 21
156.6854
  0
LINE
  8
15_0F
  6
CONTINUOUS
 62
6
 10
520.8706
 20
117.2522
 11
520.8706
 21
95.7963
  0
LINE
  8
0_00
  6
CONTINUOUS
 62
6
 10
187.3033
 20
146.9100
 11
97.3033
 21
146.9100
  0
LINE
  8
0_00
  6
CONTINUOUS
 62
6
 10
168.4248
 20
128.0316
 11
97.3033
 21
128.0316
  0
LINE
  8
0_00
  6
CONTINUOUS
 62
6
 10
228.6804
 20
188.2872
 11
168.4248
 21
128.0316
  0
LINE
  8
0_00
  6
CONTINUOUS
 62
6
 10
228.6804
 20
188.2872
 11
224.4871
 21
185.5640
  0
LINE
  8
0_00
  6
CONTINUOUS
 62
6
 10
228.6804
 20
188.2872
 11
225.9572
 21
184.0939
  0
LINE
  8
0_00
  6
CONTINUOUS
 62
6
 10
575.3231
 20
145.6889
 11
477.3232
 21
145.6889
  0
LINE
  8
0_00
  6
CONTINUOUS
 62
6
 10
556.4446
 20
126.8104
 11
477.3232
 21
126.8104
  0
LINE
  8
0_00
  6
CONTINUOUS
 62
6
 10
617.0967
 20
187.4625
 11
556.4446
 21
126.8104
  0
LINE
  8
0_00
  6
CONTINUOUS
 62
6
 10
617.0967
 20
187.4625
 11
612.9034
 21
184.7393
  0
LINE
  8
0_00
  6
CONTINUOUS
 62
6
 10
617.0967
 20
187.4625
 11
614.3735
 21
183.2692
  0
LINE
  8
0_00
  6
CONTINUOUS
 62
3
 10
364.9407
 20
64.8000
 11
364.9407
 21
24.8000
  0
LINE
  8
0_00
  6
CONTINUOUS
 62
7
 10
36.4603
 20
74.8000
 11
812.3407
 21
74.8000
  0
LINE
  8
0_00
  6
CONTINUOUS
 62
3
 10
812.3407
 20
567.8000
 11
812.3407
 21
576.8000
  0
LINE
  8
0_00
  6
CONTINUOUS
 62
7
 10
812.3407
 20
24.8000
 11
812.3407
 21
567.8000
  0
LINE
  8
0_00
  6
CONTINUOUS
 62
3
 10
36.4603
 20
567.8000
 11
36.4603
 21
576.8000
  0
LINE
  8
0_00
  6
CONTINUOUS
 62
7
 10
36.4603
 20
24.8000
 11
36.4603
 21
567.8000
  0
LINE
  8
0_00
  6
CONTINUOUS
 62
7
 10
36.4603
 20
567.8000
 11
812.3407
 21
567.8000
  0
LINE
  8
0_00
  6
CONTINUOUS
 62
7
 10
36.4603
 20
24.8000
 11
812.3407
 21
24.8000
  0
LINE
  8
0_00
  6
CONTINUOUS
 62
3
 10
26.4603
 20
14.8000
 11
26.4603
 21
576.8000
  0
LINE
  8
0_00
  6
CONTINUOUS
 62
3
 10
822.3407
 20
14.8000
 11
822.3407
 21
576.8000
  0
LINE
  8
0_00
  6
CONTINUOUS
 62
3
 10
26.4603
 20
576.8000
 11
822.3407
 21
576.8000
  0
LINE
  8
0_00
  6
CONTINUOUS
 62
3
 10
713.7407
 20
24.8000
 11
713.7407
 21
74.8000
  0
LINE
  8
0_00
  6
CONTINUOUS
 62
3
 10
36.4603
 20
64.8000
 11
541.8407
 21
64.8000
  0
LINE
  8
0_00
  6
CONTINUOUS
 62
7
 10
541.8407
 20
64.8000
 11
812.3407
 21
64.8000
  0
LINE
  8
0_00
  6
CONTINUOUS
 62
3
 10
713.7407
 20
44.8000
 11
812.3407
 21
44.8000
  0
LINE
  8
0_00
  6
CONTINUOUS
 62
3
 10
733.7407
 20
74.8000
 11
733.7407
 21
64.8000
  0
LINE
  8
0_00
  6
CONTINUOUS
 62
3
 10
541.8407
 20
24.8000
 11
541.8407
 21
64.8000
  0
LINE
  8
0_00
  6
CONTINUOUS
 62
7
 10
541.8407
 20
64.8000
 11
541.8407
 21
74.8000
  0
LINE
  8
0_00
  6
CONTINUOUS
 62
3
 10
557.8407
 20
64.8000
 11
557.8407
 21
74.8000
  0
LINE
  8
0_00
  6
CONTINUOUS
 62
3
 10
608.3407
 20
24.8000
 11
608.3407
 21
74.8000
  0
LINE
  8
0_00
  6
CONTINUOUS
 62
3
 10
669.7407
 20
64.8000
 11
669.7407
 21
74.8000
  0
LINE
  8
0_00
  6
CONTINUOUS
 62
3
 10
688.1407
 20
24.8000
 11
688.1407
 21
64.8000
  0
LINE
  8
0_00
  6
CONTINUOUS
 62
3
 10
663.9407
 20
24.8000
 11
663.9407
 21
64.8000
  0
LINE
  8
0_00
  6
CONTINUOUS
 62
3
 10
639.7407
 20
24.8000
 11
639.7407
 21
64.8000
  0
LINE
  8
0_00
  6
CONTINUOUS
 62
3
 10
312.4407
 20
24.8000
 11
312.4407
 21
74.8000
  0
LINE
  8
0_00
  6
CONTINUOUS
 62
3
 10
417.4407
 20
24.8000
 11
417.4407
 21
64.8000
  0
LINE
  8
0_00
  6
CONTINUOUS
 62
3
 10
36.4603
 20
54.8001
 11
312.4407
 21
54.8001
  0
LINE
  8
0_00
  6
CONTINUOUS
 62
3
 10
36.4603
 20
44.8000
 11
608.3407
 21
44.8000
  0
LINE
  8
0_00
  6
CONTINUOUS
 62
3
 10
116.4603
 20
34.8000
 11
312.4407
 21
34.8000
  0
LINE
  8
0_00
  6
CONTINUOUS
 62
7
 10
36.4603
 20
34.8000
 11
116.4603
 21
34.8000
  0
LINE
  8
0_00
  6
CONTINUOUS
 62
3
 10
545.3407
 20
567.8000
 11
545.3407
 21
576.8000
  0
LINE
  8
0_00
  6
CONTINUOUS
 62
3
 10
525.3407
 20
567.8000
 11
525.3407
 21
576.8000
  0
LINE
  8
0_00
  6
CONTINUOUS
 62
3
 10
136.4603
 20
567.8000
 11
136.4603
 21
576.8000
  0
LINE
  8
0_00
  6
CONTINUOUS
 62
3
 10
569.3407
 20
567.8000
 11
569.3407
 21
576.8000
  0
LINE
  8
0_00
  6
CONTINUOUS
 62
3
 10
610.3407
 20
567.8000
 11
610.3407
 21
576.8000
  0
LINE
  8
0_00
  6
CONTINUOUS
 62
3
 10
764.3407
 20
567.8000
 11
764.3407
 21
576.8000
  0
LINE
  8
0_00
  6
CONTINUOUS
 62
3
 10
76.4603
 20
74.8000
 11
76.4603
 21
24.8000
  0
LINE
  8
0_00
  6
CONTINUOUS
 62
7
 10
116.4603
 20
74.8000
 11
116.4603
 21
24.8000
  0
LINE
  8
0_00
  6
CONTINUOUS
 62
3
 10
579.8407
 20
44.8000
 11
579.8407
 21
64.8000
  0
LINE
  8
0_00
  6
CONTINUOUS
 62
3
 10
595.8407
 20
74.8000
 11
595.8407
 21
64.8000
  0
LINE
  8
0_00
  6
CONTINUOUS
 62
3
 10
608.3407
 20
54.8001
 11
713.7407
 21
54.8001
  0
LINE
  8
0_00
  6
CONTINUOUS
 62
3
 10
717.7407
 20
47.8000
 11
719.0406
 21
47.8000
  0
LINE
  8
0_00
  6
CONTINUOUS
 62
3
 10
719.0406
 20
47.8000
 11
719.0406
 21
60.8000
  0
LINE
  8
0_00
  6
CONTINUOUS
 62
3
 10
719.0406
 20
60.8000
 11
717.7407
 21
60.8000
  0
LINE
  8
0_00
  6
CONTINUOUS
 62
3
 10
717.7407
 20
47.8000
 11
717.7407
 21
60.8000
  0
LINE
  8
0_00
  6
CONTINUOUS
 62
3
 10
719.5607
 20
47.8000
 11
720.8607
 21
47.8000
  0
LINE
  8
0_00
  6
CONTINUOUS
 62
3
 10
720.8607
 20
47.8000
 11
720.8607
 21
60.8000
  0
LINE
  8
0_00
  6
CONTINUOUS
 62
3
 10
720.8607
 20
60.8000
 11
719.5607
 21
60.8000
  0
LINE
  8
0_00
  6
CONTINUOUS
 62
3
 10
719.5607
 20
47.8000
 11
719.5607
 21
60.8000
  0
LINE
  8
0_00
  6
CONTINUOUS
 62
3
 10
721.3807
 20
47.8000
 11
722.6807
 21
47.8000
  0
LINE
  8
0_00
  6
CONTINUOUS
 62
3
 10
722.6807
 20
47.8000
 11
722.6807
 21
60.8000
  0
LINE
  8
0_00
  6
CONTINUOUS
 62
3
 10
722.6807
 20
60.8000
 11
721.3807
 21
60.8000
  0
LINE
  8
0_00
  6
CONTINUOUS
 62
3
 10
721.3807
 20
47.8000
 11
721.3807
 21
60.8000
  0
LINE
  8
0_00
  6
CONTINUOUS
 62
3
 10
723.2007
 20
47.8000
 11
724.5007
 21
47.8000
  0
LINE
  8
0_00
  6
CONTINUOUS
 62
3
 10
724.5007
 20
60.8000
 11
723.2007
 21
60.8000
  0
LINE
  8
0_00
  6
CONTINUOUS
 62
3
 10
723.2007
 20
47.8000
 11
723.2007
 21
60.8000
  0
LINE
  8
0_00
  6
CONTINUOUS
 62
3
 10
728.2708
 20
47.8000
 11
733.3407
 21
47.8000
  0
LINE
  8
0_00
  6
CONTINUOUS
 62
3
 10
733.3407
 20
47.8000
 11
733.3407
 21
48.9700
  0
LINE
  8
0_00
  6
CONTINUOUS
 62
3
 10
733.3407
 20
48.9700
 11
728.2708
 21
48.9700
  0
LINE
  8
0_00
  6
CONTINUOUS
 62
3
 10
728.2708
 20
48.9700
 11
728.2708
 21
47.8000
  0
LINE
  8
0_00
  6
CONTINUOUS
 62
3
 10
728.2708
 20
49.4900
 11
733.3407
 21
49.4900
  0
LINE
  8
0_00
  6
CONTINUOUS
 62
3
 10
733.3407
 20
49.4900
 11
733.3407
 21
50.6600
  0
LINE
  8
0_00
  6
CONTINUOUS
 62
3
 10
733.3407
 20
50.6600
 11
728.2708
 21
50.6600
  0
LINE
  8
0_00
  6
CONTINUOUS
 62
3
 10
728.2708
 20
50.6600
 11
728.2708
 21
49.4900
  0
LINE
  8
0_00
  6
CONTINUOUS
 62
3
 10
728.2708
 20
51.1800
 11
733.3407
 21
51.1800
  0
LINE
  8
0_00
  6
CONTINUOUS
 62
3
 10
733.3407
 20
51.1800
 11
733.3407
 21
52.3500
  0
LINE
  8
0_00
  6
CONTINUOUS
 62
3
 10
733.3407
 20
52.3500
 11
728.2708
 21
52.3500
  0
LINE
  8
0_00
  6
CONTINUOUS
 62
3
 10
728.2708
 20
52.3500
 11
728.2708
 21
51.1800
  0
LINE
  8
0_00
  6
CONTINUOUS
 62
3
 10
728.2708
 20
52.8700
 11
733.3407
 21
52.8700
  0
LINE
  8
0_00
  6
CONTINUOUS
 62
3
 10
733.3407
 20
52.8700
 11
733.3407
 21
54.0400
  0
LINE
  8
0_00
  6
CONTINUOUS
 62
3
 10
733.3407
 20
54.0400
 11
728.2708
 21
54.0400
  0
LINE
  8
0_00
  6
CONTINUOUS
 62
3
 10
728.2708
 20
54.0400
 11
728.2708
 21
52.8700
  0
LINE
  8
0_00
  6
CONTINUOUS
 62
3
 10
728.2708
 20
54.5600
 11
733.3407
 21
54.5600
  0
LINE
  8
0_00
  6
CONTINUOUS
 62
3
 10
733.3407
 20
54.5600
 11
733.3407
 21
55.7300
  0
LINE
  8
0_00
  6
CONTINUOUS
 62
3
 10
733.3407
 20
55.7300
 11
728.2708
 21
55.7300
  0
LINE
  8
0_00
  6
CONTINUOUS
 62
3
 10
728.2708
 20
55.7300
 11
728.2708
 21
54.5600
  0
LINE
  8
0_00
  6
CONTINUOUS
 62
3
 10
728.2708
 20
56.2500
 11
733.3407
 21
56.2500
  0
LINE
  8
0_00
  6
CONTINUOUS
 62
3
 10
733.3407
 20
56.2500
 11
733.3407
 21
57.4200
  0
LINE
  8
0_00
  6
CONTINUOUS
 62
3
 10
733.3407
 20
57.4200
 11
728.2708
 21
57.4200
  0
LINE
  8
0_00
  6
CONTINUOUS
 62
3
 10
728.2708
 20
57.4200
 11
728.2708
 21
56.2500
  0
LINE
  8
0_00
  6
CONTINUOUS
 62
3
 10
728.2708
 20
57.9401
 11
733.3407
 21
57.9401
  0
LINE
  8
0_00
  6
CONTINUOUS
 62
3
 10
733.3407
 20
57.9401
 11
733.3407
 21
59.1100
  0
LINE
  8
0_00
  6
CONTINUOUS
 62
3
 10
733.3407
 20
59.1100
 11
728.2708
 21
59.1100
  0
LINE
  8
0_00
  6
CONTINUOUS
 62
3
 10
728.2708
 20
59.1100
 11
728.2708
 21
57.9401
  0
LINE
  8
0_00
  6
CONTINUOUS
 62
3
 10
728.2708
 20
59.6301
 11
733.3407
 21
59.6301
  0
LINE
  8
0_00
  6
CONTINUOUS
 62
3
 10
733.3407
 20
59.6301
 11
733.3407
 21
60.8000
  0
LINE
  8
0_00
  6
CONTINUOUS
 62
3
 10
733.3407
 20
60.8000
 11
728.2708
 21
60.8000
  0
LINE
  8
0_00
  6
CONTINUOUS
 62
3
 10
728.2708
 20
60.8000
 11
728.2708
 21
59.6301
  0
LINE
  8
0_00
  6
CONTINUOUS
 62
3
 10
725.0208
 20
47.8000
 11
725.0208
 21
51.3750
  0
LINE
  8
0_00
  6
CONTINUOUS
 62
3
 10
725.8917
 20
48.5150
 11
725.8917
 21
51.3750
  0
LINE
  8
0_00
  6
CONTINUOUS
 62
3
 10
725.0208
 20
47.8000
 11
726.4507
 21
47.8000
  0
LINE
  8
0_00
  6
CONTINUOUS
 62
3
 10
725.8917
 20
48.5150
 11
726.4507
 21
48.5150
  0
LINE
  8
0_00
  6
CONTINUOUS
 62
3
 10
726.4033
 20
53.2037
 11
726.9707
 21
52.0900
  0
LINE
  8
0_00
  6
CONTINUOUS
 62
3
 10
727.2941
 20
55.0302
 11
726.4032
 21
53.2037
  0
LINE
  8
0_00
  6
CONTINUOUS
 62
3
 10
724.5007
 20
56.9001
 11
724.5007
 21
60.8000
  0
LINE
  8
0_00
  6
CONTINUOUS
 62
3
 10
724.5007
 20
56.9001
 11
726.1257
 21
56.9001
  0
LINE
  8
0_00
  6
CONTINUOUS
 62
3
 10
724.5007
 20
56.1200
 11
725.2222
 21
56.1200
  0
LINE
  8
0_00
  6
CONTINUOUS
 62
3
 10
724.5007
 20
52.0900
 11
726.9707
 21
52.0900
  0
LINE
  8
0_00
  6
CONTINUOUS
 62
3
 10
724.5007
 20
54.6407
 11
725.2223
 21
56.1201
  0
LINE
  8
0_00
  6
CONTINUOUS
 62
3
 10
724.5007
 20
54.6409
 11
724.5007
 21
56.1200
  0
LINE
  8
0_00
  6
CONTINUOUS
 62
3
 10
724.5007
 20
52.0900
 11
724.5007
 21
47.8000
  0
LINE
  8
0_00
  6
CONTINUOUS
 62
3
 10
717.9407
 20
60.8000
 11
717.9407
 21
47.8000
  0
LINE
  8
0_00
  6
CONTINUOUS
 62
3
 10
718.1407
 20
60.8000
 11
718.1407
 21
47.8000
  0
LINE
  8
0_00
  6
CONTINUOUS
 62
3
 10
718.3407
 20
60.8000
 11
718.3407
 21
47.8000
  0
LINE
  8
0_00
  6
CONTINUOUS
 62
3
 10
718.5406
 20
60.8000
 11
718.5406
 21
47.8000
  0
LINE
  8
0_00
  6
CONTINUOUS
 62
3
 10
718.7407
 20
60.8000
 11
718.7407
 21
47.8000
  0
LINE
  8
0_00
  6
CONTINUOUS
 62
3
 10
719.7607
 20
60.8000
 11
719.7607
 21
47.8000
  0
LINE
  8
0_00
  6
CONTINUOUS
 62
3
 10
719.9607
 20
60.8000
 11
719.9607
 21
47.8000
  0
LINE
  8
0_00
  6
CONTINUOUS
 62
3
 10
720.1606
 20
60.8000
 11
720.1606
 21
47.8000
  0
LINE
  8
0_00
  6
CONTINUOUS
 62
3
 10
720.3607
 20
60.8000
 11
720.3607
 21
47.8000
  0
LINE
  8
0_00
  6
CONTINUOUS
 62
3
 10
720.5607
 20
60.8000
 11
720.5607
 21
47.8000
  0
LINE
  8
0_00
  6
CONTINUOUS
 62
3
 10
720.7607
 20
60.8000
 11
720.7607
 21
47.8000
  0
LINE
  8
0_00
  6
CONTINUOUS
 62
3
 10
721.5807
 20
60.8000
 11
721.5807
 21
47.8000
  0
LINE
  8
0_00
  6
CONTINUOUS
 62
3
 10
721.7808
 20
60.8000
 11
721.7808
 21
47.8000
  0
LINE
  8
0_00
  6
CONTINUOUS
 62
3
 10
721.9807
 20
60.8000
 11
721.9807
 21
47.8000
  0
LINE
  8
0_00
  6
CONTINUOUS
 62
3
 10
722.1807
 20
60.8000
 11
722.1807
 21
47.8000
  0
LINE
  8
0_00
  6
CONTINUOUS
 62
3
 10
722.3807
 20
60.8000
 11
722.3807
 21
47.8000
  0
LINE
  8
0_00
  6
CONTINUOUS
 62
3
 10
722.5807
 20
60.8000
 11
722.5807
 21
47.8000
  0
LINE
  8
0_00
  6
CONTINUOUS
 62
3
 10
728.2708
 20
48.0000
 11
733.3407
 21
48.0000
  0
LINE
  8
0_00
  6
CONTINUOUS
 62
3
 10
728.2708
 20
48.2001
 11
733.3407
 21
48.2001
  0
LINE
  8
0_00
  6
CONTINUOUS
 62
3
 10
728.2708
 20
48.4000
 11
733.3407
 21
48.4000
  0
LINE
  8
0_00
  6
CONTINUOUS
 62
3
 10
728.2708
 20
48.6000
 11
733.3407
 21
48.6000
  0
LINE
  8
0_00
  6
CONTINUOUS
 62
3
 10
728.2708
 20
48.8000
 11
733.3407
 21
48.8000
  0
LINE
  8
0_00
  6
CONTINUOUS
 62
3
 10
728.2708
 20
49.6900
 11
733.3407
 21
49.6900
  0
LINE
  8
0_00
  6
CONTINUOUS
 62
3
 10
728.2708
 20
49.8901
 11
733.3407
 21
49.8901
  0
LINE
  8
0_00
  6
CONTINUOUS
 62
3
 10
728.2708
 20
50.0900
 11
733.3407
 21
50.0900
  0
LINE
  8
0_00
  6
CONTINUOUS
 62
3
 10
728.2708
 20
50.2900
 11
733.3407
 21
50.2900
  0
LINE
  8
0_00
  6
CONTINUOUS
 62
3
 10
728.2708
 20
50.4900
 11
733.3407
 21
50.4900
  0
LINE
  8
0_00
  6
CONTINUOUS
 62
3
 10
728.2708
 20
51.3801
 11
733.3407
 21
51.3801
  0
LINE
  8
0_00
  6
CONTINUOUS
 62
3
 10
728.2708
 20
51.5801
 11
733.3407
 21
51.5801
  0
LINE
  8
0_00
  6
CONTINUOUS
 62
3
 10
728.2708
 20
51.7800
 11
733.3407
 21
51.7800
  0
LINE
  8
0_00
  6
CONTINUOUS
 62
3
 10
728.2708
 20
51.9800
 11
733.3407
 21
51.9800
  0
LINE
  8
0_00
  6
CONTINUOUS
 62
3
 10
728.2708
 20
52.1800
 11
733.3407
 21
52.1800
  0
LINE
  8
0_00
  6
CONTINUOUS
 62
3
 10
728.2708
 20
53.0701
 11
733.3407
 21
53.0701
  0
LINE
  8
0_00
  6
CONTINUOUS
 62
3
 10
728.2708
 20
53.2701
 11
733.3407
 21
53.2701
  0
LINE
  8
0_00
  6
CONTINUOUS
 62
3
 10
728.2708
 20
53.4700
 11
733.3407
 21
53.4700
  0
LINE
  8
0_00
  6
CONTINUOUS
 62
3
 10
728.2708
 20
53.6700
 11
733.3407
 21
53.6700
  0
LINE
  8
0_00
  6
CONTINUOUS
 62
3
 10
728.2708
 20
53.8700
 11
733.3407
 21
53.8700
  0
LINE
  8
0_00
  6
CONTINUOUS
 62
3
 10
728.2708
 20
54.7601
 11
733.3407
 21
54.7601
  0
LINE
  8
0_00
  6
CONTINUOUS
 62
3
 10
728.2708
 20
54.9601
 11
733.3407
 21
54.9601
  0
LINE
  8
0_00
  6
CONTINUOUS
 62
3
 10
728.2708
 20
55.1600
 11
733.3407
 21
55.1600
  0
LINE
  8
0_00
  6
CONTINUOUS
 62
3
 10
728.2708
 20
55.3600
 11
733.3407
 21
55.3600
  0
LINE
  8
0_00
  6
CONTINUOUS
 62
3
 10
728.2708
 20
55.5600
 11
733.3407
 21
55.5600
  0
LINE
  8
0_00
  6
CONTINUOUS
 62
3
 10
733.3407
 20
56.4501
 11
728.2708
 21
56.4501
  0
LINE
  8
0_00
  6
CONTINUOUS
 62
3
 10
733.3407
 20
56.6501
 11
728.2708
 21
56.6501
  0
LINE
  8
0_00
  6
CONTINUOUS
 62
3
 10
733.3407
 20
56.8500
 11
728.2708
 21
56.8500
  0
LINE
  8
0_00
  6
CONTINUOUS
 62
3
 10
733.3407
 20
57.0500
 11
728.2708
 21
57.0500
  0
LINE
  8
0_00
  6
CONTINUOUS
 62
3
 10
733.3407
 20
57.2500
 11
728.2708
 21
57.2500
  0
LINE
  8
0_00
  6
CONTINUOUS
 62
3
 10
728.2708
 20
58.1401
 11
733.3407
 21
58.1401
  0
LINE
  8
0_00
  6
CONTINUOUS
 62
3
 10
728.2708
 20
58.3401
 11
733.3407
 21
58.3401
  0
LINE
  8
0_00
  6
CONTINUOUS
 62
3
 10
728.2708
 20
58.5400
 11
733.3407
 21
58.5400
  0
LINE
  8
0_00
  6
CONTINUOUS
 62
3
 10
728.2708
 20
58.7400
 11
733.3407
 21
58.7400
  0
LINE
  8
0_00
  6
CONTINUOUS
 62
3
 10
728.2708
 20
58.9400
 11
733.3407
 21
58.9400
  0
LINE
  8
0_00
  6
CONTINUOUS
 62
3
 10
728.2708
 20
59.8301
 11
733.3407
 21
59.8301
  0
LINE
  8
0_00
  6
CONTINUOUS
 62
3
 10
728.2708
 20
60.0301
 11
733.3407
 21
60.0301
  0
LINE
  8
0_00
  6
CONTINUOUS
 62
3
 10
728.2708
 20
60.2300
 11
733.3407
 21
60.2300
  0
LINE
  8
0_00
  6
CONTINUOUS
 62
3
 10
728.2708
 20
60.4300
 11
733.3407
 21
60.4300
  0
LINE
  8
0_00
  6
CONTINUOUS
 62
3
 10
728.2708
 20
60.6301
 11
733.3407
 21
60.6301
  0
LINE
  8
0_00
  6
CONTINUOUS
 62
3
 10
723.4006
 20
60.8000
 11
723.4006
 21
47.8000
  0
LINE
  8
0_00
  6
CONTINUOUS
 62
3
 10
723.6007
 20
60.8000
 11
723.6007
 21
47.8000
  0
LINE
  8
0_00
  6
CONTINUOUS
 62
3
 10
723.8007
 20
60.8000
 11
723.8007
 21
47.8000
  0
LINE
  8
0_00
  6
CONTINUOUS
 62
3
 10
724.0006
 20
60.8000
 11
724.0006
 21
47.8000
  0
LINE
  8
0_00
  6
CONTINUOUS
 62
3
 10
724.2007
 20
60.8000
 11
724.2007
 21
47.8000
  0
LINE
  8
0_00
  6
CONTINUOUS
 62
3
 10
724.4006
 20
60.8000
 11
724.4006
 21
47.8000
  0
LINE
  8
0_00
  6
CONTINUOUS
 62
3
 10
725.2207
 20
47.8000
 11
725.2207
 21
51.3750
  0
LINE
  8
0_00
  6
CONTINUOUS
 62
3
 10
725.4208
 20
47.8000
 11
725.4208
 21
51.3750
  0
LINE
  8
0_00
  6
CONTINUOUS
 62
3
 10
725.6207
 20
47.8000
 11
725.6207
 21
51.3750
  0
LINE
  8
0_00
  6
CONTINUOUS
 62
3
 10
725.8207
 20
47.8000
 11
725.8207
 21
51.3750
  0
LINE
  8
0_00
  6
CONTINUOUS
 62
3
 10
725.8917
 20
48.3150
 11
726.4507
 21
48.3150
  0
LINE
  8
0_00
  6
CONTINUOUS
 62
3
 10
725.8917
 20
48.1150
 11
726.4507
 21
48.1150
  0
LINE
  8
0_00
  6
CONTINUOUS
 62
3
 10
725.8917
 20
47.9150
 11
726.4507
 21
47.9150
  0
LINE
  8
0_00
  6
CONTINUOUS
 62
3
 10
726.8550
 20
52.3172
 11
724.5236
 21
52.3172
  0
LINE
  8
0_00
  6
CONTINUOUS
 62
3
 10
726.7355
 20
52.5518
 11
724.5236
 21
52.5518
  0
LINE
  8
0_00
  6
CONTINUOUS
 62
3
 10
726.5959
 20
52.8256
 11
724.5187
 21
52.8256
  0
LINE
  8
0_00
  6
CONTINUOUS
 62
3
 10
726.4803
 20
53.0524
 11
724.5162
 21
53.0524
  0
LINE
  8
0_00
  6
CONTINUOUS
 62
3
 10
727.3906
 20
55.6841
 11
726.1002
 21
53.0386
  0
LINE
  8
0_00
  6
CONTINUOUS
 62
3
 10
727.3264
 20
56.0089
 11
725.8738
 21
53.0306
  0
LINE
  8
0_00
  6
CONTINUOUS
 62
3
 10
727.2056
 20
56.2172
 11
725.6610
 21
53.0506
  0
LINE
  8
0_00
  6
CONTINUOUS
 62
3
 10
727.0686
 20
56.3929
 11
725.4303
 21
53.0339
  0
LINE
  8
0_00
  6
CONTINUOUS
 62
3
 10
726.9340
 20
56.5731
 11
725.2527
 21
53.1258
  0
LINE
  8
0_00
  6
CONTINUOUS
 62
3
 10
726.7581
 20
56.6684
 11
724.9939
 21
53.0516
  0
LINE
  8
0_00
  6
CONTINUOUS
 62
3
 10
726.5841
 20
56.7681
 11
724.7689
 21
53.0465
  0
LINE
  8
0_00
  6
CONTINUOUS
 62
3
 10
726.3777
 20
56.8012
 11
724.5591
 21
53.0725
  0
LINE
  8
0_00
  6
CONTINUOUS
 62
3
 10
726.1666
 20
56.8245
 11
724.4702
 21
53.3465
  0
LINE
  8
0_00
  6
CONTINUOUS
 62
3
 10
725.9583
 20
56.8535
 11
724.4886
 21
53.8405
  0
LINE
  8
0_00
  6
CONTINUOUS
 62
3
 10
725.7305
 20
56.8429
 11
724.4259
 21
54.1681
  0
LINE
  8
0_00
  6
CONTINUOUS
 62
3
 10
725.3284
 20
56.3201
 11
724.5007
 21
56.3201
  0
LINE
  8
0_00
  6
CONTINUOUS
 62
3
 10
725.4904
 20
56.5201
 11
724.5007
 21
56.5201
  0
LINE
  8
0_00
  6
CONTINUOUS
 62
3
 10
725.5664
 20
56.7200
 11
724.5007
 21
56.7200
  0
LINE
  8
0_00
  6
CONTINUOUS
 62
3
 10
530.8407
 20
568.3262
 11
539.8407
 21
568.3262
  0
LINE
  8
0_00
  6
CONTINUOUS
 62
3
 10
531.4457
 20
569.3739
 11
530.8407
 21
568.3262
  0
LINE
  8
0_00
  6
CONTINUOUS
 62
3
 10
533.9286
 20
573.6746
 11
535.3407
 21
576.1204
  0
LINE
  8
0_00
  6
CONTINUOUS
 62
3
 10
539.2358
 20
569.3739
 11
539.8407
 21
568.3262
  0
LINE
  8
0_00
  6
CONTINUOUS
 62
3
 10
536.7528
 20
573.6746
 11
535.3407
 21
576.1204
  0
LINE
  8
0_00
  6
CONTINUOUS
 62
6
 10
812.3407
 20
102.8000
 11
814.3407
 21
102.8000
  0
LINE
  8
0_00
  6
CONTINUOUS
 62
6
 10
812.3407
 20
116.8000
 11
814.3407
 21
116.8000
  0
LINE
  8
0_00
  6
CONTINUOUS
 62
6
 10
812.3407
 20
130.8000
 11
814.3407
 21
130.8000
  0
LINE
  8
0_00
  6
CONTINUOUS
 62
6
 10
812.3407
 20
144.8000
 11
814.3407
 21
144.8000
  0
LINE
  8
0_00
  6
CONTINUOUS
 62
6
 10
812.3407
 20
158.8000
 11
814.3407
 21
158.8000
  0
LINE
  8
0_00
  6
CONTINUOUS
 62
6
 10
812.3407
 20
172.8000
 11
814.3407
 21
172.8000
  0
LINE
  8
0_00
  6
CONTINUOUS
 62
6
 10
812.3407
 20
186.8000
 11
814.3407
 21
186.8000
  0
LINE
  8
0_00
  6
CONTINUOUS
 62
6
 10
812.3407
 20
200.8000
 11
814.3407
 21
200.8000
  0
LINE
  8
0_00
  6
CONTINUOUS
 62
6
 10
812.3407
 20
214.8001
 11
814.3407
 21
214.8001
  0
LINE
  8
0_00
  6
CONTINUOUS
 62
6
 10
812.3407
 20
228.8000
 11
814.3407
 21
228.8000
  0
LINE
  8
0_00
  6
CONTINUOUS
 62
6
 10
812.3407
 20
242.8000
 11
814.3407
 21
242.8000
  0
LINE
  8
0_00
  6
CONTINUOUS
 62
6
 10
812.3407
 20
256.8000
 11
814.3407
 21
256.8000
  0
LINE
  8
0_00
  6
CONTINUOUS
 62
6
 10
812.3407
 20
270.8000
 11
814.3407
 21
270.8000
  0
LINE
  8
0_00
  6
CONTINUOUS
 62
6
 10
812.3407
 20
284.8000
 11
814.3407
 21
284.8000
  0
LINE
  8
0_00
  6
CONTINUOUS
 62
6
 10
812.3407
 20
298.8000
 11
814.3407
 21
298.8000
  0
LINE
  8
0_00
  6
CONTINUOUS
 62
6
 10
812.3407
 20
312.8000
 11
814.3407
 21
312.8000
  0
LINE
  8
0_00
  6
CONTINUOUS
 62
6
 10
812.3407
 20
326.8000
 11
814.3407
 21
326.8000
  0
LINE
  8
0_00
  6
CONTINUOUS
 62
6
 10
812.3407
 20
555.8000
 11
814.3407
 21
555.8000
  0
LINE
  8
0_00
  6
CONTINUOUS
 62
6
 10
812.3407
 20
543.8000
 11
814.3407
 21
543.8000
  0
LINE
  8
0_00
  6
CONTINUOUS
 62
6
 10
812.3407
 20
531.8000
 11
814.3407
 21
531.8000
  0
LINE
  8
0_00
  6
CONTINUOUS
 62
6
 10
812.3407
 20
519.8000
 11
814.3407
 21
519.8000
  0
LINE
  8
0_00
  6
CONTINUOUS
 62
6
 10
812.3407
 20
507.8000
 11
814.3407
 21
507.8000
  0
LINE
  8
0_00
  6
CONTINUOUS
 62
6
 10
812.3407
 20
495.8001
 11
814.3407
 21
495.8001
  0
LINE
  8
0_00
  6
CONTINUOUS
 62
6
 10
812.3407
 20
340.8000
 11
814.3407
 21
340.8000
  0
LINE
  8
0_00
  6
CONTINUOUS
 62
6
 10
812.3407
 20
354.8000
 11
814.3407
 21
354.8000
  0
LINE
  8
0_00
  6
CONTINUOUS
 62
6
 10
812.3407
 20
368.8000
 11
814.3407
 21
368.8000
  0
LINE
  8
0_00
  6
CONTINUOUS
 62
6
 10
812.3407
 20
382.8000
 11
814.3407
 21
382.8000
  0
LINE
  8
0_00
  6
CONTINUOUS
 62
6
 10
812.3407
 20
396.8000
 11
814.3407
 21
396.8000
  0
LINE
  8
0_00
  6
CONTINUOUS
 62
6
 10
812.3407
 20
410.8000
 11
814.3407
 21
410.8000
  0
LINE
  8
0_00
  6
CONTINUOUS
 62
6
 10
812.3407
 20
424.8000
 11
814.3407
 21
424.8000
  0
LINE
  8
0_00
  6
CONTINUOUS
 62
6
 10
812.3407
 20
438.8000
 11
814.3407
 21
438.8000
  0
LINE
  8
0_00
  6
CONTINUOUS
 62
6
 10
812.3407
 20
452.8000
 11
814.3407
 21
452.8000
  0
LINE
  8
0_00
  6
CONTINUOUS
 62
6
 10
812.3407
 20
466.8001
 11
814.3407
 21
466.8001
  0
LINE
  8
0_00
  6
CONTINUOUS
 62
6
 10
812.3407
 20
480.8001
 11
814.3407
 21
480.8001
  0
LINE
  8
0_00
  6
CENTER1
 62
3
 10
587.3607
 20
48.8000
 11
587.3607
 21
60.8000
  0
LINE
  8
0_00
  6
CONTINUOUS
 62
4
 10
594.3607
 20
52.3000
 11
594.3607
 21
57.3000
  0
LINE
  8
0_00
  6
CONTINUOUS
 62
4
 10
603.3607
 20
50.8000
 11
603.3607
 21
58.8000
  0
LINE
  8
0_00
  6
CONTINUOUS
 62
4
 10
594.3607
 20
57.3000
 11
603.3607
 21
58.8000
  0
LINE
  8
0_00
  6
CONTINUOUS
 62
4
 10
594.3607
 20
52.3000
 11
603.3607
 21
50.8000
  0
LINE
  8
0_00
  6
CENTER1
 62
3
 10
581.3607
 20
54.8000
 11
604.9037
 21
54.8000
  0
LINE
  8
0_00
  6
CONTINUOUS
 62
3
 10
794.3407
 20
24.8000
 11
794.3407
 21
44.8000
  0
LINE
  8
0_00
  6
CONTINUOUS
 62
3
 10
26.4603
 20
14.8000
 11
822.3407
 21
14.8000
  0
LINE
  8
0_00
  6
CONTINUOUS
 62
3
 10
788.3407
 20
576.8000
 11
788.3407
 21
567.8000
  0
LINE
  8
0_00
  6
CONTINUOUS
 62
3
 10
0.0000
 20
295.8000
 11
26.4603
 21
295.8000
  0
LINE
  8
0_00
  6
CONTINUOUS
 62
3
 10
417.4407
 20
14.8000
 11
417.4407
 21
0.0000
  0
LINE
  8
0_00
  6
CONTINUOUS
 62
3
 10
417.4407
 20
576.8000
 11
417.4407
 21
594.0000
  0
LINE
  8
0_00
  6
CONTINUOUS
 62
3
 10
822.3407
 20
295.8000
 11
840.0000
 21
295.8000
  0
ARC
  8
0_00
  6
CONTINUOUS
 62
4
 10
155.3771
 20
449.7556
 40
2.0000
 50
0.4000
 51
46.6979
  0
ARC
  8
0_00
  6
CONTINUOUS
 62
4
 10
159.1492
 20
453.7583
 40
3.5000
 50
180.4000
 51
226.6979
  0
ARC
  8
0_00
  6
CONTINUOUS
 62
4
 10
159.1492
 20
453.7583
 40
3.5000
 50
41.8470
 51
104.5490
  0
ARC
  8
0_00
  6
CONTINUOUS
 62
4
 10
158.0188
 20
458.1140
 40
1.0000
 50
180.4000
 51
284.5490
  0
ARC
  8
0_00
  6
CONTINUOUS
 62
4
 10
160.7881
 20
455.2260
 40
1.3000
 50
330.4000
 51
401.8470
  0
ARC
  8
0_00
  6
CONTINUOUS
 62
4
 10
159.1492
 20
453.7583
 40
1.7500
 50
10.5841
 51
35.0231
  0
ARC
  8
0_00
  6
CONTINUOUS
 62
4
 10
159.1492
 20
453.7583
 40
1.7500
 50
175.7769
 51
215.0231
  0
ARC
  8
0_00
  6
CONTINUOUS
 62
4
 10
159.1492
 20
453.7583
 40
1.7500
 50
85.7769
 51
125.0231
  0
ARC
  8
0_00
  6
CONTINUOUS
 62
4
 10
161.2390
 20
454.1487
 40
0.3759
 50
190.5841
 51
330.4000
  0
ARC
  8
0_00
  6
CONTINUOUS
 62
4
 10
158.7277
 20
451.5990
 40
1.3000
 50
267.6053
 51
330.4000
  0
ARC
  8
0_00
  6
CONTINUOUS
 62
4
 10
159.1492
 20
453.7583
 40
1.7500
 50
265.7769
 51
290.2159
  0
ARC
  8
0_00
  6
CONTINUOUS
 62
4
 10
159.8839
 20
451.7633
 40
0.3759
 50
330.4000
 51
470.2159
  0
ARC
  8
0_00
  6
CONTINUOUS
 62
4
 10
175.7334
 20
482.7561
 40
10.5000
 50
90.0000
 51
98.7462
  0
ARC
  8
0_00
  6
CONTINUOUS
 62
4
 10
161.4304
 20
485.1086
 40
6.0000
 50
98.7462
 51
180.4000
  0
ARC
  8
0_00
  6
CONTINUOUS
 62
4
 10
158.9470
 20
439.7565
 40
1.5000
 50
180.4000
 51
270.4000
  0
ARC
  8
0_00
  6
CONTINUOUS
 62
4
 10
159.8851
 20
438.9130
 40
0.6500
 50
270.4000
 51
450.4000
  0
ARC
  8
0_00
  6
CONTINUOUS
 62
4
 10
161.4304
 20
485.1086
 40
4.6000
 50
98.7462
 51
180.4000
  0
ARC
  8
0_00
  6
CONTINUOUS
 62
4
 10
305.4838
 20
449.7556
 40
2.0000
 50
133.3021
 51
179.6000
  0
ARC
  8
0_00
  6
CONTINUOUS
 62
4
 10
301.7116
 20
453.7583
 40
3.5000
 50
313.3021
 51
359.6000
  0
ARC
  8
0_00
  6
CONTINUOUS
 62
4
 10
301.7116
 20
453.7583
 40
3.5000
 50
75.4510
 51
138.1530
  0
ARC
  8
0_00
  6
CONTINUOUS
 62
4
 10
302.8420
 20
458.1140
 40
1.0000
 50
255.4510
 51
359.6000
  0
ARC
  8
0_00
  6
CONTINUOUS
 62
4
 10
300.0728
 20
455.2260
 40
1.3000
 50
138.1530
 51
209.6000
  0
ARC
  8
0_00
  6
CONTINUOUS
 62
4
 10
301.7116
 20
453.7583
 40
1.7500
 50
144.9769
 51
169.4159
  0
ARC
  8
0_00
  6
CONTINUOUS
 62
4
 10
301.7116
 20
453.7583
 40
1.7500
 50
324.9769
 51
364.2231
  0
ARC
  8
0_00
  6
CONTINUOUS
 62
4
 10
301.7116
 20
453.7583
 40
1.7500
 50
54.9769
 51
94.2231
  0
ARC
  8
0_00
  6
CONTINUOUS
 62
4
 10
299.6219
 20
454.1487
 40
0.3759
 50
209.6000
 51
349.4159
  0
ARC
  8
0_00
  6
CONTINUOUS
 62
4
 10
301.7116
 20
453.7583
 40
1.7500
 50
249.7841
 51
274.2231
  0
ARC
  8
0_00
  6
CONTINUOUS
 62
4
 10
300.9770
 20
451.7633
 40
0.3759
 50
69.7841
 51
209.6000
  0
ARC
  8
0_00
  6
CONTINUOUS
 62
4
 10
285.1274
 20
482.7561
 40
10.5000
 50
81.2538
 51
90.0000
  0
ARC
  8
0_00
  6
CONTINUOUS
 62
4
 10
299.4304
 20
485.1086
 40
6.0000
 50
359.6000
 51
441.2538
  0
ARC
  8
0_00
  6
CONTINUOUS
 62
4
 10
301.9139
 20
439.7565
 40
1.5000
 50
269.6000
 51
359.6000
  0
ARC
  8
0_00
  6
CONTINUOUS
 62
4
 10
300.9757
 20
438.9130
 40
0.6500
 50
89.6000
 51
269.6000
  0
ARC
  8
0_00
  6
CONTINUOUS
 62
4
 10
299.4304
 20
485.1086
 40
4.6000
 50
359.6000
 51
441.2538
  0
ARC
  8
0_00
  6
CONTINUOUS
 62
4
 10
285.1274
 20
482.7561
 40
9.1000
 50
81.2538
 51
90.0000
  0
ARC
  8
0_00
  6
CONTINUOUS
 62
4
 10
175.7334
 20
482.7561
 40
9.1000
 50
90.0000
 51
98.7462
  0
ARC
  8
0_00
  6
CONTINUOUS
 62
4
 10
302.1332
 20
451.5990
 40
1.3000
 50
209.6000
 51
272.3947
  0
ARC
  8
0_00
  6
CONTINUOUS
 62
4
 10
157.9620
 20
466.2503
 40
1.0000
 50
180.4000
 51
270.4000
  0
ARC
  8
0_00
  6
CONTINUOUS
 62
4
 10
157.9857
 20
462.8503
 40
1.0000
 50
90.4000
 51
180.4000
  0
ARC
  8
0_00
  6
CONTINUOUS
 62
4
 10
159.2738
 20
464.5594
 40
0.7000
 50
270.4000
 51
450.4000
  0
ARC
  8
0_00
  6
CONTINUOUS
 62
4
 10
302.8989
 20
466.2503
 40
1.0000
 50
269.6000
 51
359.6000
  0
ARC
  8
0_00
  6
CONTINUOUS
 62
4
 10
302.8751
 20
462.8503
 40
1.0000
 50
359.6000
 51
449.6000
  0
ARC
  8
0_00
  6
CONTINUOUS
 62
4
 10
301.5870
 20
464.5594
 40
0.7000
 50
89.6000
 51
269.6000
  0
ARC
  8
0_00
  6
CONTINUOUS
 62
2
 10
163.2304
 20
456.7561
 40
9.7000
 50
317.9250
 51
402.0750
  0
ARC
  8
0_00
  6
CONTINUOUS
 62
2
 10
297.6304
 20
456.7561
 40
9.7000
 50
137.9250
 51
222.0750
  0
ARC
  8
0_00
  6
CONTINUOUS
 62
4
 10
535.8173
 20
449.7556
 40
2.0000
 50
0.4000
 51
46.6979
  0
ARC
  8
0_00
  6
CONTINUOUS
 62
4
 10
539.5894
 20
453.7583
 40
3.5000
 50
180.4000
 51
226.6979
  0
ARC
  8
0_00
  6
CONTINUOUS
 62
4
 10
539.5894
 20
453.7583
 40
3.5000
 50
41.8470
 51
104.5490
  0
ARC
  8
0_00
  6
CONTINUOUS
 62
4
 10
538.4590
 20
458.1140
 40
1.0000
 50
180.4000
 51
284.5490
  0
ARC
  8
0_00
  6
CONTINUOUS
 62
4
 10
541.2283
 20
455.2260
 40
1.3000
 50
330.4000
 51
401.8470
  0
ARC
  8
0_00
  6
CONTINUOUS
 62
4
 10
539.5894
 20
453.7583
 40
1.7500
 50
10.5841
 51
35.0231
  0
ARC
  8
0_00
  6
CONTINUOUS
 62
4
 10
539.5894
 20
453.7583
 40
1.7500
 50
175.7769
 51
215.0231
  0
ARC
  8
0_00
  6
CONTINUOUS
 62
4
 10
539.5894
 20
453.7583
 40
1.7500
 50
85.7769
 51
125.0231
  0
ARC
  8
0_00
  6
CONTINUOUS
 62
4
 10
541.6791
 20
454.1487
 40
0.3759
 50
190.5841
 51
330.4000
  0
ARC
  8
0_00
  6
CONTINUOUS
 62
4
 10
539.1678
 20
451.5990
 40
1.3000
 50
267.6053
 51
330.4000
  0
ARC
  8
0_00
  6
CONTINUOUS
 62
4
 10
539.5894
 20
453.7583
 40
1.7500
 50
265.7769
 51
290.2159
  0
ARC
  8
0_00
  6
CONTINUOUS
 62
4
 10
540.3240
 20
451.7633
 40
0.3759
 50
330.4000
 51
470.2159
  0
ARC
  8
0_00
  6
CONTINUOUS
 62
4
 10
556.1736
 20
482.7561
 40
10.5000
 50
90.0000
 51
98.7462
  0
ARC
  8
0_00
  6
CONTINUOUS
 62
4
 10
541.8706
 20
485.1086
 40
6.0000
 50
98.7462
 51
180.4000
  0
ARC
  8
0_00
  6
CONTINUOUS
 62
4
 10
556.1736
 20
482.7561
 40
9.0000
 50
90.0000
 51
98.7462
  0
ARC
  8
0_00
  6
CONTINUOUS
 62
4
 10
541.7707
 20
485.0933
 40
4.5000
 50
98.7462
 51
180.4000
  0
ARC
  8
0_00
  6
CONTINUOUS
 62
4
 10
680.5676
 20
482.7561
 40
10.5000
 50
81.2538
 51
90.0000
  0
ARC
  8
0_00
  6
CONTINUOUS
 62
4
 10
680.5676
 20
482.7561
 40
9.0000
 50
81.2538
 51
90.0000
  0
ARC
  8
0_00
  6
CONTINUOUS
 62
4
 10
539.3871
 20
439.7565
 40
1.5000
 50
180.4000
 51
270.4000
  0
ARC
  8
0_00
  6
CONTINUOUS
 62
4
 10
700.9240
 20
449.7556
 40
2.0000
 50
133.3021
 51
179.6000
  0
ARC
  8
0_00
  6
CONTINUOUS
 62
4
 10
697.1518
 20
453.7583
 40
3.5000
 50
313.3021
 51
359.6000
  0
ARC
  8
0_00
  6
CONTINUOUS
 62
4
 10
697.1518
 20
453.7583
 40
3.5000
 50
75.4510
 51
138.1530
  0
ARC
  8
0_00
  6
CONTINUOUS
 62
4
 10
698.2822
 20
458.1140
 40
1.0000
 50
255.4510
 51
359.6000
  0
ARC
  8
0_00
  6
CONTINUOUS
 62
4
 10
695.5129
 20
455.2260
 40
1.3000
 50
138.1530
 51
209.6000
  0
ARC
  8
0_00
  6
CONTINUOUS
 62
4
 10
697.1518
 20
453.7583
 40
1.7500
 50
144.9769
 51
169.4159
  0
ARC
  8
0_00
  6
CONTINUOUS
 62
4
 10
697.1518
 20
453.7583
 40
1.7500
 50
324.9769
 51
364.2231
  0
ARC
  8
0_00
  6
CONTINUOUS
 62
4
 10
697.1518
 20
453.7583
 40
1.7500
 50
54.9769
 51
94.2231
  0
ARC
  8
0_00
  6
CONTINUOUS
 62
4
 10
695.0621
 20
454.1487
 40
0.3759
 50
209.6000
 51
349.4159
  0
ARC
  8
0_00
  6
CONTINUOUS
 62
4
 10
697.5734
 20
451.5990
 40
1.3000
 50
209.6000
 51
272.3947
  0
ARC
  8
0_00
  6
CONTINUOUS
 62
4
 10
697.1518
 20
453.7583
 40
1.7500
 50
249.7841
 51
274.2231
  0
ARC
  8
0_00
  6
CONTINUOUS
 62
4
 10
696.4172
 20
451.7633
 40
0.3759
 50
69.7841
 51
209.6000
  0
ARC
  8
0_00
  6
CONTINUOUS
 62
4
 10
694.8706
 20
485.1086
 40
6.0000
 50
359.6000
 51
441.2538
  0
ARC
  8
0_00
  6
CONTINUOUS
 62
4
 10
694.9705
 20
485.0933
 40
4.5000
 50
359.6000
 51
441.2538
  0
ARC
  8
0_00
  6
CONTINUOUS
 62
4
 10
540.3253
 20
438.9130
 40
0.6500
 50
270.4000
 51
450.4000
  0
ARC
  8
0_00
  6
CONTINUOUS
 62
4
 10
697.3541
 20
439.7565
 40
1.5000
 50
269.6000
 51
359.6000
  0
ARC
  8
0_00
  6
CONTINUOUS
 62
4
 10
696.4159
 20
438.9130
 40
0.6500
 50
89.6000
 51
269.6000
  0
ARC
  8
0_00
  6
CONTINUOUS
 62
4
 10
538.4022
 20
466.2503
 40
1.0000
 50
180.4000
 51
270.4000
  0
ARC
  8
0_00
  6
CONTINUOUS
 62
4
 10
538.4259
 20
462.8503
 40
1.0000
 50
90.4000
 51
180.4000
  0
ARC
  8
0_00
  6
CONTINUOUS
 62
4
 10
539.7140
 20
464.5594
 40
0.7000
 50
270.4000
 51
450.4000
  0
ARC
  8
0_00
  6
CONTINUOUS
 62
4
 10
698.3391
 20
466.2503
 40
1.0000
 50
269.6000
 51
359.6000
  0
ARC
  8
0_00
  6
CONTINUOUS
 62
4
 10
698.3153
 20
462.8503
 40
1.0000
 50
359.6000
 51
449.6000
  0
ARC
  8
0_00
  6
CONTINUOUS
 62
4
 10
697.0272
 20
464.5594
 40
0.7000
 50
89.6000
 51
269.6000
  0
ARC
  8
0_00
  6
CONTINUOUS
 62
2
 10
542.4206
 20
457.2561
 40
8.4500
 50
314.7603
 51
405.2397
  0
ARC
  8
0_00
  6
CONTINUOUS
 62
2
 10
694.3206
 20
457.2561
 40
8.4500
 50
134.7603
 51
225.2397
  0
ARC
  8
12_0C
  6
CONTINUOUS
 62
2
 10
230.4304
 20
477.1561
 40
7.7000
 50
39.9831
 51
140.0169
  0
ARC
  8
5_05
  6
CONTINUOUS
 62
2
 10
285.1274
 20
482.7561
 40
9.1000
 50
81.2538
 51
90.0000
  0
ARC
  8
5_05
  6
CONTINUOUS
 62
2
 10
175.7334
 20
482.7561
 40
9.1000
 50
90.0000
 51
98.7462
  0
ARC
  8
0_00
  6
CONTINUOUS
 62
4
 10
185.6304
 20
489.2562
 40
0.5000
 50
0.0000
 51
90.0000
  0
ARC
  8
0_00
  6
CONTINUOUS
 62
4
 10
185.1304
 20
480.2561
 40
2.0000
 50
180.0000
 51
270.0000
  0
ARC
  8
0_00
  6
CONTINUOUS
 62
4
 10
182.1304
 20
485.5562
 40
1.0000
 50
0.0000
 51
90.0000
  0
ARC
  8
0_00
  6
CONTINUOUS
 62
4
 10
189.1304
 20
487.8562
 40
0.3000
 50
0.0000
 51
90.0000
  0
ARC
  8
0_00
  6
CONTINUOUS
 62
4
 10
189.1304
 20
485.9561
 40
0.3000
 50
270.0000
 51
360.0000
  0
ARC
  8
0_00
  6
CONTINUOUS
 62
4
 10
172.6304
 20
489.2562
 40
0.5000
 50
90.0000
 51
180.0000
  0
ARC
  8
0_00
  6
CONTINUOUS
 62
4
 10
176.1304
 20
485.5562
 40
1.0000
 50
90.0000
 51
180.0000
  0
ARC
  8
0_00
  6
CONTINUOUS
 62
4
 10
174.6304
 20
484.6561
 40
0.5000
 50
270.0000
 51
360.0000
  0
ARC
  8
0_00
  6
CONTINUOUS
 62
4
 10
158.1304
 20
466.3562
 40
1.0000
 50
165.9490
 51
270.0000
  0
ARC
  8
0_00
  6
CONTINUOUS
 62
4
 10
165.4668
 20
483.1561
 40
1.0000
 50
90.0000
 51
162.7305
  0
ARC
  8
0_00
  6
CONTINUOUS
 62
4
 10
165.1624
 20
483.6561
 40
3.5000
 50
90.0000
 51
165.9490
  0
ARC
  8
0_00
  6
CONTINUOUS
 62
4
 10
275.2304
 20
489.2562
 40
0.5000
 50
90.0000
 51
180.0000
  0
ARC
  8
0_00
  6
CONTINUOUS
 62
4
 10
275.7304
 20
480.2561
 40
2.0000
 50
270.0000
 51
360.0000
  0
ARC
  8
0_00
  6
CONTINUOUS
 62
4
 10
278.7304
 20
485.5562
 40
1.0000
 50
90.0000
 51
180.0000
  0
ARC
  8
0_00
  6
CONTINUOUS
 62
4
 10
271.7304
 20
487.8562
 40
0.3000
 50
90.0000
 51
180.0000
  0
ARC
  8
0_00
  6
CONTINUOUS
 62
4
 10
271.7304
 20
485.9561
 40
0.3000
 50
180.0000
 51
270.0000
  0
ARC
  8
0_00
  6
CONTINUOUS
 62
4
 10
288.2304
 20
489.2562
 40
0.5000
 50
0.0000
 51
90.0000
  0
ARC
  8
0_00
  6
CONTINUOUS
 62
4
 10
284.7304
 20
485.5562
 40
1.0000
 50
0.0000
 51
90.0000
  0
ARC
  8
0_00
  6
CONTINUOUS
 62
4
 10
286.2304
 20
484.6561
 40
0.5000
 50
180.0000
 51
270.0000
  0
ARC
  8
0_00
  6
CONTINUOUS
 62
4
 10
302.7304
 20
466.3562
 40
1.0000
 50
270.0000
 51
374.0510
  0
ARC
  8
0_00
  6
CONTINUOUS
 62
4
 10
295.3941
 20
483.1561
 40
1.0000
 50
17.2694
 51
90.0000
  0
ARC
  8
0_00
  6
CONTINUOUS
 62
4
 10
295.6984
 20
483.6561
 40
3.5000
 50
14.0510
 51
90.0000
  0
ARC
  8
0_00
  6
CONTINUOUS
 62
4
 10
663.1706
 20
489.1561
 40
0.5000
 50
90.0000
 51
180.0000
  0
ARC
  8
0_00
  6
CONTINUOUS
 62
4
 10
681.1707
 20
489.1561
 40
0.5000
 50
0.0000
 51
90.0000
  0
ARC
  8
0_00
  6
CONTINUOUS
 62
4
 10
663.6706
 20
480.2561
 40
2.0000
 50
270.0000
 51
360.0000
  0
ARC
  8
0_00
  6
CONTINUOUS
 62
4
 10
666.6706
 20
485.4561
 40
1.0000
 50
90.0000
 51
180.0000
  0
ARC
  8
0_00
  6
CONTINUOUS
 62
4
 10
677.6707
 20
485.4561
 40
1.0000
 50
0.0000
 51
90.0000
  0
ARC
  8
0_00
  6
CONTINUOUS
 62
4
 10
659.6706
 20
487.7561
 40
0.3000
 50
90.0000
 51
180.0000
  0
ARC
  8
0_00
  6
CONTINUOUS
 62
4
 10
659.6706
 20
485.8561
 40
0.3000
 50
180.0000
 51
270.0000
  0
ARC
  8
0_00
  6
CONTINUOUS
 62
4
 10
698.1707
 20
466.3562
 40
1.0000
 50
270.0000
 51
374.3788
  0
ARC
  8
0_00
  6
CONTINUOUS
 62
4
 10
679.1707
 20
484.6561
 40
0.5000
 50
180.0000
 51
270.0000
  0
ARC
  8
0_00
  6
CONTINUOUS
 62
4
 10
691.1547
 20
483.6561
 40
3.5000
 50
14.3788
 51
90.0000
  0
ARC
  8
0_00
  6
CONTINUOUS
 62
4
 10
690.8401
 20
483.1561
 40
1.0000
 50
17.7004
 51
90.0000
  0
ARC
  8
0_00
  6
CONTINUOUS
 62
4
 10
573.5706
 20
489.1561
 40
0.5000
 50
0.0000
 51
90.0000
  0
ARC
  8
0_00
  6
CONTINUOUS
 62
4
 10
555.5706
 20
489.1561
 40
0.5000
 50
90.0000
 51
180.0000
  0
ARC
  8
0_00
  6
CONTINUOUS
 62
4
 10
573.0706
 20
480.2561
 40
2.0000
 50
180.0000
 51
270.0000
  0
ARC
  8
0_00
  6
CONTINUOUS
 62
4
 10
570.0706
 20
485.4561
 40
1.0000
 50
0.0000
 51
90.0000
  0
ARC
  8
0_00
  6
CONTINUOUS
 62
4
 10
559.0706
 20
485.4561
 40
1.0000
 50
90.0000
 51
180.0000
  0
ARC
  8
0_00
  6
CONTINUOUS
 62
4
 10
577.0706
 20
487.7561
 40
0.3000
 50
0.0000
 51
90.0000
  0
ARC
  8
0_00
  6
CONTINUOUS
 62
4
 10
577.0706
 20
485.8561
 40
0.3000
 50
270.0000
 51
360.0000
  0
ARC
  8
0_00
  6
CONTINUOUS
 62
4
 10
538.5706
 20
466.3562
 40
1.0000
 50
165.6212
 51
270.0000
  0
ARC
  8
0_00
  6
CONTINUOUS
 62
4
 10
557.5706
 20
484.6561
 40
0.5000
 50
270.0000
 51
360.0000
  0
ARC
  8
0_00
  6
CONTINUOUS
 62
4
 10
545.5865
 20
483.6561
 40
3.5000
 50
90.0000
 51
165.6212
  0
ARC
  8
0_00
  6
CONTINUOUS
 62
4
 10
545.9011
 20
483.1561
 40
1.0000
 50
90.0000
 51
162.2996
  0
ARC
  8
12_0C
  6
CONTINUOUS
 62
2
 10
618.3706
 20
477.1561
 40
7.7000
 50
39.9831
 51
140.0169
  0
ARC
  8
0_00
  6
CONTINUOUS
 62
4
 10
140.3771
 20
203.2556
 40
2.0000
 50
0.4000
 51
46.6979
  0
ARC
  8
0_00
  6
CONTINUOUS
 62
4
 10
144.1492
 20
207.2582
 40
3.5000
 50
180.4000
 51
226.6979
  0
ARC
  8
0_00
  6
CONTINUOUS
 62
4
 10
144.1492
 20
207.2582
 40
3.5000
 50
41.8470
 51
104.5490
  0
ARC
  8
0_00
  6
CONTINUOUS
 62
4
 10
143.0188
 20
211.6140
 40
1.0000
 50
180.4000
 51
284.5490
  0
ARC
  8
0_00
  6
CONTINUOUS
 62
4
 10
145.7881
 20
208.7260
 40
1.3000
 50
330.4000
 51
401.8470
  0
ARC
  8
0_00
  6
CONTINUOUS
 62
4
 10
144.1492
 20
207.2582
 40
1.7500
 50
10.5841
 51
35.0231
  0
ARC
  8
0_00
  6
CONTINUOUS
 62
4
 10
144.1492
 20
207.2582
 40
1.7500
 50
175.7769
 51
215.0231
  0
ARC
  8
0_00
  6
CONTINUOUS
 62
4
 10
144.1492
 20
207.2582
 40
1.7500
 50
85.7769
 51
125.0231
  0
ARC
  8
0_00
  6
CONTINUOUS
 62
4
 10
146.2390
 20
207.6487
 40
0.3759
 50
190.5841
 51
330.4000
  0
ARC
  8
0_00
  6
CONTINUOUS
 62
4
 10
143.7277
 20
205.0990
 40
1.3000
 50
267.6053
 51
330.4000
  0
ARC
  8
0_00
  6
CONTINUOUS
 62
4
 10
144.1492
 20
207.2582
 40
1.7500
 50
265.7769
 51
290.2159
  0
ARC
  8
0_00
  6
CONTINUOUS
 62
4
 10
144.8839
 20
205.2633
 40
0.3759
 50
330.4000
 51
470.2159
  0
ARC
  8
0_00
  6
CONTINUOUS
 62
4
 10
160.7334
 20
236.2561
 40
10.5000
 50
90.0000
 51
98.7462
  0
ARC
  8
0_00
  6
CONTINUOUS
 62
4
 10
146.4304
 20
238.6086
 40
6.0000
 50
98.7462
 51
180.4000
  0
ARC
  8
0_00
  6
CONTINUOUS
 62
4
 10
160.7334
 20
236.2561
 40
9.0000
 50
90.0000
 51
98.7462
  0
ARC
  8
0_00
  6
CONTINUOUS
 62
4
 10
146.3305
 20
238.5932
 40
4.5000
 50
98.7462
 51
180.4000
  0
ARC
  8
0_00
  6
CONTINUOUS
 62
4
 10
300.1274
 20
236.2561
 40
10.5000
 50
81.2538
 51
90.0000
  0
ARC
  8
0_00
  6
CONTINUOUS
 62
4
 10
300.1274
 20
236.2561
 40
9.0000
 50
81.2538
 51
90.0000
  0
ARC
  8
0_00
  6
CONTINUOUS
 62
4
 10
143.9470
 20
193.2565
 40
1.5000
 50
180.4000
 51
270.4000
  0
ARC
  8
0_00
  6
CONTINUOUS
 62
4
 10
320.4838
 20
203.2556
 40
2.0000
 50
133.3021
 51
179.6000
  0
ARC
  8
0_00
  6
CONTINUOUS
 62
4
 10
316.7116
 20
207.2582
 40
3.5000
 50
313.3021
 51
359.6000
  0
ARC
  8
0_00
  6
CONTINUOUS
 62
4
 10
314.4304
 20
238.6086
 40
6.0000
 50
359.6000
 51
441.2538
  0
ARC
  8
0_00
  6
CONTINUOUS
 62
4
 10
314.5303
 20
238.5932
 40
4.5000
 50
359.6000
 51
441.2538
  0
ARC
  8
0_00
  6
CONTINUOUS
 62
4
 10
144.8851
 20
192.4130
 40
0.6500
 50
270.4000
 51
450.4000
  0
ARC
  8
0_00
  6
CONTINUOUS
 62
4
 10
316.9139
 20
193.2565
 40
1.5000
 50
269.6000
 51
359.6000
  0
ARC
  8
0_00
  6
CONTINUOUS
 62
4
 10
315.9757
 20
192.4130
 40
0.6500
 50
89.6000
 51
269.6000
  0
ARC
  8
0_00
  6
CONTINUOUS
 62
4
 10
142.9620
 20
219.7502
 40
1.0000
 50
180.4000
 51
270.4000
  0
ARC
  8
0_00
  6
CONTINUOUS
 62
4
 10
142.9857
 20
216.3503
 40
1.0000
 50
90.4000
 51
180.4000
  0
ARC
  8
0_00
  6
CONTINUOUS
 62
4
 10
144.2738
 20
218.0594
 40
0.7000
 50
270.4000
 51
450.4000
  0
ARC
  8
0_00
  6
CONTINUOUS
 62
4
 10
316.7116
 20
207.2582
 40
3.5000
 50
75.4510
 51
138.1530
  0
ARC
  8
0_00
  6
CONTINUOUS
 62
4
 10
317.8420
 20
211.6140
 40
1.0000
 50
255.4510
 51
359.6000
  0
ARC
  8
0_00
  6
CONTINUOUS
 62
4
 10
315.0728
 20
208.7260
 40
1.3000
 50
138.1530
 51
209.6000
  0
ARC
  8
0_00
  6
CONTINUOUS
 62
4
 10
316.7116
 20
207.2582
 40
1.7500
 50
144.9769
 51
169.4159
  0
ARC
  8
0_00
  6
CONTINUOUS
 62
4
 10
316.7116
 20
207.2582
 40
1.7500
 50
324.9769
 51
364.2231
  0
ARC
  8
0_00
  6
CONTINUOUS
 62
4
 10
316.7116
 20
207.2582
 40
1.7500
 50
54.9769
 51
94.2231
  0
ARC
  8
0_00
  6
CONTINUOUS
 62
4
 10
314.6219
 20
207.6487
 40
0.3759
 50
209.6000
 51
349.4159
  0
ARC
  8
0_00
  6
CONTINUOUS
 62
4
 10
317.1332
 20
205.0990
 40
1.3000
 50
209.6000
 51
272.3947
  0
ARC
  8
0_00
  6
CONTINUOUS
 62
4
 10
316.7116
 20
207.2582
 40
1.7500
 50
249.7841
 51
274.2231
  0
ARC
  8
0_00
  6
CONTINUOUS
 62
4
 10
315.9770
 20
205.2633
 40
0.3759
 50
69.7841
 51
209.6000
  0
ARC
  8
0_00
  6
CONTINUOUS
 62
4
 10
317.8989
 20
219.7502
 40
1.0000
 50
269.6000
 51
359.6000
  0
ARC
  8
0_00
  6
CONTINUOUS
 62
4
 10
317.8751
 20
216.3503
 40
1.0000
 50
359.6000
 51
449.6000
  0
ARC
  8
0_00
  6
CONTINUOUS
 62
4
 10
316.5870
 20
218.0594
 40
0.7000
 50
89.6000
 51
269.6000
  0
ARC
  8
0_00
  6
CONTINUOUS
 62
4
 10
185.6304
 20
242.6561
 40
0.5000
 50
0.0000
 51
90.0000
  0
ARC
  8
0_00
  6
CONTINUOUS
 62
4
 10
185.1304
 20
233.7561
 40
2.0000
 50
180.0000
 51
270.0000
  0
ARC
  8
0_00
  6
CONTINUOUS
 62
4
 10
182.1304
 20
238.9561
 40
1.0000
 50
0.0000
 51
90.0000
  0
ARC
  8
0_00
  6
CONTINUOUS
 62
4
 10
189.1304
 20
241.2561
 40
0.3000
 50
0.0000
 51
90.0000
  0
ARC
  8
0_00
  6
CONTINUOUS
 62
4
 10
189.1304
 20
239.3561
 40
0.3000
 50
270.0000
 51
360.0000
  0
ARC
  8
0_00
  6
CONTINUOUS
 62
4
 10
275.2304
 20
242.6561
 40
0.5000
 50
90.0000
 51
180.0000
  0
ARC
  8
0_00
  6
CONTINUOUS
 62
4
 10
293.2304
 20
242.6561
 40
0.5000
 50
0.0000
 51
90.0000
  0
ARC
  8
0_00
  6
CONTINUOUS
 62
4
 10
275.7304
 20
233.7561
 40
2.0000
 50
270.0000
 51
360.0000
  0
ARC
  8
0_00
  6
CONTINUOUS
 62
4
 10
278.7304
 20
238.9561
 40
1.0000
 50
90.0000
 51
180.0000
  0
ARC
  8
0_00
  6
CONTINUOUS
 62
4
 10
289.7304
 20
238.9561
 40
1.0000
 50
0.0000
 51
90.0000
  0
ARC
  8
0_00
  6
CONTINUOUS
 62
4
 10
291.2304
 20
238.1561
 40
0.5000
 50
180.0000
 51
270.0000
  0
ARC
  8
0_00
  6
CONTINUOUS
 62
4
 10
271.7304
 20
241.2561
 40
0.3000
 50
90.0000
 51
180.0000
  0
ARC
  8
0_00
  6
CONTINUOUS
 62
4
 10
271.7304
 20
239.3561
 40
0.3000
 50
180.0000
 51
270.0000
  0
ARC
  8
0_00
  6
CONTINUOUS
 62
4
 10
317.7304
 20
219.8561
 40
1.0000
 50
270.0000
 51
374.0510
  0
ARC
  8
0_00
  6
CONTINUOUS
 62
4
 10
310.3941
 20
236.6561
 40
1.0000
 50
17.2694
 51
90.0000
  0
ARC
  8
0_00
  6
CONTINUOUS
 62
4
 10
310.6984
 20
237.1561
 40
3.5000
 50
14.0510
 51
90.0000
  0
ARC
  8
0_00
  6
CONTINUOUS
 62
4
 10
167.6304
 20
242.6561
 40
0.5000
 50
90.0000
 51
180.0000
  0
ARC
  8
0_00
  6
CONTINUOUS
 62
4
 10
171.1304
 20
238.9561
 40
1.0000
 50
90.0000
 51
180.0000
  0
ARC
  8
0_00
  6
CONTINUOUS
 62
4
 10
169.6304
 20
238.1561
 40
0.5000
 50
270.0000
 51
360.0000
  0
ARC
  8
0_00
  6
CONTINUOUS
 62
4
 10
143.1304
 20
219.8561
 40
1.0000
 50
165.9490
 51
270.0000
  0
ARC
  8
0_00
  6
CONTINUOUS
 62
4
 10
150.4668
 20
236.6561
 40
1.0000
 50
90.0000
 51
162.7305
  0
ARC
  8
0_00
  6
CONTINUOUS
 62
4
 10
150.1624
 20
237.1561
 40
3.5000
 50
90.0000
 51
165.9490
  0
CIRCLE
  8
0_00
  6
CONTINUOUS
 62
2
 10
167.5116
 20
228.1088
 40
0.1000
  0
CIRCLE
  8
0_00
  6
CONTINUOUS
 62
2
 10
167.6522
 20
225.1567
 40
0.1000
  0
CIRCLE
  8
0_00
  6
CONTINUOUS
 62
2
 10
165.4030
 20
222.4858
 40
0.1000
  0
CIRCLE
  8
0_00
  6
CONTINUOUS
 62
2
 10
165.1219
 20
225.4379
 40
0.1000
  0
CIRCLE
  8
0_00
  6
CONTINUOUS
 62
2
 10
160.9046
 20
222.4858
 40
0.1000
  0
CIRCLE
  8
0_00
  6
CONTINUOUS
 62
2
 10
157.9525
 20
217.7062
 40
0.1000
  0
CIRCLE
  8
0_00
  6
CONTINUOUS
 62
2
 10
164.1378
 20
217.7062
 40
0.1000
  0
CIRCLE
  8
0_00
  6
CONTINUOUS
 62
2
 10
165.9653
 20
213.4890
 40
0.1000
  0
CIRCLE
  8
0_00
  6
CONTINUOUS
 62
2
 10
170.0420
 20
216.7222
 40
0.1000
  0
CIRCLE
  8
0_00
  6
CONTINUOUS
 62
2
 10
171.5883
 20
221.2207
 40
0.1000
  0
CIRCLE
  8
0_00
  6
CONTINUOUS
 62
2
 10
169.3391
 20
219.9554
 40
0.1000
  0
CIRCLE
  8
0_00
  6
CONTINUOUS
 62
2
 10
173.9781
 20
224.8756
 40
0.1000
  0
CIRCLE
  8
0_00
  6
CONTINUOUS
 62
2
 10
172.4318
 20
227.5466
 40
0.1000
  0
CIRCLE
  8
0_00
  6
CONTINUOUS
 62
2
 10
179.0388
 20
228.5305
 40
0.1000
  0
CIRCLE
  8
0_00
  6
CONTINUOUS
 62
2
 10
178.3359
 20
224.3133
 40
0.1000
  0
CIRCLE
  8
0_00
  6
CONTINUOUS
 62
2
 10
176.5085
 20
221.6424
 40
0.1000
  0
CIRCLE
  8
0_00
  6
CONTINUOUS
 62
2
 10
181.8503
 20
219.3932
 40
0.1000
  0
CIRCLE
  8
0_00
  6
CONTINUOUS
 62
2
 10
177.4925
 20
218.9714
 40
0.1000
  0
CIRCLE
  8
0_00
  6
CONTINUOUS
 62
2
 10
183.5372
 20
222.9075
 40
0.1000
  0
CIRCLE
  8
0_00
  6
CONTINUOUS
 62
2
 10
184.9430
 20
226.8436
 40
0.1000
  0
CIRCLE
  8
0_00
  6
CONTINUOUS
 62
2
 10
188.5979
 20
228.3900
 40
0.1000
  0
CIRCLE
  8
0_00
  6
CONTINUOUS
 62
2
 10
189.0197
 20
225.4379
 40
0.1000
  0
CIRCLE
  8
0_00
  6
CONTINUOUS
 62
2
 10
187.0516
 20
223.6104
 40
0.1000
  0
CIRCLE
  8
0_00
  6
CONTINUOUS
 62
2
 10
188.7385
 20
219.6743
 40
0.1000
  0
CIRCLE
  8
0_00
  6
CONTINUOUS
 62
2
 10
193.9398
 20
222.2047
 40
0.1000
  0
CIRCLE
  8
0_00
  6
CONTINUOUS
 62
2
 10
185.0836
 20
230.2175
 40
0.1000
  0
CIRCLE
  8
0_00
  6
CONTINUOUS
 62
2
 10
195.4861
 20
228.8117
 40
0.1000
  0
CIRCLE
  8
0_00
  6
CONTINUOUS
 62
2
 10
194.3615
 20
225.8596
 40
0.1000
  0
CIRCLE
  8
0_00
  6
CONTINUOUS
 62
2
 10
199.0005
 20
223.7510
 40
0.1000
  0
CIRCLE
  8
0_00
  6
CONTINUOUS
 62
2
 10
198.1571
 20
221.6424
 40
0.1000
  0
CIRCLE
  8
0_00
  6
CONTINUOUS
 62
2
 10
195.7673
 20
219.1120
 40
0.1000
  0
CIRCLE
  8
0_00
  6
CONTINUOUS
 62
2
 10
203.4989
 20
218.4091
 40
0.1000
  0
CIRCLE
  8
0_00
  6
CONTINUOUS
 62
2
 10
205.4670
 20
221.5018
 40
0.1000
  0
CIRCLE
  8
0_00
  6
CONTINUOUS
 62
2
 10
203.9207
 20
224.0321
 40
0.1000
  0
CIRCLE
  8
0_00
  6
CONTINUOUS
 62
2
 10
200.9686
 20
228.5305
 40
0.1000
  0
CIRCLE
  8
0_00
  6
CONTINUOUS
 62
2
 10
206.1699
 20
228.8117
 40
0.1000
  0
CIRCLE
  8
0_00
  6
CONTINUOUS
 62
2
 10
209.4031
 20
223.3293
 40
0.1000
  0
CIRCLE
  8
0_00
  6
CONTINUOUS
 62
2
 10
211.9335
 20
225.5785
 40
0.1000
  0
CIRCLE
  8
0_00
  6
CONTINUOUS
 62
2
 10
211.0900
 20
229.0929
 40
0.1000
  0
CIRCLE
  8
0_00
  6
CONTINUOUS
 62
2
 10
216.1507
 20
229.5146
 40
0.1000
  0
CIRCLE
  8
0_00
  6
CONTINUOUS
 62
2
 10
220.9303
 20
225.1567
 40
0.1000
  0
CIRCLE
  8
0_00
  6
CONTINUOUS
 62
2
 10
224.3041
 20
228.8117
 40
0.1000
  0
CIRCLE
  8
0_00
  6
CONTINUOUS
 62
2
 10
227.5373
 20
225.5785
 40
0.1000
  0
CIRCLE
  8
0_00
  6
CONTINUOUS
 62
2
 10
219.9463
 20
228.8117
 40
0.1000
  0
CIRCLE
  8
0_00
  6
CONTINUOUS
 62
2
 10
215.1667
 20
222.2047
 40
0.1000
  0
CIRCLE
  8
0_00
  6
CONTINUOUS
 62
2
 10
212.3552
 20
220.0960
 40
0.1000
  0
CIRCLE
  8
0_00
  6
CONTINUOUS
 62
2
 10
220.9303
 20
218.8309
 40
0.1000
  0
CIRCLE
  8
0_00
  6
CONTINUOUS
 62
2
 10
224.3041
 20
221.3612
 40
0.1000
  0
CIRCLE
  8
0_00
  6
CONTINUOUS
 62
2
 10
227.5373
 20
218.6903
 40
0.1000
  0
CIRCLE
  8
0_00
  6
CONTINUOUS
 62
2
 10
233.0198
 20
218.5497
 40
0.1000
  0
CIRCLE
  8
0_00
  6
CONTINUOUS
 62
2
 10
235.1284
 20
222.0641
 40
0.1000
  0
CIRCLE
  8
0_00
  6
CONTINUOUS
 62
2
 10
234.7067
 20
226.1408
 40
0.1000
  0
CIRCLE
  8
0_00
  6
CONTINUOUS
 62
2
 10
229.3648
 20
228.8117
 40
0.1000
  0
CIRCLE
  8
0_00
  6
CONTINUOUS
 62
2
 10
238.5022
 20
229.5146
 40
0.1000
  0
CIRCLE
  8
0_00
  6
CONTINUOUS
 62
2
 10
239.7674
 20
222.7670
 40
0.1000
  0
CIRCLE
  8
0_00
  6
CONTINUOUS
 62
2
 10
238.2211
 20
220.3772
 40
0.1000
  0
CIRCLE
  8
0_00
  6
CONTINUOUS
 62
2
 10
245.6716
 20
218.1280
 40
0.1000
  0
CIRCLE
  8
0_00
  6
CONTINUOUS
 62
2
 10
246.5150
 20
221.9235
 40
0.1000
  0
CIRCLE
  8
0_00
  6
CONTINUOUS
 62
2
 10
243.9847
 20
224.1727
 40
0.1000
  0
CIRCLE
  8
0_00
  6
CONTINUOUS
 62
2
 10
247.9208
 20
227.8277
 40
0.1000
  0
CIRCLE
  8
0_00
  6
CONTINUOUS
 62
2
 10
250.0294
 20
224.8756
 40
0.1000
  0
CIRCLE
  8
0_00
  6
CONTINUOUS
 62
2
 10
251.9975
 20
221.3612
 40
0.1000
  0
CIRCLE
  8
0_00
  6
CONTINUOUS
 62
2
 10
253.6844
 20
225.4379
 40
0.1000
  0
CIRCLE
  8
0_00
  6
CONTINUOUS
 62
2
 10
255.9336
 20
229.6552
 40
0.1000
  0
CIRCLE
  8
0_00
  6
CONTINUOUS
 62
2
 10
260.1508
 20
227.8277
 40
0.1000
  0
CIRCLE
  8
0_00
  6
CONTINUOUS
 62
2
 10
259.3074
 20
222.2047
 40
0.1000
  0
CIRCLE
  8
0_00
  6
CONTINUOUS
 62
2
 10
265.9144
 20
220.0960
 40
0.1000
  0
CIRCLE
  8
0_00
  6
CONTINUOUS
 62
2
 10
256.6365
 20
218.8309
 40
0.1000
  0
CIRCLE
  8
0_00
  6
CONTINUOUS
 62
2
 10
265.2091
 20
229.6507
 40
0.1000
  0
CIRCLE
  8
0_00
  6
CONTINUOUS
 62
2
 10
267.6589
 20
223.9975
 40
0.1000
  0
CIRCLE
  8
0_00
  6
CONTINUOUS
 62
2
 10
272.3699
 20
221.8304
 40
0.1000
  0
CIRCLE
  8
0_00
  6
CONTINUOUS
 62
2
 10
271.6161
 20
220.2286
 40
0.1000
  0
CIRCLE
  8
0_00
  6
CONTINUOUS
 62
2
 10
278.3058
 20
218.9095
 40
0.1000
  0
CIRCLE
  8
0_00
  6
CONTINUOUS
 62
2
 10
278.4001
 20
224.6570
 40
0.1000
  0
CIRCLE
  8
0_00
  6
CONTINUOUS
 62
2
 10
273.1237
 20
227.9548
 40
0.1000
  0
CIRCLE
  8
0_00
  6
CONTINUOUS
 62
2
 10
282.4516
 20
228.5201
 40
0.1000
  0
CIRCLE
  8
0_00
  6
CONTINUOUS
 62
2
 10
284.9955
 20
224.3743
 40
0.1000
  0
CIRCLE
  8
0_00
  6
CONTINUOUS
 62
2
 10
283.3938
 20
221.9246
 40
0.1000
  0
CIRCLE
  8
0_00
  6
CONTINUOUS
 62
2
 10
286.7858
 20
218.1558
 40
0.1000
  0
CIRCLE
  8
0_00
  6
CONTINUOUS
 62
2
 10
291.4968
 20
222.8668
 40
0.1000
  0
CIRCLE
  8
0_00
  6
CONTINUOUS
 62
2
 10
288.7644
 20
227.2952
 40
0.1000
  0
CIRCLE
  8
0_00
  6
CONTINUOUS
 62
2
 10
293.6639
 20
228.5201
 40
0.1000
  0
CIRCLE
  8
0_00
  6
CONTINUOUS
 62
2
 10
298.7518
 20
223.3379
 40
0.1000
  0
CIRCLE
  8
0_00
  6
CONTINUOUS
 62
2
 10
296.8674
 20
220.9824
 40
0.1000
  0
CIRCLE
  8
0_00
  6
CONTINUOUS
 62
2
 10
288.7644
 20
218.0615
 40
0.1000
  0
CIRCLE
  8
0_00
  6
CONTINUOUS
 62
2
 10
293.4754
 20
215.0465
 40
0.1000
  0
CIRCLE
  8
0_00
  6
CONTINUOUS
 62
2
 10
294.2292
 20
218.5326
 40
0.1000
  0
CIRCLE
  8
0_00
  6
CONTINUOUS
 62
2
 10
299.5056
 20
217.4962
 40
0.1000
  0
CIRCLE
  8
0_00
  6
CONTINUOUS
 62
2
 10
301.8611
 20
219.7575
 40
0.1000
  0
CIRCLE
  8
0_00
  6
CONTINUOUS
 62
2
 10
302.5207
 20
212.5967
 40
0.1000
  0
CIRCLE
  8
0_00
  6
CONTINUOUS
 62
2
 10
295.4541
 20
210.2412
 40
0.1000
  0
CIRCLE
  8
0_00
  6
CONTINUOUS
 62
2
 10
289.7066
 20
207.6030
 40
0.1000
  0
CIRCLE
  8
0_00
  6
CONTINUOUS
 62
2
 10
292.7217
 20
201.7613
 40
0.1000
  0
CIRCLE
  8
0_00
  6
CONTINUOUS
 62
2
 10
296.8674
 20
204.4937
 40
0.1000
  0
CIRCLE
  8
0_00
  6
CONTINUOUS
 62
2
 10
299.8825
 20
207.2261
 40
0.1000
  0
CIRCLE
  8
0_00
  6
CONTINUOUS
 62
2
 10
301.3900
 20
202.3266
 40
0.1000
  0
CIRCLE
  8
0_00
  6
CONTINUOUS
 62
2
 10
297.1501
 20
199.3116
 40
0.1000
  0
CIRCLE
  8
0_00
  6
CONTINUOUS
 62
2
 10
291.5910
 20
196.8618
 40
0.1000
  0
CIRCLE
  8
0_00
  6
CONTINUOUS
 62
2
 10
298.5634
 20
194.9774
 40
0.1000
  0
CIRCLE
  8
0_00
  6
CONTINUOUS
 62
2
 10
303.8398
 20
199.8769
 40
0.1000
  0
CIRCLE
  8
0_00
  6
CONTINUOUS
 62
2
 10
291.5266
 20
188.2334
 40
0.1000
  0
CIRCLE
  8
0_00
  6
CONTINUOUS
 62
2
 10
294.1598
 20
191.1958
 40
0.1000
  0
CIRCLE
  8
0_00
  6
CONTINUOUS
 62
2
 10
297.1222
 20
187.1362
 40
0.1000
  0
CIRCLE
  8
0_00
  6
CONTINUOUS
 62
2
 10
300.0846
 20
190.3180
 40
0.1000
  0
CIRCLE
  8
0_00
  6
CONTINUOUS
 62
2
 10
302.0595
 20
182.4184
 40
0.1000
  0
CIRCLE
  8
0_00
  6
CONTINUOUS
 62
2
 10
292.8432
 20
180.3337
 40
0.1000
  0
CIRCLE
  8
0_00
  6
CONTINUOUS
 62
2
 10
291.5266
 20
173.6410
 40
0.1000
  0
CIRCLE
  8
0_00
  6
CONTINUOUS
 62
2
 10
298.2194
 20
174.2993
 40
0.1000
  0
CIRCLE
  8
0_00
  6
CONTINUOUS
 62
2
 10
297.3416
 20
178.0297
 40
0.1000
  0
CIRCLE
  8
0_00
  6
CONTINUOUS
 62
2
 10
302.8275
 20
172.8730
 40
0.1000
  0
CIRCLE
  8
0_00
  6
CONTINUOUS
 62
2
 10
302.2789
 20
177.9200
 40
0.1000
  0
CIRCLE
  8
0_00
  6
CONTINUOUS
 62
2
 10
297.0125
 20
182.7475
 40
0.1000
  0
CIRCLE
  8
0_00
  6
CONTINUOUS
 62
2
 10
291.5266
 20
167.0579
 40
0.1000
  0
CIRCLE
  8
0_00
  6
CONTINUOUS
 62
2
 10
296.4639
 20
162.7790
 40
0.1000
  0
CIRCLE
  8
0_00
  6
CONTINUOUS
 62
2
 10
297.9999
 20
166.2899
 40
0.1000
  0
CIRCLE
  8
0_00
  6
CONTINUOUS
 62
2
 10
302.0595
 20
161.9012
 40
0.1000
  0
CIRCLE
  8
0_00
  6
CONTINUOUS
 62
2
 10
301.5109
 20
168.9231
 40
0.1000
  0
CIRCLE
  8
0_00
  6
CONTINUOUS
 62
2
 10
291.2652
 20
157.3291
 40
0.1000
  0
CIRCLE
  8
0_00
  6
CONTINUOUS
 62
2
 10
292.4138
 20
160.2006
 40
0.1000
  0
CIRCLE
  8
0_00
  6
CONTINUOUS
 62
2
 10
293.9070
 20
157.3291
 40
0.1000
  0
CIRCLE
  8
0_00
  6
CONTINUOUS
 62
2
 10
292.1841
 20
151.7009
 40
0.1000
  0
CIRCLE
  8
0_00
  6
CONTINUOUS
 62
2
 10
290.5760
 20
146.7619
 40
0.1000
  0
CIRCLE
  8
0_00
  6
CONTINUOUS
 62
2
 10
292.6435
 20
140.2149
 40
0.1000
  0
CIRCLE
  8
0_00
  6
CONTINUOUS
 62
2
 10
292.0692
 20
136.0799
 40
0.1000
  0
CIRCLE
  8
0_00
  6
CONTINUOUS
 62
2
 10
290.3463
 20
143.2013
 40
0.1000
  0
CIRCLE
  8
0_00
  6
CONTINUOUS
 62
2
 10
296.8933
 20
144.9242
 40
0.1000
  0
CIRCLE
  8
0_00
  6
CONTINUOUS
 62
2
 10
298.9608
 20
151.1266
 40
0.1000
  0
CIRCLE
  8
0_00
  6
CONTINUOUS
 62
2
 10
294.9407
 20
149.0591
 40
0.1000
  0
CIRCLE
  8
0_00
  6
CONTINUOUS
 62
2
 10
296.7785
 20
154.6873
 40
0.1000
  0
CIRCLE
  8
0_00
  6
CONTINUOUS
 62
2
 10
299.5351
 20
158.0182
 40
0.1000
  0
CIRCLE
  8
0_00
  6
CONTINUOUS
 62
2
 10
301.3729
 20
153.5387
 40
0.1000
  0
CIRCLE
  8
0_00
  6
CONTINUOUS
 62
2
 10
302.7512
 20
149.1740
 40
0.1000
  0
CIRCLE
  8
0_00
  6
CONTINUOUS
 62
2
 10
301.1432
 20
142.6270
 40
0.1000
  0
CIRCLE
  8
0_00
  6
CONTINUOUS
 62
2
 10
303.5552
 20
141.0189
 40
0.1000
  0
CIRCLE
  8
0_00
  6
CONTINUOUS
 62
2
 10
300.1094
 20
135.9651
 40
0.1000
  0
CIRCLE
  8
0_00
  6
CONTINUOUS
 62
2
 10
297.2379
 20
133.5530
 40
0.1000
  0
CIRCLE
  8
0_00
  6
CONTINUOUS
 62
2
 10
297.1230
 20
138.7217
 40
0.1000
  0
CIRCLE
  8
0_00
  6
CONTINUOUS
 62
2
 10
303.2107
 20
131.7152
 40
0.1000
  0
CIRCLE
  8
0_00
  6
CONTINUOUS
 62
2
 10
160.8660
 20
210.8369
 40
0.1000
  0
CIRCLE
  8
0_00
  6
CONTINUOUS
 62
2
 10
158.9940
 20
206.3128
 40
0.1000
  0
CIRCLE
  8
0_00
  6
CONTINUOUS
 62
2
 10
165.5461
 20
202.8807
 40
0.1000
  0
CIRCLE
  8
0_00
  6
CONTINUOUS
 62
2
 10
167.4182
 20
207.7168
 40
0.1000
  0
CIRCLE
  8
0_00
  6
CONTINUOUS
 62
2
 10
170.3823
 20
210.2129
 40
0.1000
  0
CIRCLE
  8
0_00
  6
CONTINUOUS
 62
2
 10
170.0703
 20
199.2926
 40
0.1000
  0
CIRCLE
  8
0_00
  6
CONTINUOUS
 62
2
 10
164.1421
 20
196.3285
 40
0.1000
  0
CIRCLE
  8
0_00
  6
CONTINUOUS
 62
2
 10
159.7740
 20
195.3925
 40
0.1000
  0
CIRCLE
  8
0_00
  6
CONTINUOUS
 62
2
 10
159.9300
 20
200.6966
 40
0.1000
  0
CIRCLE
  8
0_00
  6
CONTINUOUS
 62
2
 10
159.4620
 20
188.9963
 40
0.1000
  0
CIRCLE
  8
0_00
  6
CONTINUOUS
 62
2
 10
164.1421
 20
188.8403
 40
0.1000
  0
CIRCLE
  8
0_00
  6
CONTINUOUS
 62
2
 10
167.5742
 20
193.0524
 40
0.1000
  0
CIRCLE
  8
0_00
  6
CONTINUOUS
 62
2
 10
168.9782
 20
184.3161
 40
0.1000
  0
CIRCLE
  8
0_00
  6
CONTINUOUS
 62
2
 10
163.0501
 20
181.8201
 40
0.1000
  0
CIRCLE
  8
0_00
  6
CONTINUOUS
 62
2
 10
158.8380
 20
183.2241
 40
0.1000
  0
CIRCLE
  8
0_00
  6
CONTINUOUS
 62
2
 10
169.7583
 20
188.6843
 40
0.1000
  0
CIRCLE
  8
0_00
  6
CONTINUOUS
 62
2
 10
168.1982
 20
178.3880
 40
0.1000
  0
CIRCLE
  8
0_00
  6
CONTINUOUS
 62
2
 10
162.1140
 20
176.3599
 40
0.1000
  0
CIRCLE
  8
0_00
  6
CONTINUOUS
 62
2
 10
159.6180
 20
174.6439
 40
0.1000
  0
CIRCLE
  8
0_00
  6
CONTINUOUS
 62
2
 10
158.3699
 20
167.9357
 40
0.1000
  0
CIRCLE
  8
0_00
  6
CONTINUOUS
 62
2
 10
157.1219
 20
178.7000
 40
0.1000
  0
CIRCLE
  8
0_00
  6
CONTINUOUS
 62
2
 10
157.5899
 20
196.0165
 40
0.1000
  0
CIRCLE
  8
0_00
  6
CONTINUOUS
 62
2
 10
162.5821
 20
192.5844
 40
0.1000
  0
CIRCLE
  8
0_00
  6
CONTINUOUS
 62
2
 10
170.2263
 20
194.7684
 40
0.1000
  0
CIRCLE
  8
0_00
  6
CONTINUOUS
 62
2
 10
169.4463
 20
172.1478
 40
0.1000
  0
CIRCLE
  8
0_00
  6
CONTINUOUS
 62
2
 10
166.9502
 20
171.0558
 40
0.1000
  0
CIRCLE
  8
0_00
  6
CONTINUOUS
 62
2
 10
162.7381
 20
169.6517
 40
0.1000
  0
CIRCLE
  8
0_00
  6
CONTINUOUS
 62
2
 10
162.5821
 20
164.3476
 40
0.1000
  0
CIRCLE
  8
0_00
  6
CONTINUOUS
 62
2
 10
158.6819
 20
161.2275
 40
0.1000
  0
CIRCLE
  8
0_00
  6
CONTINUOUS
 62
2
 10
159.9300
 20
157.3274
 40
0.1000
  0
CIRCLE
  8
0_00
  6
CONTINUOUS
 62
2
 10
162.4261
 20
158.8874
 40
0.1000
  0
CIRCLE
  8
0_00
  6
CONTINUOUS
 62
2
 10
168.1982
 20
165.9076
 40
0.1000
  0
CIRCLE
  8
0_00
  6
CONTINUOUS
 62
2
 10
170.6943
 20
160.6035
 40
0.1000
  0
CIRCLE
  8
0_00
  6
CONTINUOUS
 62
2
 10
167.5742
 20
155.2993
 40
0.1000
  0
CIRCLE
  8
0_00
  6
CONTINUOUS
 62
2
 10
165.8582
 20
159.8235
 40
0.1000
  0
CIRCLE
  8
0_00
  6
CONTINUOUS
 62
2
 10
161.8020
 20
153.7393
 40
0.1000
  0
CIRCLE
  8
0_00
  6
CONTINUOUS
 62
2
 10
156.9659
 20
154.6753
 40
0.1000
  0
CIRCLE
  8
0_00
  6
CONTINUOUS
 62
2
 10
156.9659
 20
147.4991
 40
0.1000
  0
CIRCLE
  8
0_00
  6
CONTINUOUS
 62
2
 10
159.4620
 20
144.3790
 40
0.1000
  0
CIRCLE
  8
0_00
  6
CONTINUOUS
 62
2
 10
162.5821
 20
147.6551
 40
0.1000
  0
CIRCLE
  8
0_00
  6
CONTINUOUS
 62
2
 10
160.7100
 20
138.7628
 40
0.1000
  0
CIRCLE
  8
0_00
  6
CONTINUOUS
 62
2
 10
158.0579
 20
135.9548
 40
0.1000
  0
CIRCLE
  8
0_00
  6
CONTINUOUS
 62
2
 10
165.0781
 20
135.1747
 40
0.1000
  0
CIRCLE
  8
0_00
  6
CONTINUOUS
 62
2
 10
166.3262
 20
141.4149
 40
0.1000
  0
CIRCLE
  8
0_00
  6
CONTINUOUS
 62
2
 10
166.1702
 20
146.4071
 40
0.1000
  0
CIRCLE
  8
0_00
  6
CONTINUOUS
 62
2
 10
167.1062
 20
151.7112
 40
0.1000
  0
CIRCLE
  8
0_00
  6
CONTINUOUS
 62
2
 10
169.7583
 20
148.2791
 40
0.1000
  0
CIRCLE
  8
0_00
  6
CONTINUOUS
 62
2
 10
169.9143
 20
141.2589
 40
0.1000
  0
CIRCLE
  8
0_00
  6
CONTINUOUS
 62
2
 10
169.7583
 20
136.4228
 40
0.1000
  0
CIRCLE
  8
0_00
  6
CONTINUOUS
 62
2
 10
170.6943
 20
133.3027
 40
0.1000
  0
CIRCLE
  8
0_00
  6
CONTINUOUS
 62
2
 10
160.7100
 20
133.1467
 40
0.1000
  0
CIRCLE
  8
0_00
  6
CONTINUOUS
 62
2
 10
163.3621
 20
137.2028
 40
0.1000
  0
ARC
  8
12_0C
  6
CONTINUOUS
 62
2
 10
230.4304
 20
230.6561
 40
7.7000
 50
39.9831
 51
140.0169
  0
ARC
  8
0_00
  6
CONTINUOUS
 62
4
 10
520.8173
 20
203.2556
 40
2.0000
 50
0.4000
 51
46.6979
  0
ARC
  8
0_00
  6
CONTINUOUS
 62
4
 10
524.5894
 20
207.2582
 40
3.5000
 50
180.4000
 51
226.6979
  0
ARC
  8
0_00
  6
CONTINUOUS
 62
4
 10
524.5894
 20
207.2582
 40
3.5000
 50
41.8470
 51
104.5490
  0
ARC
  8
0_00
  6
CONTINUOUS
 62
4
 10
523.4590
 20
211.6140
 40
1.0000
 50
180.4000
 51
284.5490
  0
ARC
  8
0_00
  6
CONTINUOUS
 62
4
 10
526.2283
 20
208.7260
 40
1.3000
 50
330.4000
 51
401.8470
  0
ARC
  8
0_00
  6
CONTINUOUS
 62
4
 10
524.5894
 20
207.2582
 40
1.7500
 50
10.5841
 51
35.0231
  0
ARC
  8
0_00
  6
CONTINUOUS
 62
4
 10
524.5894
 20
207.2582
 40
1.7500
 50
175.7769
 51
215.0231
  0
ARC
  8
0_00
  6
CONTINUOUS
 62
4
 10
524.5894
 20
207.2582
 40
1.7500
 50
85.7769
 51
125.0231
  0
ARC
  8
0_00
  6
CONTINUOUS
 62
4
 10
526.6791
 20
207.6487
 40
0.3759
 50
190.5841
 51
330.4000
  0
ARC
  8
0_00
  6
CONTINUOUS
 62
4
 10
524.1678
 20
205.0990
 40
1.3000
 50
267.6053
 51
330.4000
  0
ARC
  8
0_00
  6
CONTINUOUS
 62
4
 10
524.5894
 20
207.2582
 40
1.7500
 50
265.7769
 51
290.2159
  0
ARC
  8
0_00
  6
CONTINUOUS
 62
4
 10
525.3240
 20
205.2633
 40
0.3759
 50
330.4000
 51
470.2159
  0
ARC
  8
0_00
  6
CONTINUOUS
 62
4
 10
541.1736
 20
236.2561
 40
10.5000
 50
90.0000
 51
98.7462
  0
ARC
  8
0_00
  6
CONTINUOUS
 62
4
 10
526.8706
 20
238.6086
 40
6.0000
 50
98.7462
 51
180.4000
  0
ARC
  8
0_00
  6
CONTINUOUS
 62
4
 10
695.5676
 20
236.2561
 40
10.5000
 50
81.2538
 51
90.0000
  0
ARC
  8
0_00
  6
CONTINUOUS
 62
4
 10
524.3871
 20
193.2565
 40
1.5000
 50
180.4000
 51
270.4000
  0
ARC
  8
0_00
  6
CONTINUOUS
 62
4
 10
715.9240
 20
203.2556
 40
2.0000
 50
133.3021
 51
179.6000
  0
ARC
  8
0_00
  6
CONTINUOUS
 62
4
 10
712.1518
 20
207.2582
 40
3.5000
 50
313.3021
 51
359.6000
  0
ARC
  8
0_00
  6
CONTINUOUS
 62
4
 10
709.8706
 20
238.6086
 40
6.0000
 50
359.6000
 51
441.2538
  0
ARC
  8
0_00
  6
CONTINUOUS
 62
4
 10
525.3253
 20
192.4130
 40
0.6500
 50
270.4000
 51
450.4000
  0
ARC
  8
0_00
  6
CONTINUOUS
 62
4
 10
712.3541
 20
193.2565
 40
1.5000
 50
269.6000
 51
359.6000
  0
ARC
  8
0_00
  6
CONTINUOUS
 62
4
 10
711.4159
 20
192.4130
 40
0.6500
 50
89.6000
 51
269.6000
  0
ARC
  8
0_00
  6
CONTINUOUS
 62
4
 10
526.6708
 20
238.5779
 40
4.4000
 50
98.7462
 51
180.4000
  0
ARC
  8
0_00
  6
CONTINUOUS
 62
4
 10
541.1736
 20
236.2561
 40
8.9000
 50
90.0000
 51
98.7462
  0
ARC
  8
0_00
  6
CONTINUOUS
 62
4
 10
710.0704
 20
238.5779
 40
4.4000
 50
359.6000
 51
441.2538
  0
ARC
  8
0_00
  6
CONTINUOUS
 62
4
 10
695.5676
 20
236.2561
 40
8.9000
 50
81.2538
 51
90.0000
  0
ARC
  8
0_00
  6
CONTINUOUS
 62
4
 10
523.4022
 20
219.7502
 40
1.0000
 50
180.4000
 51
270.4000
  0
ARC
  8
0_00
  6
CONTINUOUS
 62
4
 10
523.4259
 20
216.3503
 40
1.0000
 50
90.4000
 51
180.4000
  0
ARC
  8
0_00
  6
CONTINUOUS
 62
4
 10
524.7140
 20
218.0594
 40
0.7000
 50
270.4000
 51
450.4000
  0
ARC
  8
0_00
  6
CONTINUOUS
 62
4
 10
712.1518
 20
207.2582
 40
3.5000
 50
75.4510
 51
138.1530
  0
ARC
  8
0_00
  6
CONTINUOUS
 62
4
 10
713.2822
 20
211.6140
 40
1.0000
 50
255.4510
 51
359.6000
  0
ARC
  8
0_00
  6
CONTINUOUS
 62
4
 10
710.5129
 20
208.7260
 40
1.3000
 50
138.1530
 51
209.6000
  0
ARC
  8
0_00
  6
CONTINUOUS
 62
4
 10
712.1518
 20
207.2582
 40
1.7500
 50
144.9769
 51
169.4159
  0
ARC
  8
0_00
  6
CONTINUOUS
 62
4
 10
712.1518
 20
207.2582
 40
1.7500
 50
324.9769
 51
364.2231
  0
ARC
  8
0_00
  6
CONTINUOUS
 62
4
 10
712.1518
 20
207.2582
 40
1.7500
 50
54.9769
 51
94.2231
  0
ARC
  8
0_00
  6
CONTINUOUS
 62
4
 10
710.0621
 20
207.6487
 40
0.3759
 50
209.6000
 51
349.4159
  0
ARC
  8
0_00
  6
CONTINUOUS
 62
4
 10
712.5734
 20
205.0990
 40
1.3000
 50
209.6000
 51
272.3947
  0
ARC
  8
0_00
  6
CONTINUOUS
 62
4
 10
712.1518
 20
207.2582
 40
1.7500
 50
249.7841
 51
274.2231
  0
ARC
  8
0_00
  6
CONTINUOUS
 62
4
 10
711.4172
 20
205.2633
 40
0.3759
 50
69.7841
 51
209.6000
  0
ARC
  8
0_00
  6
CONTINUOUS
 62
4
 10
713.3391
 20
219.7502
 40
1.0000
 50
269.6000
 51
359.6000
  0
ARC
  8
0_00
  6
CONTINUOUS
 62
4
 10
713.3153
 20
216.3503
 40
1.0000
 50
359.6000
 51
449.6000
  0
ARC
  8
0_00
  6
CONTINUOUS
 62
4
 10
712.0272
 20
218.0594
 40
0.7000
 50
89.6000
 51
269.6000
  0
ARC
  8
0_00
  6
CONTINUOUS
 62
4
 10
573.5706
 20
242.5562
 40
0.5000
 50
0.0000
 51
90.0000
  0
ARC
  8
0_00
  6
CONTINUOUS
 62
4
 10
573.0706
 20
233.7561
 40
2.0000
 50
180.0000
 51
270.0000
  0
ARC
  8
0_00
  6
CONTINUOUS
 62
4
 10
570.0706
 20
238.8561
 40
1.0000
 50
0.0000
 51
90.0000
  0
ARC
  8
0_00
  6
CONTINUOUS
 62
4
 10
577.0706
 20
241.2561
 40
0.3000
 50
0.0000
 51
90.0000
  0
ARC
  8
0_00
  6
CONTINUOUS
 62
4
 10
577.0706
 20
239.3561
 40
0.3000
 50
270.0000
 51
360.0000
  0
ARC
  8
0_00
  6
CONTINUOUS
 62
4
 10
663.1706
 20
242.5562
 40
0.5000
 50
90.0000
 51
180.0000
  0
ARC
  8
0_00
  6
CONTINUOUS
 62
4
 10
681.1707
 20
242.5562
 40
0.5000
 50
0.0000
 51
90.0000
  0
ARC
  8
0_00
  6
CONTINUOUS
 62
4
 10
663.6706
 20
233.7561
 40
2.0000
 50
270.0000
 51
360.0000
  0
ARC
  8
0_00
  6
CONTINUOUS
 62
4
 10
666.6706
 20
238.8561
 40
1.0000
 50
90.0000
 51
180.0000
  0
ARC
  8
0_00
  6
CONTINUOUS
 62
4
 10
677.6707
 20
238.8561
 40
1.0000
 50
0.0000
 51
90.0000
  0
ARC
  8
0_00
  6
CONTINUOUS
 62
4
 10
679.1707
 20
238.1561
 40
0.5000
 50
180.0000
 51
270.0000
  0
ARC
  8
0_00
  6
CONTINUOUS
 62
4
 10
659.6706
 20
241.2561
 40
0.3000
 50
90.0000
 51
180.0000
  0
ARC
  8
0_00
  6
CONTINUOUS
 62
4
 10
659.6706
 20
239.3561
 40
0.3000
 50
180.0000
 51
270.0000
  0
ARC
  8
0_00
  6
CONTINUOUS
 62
4
 10
713.1707
 20
219.8561
 40
1.0000
 50
270.0000
 51
374.0510
  0
ARC
  8
0_00
  6
CONTINUOUS
 62
4
 10
705.8343
 20
236.6561
 40
1.0000
 50
17.2694
 51
90.0000
  0
ARC
  8
0_00
  6
CONTINUOUS
 62
4
 10
706.1386
 20
237.1561
 40
3.5000
 50
14.0510
 51
90.0000
  0
ARC
  8
0_00
  6
CONTINUOUS
 62
4
 10
555.5706
 20
242.5562
 40
0.5000
 50
90.0000
 51
180.0000
  0
ARC
  8
0_00
  6
CONTINUOUS
 62
4
 10
559.0706
 20
238.8561
 40
1.0000
 50
90.0000
 51
180.0000
  0
ARC
  8
0_00
  6
CONTINUOUS
 62
4
 10
557.5706
 20
238.1561
 40
0.5000
 50
270.0000
 51
360.0000
  0
ARC
  8
0_00
  6
CONTINUOUS
 62
4
 10
523.5706
 20
219.8561
 40
1.0000
 50
165.9490
 51
270.0000
  0
ARC
  8
0_00
  6
CONTINUOUS
 62
4
 10
530.9069
 20
236.6561
 40
1.0000
 50
90.0000
 51
162.7305
  0
ARC
  8
0_00
  6
CONTINUOUS
 62
4
 10
530.6026
 20
237.1561
 40
3.5000
 50
90.0000
 51
165.9490
  0
CIRCLE
  8
0_00
  6
CONTINUOUS
 62
2
 10
688.8132
 20
228.7927
 40
0.1000
  0
CIRCLE
  8
0_00
  6
CONTINUOUS
 62
2
 10
690.6534
 20
225.2655
 40
0.1000
  0
CIRCLE
  8
0_00
  6
CONTINUOUS
 62
2
 10
693.8738
 20
224.9588
 40
0.1000
  0
CIRCLE
  8
0_00
  6
CONTINUOUS
 62
2
 10
695.8674
 20
222.1985
 40
0.1000
  0
CIRCLE
  8
0_00
  6
CONTINUOUS
 62
2
 10
692.4937
 20
220.0515
 40
0.1000
  0
CIRCLE
  8
0_00
  6
CONTINUOUS
 62
2
 10
687.5863
 20
219.2848
 40
0.1000
  0
CIRCLE
  8
0_00
  6
CONTINUOUS
 62
2
 10
687.8931
 20
223.1186
 40
0.1000
  0
CIRCLE
  8
0_00
  6
CONTINUOUS
 62
2
 10
683.9059
 20
220.5116
 40
0.1000
  0
CIRCLE
  8
0_00
  6
CONTINUOUS
 62
2
 10
684.3660
 20
224.8055
 40
0.1000
  0
CIRCLE
  8
0_00
  6
CONTINUOUS
 62
2
 10
679.3053
 20
222.6586
 40
0.1000
  0
CIRCLE
  8
0_00
  6
CONTINUOUS
 62
2
 10
680.9922
 20
227.4125
 40
0.1000
  0
CIRCLE
  8
0_00
  6
CONTINUOUS
 62
2
 10
674.0913
 20
228.4860
 40
0.1000
  0
CIRCLE
  8
0_00
  6
CONTINUOUS
 62
2
 10
671.6376
 20
223.5787
 40
0.1000
  0
CIRCLE
  8
0_00
  6
CONTINUOUS
 62
2
 10
684.5193
 20
228.7927
 40
0.1000
  0
CIRCLE
  8
0_00
  6
CONTINUOUS
 62
2
 10
675.7782
 20
224.1921
 40
0.1000
  0
CIRCLE
  8
0_00
  6
CONTINUOUS
 62
2
 10
668.7239
 20
221.8918
 40
0.1000
  0
CIRCLE
  8
0_00
  6
CONTINUOUS
 62
2
 10
666.4236
 20
226.1857
 40
0.1000
  0
CIRCLE
  8
0_00
  6
CONTINUOUS
 62
2
 10
662.1298
 20
223.8854
 40
0.1000
  0
CIRCLE
  8
0_00
  6
CONTINUOUS
 62
2
 10
670.4108
 20
229.2527
 40
0.1000
  0
CIRCLE
  8
0_00
  6
CONTINUOUS
 62
2
 10
664.4301
 20
228.9460
 40
0.1000
  0
CIRCLE
  8
0_00
  6
CONTINUOUS
 62
2
 10
659.2161
 20
229.5594
 40
0.1000
  0
CIRCLE
  8
0_00
  6
CONTINUOUS
 62
2
 10
657.3759
 20
226.7991
 40
0.1000
  0
CIRCLE
  8
0_00
  6
CONTINUOUS
 62
2
 10
653.8488
 20
222.9653
 40
0.1000
  0
CIRCLE
  8
0_00
  6
CONTINUOUS
 62
2
 10
658.6027
 20
222.1985
 40
0.1000
  0
CIRCLE
  8
0_00
  6
CONTINUOUS
 62
2
 10
651.7018
 20
222.3519
 40
0.1000
  0
CIRCLE
  8
0_00
  6
CONTINUOUS
 62
2
 10
648.4814
 20
226.9524
 40
0.1000
  0
CIRCLE
  8
0_00
  6
CONTINUOUS
 62
2
 10
652.0085
 20
228.1793
 40
0.1000
  0
CIRCLE
  8
0_00
  6
CONTINUOUS
 62
2
 10
641.4271
 20
229.0994
 40
0.1000
  0
CIRCLE
  8
0_00
  6
CONTINUOUS
 62
2
 10
643.7274
 20
224.4988
 40
0.1000
  0
CIRCLE
  8
0_00
  6
CONTINUOUS
 62
2
 10
647.2545
 20
221.5851
 40
0.1000
  0
CIRCLE
  8
0_00
  6
CONTINUOUS
 62
2
 10
639.1268
 20
221.4317
 40
0.1000
  0
CIRCLE
  8
0_00
  6
CONTINUOUS
 62
2
 10
639.1268
 20
224.6521
 40
0.1000
  0
CIRCLE
  8
0_00
  6
CONTINUOUS
 62
2
 10
633.1461
 20
222.5052
 40
0.1000
  0
CIRCLE
  8
0_00
  6
CONTINUOUS
 62
2
 10
634.2195
 20
225.8790
 40
0.1000
  0
CIRCLE
  8
0_00
  6
CONTINUOUS
 62
2
 10
637.9000
 20
229.4061
 40
0.1000
  0
CIRCLE
  8
0_00
  6
CONTINUOUS
 62
2
 10
629.0056
 20
229.0994
 40
0.1000
  0
CIRCLE
  8
0_00
  6
CONTINUOUS
 62
2
 10
626.5519
 20
226.3390
 40
0.1000
  0
CIRCLE
  8
0_00
  6
CONTINUOUS
 62
2
 10
630.2324
 20
223.5787
 40
0.1000
  0
CIRCLE
  8
0_00
  6
CONTINUOUS
 62
2
 10
626.7053
 20
222.0452
 40
0.1000
  0
CIRCLE
  8
0_00
  6
CONTINUOUS
 62
2
 10
622.4114
 20
222.8119
 40
0.1000
  0
CIRCLE
  8
0_00
  6
CONTINUOUS
 62
2
 10
621.7980
 20
226.6457
 40
0.1000
  0
CIRCLE
  8
0_00
  6
CONTINUOUS
 62
2
 10
623.7916
 20
229.0994
 40
0.1000
  0
CIRCLE
  8
0_00
  6
CONTINUOUS
 62
2
 10
615.8172
 20
229.8661
 40
0.1000
  0
CIRCLE
  8
0_00
  6
CONTINUOUS
 62
2
 10
618.1175
 20
225.1122
 40
0.1000
  0
CIRCLE
  8
0_00
  6
CONTINUOUS
 62
2
 10
614.8971
 20
221.5851
 40
0.1000
  0
CIRCLE
  8
0_00
  6
CONTINUOUS
 62
2
 10
612.9035
 20
226.0323
 40
0.1000
  0
CIRCLE
  8
0_00
  6
CONTINUOUS
 62
2
 10
605.8492
 20
228.7927
 40
0.1000
  0
CIRCLE
  8
0_00
  6
CONTINUOUS
 62
2
 10
606.0026
 20
223.2720
 40
0.1000
  0
CIRCLE
  8
0_00
  6
CONTINUOUS
 62
2
 10
609.0697
 20
222.0452
 40
0.1000
  0
CIRCLE
  8
0_00
  6
CONTINUOUS
 62
2
 10
598.1816
 20
221.8918
 40
0.1000
  0
CIRCLE
  8
0_00
  6
CONTINUOUS
 62
2
 10
600.1752
 20
225.2655
 40
0.1000
  0
CIRCLE
  8
0_00
  6
CONTINUOUS
 62
2
 10
594.5012
 20
228.4860
 40
0.1000
  0
CIRCLE
  8
0_00
  6
CONTINUOUS
 62
2
 10
593.2744
 20
223.7320
 40
0.1000
  0
CIRCLE
  8
0_00
  6
CONTINUOUS
 62
2
 10
588.0604
 20
228.9460
 40
0.1000
  0
CIRCLE
  8
0_00
  6
CONTINUOUS
 62
2
 10
600.1752
 20
229.4061
 40
0.1000
  0
CIRCLE
  8
0_00
  6
CONTINUOUS
 62
2
 10
587.4469
 20
222.3519
 40
0.1000
  0
CIRCLE
  8
0_00
  6
CONTINUOUS
 62
2
 10
585.3000
 20
225.7256
 40
0.1000
  0
CIRCLE
  8
0_00
  6
CONTINUOUS
 62
2
 10
578.8592
 20
223.1186
 40
0.1000
  0
CIRCLE
  8
0_00
  6
CONTINUOUS
 62
2
 10
580.8528
 20
228.7927
 40
0.1000
  0
CIRCLE
  8
0_00
  6
CONTINUOUS
 62
2
 10
571.0382
 20
228.9460
 40
0.1000
  0
CIRCLE
  8
0_00
  6
CONTINUOUS
 62
2
 10
575.0253
 20
227.4125
 40
0.1000
  0
CIRCLE
  8
0_00
  6
CONTINUOUS
 62
2
 10
573.1851
 20
223.2720
 40
0.1000
  0
CIRCLE
  8
0_00
  6
CONTINUOUS
 62
2
 10
568.8912
 20
223.5787
 40
0.1000
  0
CIRCLE
  8
0_00
  6
CONTINUOUS
 62
2
 10
567.5110
 20
226.6457
 40
0.1000
  0
CIRCLE
  8
0_00
  6
CONTINUOUS
 62
2
 10
565.9775
 20
221.8918
 40
0.1000
  0
CIRCLE
  8
0_00
  6
CONTINUOUS
 62
2
 10
562.9105
 20
229.4061
 40
0.1000
  0
CIRCLE
  8
0_00
  6
CONTINUOUS
 62
2
 10
560.1501
 20
226.1857
 40
0.1000
  0
CIRCLE
  8
0_00
  6
CONTINUOUS
 62
2
 10
559.3834
 20
222.1985
 40
0.1000
  0
CIRCLE
  8
0_00
  6
CONTINUOUS
 62
2
 10
554.6294
 20
228.1793
 40
0.1000
  0
CIRCLE
  8
0_00
  6
CONTINUOUS
 62
2
 10
549.8755
 20
228.4860
 40
0.1000
  0
CIRCLE
  8
0_00
  6
CONTINUOUS
 62
2
 10
554.3228
 20
222.0452
 40
0.1000
  0
CIRCLE
  8
0_00
  6
CONTINUOUS
 62
2
 10
555.7029
 20
225.1122
 40
0.1000
  0
CIRCLE
  8
0_00
  6
CONTINUOUS
 62
2
 10
553.0959
 20
216.6778
 40
0.1000
  0
CIRCLE
  8
0_00
  6
CONTINUOUS
 62
2
 10
557.6965
 20
217.4445
 40
0.1000
  0
CIRCLE
  8
0_00
  6
CONTINUOUS
 62
2
 10
562.7571
 20
214.5308
 40
0.1000
  0
CIRCLE
  8
0_00
  6
CONTINUOUS
 62
2
 10
560.9169
 20
211.3104
 40
0.1000
  0
CIRCLE
  8
0_00
  6
CONTINUOUS
 62
2
 10
557.8499
 20
212.6906
 40
0.1000
  0
CIRCLE
  8
0_00
  6
CONTINUOUS
 62
2
 10
554.6294
 20
207.1699
 40
0.1000
  0
CIRCLE
  8
0_00
  6
CONTINUOUS
 62
2
 10
558.3099
 20
205.4830
 40
0.1000
  0
CIRCLE
  8
0_00
  6
CONTINUOUS
 62
2
 10
561.6837
 20
203.6428
 40
0.1000
  0
CIRCLE
  8
0_00
  6
CONTINUOUS
 62
2
 10
553.8627
 20
200.2690
 40
0.1000
  0
CIRCLE
  8
0_00
  6
CONTINUOUS
 62
2
 10
554.4761
 20
192.7547
 40
0.1000
  0
CIRCLE
  8
0_00
  6
CONTINUOUS
 62
2
 10
559.2300
 20
195.5151
 40
0.1000
  0
CIRCLE
  8
0_00
  6
CONTINUOUS
 62
2
 10
557.5431
 20
198.8889
 40
0.1000
  0
CIRCLE
  8
0_00
  6
CONTINUOUS
 62
2
 10
564.4440
 20
197.9687
 40
0.1000
  0
CIRCLE
  8
0_00
  6
CONTINUOUS
 62
2
 10
562.6038
 20
191.8346
 40
0.1000
  0
CIRCLE
  8
0_00
  6
CONTINUOUS
 62
2
 10
563.2172
 20
207.9367
 40
0.1000
  0
CIRCLE
  8
0_00
  6
CONTINUOUS
 62
2
 10
563.5239
 20
186.4673
 40
0.1000
  0
CIRCLE
  8
0_00
  6
CONTINUOUS
 62
2
 10
559.3834
 20
188.3075
 40
0.1000
  0
CIRCLE
  8
0_00
  6
CONTINUOUS
 62
2
 10
554.9362
 20
184.6270
 40
0.1000
  0
CIRCLE
  8
0_00
  6
CONTINUOUS
 62
2
 10
558.0032
 20
180.0265
 40
0.1000
  0
CIRCLE
  8
0_00
  6
CONTINUOUS
 62
2
 10
553.8627
 20
176.3460
 40
0.1000
  0
CIRCLE
  8
0_00
  6
CONTINUOUS
 62
2
 10
557.2365
 20
170.3652
 40
0.1000
  0
CIRCLE
  8
0_00
  6
CONTINUOUS
 62
2
 10
560.7635
 20
172.9722
 40
0.1000
  0
CIRCLE
  8
0_00
  6
CONTINUOUS
 62
2
 10
563.8306
 20
178.7996
 40
0.1000
  0
CIRCLE
  8
0_00
  6
CONTINUOUS
 62
2
 10
563.2172
 20
166.3781
 40
0.1000
  0
CIRCLE
  8
0_00
  6
CONTINUOUS
 62
2
 10
554.4761
 20
163.4643
 40
0.1000
  0
CIRCLE
  8
0_00
  6
CONTINUOUS
 62
2
 10
550.0288
 20
157.1769
 40
0.1000
  0
CIRCLE
  8
0_00
  6
CONTINUOUS
 62
2
 10
548.3419
 20
163.1576
 40
0.1000
  0
CIRCLE
  8
0_00
  6
CONTINUOUS
 62
2
 10
554.0160
 20
158.0970
 40
0.1000
  0
CIRCLE
  8
0_00
  6
CONTINUOUS
 62
2
 10
558.4633
 20
157.1769
 40
0.1000
  0
CIRCLE
  8
0_00
  6
CONTINUOUS
 62
2
 10
560.1501
 20
162.5442
 40
0.1000
  0
CIRCLE
  8
0_00
  6
CONTINUOUS
 62
2
 10
562.2971
 20
157.4836
 40
0.1000
  0
CIRCLE
  8
0_00
  6
CONTINUOUS
 62
2
 10
558.9233
 20
150.7361
 40
0.1000
  0
CIRCLE
  8
0_00
  6
CONTINUOUS
 62
2
 10
553.8627
 20
147.9757
 40
0.1000
  0
CIRCLE
  8
0_00
  6
CONTINUOUS
 62
2
 10
553.4026
 20
152.7296
 40
0.1000
  0
CIRCLE
  8
0_00
  6
CONTINUOUS
 62
2
 10
553.2493
 20
140.6148
 40
0.1000
  0
CIRCLE
  8
0_00
  6
CONTINUOUS
 62
2
 10
557.5431
 20
144.1419
 40
0.1000
  0
CIRCLE
  8
0_00
  6
CONTINUOUS
 62
2
 10
557.2365
 20
138.7745
 40
0.1000
  0
CIRCLE
  8
0_00
  6
CONTINUOUS
 62
2
 10
553.2493
 20
133.2538
 40
0.1000
  0
CIRCLE
  8
0_00
  6
CONTINUOUS
 62
2
 10
560.6102
 20
133.2538
 40
0.1000
  0
CIRCLE
  8
0_00
  6
CONTINUOUS
 62
2
 10
563.3705
 20
136.3209
 40
0.1000
  0
CIRCLE
  8
0_00
  6
CONTINUOUS
 62
2
 10
563.5239
 20
140.4614
 40
0.1000
  0
CIRCLE
  8
0_00
  6
CONTINUOUS
 62
2
 10
562.2971
 20
144.4486
 40
0.1000
  0
CIRCLE
  8
0_00
  6
CONTINUOUS
 62
2
 10
563.8306
 20
151.6562
 40
0.1000
  0
CIRCLE
  8
0_00
  6
CONTINUOUS
 62
2
 10
561.2236
 20
153.8031
 40
0.1000
  0
CIRCLE
  8
0_00
  6
CONTINUOUS
 62
2
 10
557.6965
 20
134.3273
 40
0.1000
  0
CIRCLE
  8
0_00
  6
CONTINUOUS
 62
2
 10
554.0160
 20
170.6719
 40
0.1000
  0
CIRCLE
  8
0_00
  6
CONTINUOUS
 62
2
 10
559.6901
 20
176.9594
 40
0.1000
  0
CIRCLE
  8
0_00
  6
CONTINUOUS
 62
2
 10
554.1694
 20
188.9209
 40
0.1000
  0
CIRCLE
  8
0_00
  6
CONTINUOUS
 62
2
 10
554.0160
 20
211.0037
 40
0.1000
  0
CIRCLE
  8
0_00
  6
CONTINUOUS
 62
2
 10
563.3705
 20
219.4381
 40
0.1000
  0
CIRCLE
  8
0_00
  6
CONTINUOUS
 62
2
 10
682.6791
 20
214.6842
 40
0.1000
  0
CIRCLE
  8
0_00
  6
CONTINUOUS
 62
2
 10
683.1391
 20
206.5565
 40
0.1000
  0
CIRCLE
  8
0_00
  6
CONTINUOUS
 62
2
 10
687.5863
 20
209.9303
 40
0.1000
  0
CIRCLE
  8
0_00
  6
CONTINUOUS
 62
2
 10
689.8866
 20
214.6842
 40
0.1000
  0
CIRCLE
  8
0_00
  6
CONTINUOUS
 62
2
 10
692.0336
 20
207.6300
 40
0.1000
  0
CIRCLE
  8
0_00
  6
CONTINUOUS
 62
2
 10
695.1006
 20
212.9973
 40
0.1000
  0
CIRCLE
  8
0_00
  6
CONTINUOUS
 62
2
 10
696.6342
 20
217.5979
 40
0.1000
  0
CIRCLE
  8
0_00
  6
CONTINUOUS
 62
2
 10
696.9409
 20
207.0166
 40
0.1000
  0
CIRCLE
  8
0_00
  6
CONTINUOUS
 62
2
 10
689.2732
 20
201.0358
 40
0.1000
  0
CIRCLE
  8
0_00
  6
CONTINUOUS
 62
2
 10
682.8324
 20
198.8889
 40
0.1000
  0
CIRCLE
  8
0_00
  6
CONTINUOUS
 62
2
 10
685.2860
 20
202.2626
 40
0.1000
  0
CIRCLE
  8
0_00
  6
CONTINUOUS
 62
2
 10
685.8995
 20
205.4830
 40
0.1000
  0
CIRCLE
  8
0_00
  6
CONTINUOUS
 62
2
 10
684.3660
 20
209.7769
 40
0.1000
  0
CIRCLE
  8
0_00
  6
CONTINUOUS
 62
2
 10
691.4202
 20
203.6428
 40
0.1000
  0
CIRCLE
  8
0_00
  6
CONTINUOUS
 62
2
 10
696.7875
 20
199.5023
 40
0.1000
  0
CIRCLE
  8
0_00
  6
CONTINUOUS
 62
2
 10
695.7141
 20
203.3361
 40
0.1000
  0
CIRCLE
  8
0_00
  6
CONTINUOUS
 62
2
 10
698.6277
 20
210.0836
 40
0.1000
  0
CIRCLE
  8
0_00
  6
CONTINUOUS
 62
2
 10
699.3945
 20
202.5693
 40
0.1000
  0
CIRCLE
  8
0_00
  6
CONTINUOUS
 62
2
 10
700.0079
 20
194.5950
 40
0.1000
  0
CIRCLE
  8
0_00
  6
CONTINUOUS
 62
2
 10
696.7875
 20
194.2883
 40
0.1000
  0
CIRCLE
  8
0_00
  6
CONTINUOUS
 62
2
 10
693.2604
 20
197.2020
 40
0.1000
  0
CIRCLE
  8
0_00
  6
CONTINUOUS
 62
2
 10
691.7269
 20
192.1413
 40
0.1000
  0
CIRCLE
  8
0_00
  6
CONTINUOUS
 62
2
 10
689.2732
 20
195.6684
 40
0.1000
  0
CIRCLE
  8
0_00
  6
CONTINUOUS
 62
2
 10
685.8995
 20
191.8346
 40
0.1000
  0
CIRCLE
  8
0_00
  6
CONTINUOUS
 62
2
 10
684.2126
 20
187.2340
 40
0.1000
  0
CIRCLE
  8
0_00
  6
CONTINUOUS
 62
2
 10
683.1391
 20
180.6399
 40
0.1000
  0
CIRCLE
  8
0_00
  6
CONTINUOUS
 62
2
 10
682.8324
 20
191.9880
 40
0.1000
  0
CIRCLE
  8
0_00
  6
CONTINUOUS
 62
2
 10
685.1327
 20
179.4130
 40
0.1000
  0
CIRCLE
  8
0_00
  6
CONTINUOUS
 62
2
 10
686.5129
 20
182.9402
 40
0.1000
  0
CIRCLE
  8
0_00
  6
CONTINUOUS
 62
2
 10
689.5800
 20
186.6206
 40
0.1000
  0
CIRCLE
  8
0_00
  6
CONTINUOUS
 62
2
 10
690.9601
 20
183.7069
 40
0.1000
  0
CIRCLE
  8
0_00
  6
CONTINUOUS
 62
2
 10
689.4266
 20
180.3332
 40
0.1000
  0
CIRCLE
  8
0_00
  6
CONTINUOUS
 62
2
 10
695.8674
 20
178.7996
 40
0.1000
  0
CIRCLE
  8
0_00
  6
CONTINUOUS
 62
2
 10
696.6342
 20
187.2340
 40
0.1000
  0
CIRCLE
  8
0_00
  6
CONTINUOUS
 62
2
 10
698.7811
 20
181.4066
 40
0.1000
  0
CIRCLE
  8
0_00
  6
CONTINUOUS
 62
2
 10
694.6406
 20
182.7868
 40
0.1000
  0
CIRCLE
  8
0_00
  6
CONTINUOUS
 62
2
 10
695.5607
 20
174.9658
 40
0.1000
  0
CIRCLE
  8
0_00
  6
CONTINUOUS
 62
2
 10
699.3945
 20
187.2340
 40
0.1000
  0
CIRCLE
  8
0_00
  6
CONTINUOUS
 62
2
 10
699.7012
 20
174.3524
 40
0.1000
  0
CIRCLE
  8
0_00
  6
CONTINUOUS
 62
2
 10
698.6277
 20
169.2917
 40
0.1000
  0
CIRCLE
  8
0_00
  6
CONTINUOUS
 62
2
 10
690.5001
 20
176.3460
 40
0.1000
  0
CIRCLE
  8
0_00
  6
CONTINUOUS
 62
2
 10
689.8866
 20
168.8317
 40
0.1000
  0
CIRCLE
  8
0_00
  6
CONTINUOUS
 62
2
 10
692.9537
 20
170.9786
 40
0.1000
  0
CIRCLE
  8
0_00
  6
CONTINUOUS
 62
2
 10
688.6598
 20
171.5920
 40
0.1000
  0
CIRCLE
  8
0_00
  6
CONTINUOUS
 62
2
 10
684.3660
 20
166.8381
 40
0.1000
  0
CIRCLE
  8
0_00
  6
CONTINUOUS
 62
2
 10
684.2126
 20
172.2055
 40
0.1000
  0
CIRCLE
  8
0_00
  6
CONTINUOUS
 62
2
 10
682.9857
 20
174.9658
 40
0.1000
  0
CIRCLE
  8
0_00
  6
CONTINUOUS
 62
2
 10
686.5129
 20
176.1926
 40
0.1000
  0
CIRCLE
  8
0_00
  6
CONTINUOUS
 62
2
 10
687.2797
 20
163.9244
 40
0.1000
  0
CIRCLE
  8
0_00
  6
CONTINUOUS
 62
2
 10
682.3723
 20
159.3238
 40
0.1000
  0
CIRCLE
  8
0_00
  6
CONTINUOUS
 62
2
 10
683.1391
 20
154.1098
 40
0.1000
  0
CIRCLE
  8
0_00
  6
CONTINUOUS
 62
2
 10
682.3723
 20
148.5891
 40
0.1000
  0
CIRCLE
  8
0_00
  6
CONTINUOUS
 62
2
 10
688.9666
 20
150.1227
 40
0.1000
  0
CIRCLE
  8
0_00
  6
CONTINUOUS
 62
2
 10
687.5863
 20
156.7168
 40
0.1000
  0
CIRCLE
  8
0_00
  6
CONTINUOUS
 62
2
 10
685.8995
 20
151.0428
 40
0.1000
  0
CIRCLE
  8
0_00
  6
CONTINUOUS
 62
2
 10
691.8802
 20
157.6369
 40
0.1000
  0
CIRCLE
  8
0_00
  6
CONTINUOUS
 62
2
 10
692.9537
 20
164.5378
 40
0.1000
  0
CIRCLE
  8
0_00
  6
CONTINUOUS
 62
2
 10
696.4808
 20
160.0906
 40
0.1000
  0
CIRCLE
  8
0_00
  6
CONTINUOUS
 62
2
 10
695.2540
 20
156.4101
 40
0.1000
  0
CIRCLE
  8
0_00
  6
CONTINUOUS
 62
2
 10
693.5671
 20
153.6498
 40
0.1000
  0
CIRCLE
  8
0_00
  6
CONTINUOUS
 62
2
 10
698.9344
 20
151.3495
 40
0.1000
  0
CIRCLE
  8
0_00
  6
CONTINUOUS
 62
2
 10
698.7811
 20
163.6177
 40
0.1000
  0
CIRCLE
  8
0_00
  6
CONTINUOUS
 62
2
 10
698.0143
 20
146.5955
 40
0.1000
  0
CIRCLE
  8
0_00
  6
CONTINUOUS
 62
2
 10
694.1805
 20
148.7425
 40
0.1000
  0
CIRCLE
  8
0_00
  6
CONTINUOUS
 62
2
 10
690.9601
 20
141.0748
 40
0.1000
  0
CIRCLE
  8
0_00
  6
CONTINUOUS
 62
2
 10
688.9666
 20
145.9821
 40
0.1000
  0
CIRCLE
  8
0_00
  6
CONTINUOUS
 62
2
 10
684.8260
 20
143.2218
 40
0.1000
  0
CIRCLE
  8
0_00
  6
CONTINUOUS
 62
2
 10
686.2062
 20
146.4422
 40
0.1000
  0
CIRCLE
  8
0_00
  6
CONTINUOUS
 62
2
 10
682.8324
 20
140.4614
 40
0.1000
  0
CIRCLE
  8
0_00
  6
CONTINUOUS
 62
2
 10
683.4458
 20
135.5541
 40
0.1000
  0
CIRCLE
  8
0_00
  6
CONTINUOUS
 62
2
 10
686.6663
 20
133.4072
 40
0.1000
  0
CIRCLE
  8
0_00
  6
CONTINUOUS
 62
2
 10
687.2797
 20
139.2346
 40
0.1000
  0
CIRCLE
  8
0_00
  6
CONTINUOUS
 62
2
 10
693.5671
 20
136.1675
 40
0.1000
  0
CIRCLE
  8
0_00
  6
CONTINUOUS
 62
2
 10
693.2604
 20
133.2538
 40
0.1000
  0
CIRCLE
  8
0_00
  6
CONTINUOUS
 62
2
 10
699.5479
 20
132.7938
 40
0.1000
  0
CIRCLE
  8
0_00
  6
CONTINUOUS
 62
2
 10
698.9344
 20
139.5413
 40
0.1000
  0
CIRCLE
  8
0_00
  6
CONTINUOUS
 62
2
 10
697.7076
 20
135.8608
 40
0.1000
  0
CIRCLE
  8
0_00
  6
CONTINUOUS
 62
2
 10
693.7205
 20
143.3751
 40
0.1000
  0
ARC
  8
12_0C
  6
CONTINUOUS
 62
2
 10
618.3706
 20
230.6561
 40
7.7000
 50
39.9831
 51
140.0169
  0
ARC
  8
0_00
  6
CONTINUOUS
 62
3
 10
726.4507
 20
48.1575
 40
0.3575
 50
270.0000
 51
450.0000
  0
ARC
  8
0_00
  6
CONTINUOUS
 62
3
 10
725.4562
 20
51.3750
 40
0.4355
 50
0.0000
 51
180.0000
  0
ARC
  8
0_00
  6
CONTINUOUS
 62
3
 10
726.1257
 20
55.6000
 40
1.3000
 50
333.9999
 51
450.0000
  0
CIRCLE
  8
0_00
  6
CONTINUOUS
 62
3
 10
726.7107
 20
58.2000
 40
1.0400
  0
ARC
  8
0_00
  6
CONTINUOUS
 62
3
 10
725.5208
 20
51.3750
 40
0.3000
 50
0.0000
 51
180.0000
  0
ARC
  8
0_00
  6
CONTINUOUS
 62
3
 10
725.5208
 20
51.3750
 40
0.1000
 50
0.0000
 51
180.0000
  0
ARC
  8
0_00
  6
CONTINUOUS
 62
3
 10
726.4507
 20
48.1150
 40
0.2000
 50
270.0000
 51
450.0000
  0
CIRCLE
  8
0_00
  6
CONTINUOUS
 62
3
 10
726.7107
 20
58.2000
 40
0.8830
  0
CIRCLE
  8
0_00
  6
CONTINUOUS
 62
3
 10
726.7107
 20
58.2000
 40
0.6837
  0
CIRCLE
  8
0_00
  6
CONTINUOUS
 62
3
 10
726.7107
 20
58.2000
 40
0.4684
  0
CIRCLE
  8
0_00
  6
CONTINUOUS
 62
3
 10
726.7107
 20
58.2000
 40
0.2293
  0
CIRCLE
  8
0_00
  6
CONTINUOUS
 62
3
 10
726.7107
 20
58.2000
 40
0.1133
  0
CIRCLE
  8
0_00
  6
CONTINUOUS
 62
4
 10
587.3607
 20
54.8000
 40
2.5000
  0
CIRCLE
  8
0_00
  6
CONTINUOUS
 62
4
 10
587.3607
 20
54.8000
 40
4.0000
  0
TEXT
  8
15_0F
 62
7
 10
517.2706
 20
346.2963
 40
5.00
 41
1.00
 50
0.0000
  1
１０
  0
TEXT
  8
15_0F
 62
7
 10
551.6284
 20
348.2756
 40
5.00
 41
1.00
 50
0.0000
  1
ｎ
  0
TEXT
  8
15_0F
 62
7
 10
587.1706
 20
346.2963
 40
5.00
 41
1.00
 50
0.0000
  1
躯体寸法（推奨寸法１３５）
  0
TEXT
  8
15_0F
 62
7
 10
680.9371
 20
347.7006
 40
5.00
 41
1.00
 50
0.0000
  1
ｎ
  0
TEXT
  8
15_0F
 62
7
 10
709.8706
 20
346.2963
 40
5.00
 41
1.00
 50
0.0000
  1
１０
  0
TEXT
  8
0_00
 62
7
 10
718.9325
 20
503.4665
 40
5.00
 41
1.00
 50
0.0000
  1
ブラケット１６５
  0
TEXT
  8
0_00
 62
7
 10
668.5913
 20
513.0421
 40
5.00
 41
1.00
 50
0.0000
  1
笠木１６５
  0
TEXT
  8
15_0F
 62
7
 10
597.2206
 20
338.2963
 40
5.00
 41
1.00
 50
0.0000
  1
（最大躯体寸法１４５）
  0
TEXT
  8
15_0F
 62
7
 10
136.8304
 20
346.2963
 40
5.00
 41
1.00
 50
0.0000
  1
１０
  0
TEXT
  8
15_0F
 62
7
 10
204.4804
 20
346.2963
 40
5.00
 41
1.00
 50
0.0000
  1
躯体寸法（推奨寸法１２０）
  0
TEXT
  8
15_0F
 62
7
 10
314.4304
 20
346.2963
 40
5.00
 41
1.00
 50
0.0000
  1
１０
  0
TEXT
  8
0_00
 62
7
 10
323.1590
 20
503.0826
 40
5.00
 41
1.00
 50
0.0000
  1
ブラケット１５０
  0
TEXT
  8
0_00
 62
7
 10
271.7150
 20
514.7255
 40
5.00
 41
1.00
 50
0.0000
  1
笠木１５０
  0
TEXT
  8
15_0F
 62
7
 10
209.2804
 20
338.2963
 40
5.00
 41
1.00
 50
0.0000
  1
（最大躯体寸法１３０）
  0
TEXT
  8
15_0F
 62
7
 10
284.0071
 20
346.7317
 40
5.00
 41
1.00
 50
0.0000
  1
ｎ
  0
TEXT
  8
15_0F
 62
7
 10
172.7470
 20
347.1485
 40
5.00
 41
1.00
 50
0.0000
  1
ｎ
  0
TEXT
  8
0_00
 62
7
 10
115.5533
 20
415.1643
 40
5.00
 41
1.00
 50
0.0000
  1
タッピンねじ・トラス
  0
TEXT
  8
0_00
 62
7
 10
127.5532
 20
407.1643
 40
5.00
 41
1.00
 50
0.0000
  1
φ５×５０
  0
TEXT
  8
15_0F
 62
7
 10
611.1706
 20
542.2963
 40
4.50
 41
0.75
 50
0.0000
  1
165
  0
TEXT
  8
15_0F
 62
7
 10
223.2304
 20
542.2963
 40
4.50
 41
0.75
 50
0.0000
  1
150
  0
TEXT
  8
15_0F
 62
7
 10
101.6805
 20
460.9563
 40
4.50
 41
0.75
 50
90.0000
  1
55
  0
TEXT
  8
15_0F
 62
7
 10
115.6805
 20
502.2561
 40
4.50
 41
0.75
 50
90.0000
  1
15
  0
TEXT
  8
15_0F
 62
7
 10
479.6805
 20
460.9563
 40
4.50
 41
0.75
 50
90.0000
  1
55
  0
TEXT
  8
15_0F
 62
7
 10
493.6805
 20
502.2561
 40
4.50
 41
0.75
 50
90.0000
  1
15
  0
TEXT
  8
0_00
 62
7
 10
115.9568
 20
396.2858
 40
5.00
 41
1.00
 50
0.0000
  1
下穴（φ３）現場加工
  0
TEXT
  8
0_00
 62
7
 10
118.7568
 20
388.2858
 40
5.00
 41
1.00
 50
0.0000
  1
下穴コーキング処理
  0
TEXT
  8
0_00
 62
7
 10
495.4934
 20
415.1643
 40
5.00
 41
1.00
 50
0.0000
  1
タッピンねじ・トラス
  0
TEXT
  8
0_00
 62
7
 10
507.4934
 20
407.1643
 40
5.00
 41
1.00
 50
0.0000
  1
φ５×５０
  0
TEXT
  8
0_00
 62
7
 10
495.8970
 20
396.2858
 40
5.00
 41
1.00
 50
0.0000
  1
下穴（φ３）現場加工
  0
TEXT
  8
0_00
 62
7
 10
498.6969
 20
388.2858
 40
5.00
 41
1.00
 50
0.0000
  1
下穴コーキング処理
  0
TEXT
  8
15_0F
 62
7
 10
121.8304
 20
99.7963
 40
5.00
 41
1.00
 50
0.0000
  1
１０
  0
TEXT
  8
15_0F
 62
7
 10
199.2304
 20
99.7963
 40
5.00
 41
1.00
 50
0.0000
  1
躯体寸法（推奨寸法１５０）
  0
TEXT
  8
15_0F
 62
7
 10
329.4304
 20
99.7963
 40
5.00
 41
1.00
 50
0.0000
  1
１０
  0
TEXT
  8
0_00
 62
7
 10
338.6811
 20
251.7063
 40
5.00
 41
1.00
 50
0.0000
  1
ブラケット１８０
  0
TEXT
  8
0_00
 62
7
 10
280.4899
 20
267.7484
 40
5.00
 41
1.00
 50
0.0000
  1
笠木１８０
  0
TEXT
  8
15_0F
 62
7
 10
203.2804
 20
91.7963
 40
5.00
 41
1.00
 50
0.0000
  1
（最大躯体寸法１６０）
  0
TEXT
  8
15_0F
 62
7
 10
299.0071
 20
100.2317
 40
5.00
 41
1.00
 50
0.0000
  1
ｎ
  0
TEXT
  8
15_0F
 62
7
 10
157.7470
 20
100.6485
 40
5.00
 41
1.00
 50
0.0000
  1
ｎ
  0
TEXT
  8
15_0F
 62
7
 10
87.6805
 20
214.4563
 40
4.50
 41
0.75
 50
90.0000
  1
55
  0
TEXT
  8
15_0F
 62
7
 10
101.6805
 20
255.7561
 40
4.50
 41
0.75
 50
90.0000
  1
15
  0
TEXT
  8
15_0F
 62
7
 10
223.2304
 20
295.7963
 40
4.50
 41
0.75
 50
0.0000
  1
180
  0
TEXT
  8
15_0F
 62
7
 10
502.2706
 20
99.7963
 40
5.00
 41
1.00
 50
0.0000
  1
１０
  0
TEXT
  8
15_0F
 62
7
 10
589.1706
 20
99.7963
 40
5.00
 41
1.00
 50
0.0000
  1
躯体寸法（推奨寸法１６５）
  0
TEXT
  8
15_0F
 62
7
 10
724.8706
 20
99.7963
 40
5.00
 41
1.00
 50
0.0000
  1
１０
  0
TEXT
  8
0_00
 62
7
 10
734.2143
 20
257.1286
 40
5.00
 41
1.00
 50
0.0000
  1
ブラケット１９５
  0
TEXT
  8
0_00
 62
7
 10
668.4301
 20
267.7484
 40
5.00
 41
1.00
 50
0.0000
  1
笠木１９５
  0
TEXT
  8
15_0F
 62
7
 10
593.7206
 20
91.7963
 40
5.00
 41
1.00
 50
0.0000
  1
（最大躯体寸法１７５）
  0
TEXT
  8
15_0F
 62
7
 10
694.4473
 20
100.2317
 40
5.00
 41
1.00
 50
0.0000
  1
ｎ
  0
TEXT
  8
15_0F
 62
7
 10
538.1872
 20
100.6485
 40
5.00
 41
1.00
 50
0.0000
  1
ｎ
  0
TEXT
  8
15_0F
 62
7
 10
464.6805
 20
214.4563
 40
4.50
 41
0.75
 50
90.0000
  1
55
  0
TEXT
  8
15_0F
 62
7
 10
478.6805
 20
255.7561
 40
4.50
 41
0.75
 50
90.0000
  1
15
  0
TEXT
  8
15_0F
 62
7
 10
611.1706
 20
295.7963
 40
4.50
 41
0.75
 50
0.0000
  1
195
  0
TEXT
  8
0_00
 62
7
 10
100.3033
 20
147.9100
 40
5.00
 41
1.00
 50
0.0000
  1
タッピンねじ・トラス
  0
TEXT
  8
0_00
 62
7
 10
112.3032
 20
139.9100
 40
5.00
 41
1.00
 50
0.0000
  1
φ５×５０
  0
TEXT
  8
0_00
 62
7
 10
100.7068
 20
129.0316
 40
5.00
 41
1.00
 50
0.0000
  1
下穴（φ３）現場加工
  0
TEXT
  8
0_00
 62
7
 10
103.5067
 20
121.0316
 40
5.00
 41
1.00
 50
0.0000
  1
下穴コーキング処理
  0
TEXT
  8
0_00
 62
7
 10
480.3231
 20
146.6889
 40
5.00
 41
1.00
 50
0.0000
  1
タッピンねじ・トラス
  0
TEXT
  8
0_00
 62
7
 10
492.3232
 20
138.6889
 40
5.00
 41
1.00
 50
0.0000
  1
φ５×５０
  0
TEXT
  8
0_00
 62
7
 10
480.7266
 20
127.8104
 40
5.00
 41
1.00
 50
0.0000
  1
下穴（φ３）現場加工
  0
TEXT
  8
0_00
 62
7
 10
483.5266
 20
119.8104
 40
5.00
 41
1.00
 50
0.0000
  1
下穴コーキング処理
  0
TEXT
  8
15_0F
 62
7
 10
549.4407
 20
46.8000
 40
5.00
 41
1.00
 50
0.0000
  1
１
  0
TEXT
  8
15_0F
 62
7
 10
568.4407
 20
46.8000
 40
5.00
 41
1.00
 50
0.0000
  1
２
  0
TEXT
  8
15_0F
 62
7
 10
469.5407
 20
49.8000
 40
5.00
 41
1.00
 50
0.0000
  1
納まり図
  0
TEXT
  8
15_0F
 62
7
 10
341.1407
 20
27.8000
 40
5.00
 41
1.00
 50
0.0000
  1
木造
  0
TEXT
  8
15_0F
 62
7
 10
341.1407
 20
47.8000
 40
5.00
 41
1.00
 50
0.0000
  1
低層
  0
TEXT
  8
15_0F
 62
7
 10
386.4407
 20
47.8000
 40
5.00
 41
1.00
 50
0.0000
  1
アルミ笠木
  0
TEXT
  8
15_0F
 62
7
 10
387.9073
 20
27.8000
 40
5.00
 41
1.00
 50
0.0000
  1
ＡＭ型
  0
TEXT
  8
15_0F
 62
7
 10
447.9407
 20
29.8000
 40
5.00
 41
1.00
 50
0.0000
  1
笠木１５０～１９５納まり図
  0
TEXT
  8
0_00
 62
7
 10
46.8603
 20
26.8000
 40
5.00
 41
1.00
 50
0.0000
  1
適用製品
  0
TEXT
  8
0_00
 62
7
 10
86.8603
 20
26.8000
 40
5.00
 41
1.00
 50
0.0000
  1
適用日付
  0
TEXT
  8
0_00
 62
7
 10
119.0603
 20
66.8000
 40
5.00
 41
1.00
 50
0.0000
  1
記事
  0
TEXT
  8
0_00
 62
7
 10
315.0407
 20
56.8000
 40
5.00
 41
1.00
 50
0.0000
  1
階層仕様
  0
TEXT
  8
0_00
 62
7
 10
315.0407
 20
36.8000
 40
5.00
 41
1.00
 50
0.0000
  1
適用躯体
  0
TEXT
  8
0_00
 62
7
 10
420.0407
 20
56.8000
 40
5.00
 41
1.00
 50
0.0000
  1
名　称
  0
TEXT
  8
0_00
 62
7
 10
420.0407
 20
36.8000
 40
5.00
 41
1.00
 50
0.0000
  1
図　名
  0
TEXT
  8
0_00
 62
7
 10
543.2912
 20
66.8305
 40
5.00
 41
1.00
 50
0.0000
  1
Ｎｏ．
  0
TEXT
  8
0_00
 62
7
 10
749.0407
 20
66.8000
 40
5.00
 41
1.00
 50
0.0000
  1
適　　　　　　　　用
  0
TEXT
  8
0_00
 62
7
 10
718.9407
 20
66.8000
 40
5.00
 41
1.00
 50
0.0000
  1
個数
  0
TEXT
  8
0_00
 62
7
 10
682.1407
 20
66.8000
 40
5.00
 41
1.00
 50
0.0000
  1
材　　質
  0
TEXT
  8
0_00
 62
7
 10
617.4407
 20
66.8000
 40
5.00
 41
1.00
 50
0.0000
  1
部　　　品　　　名
  0
TEXT
  8
0_00
 62
7
 10
597.2907
 20
66.8000
 40
5.00
 41
1.00
 50
0.0000
  1
品番
  0
TEXT
  8
0_00
 62
7
 10
567.2407
 20
66.8000
 40
5.00
 41
1.00
 50
0.0000
  1
図　　番
  0
TEXT
  8
0_00
 62
7
 10
544.4407
 20
56.8000
 40
5.00
 41
1.00
 50
0.0000
  1
尺度
  0
TEXT
  8
0_00
 62
7
 10
544.4407
 20
36.8000
 40
5.00
 41
1.00
 50
0.0000
  1
日付
  0
TEXT
  8
0_00
 62
7
 10
618.9294
 20
56.8000
 40
5.00
 41
1.00
 50
0.0000
  1
承認
  0
TEXT
  8
0_00
 62
7
 10
647.0406
 20
56.8000
 40
5.00
 41
1.00
 50
0.0000
  1
検図
  0
TEXT
  8
0_00
 62
7
 10
671.2407
 20
56.8000
 40
5.00
 41
1.00
 50
0.0000
  1
設計
  0
TEXT
  8
0_00
 62
7
 10
696.1407
 20
56.8000
 40
5.00
 41
1.00
 50
0.0000
  1
製図
  0
TEXT
  8
0_00
 62
7
 10
716.3407
 20
36.8000
 40
5.00
 41
1.00
 50
0.0000
  1
図番
  0
TEXT
  8
0_00
 62
2
 10
735.9479
 20
49.4900
 40
8.00
 41
1.00
 50
0.0000
  1
文化シヤッター株式会社
  0
TEXT
  8
0_00
 62
7
 10
133.8603
 20
575.3000
 40
5.00
 41
1.00
 50
180.0000
  1
図番
  0
TEXT
  8
0_00
 62
7
 10
532.7007
 20
569.3446
 40
4.00
 41
1.00
 50
0.0000
  1
ＮＯ
  0
TEXT
  8
0_00
 62
7
 10
550.1407
 20
569.3000
 40
5.00
 41
1.00
 50
0.0000
  1
個　数
  0
TEXT
  8
0_00
 62
7
 10
580.2407
 20
569.3000
 40
5.00
 41
1.00
 50
0.0000
  1
日　　付
  0
TEXT
  8
0_00
 62
7
 10
656.1407
 20
569.3000
 40
5.00
 41
1.00
 50
0.0000
  1
訂　　　正　　　記　　　事
  0
TEXT
  8
0_00
 62
7
 10
558.9407
 20
46.8000
 40
4.50
 41
0.75
 50
0.0000
  1
:
  0
TEXT
  8
0_00
 62
7
 10
758.5808
 20
17.8000
 40
4.00
 41
1.00
 50
0.0000
  1
ＪＩＳ　Ａ－３
  0
TEXT
  8
0_00
 62
7
 10
786.3323
 20
17.7988
 40
4.00
 41
1.00
 50
0.0000
  1
（２９７×４２０）
  0
TEXT
  8
0_00
 62
7
 10
768.7407
 20
569.3000
 40
5.00
 41
1.00
 50
0.0000
  1
担　当
  0
TEXT
  8
0_00
 62
7
 10
792.7407
 20
569.3000
 40
5.00
 41
1.00
 50
0.0000
  1
承　認
  0
TEXT
  8
0_00
 62
7
 10
367.5407
 20
56.8000
 40
5.00
 41
1.00
 50
0.0000
  1
機種名
  0
TEXT
  8
0_00
 62
7
 10
367.5407
 20
36.8000
 40
5.00
 41
1.00
 50
0.0000
  1
型　式
  0
POINT
  8
15_0F
 62
6
 10
545.8706
 20
345.2963
  0
POINT
  8
15_0F
 62
6
 10
690.8706
 20
345.2963
  0
POINT
  8
15_0F
 62
6
 10
165.4304
 20
345.2963
  0
POINT
  8
15_0F
 62
6
 10
295.4304
 20
345.2963
  0
POINT
  8
15_0F
 62
6
 10
150.4304
 20
98.7963
  0
POINT
  8
15_0F
 62
6
 10
310.4304
 20
98.7963
  0
POINT
  8
0_00
 62
5
 10
230.4304
 20
235.2561
  0
POINT
  8
0_00
 62
5
 10
230.4304
 20
231.7561
  0
POINT
  8
0_00
 62
5
 10
230.4304
 20
231.7561
  0
POINT
  8
0_00
 62
5
 10
618.3706
 20
231.7561
  0
POINT
  8
15_0F
 62
6
 10
530.8706
 20
98.7963
  0
POINT
  8
15_0F
 62
6
 10
705.8706
 20
98.7963
  0
POINT
  8
0_00
 62
2
 10
16.0603
 20
9.9994
  0
POINT
  8
0_00
 62
2
 10
16.0603
 20
9.9994
  0
POINT
  8
0_00
 62
2
 10
56.4603
 20
39.8000
  0
POINT
  8
0_00
 62
2
 10
56.4603
 20
49.8000
  0
POINT
  8
0_00
 62
2
 10
56.4603
 20
59.8000
  0
POINT
  8
0_00
 62
2
 10
56.4603
 20
69.8000
  0
POINT
  8
0_00
 62
2
 10
345.9407
 20
50.8000
  0
POINT
  8
0_00
 62
2
 10
345.9407
 20
30.8000
  0
POINT
  8
0_00
 62
2
 10
479.1407
 20
52.8000
  0
POINT
  8
0_00
 62
2
 10
479.1407
 20
32.8000
  0
POINT
  8
0_00
 62
2
 10
731.8407
 20
34.8000
  0
POINT
  8
0_00
 62
2
 10
676.0406
 20
39.8000
  0
POINT
  8
0_00
 62
2
 10
96.4603
 20
39.8000
  0
POINT
  8
0_00
 62
2
 10
96.4603
 20
49.8000
  0
POINT
  8
0_00
 62
2
 10
96.4603
 20
59.8000
  0
POINT
  8
0_00
 62
2
 10
96.4603
 20
69.8000
  0
POINT
  8
0_00
 62
2
 10
570.8407
 20
49.8000
  0
POINT
  8
0_00
 62
2
 10
551.8407
 20
49.8000
  0
POINT
  8
0_00
 62
2
 10
136.4603
 20
69.8000
  0
POINT
  8
0_00
 62
2
 10
136.4603
 20
59.8000
  0
POINT
  8
0_00
 62
2
 10
136.4603
 20
49.8000
  0
POINT
  8
0_00
 62
2
 10
136.4603
 20
39.8000
  0
POINT
  8
0_00
 62
2
 10
136.4603
 20
29.8001
  0
POINT
  8
0_00
 62
2
 10
700.9407
 20
39.8000
  0
POINT
  8
0_00
 62
2
 10
56.4603
 20
29.8001
  0
POINT
  8
0_00
 62
2
 10
96.4603
 20
29.8001
  0
POINT
  8
0_00
 62
2
 10
116.4603
 20
572.3000
  0
POINT
  8
0_00
 62
2
 10
575.0907
 20
32.8000
  0
POINT
  8
0_00
 62
2
 10
398.4407
 20
50.8000
  0
POINT
  8
0_00
 62
2
 10
398.4407
 20
30.8000
  0
ENDSEC
  0
EOF
