999
  
  0
SECTION
  2
HEADER
  9
$EXTMIN
 10
0
 20
0
  9
$EXTMAX
 10
840
 20
592
  9
$LTSCALE
 40
2.00
  9
$PDMODE
 70
33
  9
$PDSIZE
 40
1.20
  0
ENDSEC
  0
SECTION
  2
TABLES
  0
TABLE
  2
LTYPE
 70
9
  0
LTYPE
  2
CONTINUOUS
 70
64
  3
実線
 72
65
 73
0
 40
0.00
  0
LTYPE
  2
DASHED
 70
64
  3
__  __  __  __  __  __  __ 
 72
65
 73
2
 40
1.00
 49
0.50
 49
-0.50
  0
LTYPE
  2
HIDDEN1
 70
64
  3
____    ____    ____    ___
 72
65
 73
2
 40
2.20
 49
1.20
 49
-1.00
  0
LTYPE
  2
HIDDEN2
 70
64
  3
______  ______  ______  ___
 72
65
 73
2
 40
4.50
 49
3.50
 49
-1.00
  0
LTYPE
  2
CENTER1
 70
64
  3
_______ _ _______ _ _______
 72
65
 73
4
 40
20.00
 49
17.00
 49
-1.00
 49
1.00
 49
-1.00
  0
LTYPE
  2
CENTER2
 70
64
  3
___________  __  __________
 72
65
 73
4
 40
40.00
 49
34.00
 49
-2.00
 49
2.00
 49
-2.00
  0
LTYPE
  2
PHANTOM1
 70
64
  3
______ _ _ ______ _ _ _____
 72
65
 73
6
 40
20.00
 49
15.00
 49
-1.00
 49
1.00
 49
-1.00
 49
1.00
 49
-1.00
  0
LTYPE
  2
PHANTOM2
 70
64
  3
__________  _  _  _________
 72
65
 73
6
 40
40.00
 49
30.00
 49
-2.00
 49
2.00
 49
-2.00
 49
2.00
 49
-2.00
  0
LTYPE
  2
DOT
 70
64
  3
 .  .  .  .  .  .  .  .  . 
 72
65
 73
2
 40
1.00
 49
0.00
 49
-1.00
  0
ENDTAB
  0
TABLE
  2
STYLE
 70
1
  0
STYLE
  2
STANDARD
 70
64
 40
0.0
 41
1.0
 42
0.0
 50
0.0
 71
0
  3
ROMANS
  4
BIGFONT
  0
ENDTAB
  0
TABLE
  2
LAYER
 70
4
  0
LAYER
  2
0_00
 70
64
 62
7
  6
CONTINUOUS
  0
LAYER
  2
5_05
 70
64
 62
7
  6
CONTINUOUS
  0
LAYER
  2
12_0C
 70
64
 62
7
  6
CONTINUOUS
  0
LAYER
  2
15_0F
 70
64
 62
7
  6
CONTINUOUS
  0
ENDTAB
  0
ENDSEC
  0
SECTION
  2
ENTITIES
  0
LINE
  8
0_00
  6
CONTINUOUS
 62
7
 10
424.4005
 20
567.8000
 11
424.4005
 21
74.8000
  0
LINE
  8
0_00
  6
CONTINUOUS
 62
7
 10
36.4603
 20
321.3000
 11
812.3407
 21
321.3000
  0
LINE
  8
0_00
  6
CENTER1
 62
6
 10
230.4304
 20
504.8939
 11
230.4304
 21
370.3408
  0
LINE
  8
15_0F
  6
CONTINUOUS
 62
6
 10
135.4304
 20
373.2561
 11
135.4304
 21
342.2963
  0
LINE
  8
15_0F
  6
CONTINUOUS
 62
6
 10
125.4304
 20
345.2963
 11
135.4304
 21
345.2963
  0
LINE
  8
15_0F
  6
CONTINUOUS
 62
6
 10
103.8304
 20
345.2963
 11
125.4304
 21
345.2963
  0
LINE
  8
15_0F
  6
CONTINUOUS
 62
6
 10
125.4304
 20
345.2963
 11
120.5397
 21
346.3358
  0
LINE
  8
15_0F
  6
CONTINUOUS
 62
6
 10
125.4304
 20
345.2963
 11
120.5397
 21
344.2567
  0
LINE
  8
15_0F
  6
CONTINUOUS
 62
6
 10
142.4304
 20
373.2561
 11
142.4304
 21
342.2963
  0
LINE
  8
15_0F
  6
CONTINUOUS
 62
6
 10
135.4304
 20
345.2963
 11
142.4304
 21
345.2963
  0
LINE
  8
15_0F
  6
CONTINUOUS
 62
6
 10
318.4304
 20
373.2561
 11
318.4304
 21
342.2963
  0
LINE
  8
15_0F
  6
CONTINUOUS
 62
6
 10
142.4304
 20
345.2963
 11
318.4304
 21
345.2963
  0
LINE
  8
15_0F
  6
CONTINUOUS
 62
6
 10
142.4304
 20
345.2963
 11
147.3212
 21
344.2567
  0
LINE
  8
15_0F
  6
CONTINUOUS
 62
6
 10
142.4304
 20
345.2963
 11
147.3212
 21
346.3358
  0
LINE
  8
15_0F
  6
CONTINUOUS
 62
6
 10
318.4304
 20
345.2963
 11
313.5397
 21
346.3358
  0
LINE
  8
15_0F
  6
CONTINUOUS
 62
6
 10
318.4304
 20
345.2963
 11
313.5397
 21
344.2567
  0
LINE
  8
15_0F
  6
CONTINUOUS
 62
6
 10
325.4304
 20
373.2561
 11
325.4304
 21
342.2963
  0
LINE
  8
15_0F
  6
CONTINUOUS
 62
6
 10
318.4304
 20
345.2963
 11
325.4304
 21
345.2963
  0
LINE
  8
15_0F
  6
CONTINUOUS
 62
6
 10
335.4304
 20
434.9108
 11
335.4304
 21
342.2963
  0
LINE
  8
15_0F
  6
CONTINUOUS
 62
6
 10
325.4304
 20
345.2963
 11
335.4304
 21
345.2963
  0
LINE
  8
15_0F
  6
CONTINUOUS
 62
6
 10
357.0304
 20
345.2963
 11
335.4304
 21
345.2963
  0
LINE
  8
15_0F
  6
CONTINUOUS
 62
6
 10
335.4304
 20
345.2963
 11
340.3212
 21
344.2567
  0
LINE
  8
15_0F
  6
CONTINUOUS
 62
6
 10
335.4304
 20
345.2963
 11
340.3212
 21
346.3358
  0
LINE
  8
0_00
  6
CONTINUOUS
 62
6
 10
331.1298
 20
477.3688
 11
353.3018
 21
499.5408
  0
LINE
  8
0_00
  6
CONTINUOUS
 62
6
 10
331.1298
 20
477.3688
 11
335.3232
 21
480.0919
  0
LINE
  8
0_00
  6
CONTINUOUS
 62
6
 10
331.1298
 20
477.3688
 11
333.8530
 21
481.5621
  0
LINE
  8
0_00
  6
CONTINUOUS
 62
6
 10
353.3018
 20
499.5408
 11
397.7018
 21
499.5408
  0
LINE
  8
0_00
  6
CONTINUOUS
 62
6
 10
283.9304
 20
493.2561
 11
301.8578
 21
511.1836
  0
LINE
  8
0_00
  6
CONTINUOUS
 62
6
 10
283.9304
 20
493.2561
 11
288.1238
 21
495.9793
  0
LINE
  8
0_00
  6
CONTINUOUS
 62
6
 10
283.9304
 20
493.2561
 11
286.6536
 21
497.4495
  0
LINE
  8
0_00
  6
CONTINUOUS
 62
6
 10
301.8578
 20
511.1836
 11
331.8578
 21
511.1836
  0
LINE
  8
15_0F
  6
CONTINUOUS
 62
6
 10
125.4304
 20
386.4214
 11
125.4304
 21
342.2963
  0
LINE
  8
0_00
  6
CONTINUOUS
 62
6
 10
227.9304
 20
455.5415
 11
167.6748
 21
395.2858
  0
LINE
  8
0_00
  6
CONTINUOUS
 62
6
 10
227.9304
 20
455.5415
 11
223.7371
 21
452.8183
  0
LINE
  8
0_00
  6
CONTINUOUS
 62
6
 10
227.9304
 20
455.5415
 11
225.2072
 21
451.3481
  0
LINE
  8
0_00
  6
CONTINUOUS
 62
6
 10
186.5533
 20
414.1643
 11
82.5533
 21
414.1643
  0
LINE
  8
15_0F
  6
CONTINUOUS
 62
6
 10
335.4304
 20
498.2561
 11
335.4304
 21
544.2963
  0
LINE
  8
15_0F
  6
CONTINUOUS
 62
6
 10
125.4304
 20
498.2561
 11
125.4304
 21
544.2963
  0
LINE
  8
15_0F
  6
CONTINUOUS
 62
6
 10
125.4304
 20
541.2963
 11
335.4304
 21
541.2963
  0
LINE
  8
15_0F
  6
CONTINUOUS
 62
6
 10
125.4304
 20
541.2963
 11
130.3212
 21
540.2567
  0
LINE
  8
15_0F
  6
CONTINUOUS
 62
6
 10
125.4304
 20
541.2963
 11
130.3212
 21
542.3358
  0
LINE
  8
15_0F
  6
CONTINUOUS
 62
6
 10
335.4304
 20
541.2963
 11
330.5397
 21
542.3358
  0
LINE
  8
15_0F
  6
CONTINUOUS
 62
6
 10
335.4304
 20
541.2963
 11
330.5397
 21
540.2567
  0
LINE
  8
15_0F
  6
CONTINUOUS
 62
6
 10
120.4304
 20
438.2564
 11
71.6805
 21
438.2564
  0
LINE
  8
15_0F
  6
CONTINUOUS
 62
6
 10
120.4304
 20
493.2561
 11
71.6805
 21
493.2561
  0
LINE
  8
15_0F
  6
CONTINUOUS
 62
6
 10
74.6805
 20
493.2561
 11
74.6805
 21
438.2564
  0
LINE
  8
15_0F
  6
CONTINUOUS
 62
6
 10
74.6805
 20
493.2561
 11
73.6410
 21
488.3654
  0
LINE
  8
15_0F
  6
CONTINUOUS
 62
6
 10
74.6805
 20
493.2561
 11
75.7201
 21
488.3654
  0
LINE
  8
15_0F
  6
CONTINUOUS
 62
6
 10
74.6805
 20
438.2564
 11
75.7201
 21
443.1472
  0
LINE
  8
15_0F
  6
CONTINUOUS
 62
6
 10
74.6805
 20
438.2564
 11
73.6410
 21
443.1472
  0
LINE
  8
15_0F
  6
CONTINUOUS
 62
6
 10
120.4304
 20
478.2561
 11
85.6805
 21
478.2561
  0
LINE
  8
15_0F
  6
CONTINUOUS
 62
6
 10
88.6805
 20
493.2561
 11
88.6805
 21
478.2561
  0
LINE
  8
15_0F
  6
CONTINUOUS
 62
6
 10
88.6805
 20
514.8561
 11
88.6805
 21
493.2561
  0
LINE
  8
15_0F
  6
CONTINUOUS
 62
6
 10
88.6805
 20
493.2561
 11
89.7201
 21
498.1469
  0
LINE
  8
15_0F
  6
CONTINUOUS
 62
6
 10
88.6805
 20
493.2561
 11
87.6410
 21
498.1469
  0
LINE
  8
15_0F
  6
CONTINUOUS
 62
6
 10
88.6805
 20
468.2561
 11
88.6805
 21
478.2561
  0
LINE
  8
15_0F
  6
CONTINUOUS
 62
6
 10
88.6805
 20
478.2561
 11
87.6410
 21
473.3654
  0
LINE
  8
15_0F
  6
CONTINUOUS
 62
6
 10
88.6805
 20
478.2561
 11
89.7201
 21
473.3654
  0
LINE
  8
0_00
  6
CONTINUOUS
 62
6
 10
125.4304
 20
422.8006
 11
125.4304
 21
434.9108
  0
LINE
  8
0_00
  6
CONTINUOUS
 62
6
 10
167.6748
 20
395.2858
 11
82.5533
 21
395.2858
  0
LINE
  8
0_00
  6
CONTINUOUS
 62
4
 10
230.2304
 20
491.5561
 11
145.7334
 21
491.5561
  0
LINE
  8
0_00
  6
CONTINUOUS
 62
4
 10
230.6304
 20
491.5561
 11
315.1274
 21
491.5561
  0
LINE
  8
0_00
  6
CONTINUOUS
 62
4
 10
315.1274
 20
493.2561
 11
145.7334
 21
493.2561
  0
LINE
  8
0_00
  6
CONTINUOUS
 62
4
 10
230.2304
 20
491.5561
 11
230.4304
 21
491.7561
  0
LINE
  8
0_00
  6
CONTINUOUS
 62
4
 10
230.4304
 20
491.7561
 11
230.6304
 21
491.5561
  0
LINE
  8
0_00
  6
CONTINUOUS
 62
4
 10
125.4306
 20
485.0667
 11
125.6493
 21
453.7338
  0
LINE
  8
0_00
  6
CONTINUOUS
 62
4
 10
127.4470
 20
439.7460
 11
127.3770
 21
449.7696
  0
LINE
  8
0_00
  6
CONTINUOUS
 62
4
 10
128.7484
 20
439.5551
 11
128.6734
 21
450.3001
  0
LINE
  8
0_00
  6
CONTINUOUS
 62
4
 10
126.8831
 20
477.5430
 11
127.1852
 21
477.2451
  0
LINE
  8
0_00
  6
CONTINUOUS
 62
4
 10
126.8873
 20
476.9430
 11
127.1852
 21
477.2451
  0
LINE
  8
0_00
  6
CONTINUOUS
 62
4
 10
126.9041
 20
474.5431
 11
127.2062
 21
474.2452
  0
LINE
  8
0_00
  6
CONTINUOUS
 62
4
 10
126.9083
 20
473.9431
 11
127.2062
 21
474.2452
  0
LINE
  8
0_00
  6
CONTINUOUS
 62
4
 10
130.5823
 20
454.7626
 11
130.7892
 21
455.1267
  0
LINE
  8
0_00
  6
CONTINUOUS
 62
4
 10
130.7892
 20
455.1267
 11
129.4850
 21
455.8677
  0
LINE
  8
0_00
  6
CONTINUOUS
 62
4
 10
129.4850
 20
455.8677
 11
129.2781
 21
455.5035
  0
LINE
  8
0_00
  6
CONTINUOUS
 62
4
 10
128.1449
 20
455.1913
 11
127.7807
 21
455.3983
  0
LINE
  8
0_00
  6
CONTINUOUS
 62
4
 10
127.7807
 20
455.3983
 11
127.0398
 21
454.0940
  0
LINE
  8
0_00
  6
CONTINUOUS
 62
4
 10
127.0398
 20
454.0940
 11
127.4040
 21
453.8871
  0
LINE
  8
0_00
  6
CONTINUOUS
 62
4
 10
127.7161
 20
452.7539
 11
127.5092
 21
452.3897
  0
LINE
  8
0_00
  6
CONTINUOUS
 62
4
 10
127.5092
 20
452.3897
 11
128.8135
 21
451.6488
  0
LINE
  8
0_00
  6
CONTINUOUS
 62
4
 10
128.8135
 20
451.6488
 11
129.0204
 21
452.0130
  0
LINE
  8
0_00
  6
CONTINUOUS
 62
4
 10
131.9184
 20
454.5838
 11
131.5658
 21
453.9631
  0
LINE
  8
0_00
  6
CONTINUOUS
 62
4
 10
129.8580
 20
450.9569
 11
130.2107
 21
451.5776
  0
LINE
  8
0_00
  6
CONTINUOUS
 62
4
 10
130.5181
 20
491.0388
 11
144.1368
 21
493.1341
  0
LINE
  8
0_00
  6
CONTINUOUS
 62
4
 10
126.8308
 20
485.0325
 11
126.8413
 21
483.5428
  0
LINE
  8
0_00
  6
CONTINUOUS
 62
4
 10
126.8454
 20
482.9428
 11
126.8622
 21
480.5429
  0
LINE
  8
0_00
  6
CONTINUOUS
 62
4
 10
126.8664
 20
479.9429
 11
126.8831
 21
477.5430
  0
LINE
  8
0_00
  6
CONTINUOUS
 62
4
 10
126.8873
 20
476.9430
 11
126.9041
 21
474.5431
  0
LINE
  8
0_00
  6
CONTINUOUS
 62
4
 10
126.9083
 20
473.9431
 11
126.9620
 21
466.2433
  0
LINE
  8
0_00
  6
CONTINUOUS
 62
4
 10
126.9857
 20
462.8434
 11
127.0188
 21
458.1069
  0
LINE
  8
0_00
  6
CONTINUOUS
 62
4
 10
330.3428
 20
491.0388
 11
316.7241
 21
493.1341
  0
LINE
  8
0_00
  6
CONTINUOUS
 62
4
 10
128.9575
 20
438.2566
 11
129.8897
 21
438.2630
  0
LINE
  8
0_00
  6
CONTINUOUS
 62
4
 10
128.7484
 20
439.5551
 11
129.8806
 21
439.5630
  0
LINE
  8
0_00
  6
CONTINUOUS
 62
4
 10
335.4303
 20
485.0667
 11
335.2115
 21
453.7338
  0
LINE
  8
0_00
  6
CONTINUOUS
 62
4
 10
333.4138
 20
439.7460
 11
333.4838
 21
449.7696
  0
LINE
  8
0_00
  6
CONTINUOUS
 62
4
 10
332.1125
 20
439.5551
 11
332.1875
 21
450.3001
  0
LINE
  8
0_00
  6
CONTINUOUS
 62
4
 10
334.0300
 20
485.0325
 11
334.0196
 21
483.5428
  0
LINE
  8
0_00
  6
CONTINUOUS
 62
4
 10
334.0154
 20
482.9428
 11
333.9987
 21
480.5429
  0
LINE
  8
0_00
  6
CONTINUOUS
 62
4
 10
331.9034
 20
438.2566
 11
330.9712
 21
438.2630
  0
LINE
  8
0_00
  6
CONTINUOUS
 62
4
 10
332.1125
 20
439.5551
 11
330.9803
 21
439.5630
  0
LINE
  8
0_00
  6
CONTINUOUS
 62
4
 10
126.8622
 20
480.5429
 11
127.1643
 21
480.2450
  0
LINE
  8
0_00
  6
CONTINUOUS
 62
4
 10
126.8664
 20
479.9429
 11
127.1643
 21
480.2450
  0
LINE
  8
5_05
  6
CONTINUOUS
 62
2
 10
282.2304
 20
491.5561
 11
282.2304
 21
489.2562
  0
LINE
  8
5_05
  6
CONTINUOUS
 62
2
 10
292.2304
 20
491.5561
 11
292.2304
 21
489.2562
  0
LINE
  8
5_05
  6
CONTINUOUS
 62
2
 10
168.6304
 20
491.5561
 11
168.6304
 21
489.2562
  0
LINE
  8
5_05
  6
CONTINUOUS
 62
2
 10
178.6304
 20
491.5561
 11
178.6304
 21
489.2562
  0
LINE
  8
0_00
  6
CONTINUOUS
 62
4
 10
127.9690
 20
465.2502
 11
129.2690
 21
465.2594
  0
LINE
  8
0_00
  6
CONTINUOUS
 62
4
 10
127.9788
 20
463.8503
 11
129.2787
 21
463.8594
  0
LINE
  8
0_00
  6
CONTINUOUS
 62
4
 10
333.9777
 20
477.5430
 11
333.6756
 21
477.2451
  0
LINE
  8
0_00
  6
CONTINUOUS
 62
4
 10
333.9735
 20
476.9430
 11
333.6756
 21
477.2451
  0
LINE
  8
0_00
  6
CONTINUOUS
 62
4
 10
333.9568
 20
474.5431
 11
333.6547
 21
474.2452
  0
LINE
  8
0_00
  6
CONTINUOUS
 62
4
 10
333.9526
 20
473.9431
 11
333.6547
 21
474.2452
  0
LINE
  8
0_00
  6
CONTINUOUS
 62
4
 10
330.2785
 20
454.7626
 11
330.0716
 21
455.1267
  0
LINE
  8
0_00
  6
CONTINUOUS
 62
4
 10
330.0716
 20
455.1267
 11
331.3759
 21
455.8677
  0
LINE
  8
0_00
  6
CONTINUOUS
 62
4
 10
331.3759
 20
455.8677
 11
331.5828
 21
455.5035
  0
LINE
  8
0_00
  6
CONTINUOUS
 62
4
 10
332.7159
 20
455.1913
 11
333.0801
 21
455.3983
  0
LINE
  8
0_00
  6
CONTINUOUS
 62
4
 10
333.0801
 20
455.3983
 11
333.8210
 21
454.0940
  0
LINE
  8
0_00
  6
CONTINUOUS
 62
4
 10
333.8210
 20
454.0940
 11
333.4568
 21
453.8871
  0
LINE
  8
0_00
  6
CONTINUOUS
 62
4
 10
333.1447
 20
452.7539
 11
333.3516
 21
452.3897
  0
LINE
  8
0_00
  6
CONTINUOUS
 62
4
 10
333.3516
 20
452.3897
 11
332.0474
 21
451.6488
  0
LINE
  8
0_00
  6
CONTINUOUS
 62
4
 10
332.0474
 20
451.6488
 11
331.8405
 21
452.0130
  0
LINE
  8
0_00
  6
CONTINUOUS
 62
4
 10
328.9424
 20
454.5838
 11
329.2951
 21
453.9631
  0
LINE
  8
0_00
  6
CONTINUOUS
 62
4
 10
331.0028
 20
450.9569
 11
330.6502
 21
451.5776
  0
LINE
  8
0_00
  6
CONTINUOUS
 62
4
 10
333.9945
 20
479.9429
 11
333.9777
 21
477.5430
  0
LINE
  8
0_00
  6
CONTINUOUS
 62
4
 10
333.9735
 20
476.9430
 11
333.9568
 21
474.5431
  0
LINE
  8
0_00
  6
CONTINUOUS
 62
4
 10
333.9526
 20
473.9431
 11
333.8988
 21
466.2433
  0
LINE
  8
0_00
  6
CONTINUOUS
 62
4
 10
333.8751
 20
462.8434
 11
333.8420
 21
458.1069
  0
LINE
  8
0_00
  6
CONTINUOUS
 62
4
 10
333.9987
 20
480.5429
 11
333.6966
 21
480.2450
  0
LINE
  8
0_00
  6
CONTINUOUS
 62
4
 10
333.9945
 20
479.9429
 11
333.6966
 21
480.2450
  0
LINE
  8
0_00
  6
CONTINUOUS
 62
4
 10
332.8919
 20
465.2502
 11
331.5919
 21
465.2594
  0
LINE
  8
0_00
  6
CONTINUOUS
 62
4
 10
332.8821
 20
463.8503
 11
331.5821
 21
463.8594
  0
LINE
  8
0_00
  6
CONTINUOUS
 62
4
 10
126.8413
 20
483.5428
 11
127.1433
 21
483.2449
  0
LINE
  8
0_00
  6
CONTINUOUS
 62
4
 10
126.8454
 20
482.9428
 11
127.1433
 21
483.2449
  0
LINE
  8
0_00
  6
CONTINUOUS
 62
4
 10
334.0196
 20
483.5428
 11
333.7175
 21
483.2449
  0
LINE
  8
0_00
  6
CONTINUOUS
 62
4
 10
334.0154
 20
482.9428
 11
333.7175
 21
483.2449
  0
LINE
  8
0_00
  6
CONTINUOUS
 62
4
 10
130.4769
 20
489.3125
 11
144.3953
 21
491.4538
  0
LINE
  8
0_00
  6
CONTINUOUS
 62
4
 10
316.4656
 20
491.4538
 11
330.3840
 21
489.3125
  0
LINE
  8
0_00
  6
PHANTOM1
 62
2
 10
325.4304
 20
478.2561
 11
325.4304
 21
378.2561
  0
LINE
  8
0_00
  6
PHANTOM1
 62
2
 10
135.4304
 20
478.2561
 11
135.4304
 21
378.2561
  0
LINE
  8
0_00
  6
CONTINUOUS
 62
4
 10
185.4304
 20
460.2561
 11
185.4304
 21
378.2561
  0
LINE
  8
0_00
  6
CONTINUOUS
 62
4
 10
160.4304
 20
460.2561
 11
160.4304
 21
378.2561
  0
LINE
  8
0_00
  6
CONTINUOUS
 62
4
 10
142.4304
 20
460.2561
 11
318.4304
 21
460.2561
  0
LINE
  8
0_00
  6
CONTINUOUS
 62
4
 10
275.4304
 20
460.2561
 11
275.4304
 21
378.2561
  0
LINE
  8
0_00
  6
CONTINUOUS
 62
4
 10
300.4304
 20
460.2561
 11
300.4304
 21
378.2561
  0
LINE
  8
0_00
  6
CONTINUOUS
 62
4
 10
300.4304
 20
415.2561
 11
275.4304
 21
415.2561
  0
LINE
  8
0_00
  6
CONTINUOUS
 62
4
 10
185.4304
 20
415.2561
 11
160.4304
 21
415.2561
  0
LINE
  8
0_00
  6
CONTINUOUS
 62
4
 10
275.4304
 20
460.2561
 11
193.4304
 21
378.2561
  0
LINE
  8
0_00
  6
CONTINUOUS
 62
4
 10
267.4304
 20
378.2561
 11
185.4304
 21
460.2561
  0
LINE
  8
0_00
  6
CONTINUOUS
 62
4
 10
185.4304
 20
460.2561
 11
160.4304
 21
415.2561
  0
LINE
  8
0_00
  6
CONTINUOUS
 62
4
 10
300.4304
 20
460.2561
 11
275.4304
 21
415.2561
  0
LINE
  8
0_00
  6
CONTINUOUS
 62
4
 10
318.4304
 20
445.2561
 11
300.4304
 21
445.2561
  0
LINE
  8
0_00
  6
CONTINUOUS
 62
4
 10
318.4304
 20
478.2561
 11
318.4304
 21
460.2561
  0
LINE
  8
0_00
  6
CONTINUOUS
 62
4
 10
318.4304
 20
445.2561
 11
318.4304
 21
378.2561
  0
LINE
  8
0_00
  6
CONTINUOUS
 62
4
 10
160.4304
 20
445.2561
 11
142.4304
 21
445.2561
  0
LINE
  8
0_00
  6
CONTINUOUS
 62
4
 10
142.4304
 20
478.2561
 11
142.4304
 21
460.2561
  0
LINE
  8
0_00
  6
CONTINUOUS
 62
4
 10
142.4304
 20
445.2561
 11
142.4304
 21
378.2561
  0
LINE
  8
0_00
  6
CONTINUOUS
 62
6
 10
302.2104
 20
460.2561
 11
300.4304
 21
458.4762
  0
LINE
  8
0_00
  6
CONTINUOUS
 62
6
 10
305.0388
 20
460.2561
 11
300.4304
 21
455.6478
  0
LINE
  8
0_00
  6
CONTINUOUS
 62
6
 10
307.8672
 20
460.2561
 11
300.4304
 21
452.8193
  0
LINE
  8
0_00
  6
CONTINUOUS
 62
6
 10
310.6956
 20
460.2561
 11
300.4304
 21
449.9909
  0
LINE
  8
0_00
  6
CONTINUOUS
 62
6
 10
313.5240
 20
460.2561
 11
300.4304
 21
447.1624
  0
LINE
  8
0_00
  6
CONTINUOUS
 62
6
 10
316.3525
 20
460.2561
 11
301.3525
 21
445.2561
  0
LINE
  8
0_00
  6
CONTINUOUS
 62
6
 10
315.8746
 20
456.9498
 11
304.1809
 21
445.2561
  0
LINE
  8
0_00
  6
CONTINUOUS
 62
6
 10
314.9399
 20
453.1867
 11
307.0093
 21
445.2561
  0
LINE
  8
0_00
  6
CONTINUOUS
 62
6
 10
315.1729
 20
450.5912
 11
309.8378
 21
445.2561
  0
LINE
  8
0_00
  6
CONTINUOUS
 62
6
 10
315.9063
 20
448.4962
 11
312.6662
 21
445.2561
  0
LINE
  8
0_00
  6
CONTINUOUS
 62
6
 10
316.9896
 20
446.7511
 11
315.4946
 21
445.2561
  0
LINE
  8
0_00
  6
CONTINUOUS
 62
6
 10
144.5071
 20
460.2561
 11
143.4820
 21
459.2310
  0
LINE
  8
0_00
  6
CONTINUOUS
 62
6
 10
147.3356
 20
460.2561
 11
144.6591
 21
457.5796
  0
LINE
  8
0_00
  6
CONTINUOUS
 62
6
 10
150.1640
 20
460.2561
 11
145.5080
 21
455.6002
  0
LINE
  8
0_00
  6
CONTINUOUS
 62
6
 10
152.9924
 20
460.2561
 11
145.9210
 21
453.1848
  0
LINE
  8
0_00
  6
CONTINUOUS
 62
6
 10
155.8209
 20
460.2561
 11
145.5215
 21
449.9568
  0
LINE
  8
0_00
  6
CONTINUOUS
 62
6
 10
158.6493
 20
460.2561
 11
143.6493
 21
445.2561
  0
LINE
  8
0_00
  6
CONTINUOUS
 62
6
 10
160.4304
 20
459.2088
 11
146.4777
 21
445.2561
  0
LINE
  8
0_00
  6
CONTINUOUS
 62
6
 10
160.4304
 20
456.3804
 11
149.3062
 21
445.2561
  0
LINE
  8
0_00
  6
CONTINUOUS
 62
6
 10
160.4304
 20
453.5520
 11
152.1346
 21
445.2561
  0
LINE
  8
0_00
  6
CONTINUOUS
 62
6
 10
160.4304
 20
450.7236
 11
154.9630
 21
445.2561
  0
LINE
  8
0_00
  6
CONTINUOUS
 62
6
 10
160.4304
 20
447.8951
 11
157.7914
 21
445.2561
  0
LINE
  8
0_00
  6
CONTINUOUS
 62
2
 10
152.0203
 20
478.2561
 11
142.4304
 21
468.6663
  0
LINE
  8
0_00
  6
CONTINUOUS
 62
2
 10
149.1918
 20
478.2561
 11
142.4304
 21
471.4947
  0
LINE
  8
0_00
  6
CONTINUOUS
 62
2
 10
184.5472
 20
478.2561
 11
166.5472
 21
460.2561
  0
LINE
  8
0_00
  6
CONTINUOUS
 62
2
 10
187.3756
 20
478.2561
 11
169.3756
 21
460.2561
  0
LINE
  8
0_00
  6
CONTINUOUS
 62
2
 10
219.9025
 20
478.2561
 11
201.9025
 21
460.2561
  0
LINE
  8
0_00
  6
CONTINUOUS
 62
2
 10
222.7309
 20
478.2561
 11
204.7309
 21
460.2561
  0
LINE
  8
0_00
  6
CONTINUOUS
 62
2
 10
255.2579
 20
478.2561
 11
237.2578
 21
460.2561
  0
LINE
  8
0_00
  6
CONTINUOUS
 62
2
 10
258.0863
 20
478.2561
 11
240.0863
 21
460.2561
  0
LINE
  8
0_00
  6
CONTINUOUS
 62
2
 10
153.0891
 20
445.2561
 11
142.4304
 21
434.5974
  0
LINE
  8
0_00
  6
CONTINUOUS
 62
2
 10
150.2607
 20
445.2561
 11
142.4304
 21
437.4258
  0
LINE
  8
0_00
  6
CONTINUOUS
 62
2
 10
160.4304
 20
420.0705
 11
142.4304
 21
402.0705
  0
LINE
  8
0_00
  6
CONTINUOUS
 62
2
 10
160.4304
 20
417.2421
 11
142.4304
 21
399.2421
  0
LINE
  8
0_00
  6
CONTINUOUS
 62
2
 10
160.4304
 20
384.7151
 11
153.9714
 21
378.2561
  0
LINE
  8
0_00
  6
CONTINUOUS
 62
2
 10
160.4304
 20
381.8867
 11
156.7998
 21
378.2561
  0
LINE
  8
0_00
  6
CONTINUOUS
 62
2
 10
311.0891
 20
445.2561
 11
300.4304
 21
434.5974
  0
LINE
  8
0_00
  6
CONTINUOUS
 62
2
 10
308.2607
 20
445.2561
 11
300.4304
 21
437.4258
  0
LINE
  8
0_00
  6
CONTINUOUS
 62
2
 10
318.4304
 20
420.0705
 11
300.4304
 21
402.0705
  0
LINE
  8
0_00
  6
CONTINUOUS
 62
2
 10
318.4304
 20
417.2421
 11
300.4304
 21
399.2421
  0
LINE
  8
0_00
  6
CONTINUOUS
 62
2
 10
318.4304
 20
384.7151
 11
311.9714
 21
378.2561
  0
LINE
  8
0_00
  6
CONTINUOUS
 62
2
 10
318.4304
 20
381.8867
 11
314.7998
 21
378.2561
  0
LINE
  8
0_00
  6
CONTINUOUS
 62
2
 10
293.4416
 20
478.2561
 11
275.4416
 21
460.2561
  0
LINE
  8
0_00
  6
CONTINUOUS
 62
2
 10
290.6132
 20
478.2561
 11
272.6132
 21
460.2561
  0
LINE
  8
0_00
  6
CONTINUOUS
 62
2
 10
318.4304
 20
467.8896
 11
310.7969
 21
460.2561
  0
LINE
  8
0_00
  6
CONTINUOUS
 62
2
 10
318.4304
 20
470.7180
 11
307.9685
 21
460.2561
  0
LINE
  8
0_00
  6
CENTER1
 62
6
 10
518.8269
 20
454.9024
 11
801.5637
 21
454.9024
  0
LINE
  8
0_00
  6
CONTINUOUS
 62
4
 10
495.7264
 20
487.9024
 11
533.7303
 21
487.9024
  0
LINE
  8
0_00
  6
CONTINUOUS
 62
4
 10
561.7264
 20
421.9024
 11
590.6796
 21
421.9024
  0
LINE
  8
0_00
  6
DASHED
 62
2
 10
487.8269
 20
487.9024
 11
495.7264
 21
487.9024
  0
LINE
  8
0_00
  6
DASHED
 62
2
 10
487.8269
 20
487.9024
 11
553.8269
 21
421.9024
  0
LINE
  8
0_00
  6
DASHED
 62
2
 10
514.4857
 20
486.2834
 11
514.9639
 21
485.8052
  0
LINE
  8
0_00
  6
DASHED
 62
2
 10
504.3757
 20
487.3424
 11
504.5580
 21
487.1601
  0
LINE
  8
0_00
  6
DASHED
 62
2
 10
487.0200
 20
487.3494
 11
503.6334
 21
487.3494
  0
LINE
  8
0_00
  6
DASHED
 62
2
 10
503.6334
 20
487.3494
 11
503.8227
 21
487.1601
  0
LINE
  8
0_00
  6
DASHED
 62
2
 10
503.8227
 20
487.1601
 11
504.5580
 21
487.1601
  0
LINE
  8
0_00
  6
DASHED
 62
2
 10
514.3982
 20
485.8052
 11
514.9639
 21
485.8052
  0
LINE
  8
0_00
  6
DASHED
 62
2
 10
514.4857
 20
486.2834
 11
515.1645
 21
486.2834
  0
LINE
  8
0_00
  6
DASHED
 62
2
 10
504.3757
 20
487.3424
 11
512.8610
 21
487.3424
  0
LINE
  8
0_00
  6
DASHED
 62
2
 10
486.7000
 20
487.0294
 11
487.0200
 21
487.3494
  0
LINE
  8
0_00
  6
CONTINUOUS
 62
7
 10
484.0669
 20
489.6624
 11
553.5869
 21
420.1425
  0
LINE
  8
0_00
  6
CONTINUOUS
 62
7
 10
494.2174
 20
489.3349
 11
484.0669
 21
489.6624
  0
LINE
  8
0_00
  6
CONTINUOUS
 62
7
 10
484.3944
 20
479.5119
 11
484.0669
 21
489.6624
  0
LINE
  8
0_00
  6
CONTINUOUS
 62
7
 10
553.2727
 20
411.0330
 11
553.5869
 21
420.1425
  0
LINE
  8
0_00
  6
CONTINUOUS
 62
7
 10
552.9314
 20
410.8984
 11
484.4529
 21
479.3770
  0
LINE
  8
0_00
  6
CENTER1
 62
6
 10
518.8269
 20
454.9024
 11
518.8269
 21
332.9934
  0
LINE
  8
0_00
  6
CONTINUOUS
 62
4
 10
485.8269
 20
478.0029
 11
485.8269
 21
344.1678
  0
LINE
  8
0_00
  6
CONTINUOUS
 62
4
 10
551.8269
 20
412.0029
 11
551.8269
 21
344.1678
  0
LINE
  8
0_00
  6
DASHED
 62
2
 10
553.8269
 20
421.9024
 11
561.7264
 21
421.9024
  0
LINE
  8
0_00
  6
CENTER1
 62
6
 10
476.5183
 20
497.2110
 11
563.7860
 21
409.9433
  0
LINE
  8
0_00
  6
DASHED
 62
2
 10
569.0733
 20
422.6448
 11
569.2557
 21
422.4624
  0
LINE
  8
0_00
  6
DASHED
 62
2
 10
551.2738
 20
422.4556
 11
568.5272
 21
422.4556
  0
LINE
  8
0_00
  6
DASHED
 62
2
 10
568.3380
 20
422.6448
 11
569.0733
 21
422.6448
  0
LINE
  8
0_00
  6
DASHED
 62
2
 10
568.3380
 20
422.6448
 11
568.5272
 21
422.4556
  0
LINE
  8
0_00
  6
DASHED
 62
2
 10
577.2476
 20
423.5215
 11
577.9265
 21
423.5215
  0
LINE
  8
0_00
  6
DASHED
 62
2
 10
576.2038
 20
423.9996
 11
576.7695
 21
423.9996
  0
LINE
  8
0_00
  6
DASHED
 62
2
 10
576.2038
 20
423.9996
 11
577.7410
 21
422.4624
  0
LINE
  8
0_00
  6
DASHED
 62
2
 10
569.2557
 20
422.4624
 11
577.7410
 21
422.4624
  0
LINE
  8
0_00
  6
CONTINUOUS
 62
7
 10
494.3524
 20
489.2764
 11
562.8309
 21
420.7979
  0
LINE
  8
0_00
  6
CONTINUOUS
 62
7
 10
562.6964
 20
420.4567
 11
553.5869
 21
420.1425
  0
LINE
  8
0_00
  6
DASHED
 62
2
 10
485.8269
 20
485.9024
 11
485.8269
 21
478.0029
  0
LINE
  8
0_00
  6
DASHED
 62
2
 10
485.8269
 20
485.9024
 11
551.8269
 21
419.9025
  0
LINE
  8
0_00
  6
DASHED
 62
2
 10
487.4459
 20
459.2437
 11
487.9241
 21
458.7654
  0
LINE
  8
0_00
  6
DASHED
 62
2
 10
486.3869
 20
469.3536
 11
486.5693
 21
469.1713
  0
LINE
  8
0_00
  6
DASHED
 62
2
 10
486.3800
 20
486.7093
 11
486.3800
 21
470.0960
  0
LINE
  8
0_00
  6
DASHED
 62
2
 10
486.3800
 20
470.0960
 11
486.5693
 21
469.9067
  0
LINE
  8
0_00
  6
DASHED
 62
2
 10
486.5693
 20
469.9067
 11
486.5693
 21
469.1713
  0
LINE
  8
0_00
  6
DASHED
 62
2
 10
487.9241
 20
459.3312
 11
487.9241
 21
458.7654
  0
LINE
  8
0_00
  6
DASHED
 62
2
 10
487.4459
 20
459.2437
 11
487.4459
 21
458.5648
  0
LINE
  8
0_00
  6
DASHED
 62
2
 10
486.3869
 20
460.8683
 11
487.9241
 21
459.3312
  0
LINE
  8
0_00
  6
DASHED
 62
2
 10
486.3869
 20
469.3536
 11
486.3869
 21
460.8683
  0
LINE
  8
0_00
  6
DASHED
 62
2
 10
486.7000
 20
487.0294
 11
486.3800
 21
486.7093
  0
LINE
  8
0_00
  6
DASHED
 62
2
 10
551.8269
 20
419.9025
 11
551.8269
 21
412.0029
  0
LINE
  8
0_00
  6
DASHED
 62
2
 10
487.4459
 20
458.5648
 11
550.2079
 21
395.8029
  0
LINE
  8
0_00
  6
DASHED
 62
2
 10
549.7297
 20
396.9599
 11
550.2079
 21
396.4817
  0
LINE
  8
0_00
  6
DASHED
 62
2
 10
551.0845
 20
404.6560
 11
551.2669
 21
404.4736
  0
LINE
  8
0_00
  6
DASHED
 62
2
 10
551.2738
 20
422.4556
 11
551.2738
 21
405.2021
  0
LINE
  8
0_00
  6
DASHED
 62
2
 10
551.0845
 20
405.3914
 11
551.0845
 21
404.6560
  0
LINE
  8
0_00
  6
DASHED
 62
2
 10
551.0845
 20
405.3914
 11
551.2738
 21
405.2021
  0
LINE
  8
0_00
  6
DASHED
 62
2
 10
550.2079
 20
396.4817
 11
550.2079
 21
395.8029
  0
LINE
  8
0_00
  6
DASHED
 62
2
 10
549.7297
 20
397.5256
 11
549.7297
 21
396.9599
  0
LINE
  8
0_00
  6
DASHED
 62
2
 10
549.7297
 20
397.5256
 11
551.2669
 21
395.9884
  0
LINE
  8
0_00
  6
DASHED
 62
2
 10
551.2669
 20
404.4736
 11
551.2669
 21
395.9884
  0
LINE
  8
0_00
  6
CONTINUOUS
 62
4
 10
132.6146
 20
231.5877
 11
69.9492
 21
248.3788
  0
LINE
  8
0_00
  6
CENTER1
 62
6
 10
413.4419
 20
125.2612
 11
79.4083
 21
214.7653
  0
LINE
  8
0_00
  6
CONTINUOUS
 62
4
 10
161.6231
 20
195.7585
 11
150.0320
 21
192.6526
  0
LINE
  8
0_00
  6
CONTINUOUS
 62
4
 10
150.6116
 20
199.0196
 11
142.6943
 21
196.8981
  0
LINE
  8
0_00
  6
CONTINUOUS
 62
4
 10
133.6998
 20
195.3387
 11
131.8107
 21
184.6251
  0
LINE
  8
0_00
  6
CONTINUOUS
 62
4
 10
167.5740
 20
197.3530
 11
167.4308
 21
198.1653
  0
LINE
  8
0_00
  6
CONTINUOUS
 62
4
 10
142.2426
 20
181.8299
 11
131.8107
 21
184.6251
  0
LINE
  8
0_00
  6
CONTINUOUS
 62
4
 10
167.9079
 20
198.9143
 11
168.2135
 21
197.1816
  0
LINE
  8
0_00
  6
CONTINUOUS
 62
4
 10
144.1318
 20
192.5435
 11
142.2426
 21
181.8299
  0
LINE
  8
0_00
  6
CONTINUOUS
 62
4
 10
144.6563
 20
192.0629
 11
142.8821
 21
182.0012
  0
LINE
  8
0_00
  6
CONTINUOUS
 62
4
 10
142.8821
 20
182.0012
 11
142.2426
 21
181.8299
  0
LINE
  8
0_00
  6
CONTINUOUS
 62
4
 10
133.4754
 20
194.0663
 11
74.2148
 21
209.9452
  0
LINE
  8
0_00
  6
CONTINUOUS
 62
4
 10
167.8369
 20
212.4572
 11
145.4449
 21
206.4573
  0
LINE
  8
0_00
  6
CONTINUOUS
 62
2
 10
141.9065
 20
208.0593
 11
166.2257
 21
214.5756
  0
LINE
  8
0_00
  6
CONTINUOUS
 62
2
 10
166.2257
 20
214.5756
 11
168.7551
 21
213.8979
  0
LINE
  8
0_00
  6
CONTINUOUS
 62
2
 10
144.4359
 20
207.3816
 11
168.7551
 21
213.8979
  0
LINE
  8
0_00
  6
CONTINUOUS
 62
2
 10
141.9065
 20
208.0593
 11
144.4359
 21
207.3816
  0
LINE
  8
0_00
  6
CONTINUOUS
 62
2
 10
141.9065
 20
208.0593
 11
141.0683
 21
203.3056
  0
LINE
  8
0_00
  6
CONTINUOUS
 62
2
 10
144.4359
 20
207.3816
 11
143.5977
 21
202.6279
  0
LINE
  8
0_00
  6
CONTINUOUS
 62
2
 10
141.0683
 20
203.3056
 11
143.5977
 21
202.6279
  0
LINE
  8
0_00
  6
CONTINUOUS
 62
2
 10
145.4451
 20
206.4573
 11
144.7345
 21
202.4274
  0
LINE
  8
0_00
  6
CONTINUOUS
 62
2
 10
143.5977
 20
202.6279
 11
144.7345
 21
202.4274
  0
LINE
  8
0_00
  6
CONTINUOUS
 62
2
 10
167.8369
 20
212.4572
 11
168.4834
 21
208.7909
  0
LINE
  8
0_00
  6
CONTINUOUS
 62
2
 10
168.4834
 20
208.7909
 11
161.3188
 21
210.7107
  0
LINE
  8
0_00
  6
CONTINUOUS
 62
2
 10
168.7551
 20
213.8979
 11
169.6202
 21
208.9914
  0
LINE
  8
0_00
  6
CONTINUOUS
 62
2
 10
169.6202
 20
208.9914
 11
168.4834
 21
208.7909
  0
LINE
  8
0_00
  6
CONTINUOUS
 62
2
 10
127.8397
 20
211.8285
 11
130.3691
 21
211.1507
  0
LINE
  8
0_00
  6
CONTINUOUS
 62
2
 10
127.8397
 20
211.8285
 11
127.0015
 21
207.0748
  0
LINE
  8
0_00
  6
CONTINUOUS
 62
2
 10
130.3691
 20
211.1507
 11
129.5309
 21
206.3971
  0
LINE
  8
0_00
  6
CONTINUOUS
 62
2
 10
127.0015
 20
207.0748
 11
129.5309
 21
206.3971
  0
LINE
  8
0_00
  6
CONTINUOUS
 62
2
 10
130.9005
 20
207.5169
 11
130.6677
 21
206.1966
  0
LINE
  8
0_00
  6
CONTINUOUS
 62
2
 10
129.5309
 20
206.3971
 11
130.6677
 21
206.1966
  0
LINE
  8
0_00
  6
CONTINUOUS
 62
2
 10
152.1589
 20
218.3448
 11
154.6883
 21
217.6670
  0
LINE
  8
0_00
  6
CONTINUOUS
 62
2
 10
154.6883
 20
217.6670
 11
154.8462
 21
216.7715
  0
LINE
  8
0_00
  6
CONTINUOUS
 62
2
 10
130.3691
 20
211.1507
 11
154.6883
 21
217.6670
  0
LINE
  8
0_00
  6
CONTINUOUS
 62
2
 10
127.8397
 20
211.8285
 11
152.1589
 21
218.3448
  0
LINE
  8
0_00
  6
CONTINUOUS
 62
4
 10
154.3955
 20
200.8841
 11
144.9105
 21
203.4256
  0
LINE
  8
0_00
  6
CONTINUOUS
 62
4
 10
141.2618
 20
204.4033
 11
130.8438
 21
207.1948
  0
LINE
  8
0_00
  6
CONTINUOUS
 62
4
 10
127.1950
 20
208.1725
 11
93.8744
 21
217.1007
  0
LINE
  8
0_00
  6
CONTINUOUS
 62
2
 10
130.8450
 20
210.6571
 11
154.2553
 21
216.9299
  0
LINE
  8
0_00
  6
CONTINUOUS
 62
2
 10
130.8450
 20
210.6571
 11
130.3188
 21
207.6728
  0
LINE
  8
0_00
  6
CONTINUOUS
 62
2
 10
154.2553
 20
216.9299
 11
164.6336
 21
214.1490
  0
LINE
  8
0_00
  6
CONTINUOUS
 62
2
 10
130.8450
 20
210.6571
 11
141.8448
 21
207.7097
  0
LINE
  8
0_00
  6
CONTINUOUS
 62
2
 10
130.3188
 20
207.6728
 11
141.3186
 21
204.7254
  0
LINE
  8
0_00
  6
CONTINUOUS
 62
4
 10
132.6146
 20
241.4730
 11
132.6146
 21
231.5877
  0
LINE
  8
0_00
  6
CONTINUOUS
 62
4
 10
132.6146
 20
231.5877
 11
133.9598
 21
231.9481
  0
LINE
  8
0_00
  6
CONTINUOUS
 62
4
 10
136.5613
 20
245.5450
 11
156.8587
 21
252.9327
  0
LINE
  8
0_00
  6
CONTINUOUS
 62
4
 10
160.8054
 20
251.7336
 11
160.8054
 21
250.7068
  0
LINE
  8
0_00
  6
CONTINUOUS
 62
4
 10
138.4102
 20
230.0348
 11
399.2487
 21
160.1433
  0
LINE
  8
0_00
  6
CONTINUOUS
 62
4
 10
165.9136
 20
280.0703
 11
141.4157
 21
271.1538
  0
LINE
  8
0_00
  6
CONTINUOUS
 62
4
 10
157.7998
 20
282.2444
 11
133.0275
 21
273.2280
  0
LINE
  8
0_00
  6
CONTINUOUS
 62
2
 10
131.4041
 20
267.4977
 11
131.4041
 21
257.4133
  0
LINE
  8
0_00
  6
CONTINUOUS
 62
4
 10
136.7502
 20
266.3401
 11
136.7502
 21
256.2557
  0
LINE
  8
0_00
  6
CONTINUOUS
 62
4
 10
170.5791
 20
278.6528
 11
170.5791
 21
268.5684
  0
LINE
  8
0_00
  6
CONTINUOUS
 62
2
 10
161.6956
 20
281.6385
 11
135.7952
 21
272.2115
  0
LINE
  8
0_00
  6
CONTINUOUS
 62
4
 10
136.7502
 20
256.2557
 11
131.4041
 21
257.4133
  0
LINE
  8
0_00
  6
CONTINUOUS
 62
4
 10
131.4041
 20
257.4133
 11
128.6364
 21
258.4297
  0
LINE
  8
0_00
  6
CONTINUOUS
 62
4
 10
141.8845
 20
270.4305
 11
166.3132
 21
279.3218
  0
LINE
  8
0_00
  6
CONTINUOUS
 62
4
 10
170.0771
 20
278.1783
 11
170.0771
 21
268.9048
  0
LINE
  8
0_00
  6
CONTINUOUS
 62
4
 10
137.4620
 20
265.8675
 11
137.4620
 21
257.0338
  0
LINE
  8
0_00
  6
CONTINUOUS
 62
4
 10
168.7239
 20
268.4123
 11
168.7239
 21
267.8932
  0
LINE
  8
0_00
  6
CONTINUOUS
 62
4
 10
168.7239
 20
268.4123
 11
160.6101
 21
270.5863
  0
LINE
  8
0_00
  6
CONTINUOUS
 62
4
 10
168.7239
 20
267.8932
 11
160.6101
 21
270.0672
  0
LINE
  8
0_00
  6
CONTINUOUS
 62
4
 10
169.2902
 20
269.1156
 11
162.7312
 21
270.8731
  0
LINE
  8
0_00
  6
CONTINUOUS
 62
4
 10
161.9633
 20
271.0788
 11
161.9633
 21
277.7386
  0
LINE
  8
0_00
  6
CONTINUOUS
 62
4
 10
161.9633
 20
271.0788
 11
160.6101
 21
270.5863
  0
LINE
  8
0_00
  6
CONTINUOUS
 62
4
 10
160.6101
 20
270.5863
 11
160.6101
 21
270.0672
  0
LINE
  8
0_00
  6
CONTINUOUS
 62
4
 10
138.8151
 20
257.5263
 11
138.8151
 21
257.0072
  0
LINE
  8
0_00
  6
CONTINUOUS
 62
4
 10
170.0771
 20
268.9048
 11
168.7239
 21
268.4123
  0
LINE
  8
0_00
  6
CONTINUOUS
 62
4
 10
138.8151
 20
257.5263
 11
137.4620
 21
257.0338
  0
LINE
  8
0_00
  6
CONTINUOUS
 62
4
 10
136.7502
 20
256.2557
 11
138.8151
 21
257.0072
  0
LINE
  8
0_00
  6
CONTINUOUS
 62
4
 10
168.7239
 20
267.8932
 11
170.5791
 21
268.5684
  0
LINE
  8
0_00
  6
CONTINUOUS
 62
4
 10
138.8151
 20
257.5263
 11
137.4620
 21
257.8889
  0
LINE
  8
0_00
  6
CONTINUOUS
 62
6
 10
118.1215
 20
267.8026
 11
66.9575
 21
249.1805
  0
LINE
  8
0_00
  6
CONTINUOUS
 62
6
 10
126.3454
 20
265.6686
 11
75.0712
 21
247.0064
  0
LINE
  8
0_00
  6
CONTINUOUS
 62
6
 10
118.6298
 20
208.4763
 11
84.1049
 21
195.9103
  0
LINE
  8
0_00
  6
CONTINUOUS
 62
6
 10
133.5583
 20
203.4225
 11
101.1270
 21
191.6184
  0
LINE
  8
0_00
  6
CONTINUOUS
 62
6
 10
124.3539
 20
187.2895
 11
94.0519
 21
176.2605
  0
LINE
  8
0_00
  6
CONTINUOUS
 62
6
 10
89.4755
 20
197.8651
 11
82.7458
 21
199.6683
  0
LINE
  8
0_00
  6
CONTINUOUS
 62
6
 10
89.4755
 20
197.8651
 11
106.0717
 21
193.4181
  0
LINE
  8
0_00
  6
CONTINUOUS
 62
6
 10
112.3780
 20
191.7283
 11
106.0717
 21
193.4181
  0
LINE
  8
0_00
  6
CONTINUOUS
 62
6
 10
97.9579
 20
177.6822
 11
89.5067
 21
179.9467
  0
LINE
  8
0_00
  6
CONTINUOUS
 62
6
 10
97.9579
 20
177.6822
 11
111.1327
 21
174.1520
  0
LINE
  8
0_00
  6
CONTINUOUS
 62
6
 10
119.1128
 20
172.0137
 11
111.1327
 21
174.1520
  0
LINE
  8
0_00
  6
CONTINUOUS
 62
6
 10
172.4946
 20
258.6237
 11
213.8268
 21
273.6674
  0
LINE
  8
0_00
  6
CONTINUOUS
 62
6
 10
178.4650
 20
257.1344
 11
219.9678
 21
272.2402
  0
LINE
  8
0_00
  6
CONTINUOUS
 62
6
 10
207.4573
 20
271.3601
 11
193.7964
 21
275.0205
  0
LINE
  8
0_00
  6
CONTINUOUS
 62
6
 10
207.4573
 20
271.3601
 11
213.2704
 21
269.8025
  0
LINE
  8
0_00
  6
CONTINUOUS
 62
6
 10
226.0457
 20
266.3794
 11
213.2704
 21
269.8025
  0
LINE
  8
0_00
  6
CONTINUOUS
 62
6
 10
79.0589
 20
248.6823
 11
87.5875
 21
246.3971
  0
LINE
  8
0_00
  6
CONTINUOUS
 62
6
 10
79.0589
 20
248.6823
 11
71.3005
 21
250.7612
  0
LINE
  8
0_00
  6
CONTINUOUS
 62
6
 10
60.9819
 20
253.5260
 11
71.3005
 21
250.7612
  0
LINE
  8
0_00
  6
CONTINUOUS
 62
6
 10
133.7025
 20
273.4737
 11
117.9843
 21
289.1919
  0
LINE
  8
0_00
  6
CONTINUOUS
 62
6
 10
133.7025
 20
273.4737
 11
130.9793
 21
277.6670
  0
LINE
  8
0_00
  6
CONTINUOUS
 62
6
 10
133.7025
 20
273.4737
 11
129.5092
 21
276.1969
  0
LINE
  8
0_00
  6
CONTINUOUS
 62
6
 10
117.9843
 20
289.1919
 11
64.7043
 21
289.1919
  0
LINE
  8
0_00
  6
CONTINUOUS
 62
6
 10
205.3797
 20
235.6566
 11
221.1496
 21
251.4265
  0
LINE
  8
0_00
  6
CONTINUOUS
 62
6
 10
205.3797
 20
235.6566
 11
209.5731
 21
238.3798
  0
LINE
  8
0_00
  6
CONTINUOUS
 62
6
 10
205.3797
 20
235.6566
 11
208.1029
 21
239.8499
  0
LINE
  8
0_00
  6
CONTINUOUS
 62
6
 10
221.1496
 20
251.4265
 11
239.8696
 21
251.4265
  0
LINE
  8
0_00
  6
CONTINUOUS
 62
6
 10
130.3691
 20
211.1507
 11
116.0970
 21
225.4228
  0
LINE
  8
0_00
  6
CONTINUOUS
 62
6
 10
130.3691
 20
211.1507
 11
127.6459
 21
215.3441
  0
LINE
  8
0_00
  6
CONTINUOUS
 62
6
 10
130.3691
 20
211.1507
 11
126.1757
 21
213.8739
  0
LINE
  8
0_00
  6
CONTINUOUS
 62
6
 10
116.0970
 20
225.4228
 11
80.0970
 21
225.4228
  0
LINE
  8
0_00
  6
CONTINUOUS
 62
6
 10
136.1974
 20
183.2747
 11
105.5577
 21
172.1228
  0
LINE
  8
0_00
  6
CONTINUOUS
 62
6
 10
133.1632
 20
210.0359
 11
156.5736
 21
216.3087
  0
LINE
  8
0_00
  6
CONTINUOUS
 62
6
 10
135.4814
 20
209.4147
 11
158.8918
 21
215.6875
  0
LINE
  8
0_00
  6
CONTINUOUS
 62
6
 10
137.7997
 20
208.7936
 11
161.2100
 21
215.0664
  0
LINE
  8
0_00
  6
CONTINUOUS
 62
6
 10
140.1179
 20
208.1724
 11
163.5282
 21
214.4452
  0
LINE
  8
0_00
  6
CONTINUOUS
 62
6
 10
133.1632
 20
210.0359
 11
132.6370
 21
207.0516
  0
LINE
  8
0_00
  6
CONTINUOUS
 62
6
 10
135.4814
 20
209.4147
 11
134.9552
 21
206.4304
  0
LINE
  8
0_00
  6
CONTINUOUS
 62
6
 10
137.7997
 20
208.7936
 11
137.2734
 21
205.8093
  0
LINE
  8
0_00
  6
CONTINUOUS
 62
6
 10
140.1179
 20
208.1724
 11
139.5916
 21
205.1881
  0
LINE
  8
0_00
  6
CONTINUOUS
 62
4
 10
144.6563
 20
192.0629
 11
148.6709
 21
193.1386
  0
LINE
  8
0_00
  6
CONTINUOUS
 62
4
 10
144.1318
 20
192.5435
 11
148.0914
 21
193.6045
  0
LINE
  8
0_00
  6
CONTINUOUS
 62
4
 10
144.1318
 20
192.5435
 11
133.6998
 21
195.3387
  0
LINE
  8
0_00
  6
CONTINUOUS
 62
4
 10
150.6116
 20
193.4291
 11
161.0436
 21
196.2243
  0
LINE
  8
0_00
  6
CONTINUOUS
 62
4
 10
150.6116
 20
194.7767
 11
150.6116
 21
193.4291
  0
LINE
  8
0_00
  6
CONTINUOUS
 62
4
 10
148.6709
 20
193.6355
 11
148.6709
 21
193.1386
  0
LINE
  8
0_00
  6
CONTINUOUS
 62
4
 10
150.0320
 20
194.0002
 11
150.0320
 21
192.6526
  0
LINE
  8
0_00
  6
CONTINUOUS
 62
4
 10
148.0914
 20
194.1014
 11
150.6116
 21
194.7767
  0
LINE
  8
0_00
  6
CONTINUOUS
 62
4
 10
148.0914
 20
193.6045
 11
148.0914
 21
194.1014
  0
LINE
  8
0_00
  6
CONTINUOUS
 62
4
 10
150.0320
 20
194.0002
 11
148.6709
 21
193.6355
  0
LINE
  8
0_00
  6
CONTINUOUS
 62
4
 10
150.6116
 20
194.7767
 11
140.1796
 21
197.5719
  0
LINE
  8
0_00
  6
CONTINUOUS
 62
4
 10
148.0914
 20
194.1014
 11
137.6594
 21
196.8967
  0
LINE
  8
0_00
  6
CONTINUOUS
 62
4
 10
148.0914
 20
193.6045
 11
137.6594
 21
196.3997
  0
LINE
  8
0_00
  6
CONTINUOUS
 62
4
 10
133.6998
 20
195.3387
 11
137.6594
 21
196.3997
  0
LINE
  8
0_00
  6
CONTINUOUS
 62
4
 10
137.6594
 20
196.3997
 11
137.6594
 21
196.8967
  0
LINE
  8
0_00
  6
CONTINUOUS
 62
4
 10
137.6594
 20
196.8967
 11
140.1796
 21
197.5719
  0
LINE
  8
0_00
  6
CONTINUOUS
 62
4
 10
161.0436
 20
197.5719
 11
163.5635
 21
198.2471
  0
LINE
  8
0_00
  6
CONTINUOUS
 62
4
 10
161.0436
 20
196.2243
 11
161.0436
 21
197.5719
  0
LINE
  8
0_00
  6
CONTINUOUS
 62
4
 10
161.0436
 20
196.2243
 11
150.6116
 21
199.0196
  0
LINE
  8
0_00
  6
CONTINUOUS
 62
4
 10
150.6116
 20
199.0196
 11
150.6116
 21
200.3672
  0
LINE
  8
0_00
  6
CONTINUOUS
 62
4
 10
161.0436
 20
197.5719
 11
150.6116
 21
200.3672
  0
LINE
  8
0_00
  6
CONTINUOUS
 62
4
 10
153.1315
 20
201.0424
 11
163.5635
 21
198.2471
  0
LINE
  8
0_00
  6
CONTINUOUS
 62
4
 10
150.6116
 20
200.3672
 11
153.1315
 21
201.0424
  0
LINE
  8
0_00
  6
CONTINUOUS
 62
4
 10
163.5635
 20
198.2471
 11
163.5635
 21
197.7502
  0
LINE
  8
0_00
  6
CONTINUOUS
 62
4
 10
163.5635
 20
197.7502
 11
167.9079
 21
198.9143
  0
LINE
  8
0_00
  6
CONTINUOUS
 62
4
 10
161.6231
 20
197.1061
 11
162.9839
 21
197.4707
  0
LINE
  8
0_00
  6
CONTINUOUS
 62
4
 10
161.6231
 20
197.1061
 11
161.6231
 21
195.7585
  0
LINE
  8
0_00
  6
CONTINUOUS
 62
4
 10
162.9839
 20
197.4707
 11
162.9839
 21
196.9738
  0
LINE
  8
0_00
  6
CONTINUOUS
 62
4
 10
162.9839
 20
196.9738
 11
167.4308
 21
198.1653
  0
LINE
  8
0_00
  6
CONTINUOUS
 62
4
 10
167.9079
 20
198.9143
 11
157.4760
 21
201.7096
  0
LINE
  8
0_00
  6
CONTINUOUS
 62
4
 10
154.0588
 20
200.7939
 11
157.4760
 21
201.7096
  0
LINE
  8
0_00
  6
CONTINUOUS
 62
4
 10
150.0320
 20
192.6526
 11
148.4446
 21
193.0780
  0
LINE
  8
0_00
  6
CONTINUOUS
 62
4
 10
162.9839
 20
196.9738
 11
162.0567
 21
197.2222
  0
LINE
  8
0_00
  6
CONTINUOUS
 62
4
 10
132.6146
 20
241.4730
 11
136.5613
 21
245.5450
  0
LINE
  8
0_00
  6
CONTINUOUS
 62
4
 10
156.8587
 20
252.9327
 11
160.8054
 21
251.7336
  0
LINE
  8
0_00
  6
CONTINUOUS
 62
2
 10
132.6146
 20
241.4730
 11
69.9492
 21
258.2641
  0
LINE
  8
0_00
  6
CONTINUOUS
 62
2
 10
136.5613
 20
245.5450
 11
73.5668
 21
262.4243
  0
LINE
  8
0_00
  6
CONTINUOUS
 62
4
 10
138.4102
 20
239.9201
 11
138.4102
 21
230.0348
  0
LINE
  8
0_00
  6
CONTINUOUS
 62
4
 10
138.4102
 20
239.9201
 11
142.3569
 21
243.9921
  0
LINE
  8
0_00
  6
CONTINUOUS
 62
4
 10
142.3569
 20
243.9921
 11
162.6542
 21
251.3798
  0
LINE
  8
0_00
  6
CONTINUOUS
 62
2
 10
138.4102
 20
239.9201
 11
400.7260
 21
169.6328
  0
LINE
  8
0_00
  6
CONTINUOUS
 62
2
 10
142.3569
 20
243.9921
 11
399.9123
 21
174.9803
  0
LINE
  8
0_00
  6
CONTINUOUS
 62
4
 10
162.6542
 20
251.3798
 11
417.8871
 21
182.9903
  0
LINE
  8
0_00
  6
CONTINUOUS
 62
4
 10
136.7502
 20
266.3401
 11
141.4157
 21
271.1538
  0
LINE
  8
0_00
  6
CONTINUOUS
 62
4
 10
165.9136
 20
280.0703
 11
170.5791
 21
278.6528
  0
LINE
  8
0_00
  6
CONTINUOUS
 62
4
 10
141.8845
 20
270.4305
 11
137.4620
 21
265.8675
  0
LINE
  8
0_00
  6
CONTINUOUS
 62
4
 10
166.3132
 20
279.3218
 11
170.0771
 21
278.1783
  0
LINE
  8
0_00
  6
CONTINUOUS
 62
2
 10
136.7502
 20
266.3401
 11
131.4041
 21
267.4977
  0
LINE
  8
0_00
  6
CONTINUOUS
 62
2
 10
141.2881
 20
271.0221
 11
135.7952
 21
272.2115
  0
LINE
  8
0_00
  6
CONTINUOUS
 62
2
 10
131.4041
 20
267.4977
 11
135.7952
 21
272.2115
  0
LINE
  8
0_00
  6
CONTINUOUS
 62
2
 10
131.4041
 20
267.4977
 11
128.6364
 21
268.5142
  0
LINE
  8
0_00
  6
CONTINUOUS
 62
2
 10
135.7952
 20
272.2115
 11
133.0275
 21
273.2280
  0
LINE
  8
0_00
  6
CONTINUOUS
 62
4
 10
133.0275
 20
273.2280
 11
128.6364
 21
268.5142
  0
LINE
  8
0_00
  6
CONTINUOUS
 62
4
 10
128.6364
 20
268.5142
 11
128.6364
 21
258.4297
  0
LINE
  8
0_00
  6
CONTINUOUS
 62
2
 10
165.9136
 20
280.0703
 11
161.6956
 21
281.6385
  0
LINE
  8
0_00
  6
CONTINUOUS
 62
4
 10
161.6956
 20
281.6385
 11
157.7998
 21
282.2444
  0
LINE
  8
0_00
  6
CONTINUOUS
 62
4
 10
170.5791
 20
278.6528
 11
166.3612
 21
280.2210
  0
LINE
  8
0_00
  6
CONTINUOUS
 62
4
 10
166.3612
 20
280.2210
 11
161.6956
 21
281.6385
  0
LINE
  8
0_00
  6
CONTINUOUS
 62
4
 10
156.8587
 20
252.9327
 11
137.4620
 21
258.1300
  0
LINE
  8
0_00
  6
CONTINUOUS
 62
4
 10
128.6364
 20
260.4948
 11
90.9497
 21
270.5929
  0
LINE
  8
0_00
  6
CONTINUOUS
 62
4
 10
386.1990
 20
135.5835
 11
374.6079
 21
132.4777
  0
LINE
  8
0_00
  6
CONTINUOUS
 62
4
 10
375.1875
 20
138.8446
 11
367.2702
 21
136.7232
  0
LINE
  8
0_00
  6
CONTINUOUS
 62
4
 10
358.2757
 20
135.1638
 11
356.3866
 21
124.4502
  0
LINE
  8
0_00
  6
CONTINUOUS
 62
4
 10
392.1499
 20
137.1780
 11
392.0067
 21
137.9904
  0
LINE
  8
0_00
  6
CONTINUOUS
 62
4
 10
366.8185
 20
121.6549
 11
356.3866
 21
124.4502
  0
LINE
  8
0_00
  6
CONTINUOUS
 62
4
 10
392.4839
 20
138.7394
 11
392.7894
 21
137.0067
  0
LINE
  8
0_00
  6
CONTINUOUS
 62
4
 10
368.7076
 20
132.3686
 11
366.8185
 21
121.6549
  0
LINE
  8
0_00
  6
CONTINUOUS
 62
4
 10
369.2322
 20
131.8879
 11
367.4580
 21
121.8263
  0
LINE
  8
0_00
  6
CONTINUOUS
 62
4
 10
367.4580
 20
121.8263
 11
366.8185
 21
121.6549
  0
LINE
  8
0_00
  6
CONTINUOUS
 62
4
 10
369.2322
 20
131.8879
 11
373.2468
 21
132.9637
  0
LINE
  8
0_00
  6
CONTINUOUS
 62
4
 10
368.7076
 20
132.3686
 11
372.6673
 21
133.4296
  0
LINE
  8
0_00
  6
CONTINUOUS
 62
4
 10
368.7076
 20
132.3686
 11
358.2757
 21
135.1638
  0
LINE
  8
0_00
  6
CONTINUOUS
 62
4
 10
375.1875
 20
133.2541
 11
385.6195
 21
136.0494
  0
LINE
  8
0_00
  6
CONTINUOUS
 62
4
 10
375.1875
 20
134.6018
 11
375.1875
 21
133.2541
  0
LINE
  8
0_00
  6
CONTINUOUS
 62
4
 10
373.2468
 20
133.4606
 11
373.2468
 21
132.9637
  0
LINE
  8
0_00
  6
CONTINUOUS
 62
4
 10
374.6079
 20
133.8253
 11
374.6079
 21
132.4777
  0
LINE
  8
0_00
  6
CONTINUOUS
 62
4
 10
372.6673
 20
133.9265
 11
375.1875
 21
134.6018
  0
LINE
  8
0_00
  6
CONTINUOUS
 62
4
 10
372.6673
 20
133.4296
 11
372.6673
 21
133.9265
  0
LINE
  8
0_00
  6
CONTINUOUS
 62
4
 10
374.6079
 20
133.8253
 11
373.2468
 21
133.4606
  0
LINE
  8
0_00
  6
CONTINUOUS
 62
4
 10
375.1875
 20
134.6018
 11
364.7555
 21
137.3970
  0
LINE
  8
0_00
  6
CONTINUOUS
 62
4
 10
372.6673
 20
133.9265
 11
362.2353
 21
136.7217
  0
LINE
  8
0_00
  6
CONTINUOUS
 62
4
 10
372.6673
 20
133.4296
 11
362.2353
 21
136.2248
  0
LINE
  8
0_00
  6
CONTINUOUS
 62
4
 10
358.2757
 20
135.1638
 11
362.2353
 21
136.2248
  0
LINE
  8
0_00
  6
CONTINUOUS
 62
4
 10
362.2353
 20
136.2248
 11
362.2353
 21
136.7217
  0
LINE
  8
0_00
  6
CONTINUOUS
 62
4
 10
362.2353
 20
136.7217
 11
364.7555
 21
137.3970
  0
LINE
  8
0_00
  6
CONTINUOUS
 62
4
 10
385.6195
 20
137.3970
 11
388.1394
 21
138.0722
  0
LINE
  8
0_00
  6
CONTINUOUS
 62
4
 10
385.6195
 20
136.0494
 11
385.6195
 21
137.3970
  0
LINE
  8
0_00
  6
CONTINUOUS
 62
4
 10
385.6195
 20
136.0494
 11
375.1875
 21
138.8446
  0
LINE
  8
0_00
  6
CONTINUOUS
 62
4
 10
375.1875
 20
138.8446
 11
375.1875
 21
140.1923
  0
LINE
  8
0_00
  6
CONTINUOUS
 62
4
 10
385.6195
 20
137.3970
 11
375.1875
 21
140.1923
  0
LINE
  8
0_00
  6
CONTINUOUS
 62
4
 10
377.7074
 20
140.8675
 11
388.1394
 21
138.0722
  0
LINE
  8
0_00
  6
CONTINUOUS
 62
4
 10
375.1875
 20
140.1923
 11
377.7074
 21
140.8675
  0
LINE
  8
0_00
  6
CONTINUOUS
 62
4
 10
388.1394
 20
138.0722
 11
388.1394
 21
137.5753
  0
LINE
  8
0_00
  6
CONTINUOUS
 62
4
 10
388.1394
 20
137.5753
 11
392.4839
 21
138.7394
  0
LINE
  8
0_00
  6
CONTINUOUS
 62
4
 10
386.1990
 20
136.9311
 11
387.5598
 21
137.2958
  0
LINE
  8
0_00
  6
CONTINUOUS
 62
4
 10
386.1990
 20
136.9311
 11
386.1990
 21
135.5835
  0
LINE
  8
0_00
  6
CONTINUOUS
 62
4
 10
387.5598
 20
137.2958
 11
387.5598
 21
136.7988
  0
LINE
  8
0_00
  6
CONTINUOUS
 62
4
 10
387.5598
 20
136.7988
 11
392.0067
 21
137.9904
  0
LINE
  8
0_00
  6
CONTINUOUS
 62
4
 10
374.6079
 20
132.4777
 11
373.0205
 21
132.9030
  0
LINE
  8
0_00
  6
CONTINUOUS
 62
4
 10
387.5598
 20
136.7988
 11
386.6326
 21
137.0473
  0
LINE
  8
0_00
  6
CONTINUOUS
 62
4
 10
392.4839
 20
138.7394
 11
382.0518
 21
141.5346
  0
LINE
  8
0_00
  6
CONTINUOUS
 62
4
 10
378.6347
 20
140.6190
 11
382.0518
 21
141.5346
  0
LINE
  8
0_00
  6
CONTINUOUS
 62
4
 10
399.9507
 20
135.0878
 11
390.5625
 21
137.6034
  0
LINE
  8
0_00
  6
CONTINUOUS
 62
4
 10
378.9714
 20
140.7092
 11
165.9866
 21
197.7783
  0
LINE
  8
0_00
  6
CONTINUOUS
 62
4
 10
391.3822
 20
124.9604
 11
369.0651
 21
130.9403
  0
LINE
  8
0_00
  6
CONTINUOUS
 62
4
 10
358.0513
 20
133.8914
 11
144.4892
 21
191.1152
  0
LINE
  8
0_00
  6
CONTINUOUS
 62
6
 10
126.1762
 20
183.7901
 11
69.8641
 21
163.2941
  0
LINE
  8
0_00
  6
CONTINUOUS
 62
6
 10
360.4961
 20
127.1617
 11
295.4349
 21
103.4813
  0
LINE
  8
0_00
  6
CONTINUOUS
 62
6
 10
301.1855
 20
105.5744
 11
76.6096
 21
165.7493
  0
LINE
  8
0_00
  6
CONTINUOUS
 62
6
 10
142.8821
 20
182.0012
 11
152.2870
 21
165.7115
  0
LINE
  8
0_00
  6
CONTINUOUS
 62
6
 10
142.8821
 20
182.0012
 11
144.4272
 21
177.2459
  0
LINE
  8
0_00
  6
CONTINUOUS
 62
6
 10
142.8821
 20
182.0012
 11
146.2278
 21
178.2855
  0
LINE
  8
0_00
  6
CONTINUOUS
 62
6
 10
143.8301
 20
155.7422
 11
208.6301
 21
155.7422
  0
LINE
  8
0_00
  6
CONTINUOUS
 62
6
 10
365.1621
 20
122.0988
 11
376.5536
 21
102.3681
  0
LINE
  8
0_00
  6
CONTINUOUS
 62
6
 10
365.1621
 20
122.0988
 11
366.7072
 21
117.3435
  0
LINE
  8
0_00
  6
CONTINUOUS
 62
6
 10
365.1621
 20
122.0988
 11
368.5078
 21
118.3830
  0
LINE
  8
0_00
  6
CONTINUOUS
 62
6
 10
376.5536
 20
102.3681
 11
412.5536
 21
102.3681
  0
LINE
  8
0_00
  6
CENTER1
 62
6
 10
538.8269
 20
494.8991
 11
538.8269
 21
432.7370
  0
LINE
  8
0_00
  6
DASHED
 62
6
 10
526.8269
 20
438.5025
 11
550.8269
 21
438.5025
  0
LINE
  8
0_00
  6
DASHED
 62
6
 10
537.6269
 20
457.7025
 11
537.6269
 21
452.1024
  0
LINE
  8
0_00
  6
DASHED
 62
6
 10
540.0269
 20
457.7025
 11
540.0269
 21
452.1024
  0
LINE
  8
0_00
  6
DASHED
 62
6
 10
544.1269
 20
442.4025
 11
547.5269
 21
442.4025
  0
LINE
  8
0_00
  6
DASHED
 62
6
 10
544.1269
 20
445.0024
 11
547.5269
 21
445.0024
  0
LINE
  8
0_00
  6
DASHED
 62
6
 10
533.5269
 20
442.4025
 11
530.1269
 21
442.4025
  0
LINE
  8
0_00
  6
DASHED
 62
6
 10
533.5269
 20
445.0024
 11
530.1269
 21
445.0024
  0
LINE
  8
0_00
  6
DASHED
 62
6
 10
533.5269
 20
464.8024
 11
530.1269
 21
464.8024
  0
LINE
  8
0_00
  6
DASHED
 62
6
 10
533.5269
 20
467.4024
 11
530.1269
 21
467.4024
  0
LINE
  8
0_00
  6
DASHED
 62
2
 10
515.1645
 20
486.2834
 11
577.9265
 21
423.5215
  0
LINE
  8
0_00
  6
DASHED
 62
2
 10
577.2476
 20
423.5215
 11
576.7695
 21
423.9996
  0
LINE
  8
0_00
  6
DASHED
 62
2
 10
514.3982
 20
485.8052
 11
512.8610
 21
487.3424
  0
LINE
  8
0_00
  6
DASHED
 62
6
 10
550.8269
 20
438.5025
 11
550.8269
 21
461.0408
  0
LINE
  8
0_00
  6
CONTINUOUS
 62
4
 10
550.8269
 20
487.2224
 11
550.8269
 21
461.0408
  0
LINE
  8
0_00
  6
DASHED
 62
6
 10
526.8269
 20
438.5025
 11
526.8269
 21
487.2224
  0
LINE
  8
0_00
  6
CENTER1
 62
6
 10
638.8269
 20
495.0811
 11
638.8269
 21
415.0363
  0
LINE
  8
0_00
  6
CONTINUOUS
 62
4
 10
650.8269
 20
487.2224
 11
650.8269
 21
422.5825
  0
LINE
  8
0_00
  6
CONTINUOUS
 62
4
 10
626.8269
 20
487.2224
 11
626.8269
 21
422.5825
  0
LINE
  8
0_00
  6
CONTINUOUS
 62
4
 10
650.8269
 20
422.5825
 11
626.8269
 21
422.5825
  0
LINE
  8
0_00
  6
CONTINUOUS
 62
4
 10
626.8269
 20
424.7025
 11
650.8269
 21
424.7025
  0
LINE
  8
0_00
  6
CONTINUOUS
 62
4
 10
626.8269
 20
429.5825
 11
650.8269
 21
429.5825
  0
LINE
  8
0_00
  6
CONTINUOUS
 62
4
 10
626.8269
 20
430.1824
 11
650.8269
 21
430.1824
  0
LINE
  8
0_00
  6
CONTINUOUS
 62
4
 10
626.8269
 20
436.5825
 11
650.8269
 21
436.5825
  0
LINE
  8
0_00
  6
CONTINUOUS
 62
4
 10
626.8269
 20
437.1824
 11
650.8269
 21
437.1824
  0
LINE
  8
0_00
  6
CONTINUOUS
 62
4
 10
626.8269
 20
438.5025
 11
650.8269
 21
438.5025
  0
LINE
  8
0_00
  6
CONTINUOUS
 62
4
 10
650.8269
 20
487.2224
 11
626.8269
 21
487.2224
  0
LINE
  8
0_00
  6
CONTINUOUS
 62
4
 10
626.8269
 20
485.1024
 11
650.8269
 21
485.1024
  0
LINE
  8
0_00
  6
CONTINUOUS
 62
4
 10
626.8269
 20
480.2224
 11
650.8269
 21
480.2224
  0
LINE
  8
0_00
  6
CONTINUOUS
 62
4
 10
626.8269
 20
479.6225
 11
650.8269
 21
479.6225
  0
LINE
  8
0_00
  6
CONTINUOUS
 62
4
 10
626.8269
 20
473.2224
 11
650.8269
 21
473.2224
  0
LINE
  8
0_00
  6
CONTINUOUS
 62
4
 10
626.8269
 20
472.6224
 11
650.8269
 21
472.6224
  0
LINE
  8
0_00
  6
CONTINUOUS
 62
4
 10
626.8269
 20
471.3024
 11
650.8269
 21
471.3024
  0
LINE
  8
0_00
  6
CONTINUOUS
 62
4
 10
644.1269
 20
442.4025
 11
647.5269
 21
442.4025
  0
LINE
  8
0_00
  6
CONTINUOUS
 62
4
 10
644.1269
 20
445.0024
 11
647.5269
 21
445.0024
  0
LINE
  8
0_00
  6
CONTINUOUS
 62
4
 10
644.1269
 20
464.8024
 11
647.5269
 21
464.8024
  0
LINE
  8
0_00
  6
CONTINUOUS
 62
4
 10
644.1269
 20
467.4024
 11
647.5269
 21
467.4024
  0
LINE
  8
0_00
  6
CONTINUOUS
 62
4
 10
633.5269
 20
442.4025
 11
630.1269
 21
442.4025
  0
LINE
  8
0_00
  6
CONTINUOUS
 62
4
 10
633.5269
 20
445.0024
 11
630.1269
 21
445.0024
  0
LINE
  8
0_00
  6
CONTINUOUS
 62
4
 10
633.5269
 20
464.8024
 11
630.1269
 21
464.8024
  0
LINE
  8
0_00
  6
CONTINUOUS
 62
4
 10
633.5269
 20
467.4024
 11
630.1269
 21
467.4024
  0
LINE
  8
0_00
  6
CONTINUOUS
 62
2
 10
650.8269
 20
434.1825
 11
626.8269
 21
434.1825
  0
LINE
  8
0_00
  6
CONTINUOUS
 62
2
 10
650.8269
 20
475.6224
 11
626.8269
 21
475.6224
  0
LINE
  8
0_00
  6
CONTINUOUS
 62
4
 10
640.0269
 20
457.7025
 11
640.0269
 21
456.9345
  0
LINE
  8
0_00
  6
CONTINUOUS
 62
4
 10
640.0269
 20
452.8703
 11
640.0269
 21
452.1024
  0
LINE
  8
0_00
  6
CONTINUOUS
 62
4
 10
637.6269
 20
457.7025
 11
637.6269
 21
456.9345
  0
LINE
  8
0_00
  6
CONTINUOUS
 62
4
 10
637.6269
 20
452.8703
 11
637.6269
 21
452.1024
  0
LINE
  8
0_00
  6
CONTINUOUS
 62
2
 10
717.9910
 20
495.6692
 11
707.9891
 21
458.3420
  0
LINE
  8
0_00
  6
CONTINUOUS
 62
2
 10
713.6443
 20
496.8339
 11
702.4778
 21
455.1601
  0
LINE
  8
0_00
  6
CONTINUOUS
 62
2
 10
715.9891
 20
451.5397
 11
706.3820
 21
415.6852
  0
LINE
  8
0_00
  6
CONTINUOUS
 62
2
 10
710.7286
 20
414.5205
 11
721.5005
 21
454.7217
  0
LINE
  8
0_00
  6
CONTINUOUS
 62
2
 10
707.9891
 20
458.3420
 11
721.5005
 21
454.7217
  0
LINE
  8
0_00
  6
CONTINUOUS
 62
2
 10
715.9891
 20
451.5397
 11
702.4778
 21
455.1601
  0
LINE
  8
0_00
  6
CONTINUOUS
 62
4
 10
533.7303
 20
487.9024
 11
533.7758
 21
487.7263
  0
LINE
  8
0_00
  6
CONTINUOUS
 62
4
 10
533.7758
 20
487.7263
 11
533.8453
 21
487.4689
  0
LINE
  8
0_00
  6
CONTINUOUS
 62
4
 10
533.8453
 20
487.4689
 11
533.9173
 21
487.2138
  0
LINE
  8
0_00
  6
CONTINUOUS
 62
4
 10
533.9173
 20
487.2138
 11
533.9920
 21
486.9612
  0
LINE
  8
0_00
  6
CONTINUOUS
 62
4
 10
533.9920
 20
486.9612
 11
534.0695
 21
486.7112
  0
LINE
  8
0_00
  6
CONTINUOUS
 62
4
 10
534.0695
 20
486.7112
 11
534.1501
 21
486.4639
  0
LINE
  8
0_00
  6
CONTINUOUS
 62
4
 10
534.1501
 20
486.4639
 11
534.2338
 21
486.2195
  0
LINE
  8
0_00
  6
CONTINUOUS
 62
4
 10
534.2338
 20
486.2195
 11
534.3207
 21
485.9782
  0
LINE
  8
0_00
  6
CONTINUOUS
 62
4
 10
534.3207
 20
485.9782
 11
534.4111
 21
485.7401
  0
LINE
  8
0_00
  6
CONTINUOUS
 62
4
 10
534.4111
 20
485.7401
 11
534.5050
 21
485.5052
  0
LINE
  8
0_00
  6
CONTINUOUS
 62
4
 10
534.5050
 20
485.5052
 11
534.6027
 21
485.2739
  0
LINE
  8
0_00
  6
CONTINUOUS
 62
4
 10
534.6027
 20
485.2739
 11
534.7043
 21
485.0461
  0
LINE
  8
0_00
  6
CONTINUOUS
 62
4
 10
534.7043
 20
485.0461
 11
534.8099
 21
484.8220
  0
LINE
  8
0_00
  6
CONTINUOUS
 62
4
 10
534.8099
 20
484.8220
 11
534.9197
 21
484.6017
  0
LINE
  8
0_00
  6
CONTINUOUS
 62
4
 10
534.9197
 20
484.6017
 11
535.0338
 21
484.3855
  0
LINE
  8
0_00
  6
CONTINUOUS
 62
4
 10
535.0338
 20
484.3855
 11
535.1523
 21
484.1734
  0
LINE
  8
0_00
  6
CONTINUOUS
 62
4
 10
535.1523
 20
484.1734
 11
535.2748
 21
483.9654
  0
LINE
  8
0_00
  6
CONTINUOUS
 62
4
 10
535.2748
 20
483.9654
 11
535.4012
 21
483.7614
  0
LINE
  8
0_00
  6
CONTINUOUS
 62
4
 10
535.4012
 20
483.7614
 11
535.5308
 21
483.5614
  0
LINE
  8
0_00
  6
CONTINUOUS
 62
4
 10
535.5308
 20
483.5614
 11
535.6634
 21
483.3654
  0
LINE
  8
0_00
  6
CONTINUOUS
 62
4
 10
535.6634
 20
483.3654
 11
535.7986
 21
483.1732
  0
LINE
  8
0_00
  6
CONTINUOUS
 62
4
 10
535.7986
 20
483.1732
 11
535.9360
 21
482.9850
  0
LINE
  8
0_00
  6
CONTINUOUS
 62
4
 10
535.9360
 20
482.9850
 11
536.0751
 21
482.8006
  0
LINE
  8
0_00
  6
CONTINUOUS
 62
4
 10
536.0751
 20
482.8006
 11
536.2158
 21
482.6200
  0
LINE
  8
0_00
  6
CONTINUOUS
 62
4
 10
536.2158
 20
482.6200
 11
536.3574
 21
482.4431
  0
LINE
  8
0_00
  6
CONTINUOUS
 62
4
 10
536.3574
 20
482.4431
 11
536.4998
 21
482.2699
  0
LINE
  8
0_00
  6
CONTINUOUS
 62
4
 10
536.4998
 20
482.2699
 11
536.6425
 21
482.1004
  0
LINE
  8
0_00
  6
CONTINUOUS
 62
4
 10
536.6425
 20
482.1004
 11
536.7850
 21
481.9344
  0
LINE
  8
0_00
  6
CONTINUOUS
 62
4
 10
536.7850
 20
481.9344
 11
536.9271
 21
481.7721
  0
LINE
  8
0_00
  6
CONTINUOUS
 62
4
 10
536.9271
 20
481.7721
 11
537.0684
 21
481.6132
  0
LINE
  8
0_00
  6
CONTINUOUS
 62
4
 10
537.0684
 20
481.6132
 11
537.2084
 21
481.4578
  0
LINE
  8
0_00
  6
CONTINUOUS
 62
4
 10
537.2084
 20
481.4578
 11
537.3468
 21
481.3059
  0
LINE
  8
0_00
  6
CONTINUOUS
 62
4
 10
537.3468
 20
481.3059
 11
537.4832
 21
481.1573
  0
LINE
  8
0_00
  6
CONTINUOUS
 62
4
 10
537.4832
 20
481.1573
 11
537.6172
 21
481.0121
  0
LINE
  8
0_00
  6
CONTINUOUS
 62
4
 10
537.6172
 20
481.0121
 11
537.7486
 21
480.8701
  0
LINE
  8
0_00
  6
CONTINUOUS
 62
4
 10
537.7486
 20
480.8701
 11
537.8768
 21
480.7314
  0
LINE
  8
0_00
  6
CONTINUOUS
 62
4
 10
537.8768
 20
480.7314
 11
538.0014
 21
480.5960
  0
LINE
  8
0_00
  6
CONTINUOUS
 62
4
 10
538.0014
 20
480.5960
 11
538.1222
 21
480.4637
  0
LINE
  8
0_00
  6
CONTINUOUS
 62
4
 10
538.1222
 20
480.4637
 11
538.2387
 21
480.3345
  0
LINE
  8
0_00
  6
CONTINUOUS
 62
4
 10
538.2387
 20
480.3345
 11
538.3506
 21
480.2084
  0
LINE
  8
0_00
  6
CONTINUOUS
 62
4
 10
538.3506
 20
480.2084
 11
538.4575
 21
480.0853
  0
LINE
  8
0_00
  6
CONTINUOUS
 62
4
 10
538.4575
 20
480.0853
 11
538.5588
 21
479.9652
  0
LINE
  8
0_00
  6
CONTINUOUS
 62
4
 10
538.5588
 20
479.9652
 11
538.6545
 21
479.8481
  0
LINE
  8
0_00
  6
CONTINUOUS
 62
4
 10
538.6545
 20
479.8481
 11
538.7440
 21
479.7339
  0
LINE
  8
0_00
  6
CONTINUOUS
 62
4
 10
538.7440
 20
479.7339
 11
538.8269
 21
479.6225
  0
LINE
  8
0_00
  6
CONTINUOUS
 62
4
 10
538.8269
 20
479.6225
 11
538.9031
 21
479.5138
  0
LINE
  8
0_00
  6
CONTINUOUS
 62
4
 10
538.9031
 20
479.5138
 11
538.9730
 21
479.4075
  0
LINE
  8
0_00
  6
CONTINUOUS
 62
4
 10
538.9730
 20
479.4075
 11
539.0372
 21
479.3032
  0
LINE
  8
0_00
  6
CONTINUOUS
 62
4
 10
539.0372
 20
479.3032
 11
539.0966
 21
479.2004
  0
LINE
  8
0_00
  6
CONTINUOUS
 62
4
 10
539.0966
 20
479.2004
 11
539.1516
 21
479.0986
  0
LINE
  8
0_00
  6
CONTINUOUS
 62
4
 10
539.1516
 20
479.0986
 11
539.2031
 21
478.9974
  0
LINE
  8
0_00
  6
CONTINUOUS
 62
4
 10
539.2031
 20
478.9974
 11
539.2515
 21
478.8965
  0
LINE
  8
0_00
  6
CONTINUOUS
 62
4
 10
539.2515
 20
478.8965
 11
539.2977
 21
478.7953
  0
LINE
  8
0_00
  6
CONTINUOUS
 62
4
 10
539.2977
 20
478.7953
 11
539.3422
 21
478.6934
  0
LINE
  8
0_00
  6
CONTINUOUS
 62
4
 10
539.3422
 20
478.6934
 11
539.3858
 21
478.5904
  0
LINE
  8
0_00
  6
CONTINUOUS
 62
4
 10
539.3858
 20
478.5904
 11
539.4290
 21
478.4859
  0
LINE
  8
0_00
  6
CONTINUOUS
 62
4
 10
539.4290
 20
478.4859
 11
539.4726
 21
478.3793
  0
LINE
  8
0_00
  6
CONTINUOUS
 62
4
 10
539.4726
 20
478.3793
 11
539.5172
 21
478.2704
  0
LINE
  8
0_00
  6
CONTINUOUS
 62
4
 10
539.5172
 20
478.2704
 11
539.5634
 21
478.1585
  0
LINE
  8
0_00
  6
CONTINUOUS
 62
4
 10
539.5634
 20
478.1585
 11
539.6120
 21
478.0433
  0
LINE
  8
0_00
  6
CONTINUOUS
 62
4
 10
539.6120
 20
478.0433
 11
539.6636
 21
477.9244
  0
LINE
  8
0_00
  6
CONTINUOUS
 62
4
 10
539.6636
 20
477.9244
 11
539.7188
 21
477.8013
  0
LINE
  8
0_00
  6
CONTINUOUS
 62
4
 10
539.7188
 20
477.8013
 11
539.7783
 21
477.6737
  0
LINE
  8
0_00
  6
CONTINUOUS
 62
4
 10
539.7783
 20
477.6737
 11
539.8428
 21
477.5409
  0
LINE
  8
0_00
  6
CONTINUOUS
 62
4
 10
539.8428
 20
477.5409
 11
539.9129
 21
477.4027
  0
LINE
  8
0_00
  6
CONTINUOUS
 62
4
 10
539.9129
 20
477.4027
 11
539.9893
 21
477.2586
  0
LINE
  8
0_00
  6
CONTINUOUS
 62
4
 10
539.9893
 20
477.2586
 11
540.0727
 21
477.1080
  0
LINE
  8
0_00
  6
CONTINUOUS
 62
4
 10
540.0727
 20
477.1080
 11
540.1637
 21
476.9507
  0
LINE
  8
0_00
  6
CONTINUOUS
 62
4
 10
540.1637
 20
476.9507
 11
540.2630
 21
476.7862
  0
LINE
  8
0_00
  6
CONTINUOUS
 62
4
 10
540.2630
 20
476.7862
 11
540.3712
 21
476.6139
  0
LINE
  8
0_00
  6
CONTINUOUS
 62
4
 10
540.3712
 20
476.6139
 11
540.4890
 21
476.4336
  0
LINE
  8
0_00
  6
CONTINUOUS
 62
4
 10
540.4890
 20
476.4336
 11
540.6171
 21
476.2448
  0
LINE
  8
0_00
  6
CONTINUOUS
 62
4
 10
540.6171
 20
476.2448
 11
540.7561
 21
476.0469
  0
LINE
  8
0_00
  6
CONTINUOUS
 62
4
 10
540.7561
 20
476.0469
 11
540.9067
 21
475.8396
  0
LINE
  8
0_00
  6
CONTINUOUS
 62
4
 10
540.9067
 20
475.8396
 11
541.0695
 21
475.6224
  0
LINE
  8
0_00
  6
CONTINUOUS
 62
4
 10
541.0695
 20
475.6224
 11
541.2450
 21
475.3952
  0
LINE
  8
0_00
  6
CONTINUOUS
 62
4
 10
541.2450
 20
475.3952
 11
541.4324
 21
475.1584
  0
LINE
  8
0_00
  6
CONTINUOUS
 62
4
 10
541.4324
 20
475.1584
 11
541.6307
 21
474.9125
  0
LINE
  8
0_00
  6
CONTINUOUS
 62
4
 10
541.6307
 20
474.9125
 11
541.8391
 21
474.6586
  0
LINE
  8
0_00
  6
CONTINUOUS
 62
4
 10
541.8391
 20
474.6586
 11
542.0563
 21
474.3970
  0
LINE
  8
0_00
  6
CONTINUOUS
 62
4
 10
542.0563
 20
474.3970
 11
542.2816
 21
474.1285
  0
LINE
  8
0_00
  6
CONTINUOUS
 62
4
 10
542.2816
 20
474.1285
 11
542.5138
 21
473.8539
  0
LINE
  8
0_00
  6
CONTINUOUS
 62
4
 10
542.5138
 20
473.8539
 11
542.7521
 21
473.5737
  0
LINE
  8
0_00
  6
CONTINUOUS
 62
4
 10
542.7521
 20
473.5737
 11
542.9954
 21
473.2887
  0
LINE
  8
0_00
  6
CONTINUOUS
 62
4
 10
542.9954
 20
473.2887
 11
543.2428
 21
472.9996
  0
LINE
  8
0_00
  6
CONTINUOUS
 62
4
 10
543.2428
 20
472.9996
 11
543.4932
 21
472.7071
  0
LINE
  8
0_00
  6
CONTINUOUS
 62
4
 10
543.4932
 20
472.7071
 11
543.7458
 21
472.4118
  0
LINE
  8
0_00
  6
CONTINUOUS
 62
4
 10
543.7458
 20
472.4118
 11
543.9994
 21
472.1143
  0
LINE
  8
0_00
  6
CONTINUOUS
 62
4
 10
543.9994
 20
472.1143
 11
544.2532
 21
471.8155
  0
LINE
  8
0_00
  6
CONTINUOUS
 62
4
 10
544.2532
 20
471.8155
 11
544.5060
 21
471.5160
  0
LINE
  8
0_00
  6
CONTINUOUS
 62
4
 10
544.5060
 20
471.5160
 11
544.7571
 21
471.2165
  0
LINE
  8
0_00
  6
CONTINUOUS
 62
4
 10
544.7571
 20
471.2165
 11
545.0053
 21
470.9175
  0
LINE
  8
0_00
  6
CONTINUOUS
 62
4
 10
545.0053
 20
470.9175
 11
545.2498
 21
470.6200
  0
LINE
  8
0_00
  6
CONTINUOUS
 62
4
 10
545.2498
 20
470.6200
 11
545.4893
 21
470.3245
  0
LINE
  8
0_00
  6
CONTINUOUS
 62
4
 10
545.4893
 20
470.3245
 11
545.7231
 21
470.0316
  0
LINE
  8
0_00
  6
CONTINUOUS
 62
4
 10
545.7231
 20
470.0316
 11
545.9502
 21
469.7421
  0
LINE
  8
0_00
  6
CONTINUOUS
 62
4
 10
545.9502
 20
469.7421
 11
546.1695
 21
469.4567
  0
LINE
  8
0_00
  6
CONTINUOUS
 62
4
 10
546.1695
 20
469.4567
 11
546.3801
 21
469.1761
  0
LINE
  8
0_00
  6
CONTINUOUS
 62
4
 10
546.3801
 20
469.1761
 11
546.5809
 21
468.9009
  0
LINE
  8
0_00
  6
CONTINUOUS
 62
4
 10
546.5809
 20
468.9009
 11
546.7711
 21
468.6319
  0
LINE
  8
0_00
  6
CONTINUOUS
 62
4
 10
546.7711
 20
468.6319
 11
546.9495
 21
468.3696
  0
LINE
  8
0_00
  6
CONTINUOUS
 62
4
 10
546.9495
 20
468.3696
 11
547.1154
 21
468.1149
  0
LINE
  8
0_00
  6
CONTINUOUS
 62
4
 10
547.1154
 20
468.1149
 11
547.2675
 21
467.8683
  0
LINE
  8
0_00
  6
CONTINUOUS
 62
4
 10
547.2675
 20
467.8683
 11
547.4050
 21
467.6306
  0
LINE
  8
0_00
  6
CONTINUOUS
 62
4
 10
547.4050
 20
467.6306
 11
547.5269
 21
467.4024
  0
LINE
  8
0_00
  6
CONTINUOUS
 62
4
 10
547.5269
 20
467.4024
 11
547.6325
 21
467.1844
  0
LINE
  8
0_00
  6
CONTINUOUS
 62
4
 10
547.6325
 20
467.1844
 11
547.7225
 21
466.9760
  0
LINE
  8
0_00
  6
CONTINUOUS
 62
4
 10
547.7225
 20
466.9760
 11
547.7979
 21
466.7772
  0
LINE
  8
0_00
  6
CONTINUOUS
 62
4
 10
547.7979
 20
466.7772
 11
547.8596
 21
466.5874
  0
LINE
  8
0_00
  6
CONTINUOUS
 62
4
 10
547.8596
 20
466.5874
 11
547.9088
 21
466.4062
  0
LINE
  8
0_00
  6
CONTINUOUS
 62
4
 10
547.9088
 20
466.4062
 11
547.9462
 21
466.2334
  0
LINE
  8
0_00
  6
CONTINUOUS
 62
4
 10
547.9462
 20
466.2334
 11
547.9729
 21
466.0683
  0
LINE
  8
0_00
  6
CONTINUOUS
 62
4
 10
547.9729
 20
466.0683
 11
547.9899
 21
465.9108
  0
LINE
  8
0_00
  6
CONTINUOUS
 62
4
 10
547.9899
 20
465.9108
 11
547.9983
 21
465.7602
  0
LINE
  8
0_00
  6
CONTINUOUS
 62
4
 10
547.9983
 20
465.7602
 11
547.9990
 21
465.6165
  0
LINE
  8
0_00
  6
CONTINUOUS
 62
4
 10
547.9990
 20
465.6165
 11
547.9929
 21
465.4789
  0
LINE
  8
0_00
  6
CONTINUOUS
 62
4
 10
547.9929
 20
465.4789
 11
547.9810
 21
465.3473
  0
LINE
  8
0_00
  6
CONTINUOUS
 62
4
 10
547.9810
 20
465.3473
 11
547.9645
 21
465.2211
  0
LINE
  8
0_00
  6
CONTINUOUS
 62
4
 10
547.9645
 20
465.2211
 11
547.9442
 21
465.1001
  0
LINE
  8
0_00
  6
CONTINUOUS
 62
4
 10
547.9442
 20
465.1001
 11
547.9210
 21
464.9837
  0
LINE
  8
0_00
  6
CONTINUOUS
 62
4
 10
547.9210
 20
464.9837
 11
547.8961
 21
464.8716
  0
LINE
  8
0_00
  6
CONTINUOUS
 62
4
 10
547.8961
 20
464.8716
 11
547.8704
 21
464.7635
  0
LINE
  8
0_00
  6
CONTINUOUS
 62
4
 10
547.8704
 20
464.7635
 11
547.8449
 21
464.6588
  0
LINE
  8
0_00
  6
CONTINUOUS
 62
4
 10
547.8449
 20
464.6588
 11
547.8206
 21
464.5572
  0
LINE
  8
0_00
  6
CONTINUOUS
 62
4
 10
547.8206
 20
464.5572
 11
547.7984
 21
464.4584
  0
LINE
  8
0_00
  6
CONTINUOUS
 62
4
 10
547.7984
 20
464.4584
 11
547.7794
 21
464.3620
  0
LINE
  8
0_00
  6
CONTINUOUS
 62
4
 10
547.7794
 20
464.3620
 11
547.7645
 21
464.2675
  0
LINE
  8
0_00
  6
CONTINUOUS
 62
4
 10
547.7645
 20
464.2675
 11
547.7548
 21
464.1744
  0
LINE
  8
0_00
  6
CONTINUOUS
 62
4
 10
547.7548
 20
464.1744
 11
547.7512
 21
464.0826
  0
LINE
  8
0_00
  6
CONTINUOUS
 62
4
 10
547.7512
 20
464.0826
 11
547.7546
 21
463.9915
  0
LINE
  8
0_00
  6
CONTINUOUS
 62
4
 10
547.7546
 20
463.9915
 11
547.7662
 21
463.9008
  0
LINE
  8
0_00
  6
CONTINUOUS
 62
4
 10
547.7662
 20
463.9008
 11
547.7868
 21
463.8100
  0
LINE
  8
0_00
  6
CONTINUOUS
 62
4
 10
547.7868
 20
463.8100
 11
547.8175
 21
463.7188
  0
LINE
  8
0_00
  6
CONTINUOUS
 62
4
 10
547.8175
 20
463.7188
 11
547.8593
 21
463.6266
  0
LINE
  8
0_00
  6
CONTINUOUS
 62
4
 10
547.8593
 20
463.6266
 11
547.9130
 21
463.5334
  0
LINE
  8
0_00
  6
CONTINUOUS
 62
4
 10
547.9130
 20
463.5334
 11
547.9796
 21
463.4385
  0
LINE
  8
0_00
  6
CONTINUOUS
 62
4
 10
547.9796
 20
463.4385
 11
548.0585
 21
463.3418
  0
LINE
  8
0_00
  6
CONTINUOUS
 62
4
 10
548.0585
 20
463.3418
 11
548.1493
 21
463.2428
  0
LINE
  8
0_00
  6
CONTINUOUS
 62
4
 10
548.1493
 20
463.2428
 11
548.2513
 21
463.1415
  0
LINE
  8
0_00
  6
CONTINUOUS
 62
4
 10
548.2513
 20
463.1415
 11
548.3638
 21
463.0374
  0
LINE
  8
0_00
  6
CONTINUOUS
 62
4
 10
548.3638
 20
463.0374
 11
548.4863
 21
462.9305
  0
LINE
  8
0_00
  6
CONTINUOUS
 62
4
 10
548.4863
 20
462.9305
 11
548.6182
 21
462.8202
  0
LINE
  8
0_00
  6
CONTINUOUS
 62
4
 10
548.6182
 20
462.8202
 11
548.7587
 21
462.7065
  0
LINE
  8
0_00
  6
CONTINUOUS
 62
4
 10
548.7587
 20
462.7065
 11
548.9074
 21
462.5891
  0
LINE
  8
0_00
  6
CONTINUOUS
 62
4
 10
548.9074
 20
462.5891
 11
549.0636
 21
462.4676
  0
LINE
  8
0_00
  6
CONTINUOUS
 62
4
 10
549.0636
 20
462.4676
 11
549.2267
 21
462.3417
  0
LINE
  8
0_00
  6
CONTINUOUS
 62
4
 10
549.2267
 20
462.3417
 11
549.3961
 21
462.2114
  0
LINE
  8
0_00
  6
CONTINUOUS
 62
4
 10
549.3961
 20
462.2114
 11
549.5711
 21
462.0762
  0
LINE
  8
0_00
  6
CONTINUOUS
 62
4
 10
549.5711
 20
462.0762
 11
549.7512
 21
461.9359
  0
LINE
  8
0_00
  6
CONTINUOUS
 62
4
 10
549.7512
 20
461.9359
 11
549.9357
 21
461.7903
  0
LINE
  8
0_00
  6
CONTINUOUS
 62
4
 10
549.9357
 20
461.7903
 11
550.1241
 21
461.6390
  0
LINE
  8
0_00
  6
CONTINUOUS
 62
4
 10
550.1241
 20
461.6390
 11
550.3157
 21
461.4819
  0
LINE
  8
0_00
  6
CONTINUOUS
 62
4
 10
550.3157
 20
461.4819
 11
550.5099
 21
461.3185
  0
LINE
  8
0_00
  6
CONTINUOUS
 62
4
 10
550.5099
 20
461.3185
 11
550.7060
 21
461.1487
  0
LINE
  8
0_00
  6
CONTINUOUS
 62
4
 10
550.7060
 20
461.1487
 11
550.9036
 21
460.9723
  0
LINE
  8
0_00
  6
CONTINUOUS
 62
4
 10
550.9036
 20
460.9723
 11
551.1018
 21
460.7889
  0
LINE
  8
0_00
  6
CONTINUOUS
 62
4
 10
551.1018
 20
460.7889
 11
551.3003
 21
460.5982
  0
LINE
  8
0_00
  6
CONTINUOUS
 62
4
 10
551.3003
 20
460.5982
 11
551.4982
 21
460.4001
  0
LINE
  8
0_00
  6
CONTINUOUS
 62
4
 10
551.4982
 20
460.4001
 11
551.6951
 21
460.1941
  0
LINE
  8
0_00
  6
CONTINUOUS
 62
4
 10
551.6951
 20
460.1941
 11
551.8903
 21
459.9801
  0
LINE
  8
0_00
  6
CONTINUOUS
 62
4
 10
551.8903
 20
459.9801
 11
552.0833
 21
459.7578
  0
LINE
  8
0_00
  6
CONTINUOUS
 62
4
 10
552.0833
 20
459.7578
 11
552.2732
 21
459.5270
  0
LINE
  8
0_00
  6
CONTINUOUS
 62
4
 10
552.2732
 20
459.5270
 11
552.4596
 21
459.2873
  0
LINE
  8
0_00
  6
CONTINUOUS
 62
4
 10
552.4596
 20
459.2873
 11
552.6419
 21
459.0385
  0
LINE
  8
0_00
  6
CONTINUOUS
 62
4
 10
552.6419
 20
459.0385
 11
552.8194
 21
458.7803
  0
LINE
  8
0_00
  6
CONTINUOUS
 62
4
 10
552.8194
 20
458.7803
 11
552.9917
 21
458.5127
  0
LINE
  8
0_00
  6
CONTINUOUS
 62
4
 10
552.9917
 20
458.5127
 11
553.1589
 21
458.2363
  0
LINE
  8
0_00
  6
CONTINUOUS
 62
4
 10
553.1589
 20
458.2363
 11
553.3213
 21
457.9519
  0
LINE
  8
0_00
  6
CONTINUOUS
 62
4
 10
553.3213
 20
457.9519
 11
553.4792
 21
457.6605
  0
LINE
  8
0_00
  6
CONTINUOUS
 62
4
 10
553.4792
 20
457.6605
 11
553.6329
 21
457.3627
  0
LINE
  8
0_00
  6
CONTINUOUS
 62
4
 10
553.6329
 20
457.3627
 11
553.7827
 21
457.0595
  0
LINE
  8
0_00
  6
CONTINUOUS
 62
4
 10
553.7827
 20
457.0595
 11
553.9289
 21
456.7518
  0
LINE
  8
0_00
  6
CONTINUOUS
 62
4
 10
553.9289
 20
456.7518
 11
554.0717
 21
456.4402
  0
LINE
  8
0_00
  6
CONTINUOUS
 62
4
 10
554.0717
 20
456.4402
 11
554.2115
 21
456.1259
  0
LINE
  8
0_00
  6
CONTINUOUS
 62
4
 10
554.2115
 20
456.1259
 11
554.3485
 21
455.8094
  0
LINE
  8
0_00
  6
CONTINUOUS
 62
4
 10
554.3485
 20
455.8094
 11
554.4830
 21
455.4918
  0
LINE
  8
0_00
  6
CONTINUOUS
 62
4
 10
554.4830
 20
455.4918
 11
554.6155
 21
455.1737
  0
LINE
  8
0_00
  6
CONTINUOUS
 62
4
 10
554.6155
 20
455.1737
 11
554.7460
 21
454.8562
  0
LINE
  8
0_00
  6
CONTINUOUS
 62
4
 10
554.7460
 20
454.8562
 11
554.8749
 21
454.5399
  0
LINE
  8
0_00
  6
CONTINUOUS
 62
4
 10
554.8749
 20
454.5399
 11
555.0025
 21
454.2259
  0
LINE
  8
0_00
  6
CONTINUOUS
 62
4
 10
555.0025
 20
454.2259
 11
555.1292
 21
453.9148
  0
LINE
  8
0_00
  6
CONTINUOUS
 62
4
 10
555.1292
 20
453.9148
 11
555.2550
 21
453.6076
  0
LINE
  8
0_00
  6
CONTINUOUS
 62
4
 10
555.2550
 20
453.6076
 11
555.3805
 21
453.3051
  0
LINE
  8
0_00
  6
CONTINUOUS
 62
4
 10
555.3805
 20
453.3051
 11
555.5059
 21
453.0081
  0
LINE
  8
0_00
  6
CONTINUOUS
 62
4
 10
555.5059
 20
453.0081
 11
555.6313
 21
452.7175
  0
LINE
  8
0_00
  6
CONTINUOUS
 62
4
 10
555.6313
 20
452.7175
 11
555.7573
 21
452.4341
  0
LINE
  8
0_00
  6
CONTINUOUS
 62
4
 10
555.7573
 20
452.4341
 11
555.8840
 21
452.1588
  0
LINE
  8
0_00
  6
CONTINUOUS
 62
4
 10
555.8840
 20
452.1588
 11
556.0117
 21
451.8923
  0
LINE
  8
0_00
  6
CONTINUOUS
 62
4
 10
556.0117
 20
451.8923
 11
556.1407
 21
451.6356
  0
LINE
  8
0_00
  6
CONTINUOUS
 62
4
 10
556.1407
 20
451.6356
 11
556.2714
 21
451.3895
  0
LINE
  8
0_00
  6
CONTINUOUS
 62
4
 10
556.2714
 20
451.3895
 11
556.4040
 21
451.1549
  0
LINE
  8
0_00
  6
CONTINUOUS
 62
4
 10
556.4040
 20
451.1549
 11
556.5388
 21
450.9326
  0
LINE
  8
0_00
  6
CONTINUOUS
 62
4
 10
556.5388
 20
450.9326
 11
556.6760
 21
450.7233
  0
LINE
  8
0_00
  6
CONTINUOUS
 62
4
 10
556.6760
 20
450.7233
 11
556.8160
 21
450.5280
  0
LINE
  8
0_00
  6
CONTINUOUS
 62
4
 10
556.8160
 20
450.5280
 11
556.9592
 21
450.3474
  0
LINE
  8
0_00
  6
CONTINUOUS
 62
4
 10
556.9592
 20
450.3474
 11
557.1056
 21
450.1824
  0
LINE
  8
0_00
  6
CONTINUOUS
 62
4
 10
557.1056
 20
450.1824
 11
557.2552
 21
450.0320
  0
LINE
  8
0_00
  6
CONTINUOUS
 62
4
 10
557.2552
 20
450.0320
 11
557.4080
 21
449.8954
  0
LINE
  8
0_00
  6
CONTINUOUS
 62
4
 10
557.4080
 20
449.8954
 11
557.5638
 21
449.7717
  0
LINE
  8
0_00
  6
CONTINUOUS
 62
4
 10
557.5638
 20
449.7717
 11
557.7227
 21
449.6599
  0
LINE
  8
0_00
  6
CONTINUOUS
 62
4
 10
557.7227
 20
449.6599
 11
557.8843
 21
449.5591
  0
LINE
  8
0_00
  6
CONTINUOUS
 62
4
 10
557.8843
 20
449.5591
 11
558.0485
 21
449.4685
  0
LINE
  8
0_00
  6
CONTINUOUS
 62
4
 10
558.0485
 20
449.4685
 11
558.2155
 21
449.3870
  0
LINE
  8
0_00
  6
CONTINUOUS
 62
4
 10
558.2155
 20
449.3870
 11
558.3848
 21
449.3138
  0
LINE
  8
0_00
  6
CONTINUOUS
 62
4
 10
558.3848
 20
449.3138
 11
558.5566
 21
449.2480
  0
LINE
  8
0_00
  6
CONTINUOUS
 62
4
 10
558.5566
 20
449.2480
 11
558.7307
 21
449.1885
  0
LINE
  8
0_00
  6
CONTINUOUS
 62
4
 10
558.7307
 20
449.1885
 11
558.9069
 21
449.1346
  0
LINE
  8
0_00
  6
CONTINUOUS
 62
4
 10
558.9069
 20
449.1346
 11
559.0852
 21
449.0852
  0
LINE
  8
0_00
  6
CONTINUOUS
 62
4
 10
559.0852
 20
449.0852
 11
559.2654
 21
449.0394
  0
LINE
  8
0_00
  6
CONTINUOUS
 62
4
 10
559.2654
 20
449.0394
 11
559.4475
 21
448.9963
  0
LINE
  8
0_00
  6
CONTINUOUS
 62
4
 10
559.4475
 20
448.9963
 11
559.6313
 21
448.9550
  0
LINE
  8
0_00
  6
CONTINUOUS
 62
4
 10
559.6313
 20
448.9550
 11
559.8167
 21
448.9147
  0
LINE
  8
0_00
  6
CONTINUOUS
 62
4
 10
559.8167
 20
448.9147
 11
560.0037
 21
448.8742
  0
LINE
  8
0_00
  6
CONTINUOUS
 62
4
 10
560.0037
 20
448.8742
 11
560.1920
 21
448.8327
  0
LINE
  8
0_00
  6
CONTINUOUS
 62
4
 10
560.1920
 20
448.8327
 11
560.3817
 21
448.7894
  0
LINE
  8
0_00
  6
CONTINUOUS
 62
4
 10
560.3817
 20
448.7894
 11
560.5724
 21
448.7432
  0
LINE
  8
0_00
  6
CONTINUOUS
 62
4
 10
560.5724
 20
448.7432
 11
560.7644
 21
448.6932
  0
LINE
  8
0_00
  6
CONTINUOUS
 62
4
 10
560.7644
 20
448.6932
 11
560.9573
 21
448.6386
  0
LINE
  8
0_00
  6
CONTINUOUS
 62
4
 10
560.9573
 20
448.6386
 11
561.1510
 21
448.5785
  0
LINE
  8
0_00
  6
CONTINUOUS
 62
4
 10
561.1510
 20
448.5785
 11
561.3455
 21
448.5117
  0
LINE
  8
0_00
  6
CONTINUOUS
 62
4
 10
561.3455
 20
448.5117
 11
561.5406
 21
448.4375
  0
LINE
  8
0_00
  6
CONTINUOUS
 62
4
 10
561.5406
 20
448.4375
 11
561.7363
 21
448.3549
  0
LINE
  8
0_00
  6
CONTINUOUS
 62
4
 10
561.7363
 20
448.3549
 11
561.9324
 21
448.2630
  0
LINE
  8
0_00
  6
CONTINUOUS
 62
4
 10
561.9324
 20
448.2630
 11
562.1289
 21
448.1609
  0
LINE
  8
0_00
  6
CONTINUOUS
 62
4
 10
562.1289
 20
448.1609
 11
562.3255
 21
448.0476
  0
LINE
  8
0_00
  6
CONTINUOUS
 62
4
 10
562.3255
 20
448.0476
 11
562.5223
 21
447.9225
  0
LINE
  8
0_00
  6
CONTINUOUS
 62
4
 10
562.5223
 20
447.9225
 11
562.7192
 21
447.7859
  0
LINE
  8
0_00
  6
CONTINUOUS
 62
4
 10
562.7192
 20
447.7859
 11
562.9163
 21
447.6383
  0
LINE
  8
0_00
  6
CONTINUOUS
 62
4
 10
562.9163
 20
447.6383
 11
563.1136
 21
447.4802
  0
LINE
  8
0_00
  6
CONTINUOUS
 62
4
 10
563.1136
 20
447.4802
 11
563.3112
 21
447.3122
  0
LINE
  8
0_00
  6
CONTINUOUS
 62
4
 10
563.3112
 20
447.3122
 11
563.5091
 21
447.1348
  0
LINE
  8
0_00
  6
CONTINUOUS
 62
4
 10
563.5091
 20
447.1348
 11
563.7073
 21
446.9486
  0
LINE
  8
0_00
  6
CONTINUOUS
 62
4
 10
563.7073
 20
446.9486
 11
563.9059
 21
446.7540
  0
LINE
  8
0_00
  6
CONTINUOUS
 62
4
 10
563.9059
 20
446.7540
 11
564.1050
 21
446.5516
  0
LINE
  8
0_00
  6
CONTINUOUS
 62
4
 10
564.1050
 20
446.5516
 11
564.3046
 21
446.3420
  0
LINE
  8
0_00
  6
CONTINUOUS
 62
4
 10
564.3046
 20
446.3420
 11
564.5046
 21
446.1257
  0
LINE
  8
0_00
  6
CONTINUOUS
 62
4
 10
564.5046
 20
446.1257
 11
564.7053
 21
445.9033
  0
LINE
  8
0_00
  6
CONTINUOUS
 62
4
 10
564.7053
 20
445.9033
 11
564.9064
 21
445.6752
  0
LINE
  8
0_00
  6
CONTINUOUS
 62
4
 10
564.9064
 20
445.6752
 11
565.1083
 21
445.4420
  0
LINE
  8
0_00
  6
CONTINUOUS
 62
4
 10
565.1083
 20
445.4420
 11
565.3108
 21
445.2042
  0
LINE
  8
0_00
  6
CONTINUOUS
 62
4
 10
565.3108
 20
445.2042
 11
565.5140
 21
444.9624
  0
LINE
  8
0_00
  6
CONTINUOUS
 62
4
 10
565.5140
 20
444.9624
 11
565.7181
 21
444.7171
  0
LINE
  8
0_00
  6
CONTINUOUS
 62
4
 10
565.7181
 20
444.7171
 11
565.9229
 21
444.4688
  0
LINE
  8
0_00
  6
CONTINUOUS
 62
4
 10
565.9229
 20
444.4688
 11
566.1285
 21
444.2182
  0
LINE
  8
0_00
  6
CONTINUOUS
 62
4
 10
566.1285
 20
444.2182
 11
566.3351
 21
443.9656
  0
LINE
  8
0_00
  6
CONTINUOUS
 62
4
 10
566.3351
 20
443.9656
 11
566.5426
 21
443.7117
  0
LINE
  8
0_00
  6
CONTINUOUS
 62
4
 10
566.5426
 20
443.7117
 11
566.7510
 21
443.4570
  0
LINE
  8
0_00
  6
CONTINUOUS
 62
4
 10
566.7510
 20
443.4570
 11
566.9605
 21
443.2020
  0
LINE
  8
0_00
  6
CONTINUOUS
 62
4
 10
566.9605
 20
443.2020
 11
567.1710
 21
442.9473
  0
LINE
  8
0_00
  6
CONTINUOUS
 62
4
 10
567.1710
 20
442.9473
 11
567.3826
 21
442.6935
  0
LINE
  8
0_00
  6
CONTINUOUS
 62
4
 10
567.3826
 20
442.6935
 11
567.5953
 21
442.4409
  0
LINE
  8
0_00
  6
CONTINUOUS
 62
4
 10
567.5953
 20
442.4409
 11
567.8093
 21
442.1902
  0
LINE
  8
0_00
  6
CONTINUOUS
 62
4
 10
567.8093
 20
442.1902
 11
568.0244
 21
441.9419
  0
LINE
  8
0_00
  6
CONTINUOUS
 62
4
 10
568.0244
 20
441.9419
 11
568.2408
 21
441.6965
  0
LINE
  8
0_00
  6
CONTINUOUS
 62
4
 10
568.2408
 20
441.6965
 11
568.4585
 21
441.4547
  0
LINE
  8
0_00
  6
CONTINUOUS
 62
4
 10
568.4585
 20
441.4547
 11
568.6775
 21
441.2169
  0
LINE
  8
0_00
  6
CONTINUOUS
 62
4
 10
568.6775
 20
441.2169
 11
568.8979
 21
440.9836
  0
LINE
  8
0_00
  6
CONTINUOUS
 62
4
 10
568.8979
 20
440.9836
 11
569.1195
 21
440.7543
  0
LINE
  8
0_00
  6
CONTINUOUS
 62
4
 10
569.1195
 20
440.7543
 11
569.3425
 21
440.5290
  0
LINE
  8
0_00
  6
CONTINUOUS
 62
4
 10
569.3425
 20
440.5290
 11
569.5667
 21
440.3077
  0
LINE
  8
0_00
  6
CONTINUOUS
 62
4
 10
569.5667
 20
440.3077
 11
569.7920
 21
440.0901
  0
LINE
  8
0_00
  6
CONTINUOUS
 62
4
 10
569.7920
 20
440.0901
 11
570.0187
 21
439.8760
  0
LINE
  8
0_00
  6
CONTINUOUS
 62
4
 10
570.0187
 20
439.8760
 11
570.2465
 21
439.6656
  0
LINE
  8
0_00
  6
CONTINUOUS
 62
4
 10
570.2465
 20
439.6656
 11
570.4754
 21
439.4584
  0
LINE
  8
0_00
  6
CONTINUOUS
 62
4
 10
570.4754
 20
439.4584
 11
570.7055
 21
439.2543
  0
LINE
  8
0_00
  6
CONTINUOUS
 62
4
 10
570.7055
 20
439.2543
 11
570.9367
 21
439.0534
  0
LINE
  8
0_00
  6
CONTINUOUS
 62
4
 10
570.9367
 20
439.0534
 11
571.1690
 21
438.8553
  0
LINE
  8
0_00
  6
CONTINUOUS
 62
4
 10
571.1690
 20
438.8553
 11
571.4024
 21
438.6601
  0
LINE
  8
0_00
  6
CONTINUOUS
 62
4
 10
571.4024
 20
438.6601
 11
571.6368
 21
438.4674
  0
LINE
  8
0_00
  6
CONTINUOUS
 62
4
 10
571.6368
 20
438.4674
 11
571.8723
 21
438.2773
  0
LINE
  8
0_00
  6
CONTINUOUS
 62
4
 10
571.8723
 20
438.2773
 11
572.1088
 21
438.0895
  0
LINE
  8
0_00
  6
CONTINUOUS
 62
4
 10
572.1088
 20
438.0895
 11
572.3462
 21
437.9038
  0
LINE
  8
0_00
  6
CONTINUOUS
 62
4
 10
572.3462
 20
437.9038
 11
572.5845
 21
437.7203
  0
LINE
  8
0_00
  6
CONTINUOUS
 62
4
 10
572.5845
 20
437.7203
 11
572.8239
 21
437.5387
  0
LINE
  8
0_00
  6
CONTINUOUS
 62
4
 10
572.8239
 20
437.5387
 11
573.0641
 21
437.3589
  0
LINE
  8
0_00
  6
CONTINUOUS
 62
4
 10
573.0641
 20
437.3589
 11
573.3052
 21
437.1807
  0
LINE
  8
0_00
  6
CONTINUOUS
 62
4
 10
573.3052
 20
437.1807
 11
573.5472
 21
437.0041
  0
LINE
  8
0_00
  6
CONTINUOUS
 62
4
 10
573.5472
 20
437.0041
 11
573.7900
 21
436.8288
  0
LINE
  8
0_00
  6
CONTINUOUS
 62
4
 10
573.7900
 20
436.8288
 11
574.0337
 21
436.6547
  0
LINE
  8
0_00
  6
CONTINUOUS
 62
4
 10
574.0337
 20
436.6547
 11
574.2781
 21
436.4818
  0
LINE
  8
0_00
  6
CONTINUOUS
 62
4
 10
574.2781
 20
436.4818
 11
574.5233
 21
436.3098
  0
LINE
  8
0_00
  6
CONTINUOUS
 62
4
 10
574.5233
 20
436.3098
 11
574.7693
 21
436.1386
  0
LINE
  8
0_00
  6
CONTINUOUS
 62
4
 10
574.7693
 20
436.1386
 11
575.0160
 21
435.9680
  0
LINE
  8
0_00
  6
CONTINUOUS
 62
4
 10
575.0160
 20
435.9680
 11
575.2634
 21
435.7980
  0
LINE
  8
0_00
  6
CONTINUOUS
 62
4
 10
575.2634
 20
435.7980
 11
575.5114
 21
435.6284
  0
LINE
  8
0_00
  6
CONTINUOUS
 62
4
 10
575.5114
 20
435.6284
 11
575.7601
 21
435.4599
  0
LINE
  8
0_00
  6
CONTINUOUS
 62
4
 10
575.7601
 20
435.4599
 11
576.0093
 21
435.2935
  0
LINE
  8
0_00
  6
CONTINUOUS
 62
4
 10
576.0093
 20
435.2935
 11
576.2587
 21
435.1289
  0
LINE
  8
0_00
  6
CONTINUOUS
 62
4
 10
576.2587
 20
435.1289
 11
576.5082
 21
434.9662
  0
LINE
  8
0_00
  6
CONTINUOUS
 62
4
 10
576.5082
 20
434.9662
 11
576.7576
 21
434.8051
  0
LINE
  8
0_00
  6
CONTINUOUS
 62
4
 10
576.7576
 20
434.8051
 11
577.0067
 21
434.6456
  0
LINE
  8
0_00
  6
CONTINUOUS
 62
4
 10
577.0067
 20
434.6456
 11
577.2554
 21
434.4875
  0
LINE
  8
0_00
  6
CONTINUOUS
 62
4
 10
577.2554
 20
434.4875
 11
577.5033
 21
434.3309
  0
LINE
  8
0_00
  6
CONTINUOUS
 62
4
 10
577.5033
 20
434.3309
 11
577.7504
 21
434.1756
  0
LINE
  8
0_00
  6
CONTINUOUS
 62
4
 10
577.7504
 20
434.1756
 11
577.9965
 21
434.0214
  0
LINE
  8
0_00
  6
CONTINUOUS
 62
4
 10
577.9965
 20
434.0214
 11
578.2413
 21
433.8683
  0
LINE
  8
0_00
  6
CONTINUOUS
 62
4
 10
578.2413
 20
433.8683
 11
578.4847
 21
433.7162
  0
LINE
  8
0_00
  6
CONTINUOUS
 62
4
 10
578.4847
 20
433.7162
 11
578.7266
 21
433.5650
  0
LINE
  8
0_00
  6
CONTINUOUS
 62
4
 10
578.7266
 20
433.5650
 11
578.9667
 21
433.4145
  0
LINE
  8
0_00
  6
CONTINUOUS
 62
4
 10
578.9667
 20
433.4145
 11
579.2047
 21
433.2647
  0
LINE
  8
0_00
  6
CONTINUOUS
 62
4
 10
579.2047
 20
433.2647
 11
579.4406
 21
433.1155
  0
LINE
  8
0_00
  6
CONTINUOUS
 62
4
 10
579.4406
 20
433.1155
 11
579.6741
 21
432.9667
  0
LINE
  8
0_00
  6
CONTINUOUS
 62
4
 10
579.6741
 20
432.9667
 11
579.9052
 21
432.8183
  0
LINE
  8
0_00
  6
CONTINUOUS
 62
4
 10
579.9052
 20
432.8183
 11
580.1334
 21
432.6702
  0
LINE
  8
0_00
  6
CONTINUOUS
 62
4
 10
580.1334
 20
432.6702
 11
580.3588
 21
432.5222
  0
LINE
  8
0_00
  6
CONTINUOUS
 62
4
 10
580.3588
 20
432.5222
 11
580.5811
 21
432.3743
  0
LINE
  8
0_00
  6
CONTINUOUS
 62
4
 10
580.5811
 20
432.3743
 11
580.8000
 21
432.2263
  0
LINE
  8
0_00
  6
CONTINUOUS
 62
4
 10
580.8000
 20
432.2263
 11
581.0155
 21
432.0782
  0
LINE
  8
0_00
  6
CONTINUOUS
 62
4
 10
581.0155
 20
432.0782
 11
581.2274
 21
431.9297
  0
LINE
  8
0_00
  6
CONTINUOUS
 62
4
 10
581.2274
 20
431.9297
 11
581.4354
 21
431.7811
  0
LINE
  8
0_00
  6
CONTINUOUS
 62
4
 10
581.4354
 20
431.7811
 11
581.6393
 21
431.6319
  0
LINE
  8
0_00
  6
CONTINUOUS
 62
4
 10
581.6393
 20
431.6319
 11
581.8391
 21
431.4822
  0
LINE
  8
0_00
  6
CONTINUOUS
 62
4
 10
581.8391
 20
431.4822
 11
582.0344
 21
431.3318
  0
LINE
  8
0_00
  6
CONTINUOUS
 62
4
 10
582.0344
 20
431.3318
 11
582.2251
 21
431.1806
  0
LINE
  8
0_00
  6
CONTINUOUS
 62
4
 10
582.2251
 20
431.1806
 11
582.4110
 21
431.0286
  0
LINE
  8
0_00
  6
CONTINUOUS
 62
4
 10
582.4110
 20
431.0286
 11
582.5920
 21
430.8757
  0
LINE
  8
0_00
  6
CONTINUOUS
 62
4
 10
582.5920
 20
430.8757
 11
582.7682
 21
430.7219
  0
LINE
  8
0_00
  6
CONTINUOUS
 62
4
 10
582.7682
 20
430.7219
 11
582.9398
 21
430.5673
  0
LINE
  8
0_00
  6
CONTINUOUS
 62
4
 10
582.9398
 20
430.5673
 11
583.1069
 21
430.4120
  0
LINE
  8
0_00
  6
CONTINUOUS
 62
4
 10
583.1069
 20
430.4120
 11
583.2696
 21
430.2561
  0
LINE
  8
0_00
  6
CONTINUOUS
 62
4
 10
583.2696
 20
430.2561
 11
583.4281
 21
430.0997
  0
LINE
  8
0_00
  6
CONTINUOUS
 62
4
 10
583.4281
 20
430.0997
 11
583.5826
 21
429.9429
  0
LINE
  8
0_00
  6
CONTINUOUS
 62
4
 10
583.5826
 20
429.9429
 11
583.7334
 21
429.7857
  0
LINE
  8
0_00
  6
CONTINUOUS
 62
4
 10
583.7334
 20
429.7857
 11
583.8804
 21
429.6284
  0
LINE
  8
0_00
  6
CONTINUOUS
 62
4
 10
583.8804
 20
429.6284
 11
584.0238
 21
429.4708
  0
LINE
  8
0_00
  6
CONTINUOUS
 62
4
 10
584.0238
 20
429.4708
 11
584.1639
 21
429.3132
  0
LINE
  8
0_00
  6
CONTINUOUS
 62
4
 10
584.1639
 20
429.3132
 11
584.3008
 21
429.1557
  0
LINE
  8
0_00
  6
CONTINUOUS
 62
4
 10
584.3008
 20
429.1557
 11
584.4346
 21
428.9983
  0
LINE
  8
0_00
  6
CONTINUOUS
 62
4
 10
584.4346
 20
428.9983
 11
584.5656
 21
428.8411
  0
LINE
  8
0_00
  6
CONTINUOUS
 62
4
 10
584.5656
 20
428.8411
 11
584.6937
 21
428.6841
  0
LINE
  8
0_00
  6
CONTINUOUS
 62
4
 10
584.6937
 20
428.6841
 11
584.8193
 21
428.5276
  0
LINE
  8
0_00
  6
CONTINUOUS
 62
4
 10
584.8193
 20
428.5276
 11
584.9426
 21
428.3716
  0
LINE
  8
0_00
  6
CONTINUOUS
 62
4
 10
584.9426
 20
428.3716
 11
585.0635
 21
428.2162
  0
LINE
  8
0_00
  6
CONTINUOUS
 62
4
 10
585.0635
 20
428.2162
 11
585.1824
 21
428.0614
  0
LINE
  8
0_00
  6
CONTINUOUS
 62
4
 10
585.1824
 20
428.0614
 11
585.2993
 21
427.9074
  0
LINE
  8
0_00
  6
CONTINUOUS
 62
4
 10
585.2993
 20
427.9074
 11
585.4144
 21
427.7542
  0
LINE
  8
0_00
  6
CONTINUOUS
 62
4
 10
585.4144
 20
427.7542
 11
585.5280
 21
427.6020
  0
LINE
  8
0_00
  6
CONTINUOUS
 62
4
 10
585.5280
 20
427.6020
 11
585.6401
 21
427.4508
  0
LINE
  8
0_00
  6
CONTINUOUS
 62
4
 10
585.6401
 20
427.4508
 11
585.7509
 21
427.3007
  0
LINE
  8
0_00
  6
CONTINUOUS
 62
4
 10
585.7509
 20
427.3007
 11
585.8605
 21
427.1519
  0
LINE
  8
0_00
  6
CONTINUOUS
 62
4
 10
585.8605
 20
427.1519
 11
585.9692
 21
427.0043
  0
LINE
  8
0_00
  6
CONTINUOUS
 62
4
 10
585.9692
 20
427.0043
 11
586.0771
 21
426.8581
  0
LINE
  8
0_00
  6
CONTINUOUS
 62
4
 10
586.0771
 20
426.8581
 11
586.1843
 21
426.7134
  0
LINE
  8
0_00
  6
CONTINUOUS
 62
4
 10
586.1843
 20
426.7134
 11
586.2911
 21
426.5703
  0
LINE
  8
0_00
  6
CONTINUOUS
 62
4
 10
586.2911
 20
426.5703
 11
586.3975
 21
426.4289
  0
LINE
  8
0_00
  6
CONTINUOUS
 62
4
 10
586.3975
 20
426.4289
 11
586.5037
 21
426.2892
  0
LINE
  8
0_00
  6
CONTINUOUS
 62
4
 10
586.5037
 20
426.2892
 11
586.6099
 21
426.1511
  0
LINE
  8
0_00
  6
CONTINUOUS
 62
4
 10
586.6099
 20
426.1511
 11
586.7161
 21
426.0145
  0
LINE
  8
0_00
  6
CONTINUOUS
 62
4
 10
586.7161
 20
426.0145
 11
586.8226
 21
425.8793
  0
LINE
  8
0_00
  6
CONTINUOUS
 62
4
 10
586.8226
 20
425.8793
 11
586.9293
 21
425.7454
  0
LINE
  8
0_00
  6
CONTINUOUS
 62
4
 10
586.9293
 20
425.7454
 11
587.0366
 21
425.6125
  0
LINE
  8
0_00
  6
CONTINUOUS
 62
4
 10
587.0366
 20
425.6125
 11
587.1445
 21
425.4807
  0
LINE
  8
0_00
  6
CONTINUOUS
 62
4
 10
587.1445
 20
425.4807
 11
587.2530
 21
425.3499
  0
LINE
  8
0_00
  6
CONTINUOUS
 62
4
 10
587.2530
 20
425.3499
 11
587.3624
 21
425.2197
  0
LINE
  8
0_00
  6
CONTINUOUS
 62
4
 10
587.3624
 20
425.2197
 11
587.4727
 21
425.0901
  0
LINE
  8
0_00
  6
CONTINUOUS
 62
4
 10
587.4727
 20
425.0901
 11
587.5842
 21
424.9612
  0
LINE
  8
0_00
  6
CONTINUOUS
 62
4
 10
587.5842
 20
424.9612
 11
587.6968
 21
424.8326
  0
LINE
  8
0_00
  6
CONTINUOUS
 62
4
 10
587.6968
 20
424.8326
 11
587.8109
 21
424.7042
  0
LINE
  8
0_00
  6
CONTINUOUS
 62
4
 10
587.8109
 20
424.7042
 11
587.9263
 21
424.5760
  0
LINE
  8
0_00
  6
CONTINUOUS
 62
4
 10
587.9263
 20
424.5760
 11
588.0434
 21
424.4478
  0
LINE
  8
0_00
  6
CONTINUOUS
 62
4
 10
588.0434
 20
424.4478
 11
588.1622
 21
424.3195
  0
LINE
  8
0_00
  6
CONTINUOUS
 62
4
 10
588.1622
 20
424.3195
 11
588.2828
 21
424.1910
  0
LINE
  8
0_00
  6
CONTINUOUS
 62
4
 10
588.2828
 20
424.1910
 11
588.4055
 21
424.0621
  0
LINE
  8
0_00
  6
CONTINUOUS
 62
4
 10
588.4055
 20
424.0621
 11
588.5302
 21
423.9328
  0
LINE
  8
0_00
  6
CONTINUOUS
 62
4
 10
588.5302
 20
423.9328
 11
588.6572
 21
423.8028
  0
LINE
  8
0_00
  6
CONTINUOUS
 62
4
 10
588.6572
 20
423.8028
 11
588.7865
 21
423.6721
  0
LINE
  8
0_00
  6
CONTINUOUS
 62
4
 10
588.7865
 20
423.6721
 11
588.9183
 21
423.5405
  0
LINE
  8
0_00
  6
CONTINUOUS
 62
4
 10
588.9183
 20
423.5405
 11
589.0527
 21
423.4080
  0
LINE
  8
0_00
  6
CONTINUOUS
 62
4
 10
589.0527
 20
423.4080
 11
589.1898
 21
423.2744
  0
LINE
  8
0_00
  6
CONTINUOUS
 62
4
 10
589.1898
 20
423.2744
 11
589.3298
 21
423.1395
  0
LINE
  8
0_00
  6
CONTINUOUS
 62
4
 10
589.3298
 20
423.1395
 11
589.4728
 21
423.0033
  0
LINE
  8
0_00
  6
CONTINUOUS
 62
4
 10
589.4728
 20
423.0033
 11
589.6190
 21
422.8656
  0
LINE
  8
0_00
  6
CONTINUOUS
 62
4
 10
589.6190
 20
422.8656
 11
589.7683
 21
422.7263
  0
LINE
  8
0_00
  6
CONTINUOUS
 62
4
 10
589.7683
 20
422.7263
 11
589.9210
 21
422.5853
  0
LINE
  8
0_00
  6
CONTINUOUS
 62
4
 10
589.9210
 20
422.5853
 11
590.0773
 21
422.4424
  0
LINE
  8
0_00
  6
CONTINUOUS
 62
4
 10
590.0773
 20
422.4424
 11
590.2371
 21
422.2976
  0
LINE
  8
0_00
  6
CONTINUOUS
 62
4
 10
590.2371
 20
422.2976
 11
590.4003
 21
422.1509
  0
LINE
  8
0_00
  6
CONTINUOUS
 62
4
 10
590.4003
 20
422.1509
 11
590.5670
 21
422.0024
  0
LINE
  8
0_00
  6
CONTINUOUS
 62
4
 10
590.5670
 20
422.0024
 11
590.6800
 21
421.9024
  0
LINE
  8
0_00
  6
CONTINUOUS
 62
4
 10
542.9954
 20
473.2224
 11
550.8269
 21
473.2224
  0
LINE
  8
0_00
  6
DASHED
 62
6
 10
542.9954
 20
473.2224
 11
526.8269
 21
473.2224
  0
LINE
  8
0_00
  6
CONTINUOUS
 62
4
 10
543.4932
 20
472.6224
 11
550.8269
 21
472.6224
  0
LINE
  8
0_00
  6
DASHED
 62
6
 10
543.4932
 20
472.6224
 11
526.8269
 21
472.6224
  0
LINE
  8
0_00
  6
CONTINUOUS
 62
4
 10
544.6851
 20
471.3024
 11
550.8269
 21
471.3024
  0
LINE
  8
0_00
  6
DASHED
 62
6
 10
544.6851
 20
471.3024
 11
526.8269
 21
471.3024
  0
LINE
  8
0_00
  6
DASHED
 62
6
 10
544.1269
 20
467.4024
 11
547.4659
 21
467.4024
  0
LINE
  8
0_00
  6
DASHED
 62
6
 10
547.5269
 20
464.8024
 11
544.1269
 21
464.8024
  0
LINE
  8
0_00
  6
DASHED
 62
6
 10
547.4659
 20
467.4024
 11
547.5269
 21
467.4024
  0
LINE
  8
0_00
  6
CONTINUOUS
 62
4
 10
538.8269
 20
479.6225
 11
550.8269
 21
479.6225
  0
LINE
  8
0_00
  6
DASHED
 62
6
 10
538.8269
 20
479.6225
 11
526.8269
 21
479.6225
  0
LINE
  8
0_00
  6
CONTINUOUS
 62
4
 10
538.3506
 20
480.2224
 11
550.8269
 21
480.2224
  0
LINE
  8
0_00
  6
DASHED
 62
6
 10
538.3506
 20
480.2224
 11
526.8269
 21
480.2224
  0
LINE
  8
0_00
  6
DASHED
 62
6
 10
533.8813
 20
487.2224
 11
526.8269
 21
487.2224
  0
LINE
  8
0_00
  6
CONTINUOUS
 62
4
 10
550.8269
 20
487.2224
 11
533.8813
 21
487.2224
  0
LINE
  8
0_00
  6
CONTINUOUS
 62
4
 10
534.7043
 20
485.1024
 11
550.8269
 21
485.1024
  0
LINE
  8
0_00
  6
DASHED
 62
6
 10
534.7043
 20
485.1024
 11
526.8269
 21
485.1024
  0
LINE
  8
0_00
  6
DASHED
 62
6
 10
541.0695
 20
475.6224
 11
526.8269
 21
475.6224
  0
LINE
  8
0_00
  6
CONTINUOUS
 62
2
 10
550.8269
 20
475.6224
 11
541.0695
 21
475.6224
  0
LINE
  8
0_00
  6
CENTER1
 62
6
 10
764.8269
 20
495.0811
 11
764.8269
 21
415.0363
  0
LINE
  8
0_00
  6
CONTINUOUS
 62
4
 10
776.8269
 20
487.2224
 11
776.8269
 21
422.5825
  0
LINE
  8
0_00
  6
CONTINUOUS
 62
4
 10
752.8269
 20
487.2224
 11
752.8269
 21
422.5825
  0
LINE
  8
0_00
  6
CONTINUOUS
 62
4
 10
776.8269
 20
422.5825
 11
752.8269
 21
422.5825
  0
LINE
  8
0_00
  6
CONTINUOUS
 62
4
 10
752.8269
 20
424.7025
 11
776.8269
 21
424.7025
  0
LINE
  8
0_00
  6
CONTINUOUS
 62
4
 10
752.8269
 20
429.5825
 11
776.8269
 21
429.5825
  0
LINE
  8
0_00
  6
CONTINUOUS
 62
4
 10
752.8269
 20
430.1824
 11
776.8269
 21
430.1824
  0
LINE
  8
0_00
  6
CONTINUOUS
 62
4
 10
752.8269
 20
436.5825
 11
776.8269
 21
436.5825
  0
LINE
  8
0_00
  6
CONTINUOUS
 62
4
 10
752.8269
 20
437.1824
 11
776.8269
 21
437.1824
  0
LINE
  8
0_00
  6
CONTINUOUS
 62
4
 10
752.8269
 20
438.5025
 11
776.8269
 21
438.5025
  0
LINE
  8
0_00
  6
CONTINUOUS
 62
4
 10
776.8269
 20
487.2224
 11
752.8269
 21
487.2224
  0
LINE
  8
0_00
  6
CONTINUOUS
 62
4
 10
752.8269
 20
485.1024
 11
776.8269
 21
485.1024
  0
LINE
  8
0_00
  6
CONTINUOUS
 62
4
 10
752.8269
 20
480.2224
 11
776.8269
 21
480.2224
  0
LINE
  8
0_00
  6
CONTINUOUS
 62
4
 10
752.8269
 20
479.6225
 11
776.8269
 21
479.6225
  0
LINE
  8
0_00
  6
CONTINUOUS
 62
4
 10
752.8269
 20
473.2224
 11
776.8269
 21
473.2224
  0
LINE
  8
0_00
  6
CONTINUOUS
 62
4
 10
752.8269
 20
472.6224
 11
776.8269
 21
472.6224
  0
LINE
  8
0_00
  6
CONTINUOUS
 62
4
 10
752.8269
 20
471.3024
 11
776.8269
 21
471.3024
  0
LINE
  8
0_00
  6
CONTINUOUS
 62
4
 10
770.1269
 20
442.4025
 11
773.5269
 21
442.4025
  0
LINE
  8
0_00
  6
CONTINUOUS
 62
4
 10
770.1269
 20
445.0024
 11
773.5269
 21
445.0024
  0
LINE
  8
0_00
  6
CONTINUOUS
 62
4
 10
770.1269
 20
464.8024
 11
773.5269
 21
464.8024
  0
LINE
  8
0_00
  6
CONTINUOUS
 62
4
 10
770.1269
 20
467.4024
 11
773.5269
 21
467.4024
  0
LINE
  8
0_00
  6
CONTINUOUS
 62
4
 10
759.5269
 20
442.4025
 11
756.1269
 21
442.4025
  0
LINE
  8
0_00
  6
CONTINUOUS
 62
4
 10
759.5269
 20
445.0024
 11
756.1269
 21
445.0024
  0
LINE
  8
0_00
  6
CONTINUOUS
 62
4
 10
759.5269
 20
464.8024
 11
756.1269
 21
464.8024
  0
LINE
  8
0_00
  6
CONTINUOUS
 62
4
 10
759.5269
 20
467.4024
 11
756.1269
 21
467.4024
  0
LINE
  8
0_00
  6
CONTINUOUS
 62
2
 10
776.8269
 20
434.1825
 11
752.8269
 21
434.1825
  0
LINE
  8
0_00
  6
CONTINUOUS
 62
2
 10
776.8269
 20
475.6224
 11
752.8269
 21
475.6224
  0
LINE
  8
0_00
  6
CONTINUOUS
 62
4
 10
766.0269
 20
457.7025
 11
766.0269
 21
456.9345
  0
LINE
  8
0_00
  6
CONTINUOUS
 62
4
 10
766.0269
 20
452.8703
 11
766.0269
 21
452.1024
  0
LINE
  8
0_00
  6
CONTINUOUS
 62
4
 10
763.6269
 20
457.7025
 11
763.6269
 21
456.9345
  0
LINE
  8
0_00
  6
CONTINUOUS
 62
4
 10
763.6269
 20
452.8703
 11
763.6269
 21
452.1024
  0
LINE
  8
0_00
  6
CONTINUOUS
 62
4
 10
791.5381
 20
427.9024
 11
776.8269
 21
427.9024
  0
LINE
  8
0_00
  6
CONTINUOUS
 62
4
 10
776.8269
 20
481.9024
 11
791.5381
 21
481.9024
  0
LINE
  8
0_00
  6
CONTINUOUS
 62
6
 10
542.5310
 20
487.2224
 11
557.0658
 21
501.7572
  0
LINE
  8
0_00
  6
CONTINUOUS
 62
6
 10
542.5310
 20
487.2224
 11
546.7243
 21
489.9456
  0
LINE
  8
0_00
  6
CONTINUOUS
 62
6
 10
542.5310
 20
487.2224
 11
545.2542
 21
491.4158
  0
LINE
  8
0_00
  6
CONTINUOUS
 62
6
 10
557.0658
 20
501.7572
 11
606.2657
 21
501.7572
  0
LINE
  8
0_00
  6
CONTINUOUS
 62
6
 10
642.5310
 20
487.2224
 11
657.0658
 21
501.7572
  0
LINE
  8
0_00
  6
CONTINUOUS
 62
6
 10
642.5310
 20
487.2224
 11
646.7243
 21
489.9456
  0
LINE
  8
0_00
  6
CONTINUOUS
 62
6
 10
642.5310
 20
487.2224
 11
645.2542
 21
491.4158
  0
LINE
  8
0_00
  6
CONTINUOUS
 62
6
 10
657.0658
 20
501.7572
 11
687.0658
 21
501.7572
  0
LINE
  8
0_00
  6
CONTINUOUS
 62
6
 10
555.4159
 20
421.9024
 11
573.5829
 21
403.7355
  0
LINE
  8
0_00
  6
CONTINUOUS
 62
6
 10
555.4159
 20
421.9024
 11
558.1392
 21
417.7091
  0
LINE
  8
0_00
  6
CONTINUOUS
 62
6
 10
555.4159
 20
421.9024
 11
559.6093
 21
419.1792
  0
LINE
  8
0_00
  6
CONTINUOUS
 62
6
 10
573.5829
 20
403.7355
 11
637.1829
 21
403.7355
  0
LINE
  8
0_00
  6
CONTINUOUS
 62
6
 10
496.2005
 20
449.8103
 11
481.0446
 21
434.6545
  0
LINE
  8
0_00
  6
CONTINUOUS
 62
6
 10
496.2005
 20
449.8103
 11
492.0071
 21
447.0871
  0
LINE
  8
0_00
  6
CONTINUOUS
 62
6
 10
496.2005
 20
449.8103
 11
493.4773
 21
445.6169
  0
LINE
  8
0_00
  6
CONTINUOUS
 62
6
 10
481.0446
 20
434.6545
 11
431.8446
 21
434.6545
  0
LINE
  8
0_00
  6
CONTINUOUS
 62
2
 10
493.6269
 20
480.1024
 11
493.6269
 21
344.1678
  0
LINE
  8
0_00
  6
CONTINUOUS
 62
2
 10
544.0269
 20
429.7025
 11
544.0269
 21
344.1678
  0
LINE
  8
0_00
  6
CONTINUOUS
 62
2
 10
493.6269
 20
480.1024
 11
538.4575
 21
480.1024
  0
LINE
  8
0_00
  6
CONTINUOUS
 62
2
 10
544.0269
 20
429.7025
 11
583.7334
 21
429.7025
  0
LINE
  8
0_00
  6
CONTINUOUS
 62
4
 10
550.8269
 20
481.9024
 11
709.6434
 21
481.9024
  0
LINE
  8
0_00
  6
CONTINUOUS
 62
4
 10
714.3021
 20
481.9024
 11
752.8269
 21
481.9024
  0
LINE
  8
0_00
  6
CONTINUOUS
 62
4
 10
752.8269
 20
427.9024
 11
714.3143
 21
427.9024
  0
LINE
  8
0_00
  6
CONTINUOUS
 62
4
 10
709.6556
 20
427.9024
 11
585.4144
 21
427.9024
  0
LINE
  8
5_05
  6
CONTINUOUS
 62
2
 10
289.9305
 20
489.2562
 11
292.2304
 21
491.5561
  0
LINE
  8
5_05
  6
CONTINUOUS
 62
2
 10
288.5162
 20
489.2562
 11
290.8162
 21
491.5561
  0
LINE
  8
5_05
  6
CONTINUOUS
 62
2
 10
287.1020
 20
489.2562
 11
289.4020
 21
491.5561
  0
LINE
  8
5_05
  6
CONTINUOUS
 62
2
 10
285.6878
 20
489.2562
 11
287.9878
 21
491.5561
  0
LINE
  8
5_05
  6
CONTINUOUS
 62
2
 10
284.2736
 20
489.2562
 11
286.5736
 21
491.5561
  0
LINE
  8
5_05
  6
CONTINUOUS
 62
2
 10
282.8594
 20
489.2562
 11
285.1594
 21
491.5561
  0
LINE
  8
5_05
  6
CONTINUOUS
 62
2
 10
282.2304
 20
490.0414
 11
283.7451
 21
491.5561
  0
LINE
  8
5_05
  6
CONTINUOUS
 62
2
 10
282.2304
 20
491.4556
 11
282.3309
 21
491.5561
  0
LINE
  8
5_05
  6
CONTINUOUS
 62
2
 10
291.3447
 20
489.2562
 11
292.2304
 21
490.1419
  0
LINE
  8
5_05
  6
CONTINUOUS
 62
2
 10
290.1714
 20
491.5561
 11
292.2304
 21
489.4971
  0
LINE
  8
5_05
  6
CONTINUOUS
 62
2
 10
288.7572
 20
491.5561
 11
291.0571
 21
489.2562
  0
LINE
  8
5_05
  6
CONTINUOUS
 62
2
 10
287.3430
 20
491.5561
 11
289.6429
 21
489.2562
  0
LINE
  8
5_05
  6
CONTINUOUS
 62
2
 10
285.9287
 20
491.5561
 11
288.2287
 21
489.2562
  0
LINE
  8
5_05
  6
CONTINUOUS
 62
2
 10
284.5145
 20
491.5561
 11
286.8145
 21
489.2562
  0
LINE
  8
5_05
  6
CONTINUOUS
 62
2
 10
283.1003
 20
491.5561
 11
285.4003
 21
489.2562
  0
LINE
  8
5_05
  6
CONTINUOUS
 62
2
 10
282.2304
 20
491.0117
 11
283.9861
 21
489.2562
  0
LINE
  8
5_05
  6
CONTINUOUS
 62
2
 10
282.2304
 20
489.5976
 11
282.5719
 21
489.2562
  0
LINE
  8
5_05
  6
CONTINUOUS
 62
2
 10
291.5856
 20
491.5561
 11
292.2304
 21
490.9113
  0
LINE
  8
5_05
  6
CONTINUOUS
 62
2
 10
176.3304
 20
489.2562
 11
178.6304
 21
491.5561
  0
LINE
  8
5_05
  6
CONTINUOUS
 62
2
 10
174.9162
 20
489.2562
 11
177.2162
 21
491.5561
  0
LINE
  8
5_05
  6
CONTINUOUS
 62
2
 10
173.5020
 20
489.2562
 11
175.8020
 21
491.5561
  0
LINE
  8
5_05
  6
CONTINUOUS
 62
2
 10
172.0878
 20
489.2562
 11
174.3878
 21
491.5561
  0
LINE
  8
5_05
  6
CONTINUOUS
 62
2
 10
170.6736
 20
489.2562
 11
172.9736
 21
491.5561
  0
LINE
  8
5_05
  6
CONTINUOUS
 62
2
 10
169.2594
 20
489.2562
 11
171.5594
 21
491.5561
  0
LINE
  8
5_05
  6
CONTINUOUS
 62
2
 10
168.6304
 20
490.0414
 11
170.1451
 21
491.5561
  0
LINE
  8
5_05
  6
CONTINUOUS
 62
2
 10
168.6304
 20
491.4556
 11
168.7309
 21
491.5561
  0
LINE
  8
5_05
  6
CONTINUOUS
 62
2
 10
177.7447
 20
489.2562
 11
178.6304
 21
490.1419
  0
LINE
  8
5_05
  6
CONTINUOUS
 62
2
 10
176.5714
 20
491.5561
 11
178.6304
 21
489.4971
  0
LINE
  8
5_05
  6
CONTINUOUS
 62
2
 10
175.1572
 20
491.5561
 11
177.4571
 21
489.2562
  0
LINE
  8
5_05
  6
CONTINUOUS
 62
2
 10
173.7430
 20
491.5561
 11
176.0429
 21
489.2562
  0
LINE
  8
5_05
  6
CONTINUOUS
 62
2
 10
172.3287
 20
491.5561
 11
174.6287
 21
489.2562
  0
LINE
  8
5_05
  6
CONTINUOUS
 62
2
 10
170.9145
 20
491.5561
 11
173.2145
 21
489.2562
  0
LINE
  8
5_05
  6
CONTINUOUS
 62
2
 10
169.5003
 20
491.5561
 11
171.8003
 21
489.2562
  0
LINE
  8
5_05
  6
CONTINUOUS
 62
2
 10
168.6304
 20
491.0117
 11
170.3861
 21
489.2562
  0
LINE
  8
5_05
  6
CONTINUOUS
 62
2
 10
168.6304
 20
489.5976
 11
168.9719
 21
489.2562
  0
LINE
  8
5_05
  6
CONTINUOUS
 62
2
 10
177.9856
 20
491.5561
 11
178.6304
 21
490.9113
  0
LINE
  8
12_0C
  6
DASHED
 62
2
 10
232.9304
 20
481.7561
 11
232.9304
 21
436.0862
  0
LINE
  8
12_0C
  6
CONTINUOUS
 62
2
 10
224.5304
 20
481.7561
 11
236.3304
 21
481.7561
  0
LINE
  8
12_0C
  6
CONTINUOUS
 62
2
 10
236.3304
 20
482.1038
 11
236.3304
 21
481.7561
  0
LINE
  8
12_0C
  6
DASHED
 62
2
 10
232.1804
 20
481.7561
 11
232.1804
 21
434.7872
  0
LINE
  8
12_0C
  6
DASHED
 62
2
 10
230.4304
 20
431.7561
 11
232.9304
 21
436.0862
  0
LINE
  8
12_0C
  6
DASHED
 62
2
 10
227.9304
 20
481.7561
 11
227.9304
 21
436.0862
  0
LINE
  8
12_0C
  6
CONTINUOUS
 62
2
 10
224.5304
 20
482.1038
 11
224.5304
 21
481.7561
  0
LINE
  8
12_0C
  6
DASHED
 62
2
 10
228.6804
 20
481.7561
 11
228.6804
 21
434.7872
  0
LINE
  8
12_0C
  6
DASHED
 62
2
 10
230.4304
 20
431.7561
 11
227.9304
 21
436.0862
  0
LINE
  8
12_0C
  6
CONTINUOUS
 62
2
 10
224.5304
 20
482.1038
 11
236.3304
 21
482.1038
  0
LINE
  8
5_05
  6
CONTINUOUS
 62
4
 10
142.4304
 20
478.2561
 11
318.4304
 21
478.2561
  0
LINE
  8
5_05
  6
CONTINUOUS
 62
4
 10
274.2304
 20
481.7561
 11
230.7304
 21
481.7561
  0
LINE
  8
5_05
  6
CONTINUOUS
 62
4
 10
230.1304
 20
481.7561
 11
186.6304
 21
481.7561
  0
LINE
  8
5_05
  6
CONTINUOUS
 62
4
 10
230.4304
 20
481.4561
 11
230.1304
 21
481.7561
  0
LINE
  8
5_05
  6
CONTINUOUS
 62
4
 10
230.4304
 20
481.4561
 11
230.7304
 21
481.7561
  0
LINE
  8
5_05
  6
CONTINUOUS
 62
4
 10
168.6304
 20
489.2561
 11
184.6304
 21
489.2561
  0
LINE
  8
5_05
  6
CONTINUOUS
 62
4
 10
186.1304
 20
488.9561
 11
186.1304
 21
488.0562
  0
LINE
  8
5_05
  6
CONTINUOUS
 62
4
 10
186.6304
 20
485.5561
 11
186.6304
 21
481.7561
  0
LINE
  8
5_05
  6
CONTINUOUS
 62
4
 10
184.6304
 20
489.4561
 11
185.6304
 21
489.4561
  0
LINE
  8
5_05
  6
CONTINUOUS
 62
4
 10
184.6304
 20
489.4561
 11
184.6304
 21
489.2561
  0
LINE
  8
5_05
  6
CONTINUOUS
 62
4
 10
183.6304
 20
485.7561
 11
183.6304
 21
480.2561
  0
LINE
  8
5_05
  6
CONTINUOUS
 62
4
 10
170.6304
 20
486.7561
 11
182.6304
 21
486.7561
  0
LINE
  8
5_05
  6
CONTINUOUS
 62
4
 10
186.1304
 20
488.0562
 11
189.1304
 21
488.0562
  0
LINE
  8
5_05
  6
CONTINUOUS
 62
4
 10
189.4304
 20
487.7561
 11
189.4304
 21
485.8561
  0
LINE
  8
5_05
  6
CONTINUOUS
 62
4
 10
189.1304
 20
485.5561
 11
186.6304
 21
485.5561
  0
LINE
  8
5_05
  6
CONTINUOUS
 62
4
 10
292.2304
 20
489.2561
 11
276.2304
 21
489.2561
  0
LINE
  8
5_05
  6
CONTINUOUS
 62
4
 10
274.7304
 20
488.9561
 11
274.7304
 21
488.0562
  0
LINE
  8
5_05
  6
CONTINUOUS
 62
4
 10
274.2304
 20
485.5561
 11
274.2304
 21
481.7561
  0
LINE
  8
5_05
  6
CONTINUOUS
 62
4
 10
276.2304
 20
489.4561
 11
275.2304
 21
489.4561
  0
LINE
  8
5_05
  6
CONTINUOUS
 62
4
 10
276.2304
 20
489.4561
 11
276.2304
 21
489.2561
  0
LINE
  8
5_05
  6
CONTINUOUS
 62
4
 10
292.2304
 20
489.4561
 11
292.2304
 21
489.2561
  0
LINE
  8
5_05
  6
CONTINUOUS
 62
4
 10
293.7304
 20
488.9561
 11
293.7304
 21
487.1561
  0
LINE
  8
5_05
  6
CONTINUOUS
 62
4
 10
293.2304
 20
489.4561
 11
292.2304
 21
489.4561
  0
LINE
  8
5_05
  6
CONTINUOUS
 62
4
 10
277.2304
 20
485.7561
 11
277.2304
 21
480.2561
  0
LINE
  8
5_05
  6
CONTINUOUS
 62
4
 10
290.2304
 20
486.7561
 11
278.2304
 21
486.7561
  0
LINE
  8
5_05
  6
CONTINUOUS
 62
4
 10
291.2304
 20
485.7561
 11
291.2304
 21
485.1562
  0
LINE
  8
5_05
  6
CONTINUOUS
 62
4
 10
325.8984
 20
487.1561
 11
293.7304
 21
487.1561
  0
LINE
  8
5_05
  6
CONTINUOUS
 62
4
 10
326.0772
 20
484.6561
 11
291.7304
 21
484.6561
  0
LINE
  8
5_05
  6
CONTINUOUS
 62
4
 10
274.7304
 20
488.0562
 11
271.7304
 21
488.0562
  0
LINE
  8
5_05
  6
CONTINUOUS
 62
4
 10
271.4304
 20
487.7561
 11
271.4304
 21
485.8561
  0
LINE
  8
5_05
  6
CONTINUOUS
 62
4
 10
271.7304
 20
485.5561
 11
274.2304
 21
485.5561
  0
LINE
  8
5_05
  6
CONTINUOUS
 62
4
 10
332.9304
 20
465.3562
 11
332.5304
 21
465.3562
  0
LINE
  8
5_05
  6
CONTINUOUS
 62
4
 10
327.0362
 20
483.9397
 11
328.5045
 21
478.9735
  0
LINE
  8
5_05
  6
CONTINUOUS
 62
4
 10
328.6179
 20
478.5898
 11
329.3550
 21
476.0965
  0
LINE
  8
5_05
  6
CONTINUOUS
 62
4
 10
329.4684
 20
475.7130
 11
330.2056
 21
473.2196
  0
LINE
  8
5_05
  6
CONTINUOUS
 62
4
 10
330.3190
 20
472.8361
 11
331.0561
 21
470.3428
  0
LINE
  8
5_05
  6
CONTINUOUS
 62
4
 10
331.1696
 20
469.9592
 11
332.5304
 21
465.3562
  0
LINE
  8
5_05
  6
CONTINUOUS
 62
4
 10
329.2937
 20
484.5059
 11
333.9005
 21
466.5989
  0
LINE
  8
5_05
  6
CONTINUOUS
 62
4
 10
168.6304
 20
489.4561
 11
168.6304
 21
489.2561
  0
LINE
  8
5_05
  6
CONTINUOUS
 62
4
 10
167.1304
 20
488.9561
 11
167.1304
 21
487.1561
  0
LINE
  8
5_05
  6
CONTINUOUS
 62
4
 10
167.6304
 20
489.4561
 11
168.6304
 21
489.4561
  0
LINE
  8
5_05
  6
CONTINUOUS
 62
4
 10
169.6304
 20
485.7561
 11
169.6304
 21
485.1562
  0
LINE
  8
5_05
  6
CONTINUOUS
 62
4
 10
134.9624
 20
487.1561
 11
167.1304
 21
487.1561
  0
LINE
  8
5_05
  6
CONTINUOUS
 62
4
 10
134.7836
 20
484.6561
 11
169.1304
 21
484.6561
  0
LINE
  8
5_05
  6
CONTINUOUS
 62
4
 10
127.9304
 20
465.3562
 11
128.3304
 21
465.3562
  0
LINE
  8
5_05
  6
CONTINUOUS
 62
4
 10
133.8246
 20
483.9397
 11
132.3564
 21
478.9735
  0
LINE
  8
5_05
  6
CONTINUOUS
 62
4
 10
129.6913
 20
469.9592
 11
128.3304
 21
465.3562
  0
LINE
  8
5_05
  6
CONTINUOUS
 62
4
 10
131.5671
 20
484.5059
 11
126.9604
 21
466.5989
  0
LINE
  8
5_05
  6
CONTINUOUS
 62
4
 10
331.1696
 20
469.9592
 11
331.3046
 21
470.2077
  0
LINE
  8
5_05
  6
CONTINUOUS
 62
4
 10
331.3046
 20
470.2077
 11
331.0561
 21
470.3428
  0
LINE
  8
5_05
  6
CONTINUOUS
 62
4
 10
330.3190
 20
472.8361
 11
330.4541
 21
473.0845
  0
LINE
  8
5_05
  6
CONTINUOUS
 62
4
 10
330.4541
 20
473.0845
 11
330.2056
 21
473.2196
  0
LINE
  8
5_05
  6
CONTINUOUS
 62
4
 10
329.4684
 20
475.7130
 11
329.6035
 21
475.9614
  0
LINE
  8
5_05
  6
CONTINUOUS
 62
4
 10
329.6035
 20
475.9614
 11
329.3550
 21
476.0965
  0
LINE
  8
5_05
  6
CONTINUOUS
 62
4
 10
328.6179
 20
478.5898
 11
328.7530
 21
478.8384
  0
LINE
  8
5_05
  6
CONTINUOUS
 62
4
 10
328.7530
 20
478.8384
 11
328.5045
 21
478.9735
  0
LINE
  8
5_05
  6
CONTINUOUS
 62
4
 10
132.2430
 20
478.5898
 11
131.5058
 21
476.0965
  0
LINE
  8
5_05
  6
CONTINUOUS
 62
4
 10
131.3924
 20
475.7130
 11
130.6553
 21
473.2196
  0
LINE
  8
5_05
  6
CONTINUOUS
 62
4
 10
130.5419
 20
472.8361
 11
129.8047
 21
470.3428
  0
LINE
  8
5_05
  6
CONTINUOUS
 62
4
 10
129.6913
 20
469.9592
 11
129.5562
 21
470.2077
  0
LINE
  8
5_05
  6
CONTINUOUS
 62
4
 10
129.5562
 20
470.2077
 11
129.8047
 21
470.3428
  0
LINE
  8
5_05
  6
CONTINUOUS
 62
4
 10
130.5419
 20
472.8361
 11
130.4068
 21
473.0845
  0
LINE
  8
5_05
  6
CONTINUOUS
 62
4
 10
130.4068
 20
473.0845
 11
130.6553
 21
473.2196
  0
LINE
  8
5_05
  6
CONTINUOUS
 62
4
 10
131.3924
 20
475.7130
 11
131.2573
 21
475.9614
  0
LINE
  8
5_05
  6
CONTINUOUS
 62
4
 10
131.2573
 20
475.9614
 11
131.5058
 21
476.0965
  0
LINE
  8
5_05
  6
CONTINUOUS
 62
4
 10
132.2430
 20
478.5898
 11
132.1079
 21
478.8384
  0
LINE
  8
5_05
  6
CONTINUOUS
 62
4
 10
132.1079
 20
478.8384
 11
132.3564
 21
478.9735
  0
LINE
  8
0_00
  6
CONTINUOUS
 62
2
 10
545.0695
 20
479.6225
 11
541.0695
 21
475.6224
  0
LINE
  8
0_00
  6
CONTINUOUS
 62
2
 10
549.3122
 20
479.6225
 11
545.3122
 21
475.6224
  0
LINE
  8
0_00
  6
CONTINUOUS
 62
2
 10
550.8269
 20
476.8945
 11
549.5548
 21
475.6224
  0
LINE
  8
0_00
  6
DASHED
 62
6
 10
539.5049
 20
478.3004
 11
536.8269
 21
475.6224
  0
LINE
  8
0_00
  6
CONTINUOUS
 62
2
 10
540.8269
 20
479.6225
 11
539.5049
 21
478.3004
  0
LINE
  8
0_00
  6
DASHED
 62
6
 10
536.5842
 20
479.6225
 11
532.5842
 21
475.6224
  0
LINE
  8
0_00
  6
DASHED
 62
6
 10
532.3416
 20
479.6225
 11
528.3416
 21
475.6224
  0
LINE
  8
0_00
  6
DASHED
 62
6
 10
528.0990
 20
479.6225
 11
526.8269
 21
478.3504
  0
LINE
  8
0_00
  6
CONTINUOUS
 62
2
 10
640.8269
 20
479.6225
 11
636.8269
 21
475.6224
  0
LINE
  8
0_00
  6
CONTINUOUS
 62
2
 10
636.5842
 20
479.6225
 11
632.5842
 21
475.6224
  0
LINE
  8
0_00
  6
CONTINUOUS
 62
2
 10
632.3416
 20
479.6225
 11
628.3416
 21
475.6224
  0
LINE
  8
0_00
  6
CONTINUOUS
 62
2
 10
628.0990
 20
479.6225
 11
626.8269
 21
478.3504
  0
LINE
  8
0_00
  6
CONTINUOUS
 62
2
 10
645.0696
 20
479.6225
 11
641.0696
 21
475.6224
  0
LINE
  8
0_00
  6
CONTINUOUS
 62
2
 10
649.3122
 20
479.6225
 11
645.3122
 21
475.6224
  0
LINE
  8
0_00
  6
CONTINUOUS
 62
2
 10
650.8269
 20
476.8945
 11
649.5548
 21
475.6224
  0
LINE
  8
0_00
  6
CONTINUOUS
 62
2
 10
640.8269
 20
434.1825
 11
636.8269
 21
430.1824
  0
LINE
  8
0_00
  6
CONTINUOUS
 62
2
 10
636.5842
 20
434.1825
 11
632.5842
 21
430.1824
  0
LINE
  8
0_00
  6
CONTINUOUS
 62
2
 10
632.3416
 20
434.1825
 11
628.3416
 21
430.1824
  0
LINE
  8
0_00
  6
CONTINUOUS
 62
2
 10
628.0990
 20
434.1825
 11
626.8269
 21
432.9104
  0
LINE
  8
0_00
  6
CONTINUOUS
 62
2
 10
645.0696
 20
434.1825
 11
641.0696
 21
430.1824
  0
LINE
  8
0_00
  6
CONTINUOUS
 62
2
 10
649.3122
 20
434.1825
 11
645.3122
 21
430.1824
  0
LINE
  8
0_00
  6
CONTINUOUS
 62
2
 10
650.8269
 20
431.4545
 11
649.5548
 21
430.1824
  0
LINE
  8
0_00
  6
CONTINUOUS
 62
2
 10
639.6628
 20
455.4128
 11
639.3274
 21
455.0652
  0
LINE
  8
0_00
  6
CONTINUOUS
 62
2
 10
639.3274
 20
455.0652
 11
639.2679
 21
454.9024
  0
LINE
  8
0_00
  6
CONTINUOUS
 62
2
 10
639.2679
 20
454.9024
 11
639.3241
 21
454.7485
  0
LINE
  8
0_00
  6
CONTINUOUS
 62
2
 10
639.3241
 20
454.7485
 11
639.6617
 21
454.3899
  0
LINE
  8
0_00
  6
CONTINUOUS
 62
2
 10
639.3373
 20
455.7384
 11
638.9897
 21
455.4029
  0
LINE
  8
0_00
  6
CONTINUOUS
 62
2
 10
638.9897
 20
455.4029
 11
638.8269
 21
455.3435
  0
LINE
  8
0_00
  6
CONTINUOUS
 62
2
 10
638.8269
 20
455.3435
 11
638.6729
 21
455.3996
  0
LINE
  8
0_00
  6
CONTINUOUS
 62
2
 10
638.6729
 20
455.3996
 11
638.3143
 21
455.7373
  0
LINE
  8
0_00
  6
CONTINUOUS
 62
2
 10
638.3165
 20
454.0665
 11
638.6641
 21
454.4020
  0
LINE
  8
0_00
  6
CONTINUOUS
 62
2
 10
638.6641
 20
454.4020
 11
638.8269
 21
454.4614
  0
LINE
  8
0_00
  6
CONTINUOUS
 62
2
 10
638.8269
 20
454.4614
 11
638.9809
 21
454.4053
  0
LINE
  8
0_00
  6
CONTINUOUS
 62
2
 10
638.9809
 20
454.4053
 11
639.3395
 21
454.0676
  0
LINE
  8
0_00
  6
CONTINUOUS
 62
2
 10
637.9910
 20
454.3921
 11
638.3264
 21
454.7397
  0
LINE
  8
0_00
  6
CONTINUOUS
 62
2
 10
638.3264
 20
454.7397
 11
638.3858
 21
454.9024
  0
LINE
  8
0_00
  6
CONTINUOUS
 62
2
 10
638.3858
 20
454.9024
 11
638.3297
 21
455.0564
  0
LINE
  8
0_00
  6
CONTINUOUS
 62
2
 10
638.3297
 20
455.0564
 11
637.9921
 21
455.4150
  0
LINE
  8
0_00
  6
CONTINUOUS
 62
2
 10
766.8269
 20
479.6225
 11
762.8269
 21
475.6224
  0
LINE
  8
0_00
  6
CONTINUOUS
 62
2
 10
762.5842
 20
479.6225
 11
758.5842
 21
475.6224
  0
LINE
  8
0_00
  6
CONTINUOUS
 62
2
 10
758.3416
 20
479.6225
 11
754.3416
 21
475.6224
  0
LINE
  8
0_00
  6
CONTINUOUS
 62
2
 10
754.0990
 20
479.6225
 11
752.8269
 21
478.3504
  0
LINE
  8
0_00
  6
CONTINUOUS
 62
2
 10
771.0696
 20
479.6225
 11
767.0696
 21
475.6224
  0
LINE
  8
0_00
  6
CONTINUOUS
 62
2
 10
775.3122
 20
479.6225
 11
771.3122
 21
475.6224
  0
LINE
  8
0_00
  6
CONTINUOUS
 62
2
 10
776.8269
 20
476.8945
 11
775.5548
 21
475.6224
  0
LINE
  8
0_00
  6
CONTINUOUS
 62
2
 10
766.8269
 20
434.1825
 11
762.8269
 21
430.1824
  0
LINE
  8
0_00
  6
CONTINUOUS
 62
2
 10
762.5842
 20
434.1825
 11
758.5842
 21
430.1824
  0
LINE
  8
0_00
  6
CONTINUOUS
 62
2
 10
758.3416
 20
434.1825
 11
754.3416
 21
430.1824
  0
LINE
  8
0_00
  6
CONTINUOUS
 62
2
 10
754.0990
 20
434.1825
 11
752.8269
 21
432.9104
  0
LINE
  8
0_00
  6
CONTINUOUS
 62
2
 10
771.0696
 20
434.1825
 11
767.0696
 21
430.1824
  0
LINE
  8
0_00
  6
CONTINUOUS
 62
2
 10
775.3122
 20
434.1825
 11
771.3122
 21
430.1824
  0
LINE
  8
0_00
  6
CONTINUOUS
 62
2
 10
776.8269
 20
431.4545
 11
775.5548
 21
430.1824
  0
LINE
  8
0_00
  6
CONTINUOUS
 62
2
 10
765.6628
 20
455.4128
 11
765.3274
 21
455.0652
  0
LINE
  8
0_00
  6
CONTINUOUS
 62
2
 10
765.3274
 20
455.0652
 11
765.2679
 21
454.9024
  0
LINE
  8
0_00
  6
CONTINUOUS
 62
2
 10
765.2679
 20
454.9024
 11
765.3241
 21
454.7485
  0
LINE
  8
0_00
  6
CONTINUOUS
 62
2
 10
765.3241
 20
454.7485
 11
765.6617
 21
454.3899
  0
LINE
  8
0_00
  6
CONTINUOUS
 62
2
 10
765.3373
 20
455.7384
 11
764.9897
 21
455.4029
  0
LINE
  8
0_00
  6
CONTINUOUS
 62
2
 10
764.9897
 20
455.4029
 11
764.8269
 21
455.3435
  0
LINE
  8
0_00
  6
CONTINUOUS
 62
2
 10
764.8269
 20
455.3435
 11
764.6729
 21
455.3996
  0
LINE
  8
0_00
  6
CONTINUOUS
 62
2
 10
764.6729
 20
455.3996
 11
764.3143
 21
455.7373
  0
LINE
  8
0_00
  6
CONTINUOUS
 62
2
 10
764.3165
 20
454.0665
 11
764.6641
 21
454.4020
  0
LINE
  8
0_00
  6
CONTINUOUS
 62
2
 10
764.6641
 20
454.4020
 11
764.8269
 21
454.4614
  0
LINE
  8
0_00
  6
CONTINUOUS
 62
2
 10
764.8269
 20
454.4614
 11
764.9809
 21
454.4053
  0
LINE
  8
0_00
  6
CONTINUOUS
 62
2
 10
764.9809
 20
454.4053
 11
765.3395
 21
454.0676
  0
LINE
  8
0_00
  6
CONTINUOUS
 62
2
 10
763.9910
 20
454.3921
 11
764.3264
 21
454.7397
  0
LINE
  8
0_00
  6
CONTINUOUS
 62
2
 10
764.3264
 20
454.7397
 11
764.3859
 21
454.9024
  0
LINE
  8
0_00
  6
CONTINUOUS
 62
2
 10
764.3859
 20
454.9024
 11
764.3297
 21
455.0564
  0
LINE
  8
0_00
  6
CONTINUOUS
 62
2
 10
764.3297
 20
455.0564
 11
763.9921
 21
455.4150
  0
LINE
  8
0_00
  6
CONTINUOUS
 62
6
 10
518.8269
 20
464.9025
 11
518.8269
 21
545.2963
  0
LINE
  8
0_00
  6
CONTINUOUS
 62
6
 10
638.8269
 20
500.8520
 11
638.8269
 21
545.2963
  0
LINE
  8
0_00
  6
CONTINUOUS
 62
6
 10
518.8269
 20
541.2963
 11
638.8269
 21
541.2963
  0
LINE
  8
0_00
  6
CONTINUOUS
 62
6
 10
518.8269
 20
541.2963
 11
523.7177
 21
540.2567
  0
LINE
  8
0_00
  6
CONTINUOUS
 62
6
 10
518.8269
 20
541.2963
 11
523.7177
 21
542.3358
  0
LINE
  8
0_00
  6
CONTINUOUS
 62
6
 10
638.8269
 20
541.2963
 11
633.9362
 21
542.3358
  0
LINE
  8
0_00
  6
CONTINUOUS
 62
6
 10
638.8269
 20
541.2963
 11
633.9362
 21
540.2567
  0
LINE
  8
0_00
  6
CONTINUOUS
 62
6
 10
764.8269
 20
500.8520
 11
764.8269
 21
545.2963
  0
LINE
  8
0_00
  6
CONTINUOUS
 62
6
 10
638.8269
 20
541.2963
 11
764.8269
 21
541.2963
  0
LINE
  8
0_00
  6
CONTINUOUS
 62
6
 10
638.8269
 20
541.2963
 11
643.7177
 21
540.2567
  0
LINE
  8
0_00
  6
CONTINUOUS
 62
6
 10
638.8269
 20
541.2963
 11
643.7177
 21
542.3358
  0
LINE
  8
0_00
  6
CONTINUOUS
 62
6
 10
764.8269
 20
541.2963
 11
759.9362
 21
542.3358
  0
LINE
  8
0_00
  6
CONTINUOUS
 62
6
 10
764.8269
 20
541.2963
 11
759.9362
 21
540.2567
  0
LINE
  8
0_00
  6
CONTINUOUS
 62
6
 10
538.8269
 20
500.8520
 11
538.8269
 21
531.2963
  0
LINE
  8
0_00
  6
CONTINUOUS
 62
6
 10
518.8269
 20
535.2963
 11
518.8269
 21
523.2963
  0
LINE
  8
0_00
  6
CONTINUOUS
 62
6
 10
518.8269
 20
527.2963
 11
538.8269
 21
527.2963
  0
LINE
  8
0_00
  6
CONTINUOUS
 62
6
 10
582.5824
 20
527.2963
 11
538.8269
 21
527.2963
  0
LINE
  8
0_00
  6
CONTINUOUS
 62
6
 10
538.8269
 20
527.2963
 11
543.7177
 21
526.2567
  0
LINE
  8
0_00
  6
CONTINUOUS
 62
6
 10
538.8269
 20
527.2963
 11
543.7177
 21
528.3358
  0
LINE
  8
0_00
  6
CONTINUOUS
 62
6
 10
506.8269
 20
527.2963
 11
518.8269
 21
527.2963
  0
LINE
  8
0_00
  6
CONTINUOUS
 62
6
 10
518.8269
 20
527.2963
 11
513.9362
 21
528.3358
  0
LINE
  8
0_00
  6
CONTINUOUS
 62
6
 10
518.8269
 20
527.2963
 11
513.9362
 21
526.2567
  0
LINE
  8
0_00
  6
CONTINUOUS
 62
6
 10
484.0696
 20
491.6598
 11
471.4871
 21
504.2423
  0
LINE
  8
0_00
  6
CONTINUOUS
 62
6
 10
482.0696
 20
489.6598
 11
469.4871
 21
502.2422
  0
LINE
  8
0_00
  6
CONTINUOUS
 62
6
 10
472.3155
 20
499.4138
 11
474.3155
 21
501.4138
  0
LINE
  8
0_00
  6
CONTINUOUS
 62
6
 10
501.6424
 20
528.7408
 11
474.3155
 21
501.4138
  0
LINE
  8
0_00
  6
CONTINUOUS
 62
6
 10
474.3155
 20
501.4138
 11
478.5089
 21
504.1370
  0
LINE
  8
0_00
  6
CONTINUOUS
 62
6
 10
474.3155
 20
501.4138
 11
477.0387
 21
505.6072
  0
LINE
  8
0_00
  6
CONTINUOUS
 62
6
 10
463.8302
 20
490.9286
 11
472.3155
 21
499.4138
  0
LINE
  8
0_00
  6
CONTINUOUS
 62
6
 10
472.3155
 20
499.4138
 11
468.1221
 21
496.6906
  0
LINE
  8
0_00
  6
CONTINUOUS
 62
6
 10
472.3155
 20
499.4138
 11
469.5923
 21
495.2205
  0
LINE
  8
0_00
  6
CONTINUOUS
 62
4
 10
730.3593
 20
350.6389
 11
745.9593
 21
350.6389
  0
LINE
  8
0_00
  6
CONTINUOUS
 62
6
 10
650.8269
 20
495.1024
 11
650.8269
 21
531.2963
  0
LINE
  8
0_00
  6
CONTINUOUS
 62
6
 10
626.8269
 20
495.1024
 11
626.8269
 21
531.2963
  0
LINE
  8
0_00
  6
CONTINUOUS
 62
6
 10
626.8269
 20
527.2963
 11
650.8269
 21
527.2963
  0
LINE
  8
0_00
  6
CONTINUOUS
 62
6
 10
670.4269
 20
527.2963
 11
650.8269
 21
527.2963
  0
LINE
  8
0_00
  6
CONTINUOUS
 62
6
 10
650.8269
 20
527.2963
 11
655.7177
 21
526.2567
  0
LINE
  8
0_00
  6
CONTINUOUS
 62
6
 10
650.8269
 20
527.2963
 11
655.7177
 21
528.3358
  0
LINE
  8
0_00
  6
CONTINUOUS
 62
6
 10
614.8269
 20
527.2963
 11
626.8269
 21
527.2963
  0
LINE
  8
0_00
  6
CONTINUOUS
 62
6
 10
626.8269
 20
527.2963
 11
621.9362
 21
528.3358
  0
LINE
  8
0_00
  6
CONTINUOUS
 62
6
 10
626.8269
 20
527.2963
 11
621.9362
 21
526.2567
  0
LINE
  8
0_00
  6
CONTINUOUS
 62
6
 10
478.1198
 20
485.7100
 11
455.6378
 21
508.1920
  0
LINE
  8
0_00
  6
CONTINUOUS
 62
6
 10
458.4662
 20
505.3636
 11
468.3658
 21
515.2631
  0
LINE
  8
0_00
  6
CONTINUOUS
 62
6
 10
476.8510
 20
523.7484
 11
468.3658
 21
515.2631
  0
LINE
  8
0_00
  6
CONTINUOUS
 62
6
 10
468.3658
 20
515.2631
 11
472.5591
 21
517.9863
  0
LINE
  8
0_00
  6
CONTINUOUS
 62
6
 10
468.3658
 20
515.2631
 11
471.0890
 21
519.4564
  0
LINE
  8
0_00
  6
CONTINUOUS
 62
6
 10
449.9810
 20
496.8783
 11
458.4662
 21
505.3636
  0
LINE
  8
0_00
  6
CONTINUOUS
 62
6
 10
458.4662
 20
505.3636
 11
454.2729
 21
502.6404
  0
LINE
  8
0_00
  6
CONTINUOUS
 62
6
 10
458.4662
 20
505.3636
 11
455.7431
 21
501.1702
  0
LINE
  8
0_00
  6
CONTINUOUS
 62
6
 10
488.0194
 20
495.6095
 11
480.0378
 21
503.5911
  0
LINE
  8
0_00
  6
CONTINUOUS
 62
6
 10
470.6092
 20
513.0197
 11
465.5373
 21
518.0916
  0
LINE
  8
0_00
  6
CONTINUOUS
 62
3
 10
364.9407
 20
64.8000
 11
364.9407
 21
24.8000
  0
LINE
  8
0_00
  6
CONTINUOUS
 62
7
 10
36.4603
 20
74.8000
 11
812.3407
 21
74.8000
  0
LINE
  8
0_00
  6
CONTINUOUS
 62
3
 10
812.3407
 20
567.8000
 11
812.3407
 21
576.8000
  0
LINE
  8
0_00
  6
CONTINUOUS
 62
7
 10
812.3407
 20
24.8000
 11
812.3407
 21
567.8000
  0
LINE
  8
0_00
  6
CONTINUOUS
 62
3
 10
36.4603
 20
567.8000
 11
36.4603
 21
576.8000
  0
LINE
  8
0_00
  6
CONTINUOUS
 62
7
 10
36.4603
 20
24.8000
 11
36.4603
 21
567.8000
  0
LINE
  8
0_00
  6
CONTINUOUS
 62
7
 10
36.4603
 20
567.8000
 11
812.3407
 21
567.8000
  0
LINE
  8
0_00
  6
CONTINUOUS
 62
7
 10
36.4603
 20
24.8000
 11
812.3407
 21
24.8000
  0
LINE
  8
0_00
  6
CONTINUOUS
 62
3
 10
26.4603
 20
14.8000
 11
26.4603
 21
576.8000
  0
LINE
  8
0_00
  6
CONTINUOUS
 62
3
 10
822.3407
 20
14.8000
 11
822.3407
 21
576.8000
  0
LINE
  8
0_00
  6
CONTINUOUS
 62
3
 10
26.4603
 20
576.8000
 11
822.3407
 21
576.8000
  0
LINE
  8
0_00
  6
CONTINUOUS
 62
3
 10
713.7407
 20
24.8000
 11
713.7407
 21
74.8000
  0
LINE
  8
0_00
  6
CONTINUOUS
 62
3
 10
36.4603
 20
64.8000
 11
541.8407
 21
64.8000
  0
LINE
  8
0_00
  6
CONTINUOUS
 62
7
 10
541.8407
 20
64.8000
 11
812.3407
 21
64.8000
  0
LINE
  8
0_00
  6
CONTINUOUS
 62
3
 10
713.7407
 20
44.8000
 11
812.3407
 21
44.8000
  0
LINE
  8
0_00
  6
CONTINUOUS
 62
3
 10
733.7407
 20
74.8000
 11
733.7407
 21
64.8000
  0
LINE
  8
0_00
  6
CONTINUOUS
 62
3
 10
541.8407
 20
24.8000
 11
541.8407
 21
64.8000
  0
LINE
  8
0_00
  6
CONTINUOUS
 62
7
 10
541.8407
 20
64.8000
 11
541.8407
 21
74.8000
  0
LINE
  8
0_00
  6
CONTINUOUS
 62
3
 10
557.8407
 20
64.8000
 11
557.8407
 21
74.8000
  0
LINE
  8
0_00
  6
CONTINUOUS
 62
3
 10
608.3407
 20
24.8000
 11
608.3407
 21
74.8000
  0
LINE
  8
0_00
  6
CONTINUOUS
 62
3
 10
669.7407
 20
64.8000
 11
669.7407
 21
74.8000
  0
LINE
  8
0_00
  6
CONTINUOUS
 62
3
 10
688.1407
 20
24.8000
 11
688.1407
 21
64.8000
  0
LINE
  8
0_00
  6
CONTINUOUS
 62
3
 10
663.9407
 20
24.8000
 11
663.9407
 21
64.8000
  0
LINE
  8
0_00
  6
CONTINUOUS
 62
3
 10
639.7407
 20
24.8000
 11
639.7407
 21
64.8000
  0
LINE
  8
0_00
  6
CONTINUOUS
 62
3
 10
312.4407
 20
24.8000
 11
312.4407
 21
74.8000
  0
LINE
  8
0_00
  6
CONTINUOUS
 62
3
 10
417.4407
 20
24.8000
 11
417.4407
 21
64.8000
  0
LINE
  8
0_00
  6
CONTINUOUS
 62
3
 10
36.4603
 20
54.8001
 11
312.4407
 21
54.8001
  0
LINE
  8
0_00
  6
CONTINUOUS
 62
3
 10
36.4603
 20
44.8000
 11
608.3407
 21
44.8000
  0
LINE
  8
0_00
  6
CONTINUOUS
 62
3
 10
116.4603
 20
34.8000
 11
312.4407
 21
34.8000
  0
LINE
  8
0_00
  6
CONTINUOUS
 62
7
 10
36.4603
 20
34.8000
 11
116.4603
 21
34.8000
  0
LINE
  8
0_00
  6
CONTINUOUS
 62
3
 10
545.3407
 20
567.8000
 11
545.3407
 21
576.8000
  0
LINE
  8
0_00
  6
CONTINUOUS
 62
3
 10
525.3407
 20
567.8000
 11
525.3407
 21
576.8000
  0
LINE
  8
0_00
  6
CONTINUOUS
 62
3
 10
136.4603
 20
567.8000
 11
136.4603
 21
576.8000
  0
LINE
  8
0_00
  6
CONTINUOUS
 62
3
 10
569.3407
 20
567.8000
 11
569.3407
 21
576.8000
  0
LINE
  8
0_00
  6
CONTINUOUS
 62
3
 10
610.3407
 20
567.8000
 11
610.3407
 21
576.8000
  0
LINE
  8
0_00
  6
CONTINUOUS
 62
3
 10
764.3407
 20
567.8000
 11
764.3407
 21
576.8000
  0
LINE
  8
0_00
  6
CONTINUOUS
 62
3
 10
76.4603
 20
74.8000
 11
76.4603
 21
24.8000
  0
LINE
  8
0_00
  6
CONTINUOUS
 62
7
 10
116.4603
 20
74.8000
 11
116.4603
 21
24.8000
  0
LINE
  8
0_00
  6
CONTINUOUS
 62
3
 10
579.8407
 20
44.8000
 11
579.8407
 21
64.8000
  0
LINE
  8
0_00
  6
CONTINUOUS
 62
3
 10
595.8407
 20
74.8000
 11
595.8407
 21
64.8000
  0
LINE
  8
0_00
  6
CONTINUOUS
 62
3
 10
608.3407
 20
54.8001
 11
713.7407
 21
54.8001
  0
LINE
  8
0_00
  6
CONTINUOUS
 62
3
 10
717.7407
 20
47.8000
 11
719.0406
 21
47.8000
  0
LINE
  8
0_00
  6
CONTINUOUS
 62
3
 10
719.0406
 20
47.8000
 11
719.0406
 21
60.8000
  0
LINE
  8
0_00
  6
CONTINUOUS
 62
3
 10
719.0406
 20
60.8000
 11
717.7407
 21
60.8000
  0
LINE
  8
0_00
  6
CONTINUOUS
 62
3
 10
717.7407
 20
47.8000
 11
717.7407
 21
60.8000
  0
LINE
  8
0_00
  6
CONTINUOUS
 62
3
 10
719.5607
 20
47.8000
 11
720.8607
 21
47.8000
  0
LINE
  8
0_00
  6
CONTINUOUS
 62
3
 10
720.8607
 20
47.8000
 11
720.8607
 21
60.8000
  0
LINE
  8
0_00
  6
CONTINUOUS
 62
3
 10
720.8607
 20
60.8000
 11
719.5607
 21
60.8000
  0
LINE
  8
0_00
  6
CONTINUOUS
 62
3
 10
719.5607
 20
47.8000
 11
719.5607
 21
60.8000
  0
LINE
  8
0_00
  6
CONTINUOUS
 62
3
 10
721.3807
 20
47.8000
 11
722.6807
 21
47.8000
  0
LINE
  8
0_00
  6
CONTINUOUS
 62
3
 10
722.6807
 20
47.8000
 11
722.6807
 21
60.8000
  0
LINE
  8
0_00
  6
CONTINUOUS
 62
3
 10
722.6807
 20
60.8000
 11
721.3807
 21
60.8000
  0
LINE
  8
0_00
  6
CONTINUOUS
 62
3
 10
721.3807
 20
47.8000
 11
721.3807
 21
60.8000
  0
LINE
  8
0_00
  6
CONTINUOUS
 62
3
 10
723.2007
 20
47.8000
 11
724.5007
 21
47.8000
  0
LINE
  8
0_00
  6
CONTINUOUS
 62
3
 10
724.5007
 20
60.8000
 11
723.2007
 21
60.8000
  0
LINE
  8
0_00
  6
CONTINUOUS
 62
3
 10
723.2007
 20
47.8000
 11
723.2007
 21
60.8000
  0
LINE
  8
0_00
  6
CONTINUOUS
 62
3
 10
728.2708
 20
47.8000
 11
733.3407
 21
47.8000
  0
LINE
  8
0_00
  6
CONTINUOUS
 62
3
 10
733.3407
 20
47.8000
 11
733.3407
 21
48.9700
  0
LINE
  8
0_00
  6
CONTINUOUS
 62
3
 10
733.3407
 20
48.9700
 11
728.2708
 21
48.9700
  0
LINE
  8
0_00
  6
CONTINUOUS
 62
3
 10
728.2708
 20
48.9700
 11
728.2708
 21
47.8000
  0
LINE
  8
0_00
  6
CONTINUOUS
 62
3
 10
728.2708
 20
49.4900
 11
733.3407
 21
49.4900
  0
LINE
  8
0_00
  6
CONTINUOUS
 62
3
 10
733.3407
 20
49.4900
 11
733.3407
 21
50.6600
  0
LINE
  8
0_00
  6
CONTINUOUS
 62
3
 10
733.3407
 20
50.6600
 11
728.2708
 21
50.6600
  0
LINE
  8
0_00
  6
CONTINUOUS
 62
3
 10
728.2708
 20
50.6600
 11
728.2708
 21
49.4900
  0
LINE
  8
0_00
  6
CONTINUOUS
 62
3
 10
728.2708
 20
51.1800
 11
733.3407
 21
51.1800
  0
LINE
  8
0_00
  6
CONTINUOUS
 62
3
 10
733.3407
 20
51.1800
 11
733.3407
 21
52.3500
  0
LINE
  8
0_00
  6
CONTINUOUS
 62
3
 10
733.3407
 20
52.3500
 11
728.2708
 21
52.3500
  0
LINE
  8
0_00
  6
CONTINUOUS
 62
3
 10
728.2708
 20
52.3500
 11
728.2708
 21
51.1800
  0
LINE
  8
0_00
  6
CONTINUOUS
 62
3
 10
728.2708
 20
52.8700
 11
733.3407
 21
52.8700
  0
LINE
  8
0_00
  6
CONTINUOUS
 62
3
 10
733.3407
 20
52.8700
 11
733.3407
 21
54.0400
  0
LINE
  8
0_00
  6
CONTINUOUS
 62
3
 10
733.3407
 20
54.0400
 11
728.2708
 21
54.0400
  0
LINE
  8
0_00
  6
CONTINUOUS
 62
3
 10
728.2708
 20
54.0400
 11
728.2708
 21
52.8700
  0
LINE
  8
0_00
  6
CONTINUOUS
 62
3
 10
728.2708
 20
54.5600
 11
733.3407
 21
54.5600
  0
LINE
  8
0_00
  6
CONTINUOUS
 62
3
 10
733.3407
 20
54.5600
 11
733.3407
 21
55.7300
  0
LINE
  8
0_00
  6
CONTINUOUS
 62
3
 10
733.3407
 20
55.7300
 11
728.2708
 21
55.7300
  0
LINE
  8
0_00
  6
CONTINUOUS
 62
3
 10
728.2708
 20
55.7300
 11
728.2708
 21
54.5600
  0
LINE
  8
0_00
  6
CONTINUOUS
 62
3
 10
728.2708
 20
56.2500
 11
733.3407
 21
56.2500
  0
LINE
  8
0_00
  6
CONTINUOUS
 62
3
 10
733.3407
 20
56.2500
 11
733.3407
 21
57.4200
  0
LINE
  8
0_00
  6
CONTINUOUS
 62
3
 10
733.3407
 20
57.4200
 11
728.2708
 21
57.4200
  0
LINE
  8
0_00
  6
CONTINUOUS
 62
3
 10
728.2708
 20
57.4200
 11
728.2708
 21
56.2500
  0
LINE
  8
0_00
  6
CONTINUOUS
 62
3
 10
728.2708
 20
57.9401
 11
733.3407
 21
57.9401
  0
LINE
  8
0_00
  6
CONTINUOUS
 62
3
 10
733.3407
 20
57.9401
 11
733.3407
 21
59.1100
  0
LINE
  8
0_00
  6
CONTINUOUS
 62
3
 10
733.3407
 20
59.1100
 11
728.2708
 21
59.1100
  0
LINE
  8
0_00
  6
CONTINUOUS
 62
3
 10
728.2708
 20
59.1100
 11
728.2708
 21
57.9401
  0
LINE
  8
0_00
  6
CONTINUOUS
 62
3
 10
728.2708
 20
59.6301
 11
733.3407
 21
59.6301
  0
LINE
  8
0_00
  6
CONTINUOUS
 62
3
 10
733.3407
 20
59.6301
 11
733.3407
 21
60.8000
  0
LINE
  8
0_00
  6
CONTINUOUS
 62
3
 10
733.3407
 20
60.8000
 11
728.2708
 21
60.8000
  0
LINE
  8
0_00
  6
CONTINUOUS
 62
3
 10
728.2708
 20
60.8000
 11
728.2708
 21
59.6301
  0
LINE
  8
0_00
  6
CONTINUOUS
 62
3
 10
725.0208
 20
47.8000
 11
725.0208
 21
51.3750
  0
LINE
  8
0_00
  6
CONTINUOUS
 62
3
 10
725.8917
 20
48.5150
 11
725.8917
 21
51.3750
  0
LINE
  8
0_00
  6
CONTINUOUS
 62
3
 10
725.0208
 20
47.8000
 11
726.4507
 21
47.8000
  0
LINE
  8
0_00
  6
CONTINUOUS
 62
3
 10
725.8917
 20
48.5150
 11
726.4507
 21
48.5150
  0
LINE
  8
0_00
  6
CONTINUOUS
 62
3
 10
726.4033
 20
53.2037
 11
726.9707
 21
52.0900
  0
LINE
  8
0_00
  6
CONTINUOUS
 62
3
 10
727.2941
 20
55.0302
 11
726.4032
 21
53.2037
  0
LINE
  8
0_00
  6
CONTINUOUS
 62
3
 10
724.5007
 20
56.9001
 11
724.5007
 21
60.8000
  0
LINE
  8
0_00
  6
CONTINUOUS
 62
3
 10
724.5007
 20
56.9001
 11
726.1257
 21
56.9001
  0
LINE
  8
0_00
  6
CONTINUOUS
 62
3
 10
724.5007
 20
56.1200
 11
725.2222
 21
56.1200
  0
LINE
  8
0_00
  6
CONTINUOUS
 62
3
 10
724.5007
 20
52.0900
 11
726.9707
 21
52.0900
  0
LINE
  8
0_00
  6
CONTINUOUS
 62
3
 10
724.5007
 20
54.6407
 11
725.2223
 21
56.1201
  0
LINE
  8
0_00
  6
CONTINUOUS
 62
3
 10
724.5007
 20
54.6409
 11
724.5007
 21
56.1200
  0
LINE
  8
0_00
  6
CONTINUOUS
 62
3
 10
724.5007
 20
52.0900
 11
724.5007
 21
47.8000
  0
LINE
  8
0_00
  6
CONTINUOUS
 62
3
 10
717.9407
 20
60.8000
 11
717.9407
 21
47.8000
  0
LINE
  8
0_00
  6
CONTINUOUS
 62
3
 10
718.1407
 20
60.8000
 11
718.1407
 21
47.8000
  0
LINE
  8
0_00
  6
CONTINUOUS
 62
3
 10
718.3407
 20
60.8000
 11
718.3407
 21
47.8000
  0
LINE
  8
0_00
  6
CONTINUOUS
 62
3
 10
718.5406
 20
60.8000
 11
718.5406
 21
47.8000
  0
LINE
  8
0_00
  6
CONTINUOUS
 62
3
 10
718.7407
 20
60.8000
 11
718.7407
 21
47.8000
  0
LINE
  8
0_00
  6
CONTINUOUS
 62
3
 10
719.7607
 20
60.8000
 11
719.7607
 21
47.8000
  0
LINE
  8
0_00
  6
CONTINUOUS
 62
3
 10
719.9607
 20
60.8000
 11
719.9607
 21
47.8000
  0
LINE
  8
0_00
  6
CONTINUOUS
 62
3
 10
720.1606
 20
60.8000
 11
720.1606
 21
47.8000
  0
LINE
  8
0_00
  6
CONTINUOUS
 62
3
 10
720.3607
 20
60.8000
 11
720.3607
 21
47.8000
  0
LINE
  8
0_00
  6
CONTINUOUS
 62
3
 10
720.5607
 20
60.8000
 11
720.5607
 21
47.8000
  0
LINE
  8
0_00
  6
CONTINUOUS
 62
3
 10
720.7607
 20
60.8000
 11
720.7607
 21
47.8000
  0
LINE
  8
0_00
  6
CONTINUOUS
 62
3
 10
721.5807
 20
60.8000
 11
721.5807
 21
47.8000
  0
LINE
  8
0_00
  6
CONTINUOUS
 62
3
 10
721.7808
 20
60.8000
 11
721.7808
 21
47.8000
  0
LINE
  8
0_00
  6
CONTINUOUS
 62
3
 10
721.9807
 20
60.8000
 11
721.9807
 21
47.8000
  0
LINE
  8
0_00
  6
CONTINUOUS
 62
3
 10
722.1807
 20
60.8000
 11
722.1807
 21
47.8000
  0
LINE
  8
0_00
  6
CONTINUOUS
 62
3
 10
722.3807
 20
60.8000
 11
722.3807
 21
47.8000
  0
LINE
  8
0_00
  6
CONTINUOUS
 62
3
 10
722.5807
 20
60.8000
 11
722.5807
 21
47.8000
  0
LINE
  8
0_00
  6
CONTINUOUS
 62
3
 10
728.2708
 20
48.0000
 11
733.3407
 21
48.0000
  0
LINE
  8
0_00
  6
CONTINUOUS
 62
3
 10
728.2708
 20
48.2001
 11
733.3407
 21
48.2001
  0
LINE
  8
0_00
  6
CONTINUOUS
 62
3
 10
728.2708
 20
48.4000
 11
733.3407
 21
48.4000
  0
LINE
  8
0_00
  6
CONTINUOUS
 62
3
 10
728.2708
 20
48.6000
 11
733.3407
 21
48.6000
  0
LINE
  8
0_00
  6
CONTINUOUS
 62
3
 10
728.2708
 20
48.8000
 11
733.3407
 21
48.8000
  0
LINE
  8
0_00
  6
CONTINUOUS
 62
3
 10
728.2708
 20
49.6900
 11
733.3407
 21
49.6900
  0
LINE
  8
0_00
  6
CONTINUOUS
 62
3
 10
728.2708
 20
49.8901
 11
733.3407
 21
49.8901
  0
LINE
  8
0_00
  6
CONTINUOUS
 62
3
 10
728.2708
 20
50.0900
 11
733.3407
 21
50.0900
  0
LINE
  8
0_00
  6
CONTINUOUS
 62
3
 10
728.2708
 20
50.2900
 11
733.3407
 21
50.2900
  0
LINE
  8
0_00
  6
CONTINUOUS
 62
3
 10
728.2708
 20
50.4900
 11
733.3407
 21
50.4900
  0
LINE
  8
0_00
  6
CONTINUOUS
 62
3
 10
728.2708
 20
51.3801
 11
733.3407
 21
51.3801
  0
LINE
  8
0_00
  6
CONTINUOUS
 62
3
 10
728.2708
 20
51.5801
 11
733.3407
 21
51.5801
  0
LINE
  8
0_00
  6
CONTINUOUS
 62
3
 10
728.2708
 20
51.7800
 11
733.3407
 21
51.7800
  0
LINE
  8
0_00
  6
CONTINUOUS
 62
3
 10
728.2708
 20
51.9800
 11
733.3407
 21
51.9800
  0
LINE
  8
0_00
  6
CONTINUOUS
 62
3
 10
728.2708
 20
52.1800
 11
733.3407
 21
52.1800
  0
LINE
  8
0_00
  6
CONTINUOUS
 62
3
 10
728.2708
 20
53.0701
 11
733.3407
 21
53.0701
  0
LINE
  8
0_00
  6
CONTINUOUS
 62
3
 10
728.2708
 20
53.2701
 11
733.3407
 21
53.2701
  0
LINE
  8
0_00
  6
CONTINUOUS
 62
3
 10
728.2708
 20
53.4700
 11
733.3407
 21
53.4700
  0
LINE
  8
0_00
  6
CONTINUOUS
 62
3
 10
728.2708
 20
53.6700
 11
733.3407
 21
53.6700
  0
LINE
  8
0_00
  6
CONTINUOUS
 62
3
 10
728.2708
 20
53.8700
 11
733.3407
 21
53.8700
  0
LINE
  8
0_00
  6
CONTINUOUS
 62
3
 10
728.2708
 20
54.7601
 11
733.3407
 21
54.7601
  0
LINE
  8
0_00
  6
CONTINUOUS
 62
3
 10
728.2708
 20
54.9601
 11
733.3407
 21
54.9601
  0
LINE
  8
0_00
  6
CONTINUOUS
 62
3
 10
728.2708
 20
55.1600
 11
733.3407
 21
55.1600
  0
LINE
  8
0_00
  6
CONTINUOUS
 62
3
 10
728.2708
 20
55.3600
 11
733.3407
 21
55.3600
  0
LINE
  8
0_00
  6
CONTINUOUS
 62
3
 10
728.2708
 20
55.5600
 11
733.3407
 21
55.5600
  0
LINE
  8
0_00
  6
CONTINUOUS
 62
3
 10
733.3407
 20
56.4501
 11
728.2708
 21
56.4501
  0
LINE
  8
0_00
  6
CONTINUOUS
 62
3
 10
733.3407
 20
56.6501
 11
728.2708
 21
56.6501
  0
LINE
  8
0_00
  6
CONTINUOUS
 62
3
 10
733.3407
 20
56.8500
 11
728.2708
 21
56.8500
  0
LINE
  8
0_00
  6
CONTINUOUS
 62
3
 10
733.3407
 20
57.0500
 11
728.2708
 21
57.0500
  0
LINE
  8
0_00
  6
CONTINUOUS
 62
3
 10
733.3407
 20
57.2500
 11
728.2708
 21
57.2500
  0
LINE
  8
0_00
  6
CONTINUOUS
 62
3
 10
728.2708
 20
58.1401
 11
733.3407
 21
58.1401
  0
LINE
  8
0_00
  6
CONTINUOUS
 62
3
 10
728.2708
 20
58.3401
 11
733.3407
 21
58.3401
  0
LINE
  8
0_00
  6
CONTINUOUS
 62
3
 10
728.2708
 20
58.5400
 11
733.3407
 21
58.5400
  0
LINE
  8
0_00
  6
CONTINUOUS
 62
3
 10
728.2708
 20
58.7400
 11
733.3407
 21
58.7400
  0
LINE
  8
0_00
  6
CONTINUOUS
 62
3
 10
728.2708
 20
58.9400
 11
733.3407
 21
58.9400
  0
LINE
  8
0_00
  6
CONTINUOUS
 62
3
 10
728.2708
 20
59.8301
 11
733.3407
 21
59.8301
  0
LINE
  8
0_00
  6
CONTINUOUS
 62
3
 10
728.2708
 20
60.0301
 11
733.3407
 21
60.0301
  0
LINE
  8
0_00
  6
CONTINUOUS
 62
3
 10
728.2708
 20
60.2300
 11
733.3407
 21
60.2300
  0
LINE
  8
0_00
  6
CONTINUOUS
 62
3
 10
728.2708
 20
60.4300
 11
733.3407
 21
60.4300
  0
LINE
  8
0_00
  6
CONTINUOUS
 62
3
 10
728.2708
 20
60.6301
 11
733.3407
 21
60.6301
  0
LINE
  8
0_00
  6
CONTINUOUS
 62
3
 10
723.4006
 20
60.8000
 11
723.4006
 21
47.8000
  0
LINE
  8
0_00
  6
CONTINUOUS
 62
3
 10
723.6007
 20
60.8000
 11
723.6007
 21
47.8000
  0
LINE
  8
0_00
  6
CONTINUOUS
 62
3
 10
723.8007
 20
60.8000
 11
723.8007
 21
47.8000
  0
LINE
  8
0_00
  6
CONTINUOUS
 62
3
 10
724.0006
 20
60.8000
 11
724.0006
 21
47.8000
  0
LINE
  8
0_00
  6
CONTINUOUS
 62
3
 10
724.2007
 20
60.8000
 11
724.2007
 21
47.8000
  0
LINE
  8
0_00
  6
CONTINUOUS
 62
3
 10
724.4006
 20
60.8000
 11
724.4006
 21
47.8000
  0
LINE
  8
0_00
  6
CONTINUOUS
 62
3
 10
725.2207
 20
47.8000
 11
725.2207
 21
51.3750
  0
LINE
  8
0_00
  6
CONTINUOUS
 62
3
 10
725.4208
 20
47.8000
 11
725.4208
 21
51.3750
  0
LINE
  8
0_00
  6
CONTINUOUS
 62
3
 10
725.6207
 20
47.8000
 11
725.6207
 21
51.3750
  0
LINE
  8
0_00
  6
CONTINUOUS
 62
3
 10
725.8207
 20
47.8000
 11
725.8207
 21
51.3750
  0
LINE
  8
0_00
  6
CONTINUOUS
 62
3
 10
725.8917
 20
48.3150
 11
726.4507
 21
48.3150
  0
LINE
  8
0_00
  6
CONTINUOUS
 62
3
 10
725.8917
 20
48.1150
 11
726.4507
 21
48.1150
  0
LINE
  8
0_00
  6
CONTINUOUS
 62
3
 10
725.8917
 20
47.9150
 11
726.4507
 21
47.9150
  0
LINE
  8
0_00
  6
CONTINUOUS
 62
3
 10
726.8550
 20
52.3172
 11
724.5236
 21
52.3172
  0
LINE
  8
0_00
  6
CONTINUOUS
 62
3
 10
726.7355
 20
52.5518
 11
724.5236
 21
52.5518
  0
LINE
  8
0_00
  6
CONTINUOUS
 62
3
 10
726.5959
 20
52.8256
 11
724.5187
 21
52.8256
  0
LINE
  8
0_00
  6
CONTINUOUS
 62
3
 10
726.4803
 20
53.0524
 11
724.5162
 21
53.0524
  0
LINE
  8
0_00
  6
CONTINUOUS
 62
3
 10
727.3906
 20
55.6841
 11
726.1002
 21
53.0386
  0
LINE
  8
0_00
  6
CONTINUOUS
 62
3
 10
727.3264
 20
56.0089
 11
725.8738
 21
53.0306
  0
LINE
  8
0_00
  6
CONTINUOUS
 62
3
 10
727.2056
 20
56.2172
 11
725.6610
 21
53.0506
  0
LINE
  8
0_00
  6
CONTINUOUS
 62
3
 10
727.0686
 20
56.3929
 11
725.4303
 21
53.0339
  0
LINE
  8
0_00
  6
CONTINUOUS
 62
3
 10
726.9340
 20
56.5731
 11
725.2527
 21
53.1258
  0
LINE
  8
0_00
  6
CONTINUOUS
 62
3
 10
726.7581
 20
56.6684
 11
724.9939
 21
53.0516
  0
LINE
  8
0_00
  6
CONTINUOUS
 62
3
 10
726.5841
 20
56.7681
 11
724.7689
 21
53.0465
  0
LINE
  8
0_00
  6
CONTINUOUS
 62
3
 10
726.3777
 20
56.8012
 11
724.5591
 21
53.0725
  0
LINE
  8
0_00
  6
CONTINUOUS
 62
3
 10
726.1666
 20
56.8245
 11
724.4702
 21
53.3465
  0
LINE
  8
0_00
  6
CONTINUOUS
 62
3
 10
725.9583
 20
56.8535
 11
724.4886
 21
53.8405
  0
LINE
  8
0_00
  6
CONTINUOUS
 62
3
 10
725.7305
 20
56.8429
 11
724.4259
 21
54.1681
  0
LINE
  8
0_00
  6
CONTINUOUS
 62
3
 10
725.3284
 20
56.3201
 11
724.5007
 21
56.3201
  0
LINE
  8
0_00
  6
CONTINUOUS
 62
3
 10
725.4904
 20
56.5201
 11
724.5007
 21
56.5201
  0
LINE
  8
0_00
  6
CONTINUOUS
 62
3
 10
725.5664
 20
56.7200
 11
724.5007
 21
56.7200
  0
LINE
  8
0_00
  6
CONTINUOUS
 62
3
 10
530.8407
 20
568.3262
 11
539.8407
 21
568.3262
  0
LINE
  8
0_00
  6
CONTINUOUS
 62
3
 10
531.4457
 20
569.3739
 11
530.8407
 21
568.3262
  0
LINE
  8
0_00
  6
CONTINUOUS
 62
3
 10
533.9286
 20
573.6746
 11
535.3407
 21
576.1204
  0
LINE
  8
0_00
  6
CONTINUOUS
 62
3
 10
539.2358
 20
569.3739
 11
539.8407
 21
568.3262
  0
LINE
  8
0_00
  6
CONTINUOUS
 62
3
 10
536.7528
 20
573.6746
 11
535.3407
 21
576.1204
  0
LINE
  8
0_00
  6
CONTINUOUS
 62
3
 10
812.3407
 20
102.8000
 11
814.3407
 21
102.8000
  0
LINE
  8
0_00
  6
CONTINUOUS
 62
3
 10
812.3407
 20
116.8000
 11
814.3407
 21
116.8000
  0
LINE
  8
0_00
  6
CONTINUOUS
 62
3
 10
812.3407
 20
130.8000
 11
814.3407
 21
130.8000
  0
LINE
  8
0_00
  6
CONTINUOUS
 62
3
 10
812.3407
 20
144.8000
 11
814.3407
 21
144.8000
  0
LINE
  8
0_00
  6
CONTINUOUS
 62
3
 10
812.3407
 20
158.8000
 11
814.3407
 21
158.8000
  0
LINE
  8
0_00
  6
CONTINUOUS
 62
3
 10
812.3407
 20
172.8000
 11
814.3407
 21
172.8000
  0
LINE
  8
0_00
  6
CONTINUOUS
 62
3
 10
812.3407
 20
186.8000
 11
814.3407
 21
186.8000
  0
LINE
  8
0_00
  6
CONTINUOUS
 62
3
 10
812.3407
 20
200.8000
 11
814.3407
 21
200.8000
  0
LINE
  8
0_00
  6
CONTINUOUS
 62
3
 10
812.3407
 20
214.8001
 11
814.3407
 21
214.8001
  0
LINE
  8
0_00
  6
CONTINUOUS
 62
3
 10
812.3407
 20
228.8000
 11
814.3407
 21
228.8000
  0
LINE
  8
0_00
  6
CONTINUOUS
 62
3
 10
812.3407
 20
242.8000
 11
814.3407
 21
242.8000
  0
LINE
  8
0_00
  6
CONTINUOUS
 62
3
 10
812.3407
 20
256.8000
 11
814.3407
 21
256.8000
  0
LINE
  8
0_00
  6
CONTINUOUS
 62
3
 10
812.3407
 20
270.8000
 11
814.3407
 21
270.8000
  0
LINE
  8
0_00
  6
CONTINUOUS
 62
3
 10
812.3407
 20
284.8000
 11
814.3407
 21
284.8000
  0
LINE
  8
0_00
  6
CONTINUOUS
 62
3
 10
812.3407
 20
298.8000
 11
814.3407
 21
298.8000
  0
LINE
  8
0_00
  6
CONTINUOUS
 62
3
 10
812.3407
 20
312.8000
 11
814.3407
 21
312.8000
  0
LINE
  8
0_00
  6
CONTINUOUS
 62
3
 10
812.3407
 20
326.8000
 11
814.3407
 21
326.8000
  0
LINE
  8
0_00
  6
CONTINUOUS
 62
3
 10
812.3407
 20
555.8000
 11
814.3407
 21
555.8000
  0
LINE
  8
0_00
  6
CONTINUOUS
 62
3
 10
812.3407
 20
543.8000
 11
814.3407
 21
543.8000
  0
LINE
  8
0_00
  6
CONTINUOUS
 62
3
 10
812.3407
 20
531.8000
 11
814.3407
 21
531.8000
  0
LINE
  8
0_00
  6
CONTINUOUS
 62
3
 10
812.3407
 20
519.8000
 11
814.3407
 21
519.8000
  0
LINE
  8
0_00
  6
CONTINUOUS
 62
3
 10
812.3407
 20
507.8000
 11
814.3407
 21
507.8000
  0
LINE
  8
0_00
  6
CONTINUOUS
 62
3
 10
812.3407
 20
495.8001
 11
814.3407
 21
495.8001
  0
LINE
  8
0_00
  6
CONTINUOUS
 62
3
 10
812.3407
 20
340.8000
 11
814.3407
 21
340.8000
  0
LINE
  8
0_00
  6
CONTINUOUS
 62
3
 10
812.3407
 20
354.8000
 11
814.3407
 21
354.8000
  0
LINE
  8
0_00
  6
CONTINUOUS
 62
3
 10
812.3407
 20
368.8000
 11
814.3407
 21
368.8000
  0
LINE
  8
0_00
  6
CONTINUOUS
 62
3
 10
812.3407
 20
382.8000
 11
814.3407
 21
382.8000
  0
LINE
  8
0_00
  6
CONTINUOUS
 62
3
 10
812.3407
 20
396.8000
 11
814.3407
 21
396.8000
  0
LINE
  8
0_00
  6
CONTINUOUS
 62
3
 10
812.3407
 20
410.8000
 11
814.3407
 21
410.8000
  0
LINE
  8
0_00
  6
CONTINUOUS
 62
3
 10
812.3407
 20
424.8000
 11
814.3407
 21
424.8000
  0
LINE
  8
0_00
  6
CONTINUOUS
 62
3
 10
812.3407
 20
438.8000
 11
814.3407
 21
438.8000
  0
LINE
  8
0_00
  6
CONTINUOUS
 62
3
 10
812.3407
 20
452.8000
 11
814.3407
 21
452.8000
  0
LINE
  8
0_00
  6
CONTINUOUS
 62
3
 10
812.3407
 20
466.8001
 11
814.3407
 21
466.8001
  0
LINE
  8
0_00
  6
CONTINUOUS
 62
3
 10
812.3407
 20
480.8001
 11
814.3407
 21
480.8001
  0
LINE
  8
0_00
  6
CENTER1
 62
3
 10
587.3607
 20
48.8000
 11
587.3607
 21
60.8000
  0
LINE
  8
0_00
  6
CONTINUOUS
 62
4
 10
594.3607
 20
52.3000
 11
594.3607
 21
57.3000
  0
LINE
  8
0_00
  6
CONTINUOUS
 62
4
 10
603.3607
 20
50.8000
 11
603.3607
 21
58.8000
  0
LINE
  8
0_00
  6
CONTINUOUS
 62
4
 10
594.3607
 20
57.3000
 11
603.3607
 21
58.8000
  0
LINE
  8
0_00
  6
CONTINUOUS
 62
4
 10
594.3607
 20
52.3000
 11
603.3607
 21
50.8000
  0
LINE
  8
0_00
  6
CENTER1
 62
3
 10
581.3607
 20
54.8000
 11
604.9037
 21
54.8000
  0
LINE
  8
0_00
  6
CONTINUOUS
 62
3
 10
794.3407
 20
24.8000
 11
794.3407
 21
44.8000
  0
LINE
  8
0_00
  6
CONTINUOUS
 62
3
 10
26.4603
 20
14.8000
 11
822.3407
 21
14.8000
  0
LINE
  8
0_00
  6
CONTINUOUS
 62
3
 10
788.3407
 20
576.8000
 11
788.3407
 21
567.8000
  0
LINE
  8
0_00
  6
CONTINUOUS
 62
3
 10
0.0000
 20
295.8000
 11
26.4603
 21
295.8000
  0
LINE
  8
0_00
  6
CONTINUOUS
 62
3
 10
417.4407
 20
14.8000
 11
417.4407
 21
0.0000
  0
LINE
  8
0_00
  6
CONTINUOUS
 62
3
 10
417.4407
 20
576.8000
 11
417.4407
 21
594.0000
  0
LINE
  8
0_00
  6
CONTINUOUS
 62
3
 10
822.3407
 20
295.8000
 11
840.0000
 21
295.8000
  0
LINE
  8
0_00
  6
CONTINUOUS
 62
6
 10
551.8269
 20
371.1252
 11
565.5242
 21
357.4280
  0
LINE
  8
0_00
  6
CONTINUOUS
 62
6
 10
551.8269
 20
371.1252
 11
554.5501
 21
366.9319
  0
LINE
  8
0_00
  6
CONTINUOUS
 62
6
 10
551.8269
 20
371.1252
 11
556.0203
 21
368.4021
  0
LINE
  8
0_00
  6
CONTINUOUS
 62
6
 10
565.5242
 20
357.4280
 11
612.7242
 21
357.4280
  0
ARC
  8
0_00
  6
CONTINUOUS
 62
4
 10
125.3771
 20
449.7556
 40
2.0000
 50
0.4000
 51
46.6979
  0
ARC
  8
0_00
  6
CONTINUOUS
 62
4
 10
129.1492
 20
453.7583
 40
3.5000
 50
180.4000
 51
226.6979
  0
ARC
  8
0_00
  6
CONTINUOUS
 62
4
 10
129.1492
 20
453.7583
 40
3.5000
 50
41.8470
 51
104.5490
  0
ARC
  8
0_00
  6
CONTINUOUS
 62
4
 10
128.0188
 20
458.1140
 40
1.0000
 50
180.4000
 51
284.5490
  0
ARC
  8
0_00
  6
CONTINUOUS
 62
4
 10
130.7881
 20
455.2260
 40
1.3000
 50
330.4000
 51
401.8470
  0
ARC
  8
0_00
  6
CONTINUOUS
 62
4
 10
129.1492
 20
453.7583
 40
1.7500
 50
10.5841
 51
35.0231
  0
ARC
  8
0_00
  6
CONTINUOUS
 62
4
 10
129.1492
 20
453.7583
 40
1.7500
 50
175.7769
 51
215.0231
  0
ARC
  8
0_00
  6
CONTINUOUS
 62
4
 10
129.1492
 20
453.7583
 40
1.7500
 50
85.7769
 51
125.0231
  0
ARC
  8
0_00
  6
CONTINUOUS
 62
4
 10
131.2390
 20
454.1487
 40
0.3759
 50
190.5841
 51
330.4000
  0
ARC
  8
0_00
  6
CONTINUOUS
 62
4
 10
128.7277
 20
451.5990
 40
1.3000
 50
267.6053
 51
330.4000
  0
ARC
  8
0_00
  6
CONTINUOUS
 62
4
 10
129.1492
 20
453.7583
 40
1.7500
 50
265.7769
 51
290.2159
  0
ARC
  8
0_00
  6
CONTINUOUS
 62
4
 10
129.8839
 20
451.7633
 40
0.3759
 50
330.4000
 51
470.2159
  0
ARC
  8
0_00
  6
CONTINUOUS
 62
4
 10
145.7334
 20
482.7561
 40
10.5000
 50
90.0000
 51
98.7462
  0
ARC
  8
0_00
  6
CONTINUOUS
 62
4
 10
131.4304
 20
485.1086
 40
6.0000
 50
98.7462
 51
180.4000
  0
ARC
  8
0_00
  6
CONTINUOUS
 62
4
 10
315.1274
 20
482.7561
 40
10.5000
 50
81.2538
 51
90.0000
  0
ARC
  8
0_00
  6
CONTINUOUS
 62
4
 10
128.9470
 20
439.7565
 40
1.5000
 50
180.4000
 51
270.4000
  0
ARC
  8
0_00
  6
CONTINUOUS
 62
4
 10
335.4838
 20
449.7556
 40
2.0000
 50
133.3021
 51
179.6000
  0
ARC
  8
0_00
  6
CONTINUOUS
 62
4
 10
331.7116
 20
453.7583
 40
3.5000
 50
313.3021
 51
359.6000
  0
ARC
  8
0_00
  6
CONTINUOUS
 62
4
 10
329.4304
 20
485.1086
 40
6.0000
 50
359.6000
 51
441.2538
  0
ARC
  8
0_00
  6
CONTINUOUS
 62
4
 10
129.8851
 20
438.9130
 40
0.6500
 50
270.4000
 51
450.4000
  0
ARC
  8
0_00
  6
CONTINUOUS
 62
4
 10
331.9139
 20
439.7565
 40
1.5000
 50
269.6000
 51
359.6000
  0
ARC
  8
0_00
  6
CONTINUOUS
 62
4
 10
330.9757
 20
438.9130
 40
0.6500
 50
89.6000
 51
269.6000
  0
ARC
  8
0_00
  6
CONTINUOUS
 62
4
 10
127.9620
 20
466.2503
 40
1.0000
 50
180.4000
 51
270.4000
  0
ARC
  8
0_00
  6
CONTINUOUS
 62
4
 10
127.9857
 20
462.8503
 40
1.0000
 50
90.4000
 51
180.4000
  0
ARC
  8
0_00
  6
CONTINUOUS
 62
4
 10
129.2738
 20
464.5594
 40
0.7000
 50
270.4000
 51
450.4000
  0
ARC
  8
0_00
  6
CONTINUOUS
 62
4
 10
331.7116
 20
453.7583
 40
3.5000
 50
75.4510
 51
138.1530
  0
ARC
  8
0_00
  6
CONTINUOUS
 62
4
 10
332.8420
 20
458.1140
 40
1.0000
 50
255.4510
 51
359.6000
  0
ARC
  8
0_00
  6
CONTINUOUS
 62
4
 10
330.0728
 20
455.2260
 40
1.3000
 50
138.1530
 51
209.6000
  0
ARC
  8
0_00
  6
CONTINUOUS
 62
4
 10
331.7116
 20
453.7583
 40
1.7500
 50
144.9769
 51
169.4159
  0
ARC
  8
0_00
  6
CONTINUOUS
 62
4
 10
331.7116
 20
453.7583
 40
1.7500
 50
324.9769
 51
364.2231
  0
ARC
  8
0_00
  6
CONTINUOUS
 62
4
 10
331.7116
 20
453.7583
 40
1.7500
 50
54.9769
 51
94.2231
  0
ARC
  8
0_00
  6
CONTINUOUS
 62
4
 10
329.6219
 20
454.1487
 40
0.3759
 50
209.6000
 51
349.4159
  0
ARC
  8
0_00
  6
CONTINUOUS
 62
4
 10
332.1332
 20
451.5990
 40
1.3000
 50
209.6000
 51
272.3947
  0
ARC
  8
0_00
  6
CONTINUOUS
 62
4
 10
331.7116
 20
453.7583
 40
1.7500
 50
249.7841
 51
274.2231
  0
ARC
  8
0_00
  6
CONTINUOUS
 62
4
 10
330.9770
 20
451.7633
 40
0.3759
 50
69.7841
 51
209.6000
  0
ARC
  8
0_00
  6
CONTINUOUS
 62
4
 10
332.8989
 20
466.2503
 40
1.0000
 50
269.6000
 51
359.6000
  0
ARC
  8
0_00
  6
CONTINUOUS
 62
4
 10
332.8751
 20
462.8503
 40
1.0000
 50
359.6000
 51
449.6000
  0
ARC
  8
0_00
  6
CONTINUOUS
 62
4
 10
331.5870
 20
464.5594
 40
0.7000
 50
89.6000
 51
269.6000
  0
ARC
  8
0_00
  6
CONTINUOUS
 62
4
 10
145.7334
 20
482.7561
 40
8.8000
 50
90.0000
 51
98.7462
  0
ARC
  8
0_00
  6
CONTINUOUS
 62
4
 10
131.1307
 20
485.0625
 40
4.3000
 50
98.7462
 51
180.4000
  0
ARC
  8
0_00
  6
CONTINUOUS
 62
4
 10
329.7301
 20
485.0625
 40
4.3000
 50
359.6000
 51
441.2538
  0
ARC
  8
0_00
  6
CONTINUOUS
 62
4
 10
315.1274
 20
482.7561
 40
8.8000
 50
81.2538
 51
90.0000
  0
ARC
  8
0_00
  6
CONTINUOUS
 62
2
 10
324.7161
 20
452.7561
 40
9.7857
 50
129.9662
 51
230.0338
  0
ARC
  8
0_00
  6
CONTINUOUS
 62
2
 10
136.1447
 20
452.7561
 40
9.7857
 50
309.9662
 51
410.0338
  0
ARC
  8
0_00
  6
CONTINUOUS
 62
7
 10
494.2110
 20
489.1350
 40
0.2000
 50
45.0000
 51
88.1519
  0
ARC
  8
0_00
  6
CONTINUOUS
 62
7
 10
553.0728
 20
411.0399
 40
0.2000
 50
225.0000
 51
358.0245
  0
ARC
  8
0_00
  6
CONTINUOUS
 62
7
 10
484.5943
 20
479.5184
 40
0.2000
 50
181.8481
 51
225.0000
  0
ARC
  8
0_00
  6
CONTINUOUS
 62
7
 10
562.6895
 20
420.6565
 40
0.2000
 50
271.9755
 51
405.0000
  0
ARC
  8
0_00
  6
CONTINUOUS
 62
4
 10
149.6209
 20
194.6641
 40
1.9993
 50
48.2002
 51
132.9665
  0
ARC
  8
0_00
  6
CONTINUOUS
 62
4
 10
148.2284
 20
195.9413
 40
0.1469
 50
110.9797
 51
250.1869
  0
ARC
  8
0_00
  6
CONTINUOUS
 62
4
 10
149.5700
 20
199.6650
 40
4.1049
 50
250.1869
 51
290.9797
  0
ARC
  8
0_00
  6
CONTINUOUS
 62
4
 10
150.9871
 20
195.9694
 40
0.1469
 50
290.9797
 51
430.1869
  0
ARC
  8
0_00
  6
CONTINUOUS
 62
4
 10
149.6455
 20
192.2457
 40
4.1049
 50
70.1869
 51
71.9683
  0
ARC
  8
0_00
  6
CONTINUOUS
 62
4
 10
149.6455
 20
192.2457
 40
4.1049
 50
109.1984
 51
110.9797
  0
ARC
  8
0_00
  6
CONTINUOUS
 62
4
 10
374.1968
 20
134.4891
 40
1.9993
 50
48.2002
 51
132.9665
  0
ARC
  8
0_00
  6
CONTINUOUS
 62
4
 10
372.8043
 20
135.7664
 40
0.1469
 50
110.9797
 51
250.1869
  0
ARC
  8
0_00
  6
CONTINUOUS
 62
4
 10
374.1459
 20
139.4901
 40
4.1049
 50
250.1869
 51
290.9797
  0
ARC
  8
0_00
  6
CONTINUOUS
 62
4
 10
375.5630
 20
135.7945
 40
0.1469
 50
290.9797
 51
430.1869
  0
ARC
  8
0_00
  6
CONTINUOUS
 62
4
 10
374.2214
 20
132.0708
 40
4.1049
 50
70.1869
 51
71.9683
  0
ARC
  8
0_00
  6
CONTINUOUS
 62
4
 10
374.2214
 20
132.0708
 40
4.1049
 50
109.1984
 51
110.9797
  0
ARC
  8
0_00
  6
DASHED
 62
6
 10
538.8269
 20
452.1024
 40
1.2000
 50
180.0000
 51
360.0000
  0
ARC
  8
0_00
  6
DASHED
 62
6
 10
538.8269
 20
457.7025
 40
1.2000
 50
0.0000
 51
180.0000
  0
CIRCLE
  8
0_00
  6
DASHED
 62
6
 10
530.0269
 20
454.9024
 40
1.2000
  0
ARC
  8
0_00
  6
DASHED
 62
6
 10
547.5269
 20
443.7025
 40
1.3000
 50
270.0000
 51
450.0000
  0
ARC
  8
0_00
  6
DASHED
 62
6
 10
544.1269
 20
443.7025
 40
1.3000
 50
90.0000
 51
270.0000
  0
ARC
  8
0_00
  6
DASHED
 62
6
 10
530.1269
 20
443.7025
 40
1.3000
 50
90.0000
 51
270.0000
  0
ARC
  8
0_00
  6
DASHED
 62
6
 10
533.5269
 20
443.7025
 40
1.3000
 50
270.0000
 51
450.0000
  0
ARC
  8
0_00
  6
DASHED
 62
6
 10
530.1269
 20
466.1024
 40
1.3000
 50
90.0000
 51
270.0000
  0
ARC
  8
0_00
  6
DASHED
 62
6
 10
533.5269
 20
466.1024
 40
1.3000
 50
270.0000
 51
450.0000
  0
ARC
  8
0_00
  6
CONTINUOUS
 62
4
 10
638.8269
 20
452.1024
 40
1.2000
 50
180.0000
 51
360.0000
  0
ARC
  8
0_00
  6
CONTINUOUS
 62
4
 10
638.8269
 20
457.7025
 40
1.2000
 50
0.0000
 51
180.0000
  0
CIRCLE
  8
0_00
  6
CONTINUOUS
 62
4
 10
647.6269
 20
454.9024
 40
1.2000
  0
CIRCLE
  8
0_00
  6
CONTINUOUS
 62
4
 10
630.0269
 20
454.9024
 40
1.2000
  0
ARC
  8
0_00
  6
CONTINUOUS
 62
4
 10
647.5269
 20
443.7025
 40
1.3000
 50
270.0000
 51
450.0000
  0
ARC
  8
0_00
  6
CONTINUOUS
 62
4
 10
644.1269
 20
443.7025
 40
1.3000
 50
90.0000
 51
270.0000
  0
ARC
  8
0_00
  6
CONTINUOUS
 62
4
 10
647.5269
 20
466.1024
 40
1.3000
 50
270.0000
 51
450.0000
  0
ARC
  8
0_00
  6
CONTINUOUS
 62
4
 10
644.1269
 20
466.1024
 40
1.3000
 50
90.0000
 51
270.0000
  0
ARC
  8
0_00
  6
CONTINUOUS
 62
4
 10
630.1269
 20
443.7025
 40
1.3000
 50
90.0000
 51
270.0000
  0
ARC
  8
0_00
  6
CONTINUOUS
 62
4
 10
633.5269
 20
443.7025
 40
1.3000
 50
270.0000
 51
450.0000
  0
ARC
  8
0_00
  6
CONTINUOUS
 62
4
 10
630.1269
 20
466.1024
 40
1.3000
 50
90.0000
 51
270.0000
  0
ARC
  8
0_00
  6
CONTINUOUS
 62
4
 10
633.5269
 20
466.1024
 40
1.3000
 50
270.0000
 51
450.0000
  0
ARC
  8
0_00
  6
DASHED
 62
6
 10
544.1269
 20
466.1024
 40
1.3000
 50
90.0000
 51
270.0000
  0
ARC
  8
0_00
  6
CONTINUOUS
 62
4
 10
547.5269
 20
466.1024
 40
1.3000
 50
286.3173
 51
450.0000
  0
ARC
  8
0_00
  6
DASHED
 62
6
 10
547.5269
 20
466.1024
 40
1.3000
 50
270.0000
 51
286.3173
  0
ARC
  8
0_00
  6
CONTINUOUS
 62
4
 10
764.8269
 20
452.1024
 40
1.2000
 50
180.0000
 51
360.0000
  0
ARC
  8
0_00
  6
CONTINUOUS
 62
4
 10
764.8269
 20
457.7025
 40
1.2000
 50
0.0000
 51
180.0000
  0
CIRCLE
  8
0_00
  6
CONTINUOUS
 62
4
 10
773.6269
 20
454.9024
 40
1.2000
  0
CIRCLE
  8
0_00
  6
CONTINUOUS
 62
4
 10
756.0269
 20
454.9024
 40
1.2000
  0
ARC
  8
0_00
  6
CONTINUOUS
 62
4
 10
773.5269
 20
443.7025
 40
1.3000
 50
270.0000
 51
450.0000
  0
ARC
  8
0_00
  6
CONTINUOUS
 62
4
 10
770.1269
 20
443.7025
 40
1.3000
 50
90.0000
 51
270.0000
  0
ARC
  8
0_00
  6
CONTINUOUS
 62
4
 10
773.5269
 20
466.1024
 40
1.3000
 50
270.0000
 51
450.0000
  0
ARC
  8
0_00
  6
CONTINUOUS
 62
4
 10
770.1269
 20
466.1024
 40
1.3000
 50
90.0000
 51
270.0000
  0
ARC
  8
0_00
  6
CONTINUOUS
 62
4
 10
756.1269
 20
443.7025
 40
1.3000
 50
90.0000
 51
270.0000
  0
ARC
  8
0_00
  6
CONTINUOUS
 62
4
 10
759.5269
 20
443.7025
 40
1.3000
 50
270.0000
 51
450.0000
  0
ARC
  8
0_00
  6
CONTINUOUS
 62
4
 10
756.1269
 20
466.1024
 40
1.3000
 50
90.0000
 51
270.0000
  0
ARC
  8
0_00
  6
CONTINUOUS
 62
4
 10
759.5269
 20
466.1024
 40
1.3000
 50
270.0000
 51
450.0000
  0
ARC
  8
12_0C
  6
CONTINUOUS
 62
2
 10
230.4304
 20
477.1561
 40
7.7000
 50
39.9831
 51
140.0169
  0
ARC
  8
5_05
  6
CONTINUOUS
 62
4
 10
185.6304
 20
488.9561
 40
0.5000
 50
0.0000
 51
90.0000
  0
ARC
  8
5_05
  6
CONTINUOUS
 62
4
 10
185.6304
 20
480.2561
 40
2.0000
 50
180.0000
 51
270.0000
  0
ARC
  8
5_05
  6
CONTINUOUS
 62
4
 10
182.6304
 20
485.7561
 40
1.0000
 50
0.0000
 51
90.0000
  0
ARC
  8
5_05
  6
CONTINUOUS
 62
4
 10
189.1304
 20
487.7561
 40
0.3000
 50
0.0000
 51
90.0000
  0
ARC
  8
5_05
  6
CONTINUOUS
 62
4
 10
189.1304
 20
485.8561
 40
0.3000
 50
270.0000
 51
360.0000
  0
ARC
  8
5_05
  6
CONTINUOUS
 62
4
 10
275.2304
 20
488.9561
 40
0.5000
 50
90.0000
 51
180.0000
  0
ARC
  8
5_05
  6
CONTINUOUS
 62
4
 10
293.2304
 20
488.9561
 40
0.5000
 50
0.0000
 51
90.0000
  0
ARC
  8
5_05
  6
CONTINUOUS
 62
4
 10
275.2304
 20
480.2561
 40
2.0000
 50
270.0000
 51
360.0000
  0
ARC
  8
5_05
  6
CONTINUOUS
 62
4
 10
278.2304
 20
485.7561
 40
1.0000
 50
90.0000
 51
180.0000
  0
ARC
  8
5_05
  6
CONTINUOUS
 62
4
 10
290.2304
 20
485.7561
 40
1.0000
 50
0.0000
 51
90.0000
  0
ARC
  8
5_05
  6
CONTINUOUS
 62
4
 10
291.7304
 20
485.1562
 40
0.5000
 50
180.0000
 51
270.0000
  0
ARC
  8
5_05
  6
CONTINUOUS
 62
4
 10
271.7304
 20
487.7561
 40
0.3000
 50
90.0000
 51
180.0000
  0
ARC
  8
5_05
  6
CONTINUOUS
 62
4
 10
271.7304
 20
485.8561
 40
0.3000
 50
180.0000
 51
270.0000
  0
ARC
  8
5_05
  6
CONTINUOUS
 62
4
 10
332.9304
 20
466.3562
 40
1.0000
 50
270.0000
 51
374.0510
  0
ARC
  8
5_05
  6
CONTINUOUS
 62
4
 10
326.0772
 20
483.6561
 40
1.0000
 50
16.4703
 51
90.0000
  0
ARC
  8
5_05
  6
CONTINUOUS
 62
4
 10
325.8984
 20
483.6561
 40
3.5000
 50
14.0510
 51
90.0000
  0
ARC
  8
5_05
  6
CONTINUOUS
 62
4
 10
167.6304
 20
488.9561
 40
0.5000
 50
90.0000
 51
180.0000
  0
ARC
  8
5_05
  6
CONTINUOUS
 62
4
 10
170.6304
 20
485.7561
 40
1.0000
 50
90.0000
 51
180.0000
  0
ARC
  8
5_05
  6
CONTINUOUS
 62
4
 10
169.1304
 20
485.1562
 40
0.5000
 50
270.0000
 51
360.0000
  0
ARC
  8
5_05
  6
CONTINUOUS
 62
4
 10
127.9304
 20
466.3562
 40
1.0000
 50
165.9490
 51
270.0000
  0
ARC
  8
5_05
  6
CONTINUOUS
 62
4
 10
134.7836
 20
483.6561
 40
1.0000
 50
90.0000
 51
163.5297
  0
ARC
  8
5_05
  6
CONTINUOUS
 62
4
 10
134.9624
 20
483.6561
 40
3.5000
 50
90.0000
 51
165.9490
  0
ARC
  8
0_00
  6
CONTINUOUS
 62
2
 10
638.8269
 20
454.9024
 40
0.9800
 50
315.0000
 51
328.5444
  0
ARC
  8
0_00
  6
CONTINUOUS
 62
2
 10
638.8269
 20
454.9024
 40
0.9800
 50
31.3667
 51
45.0000
  0
ARC
  8
0_00
  6
CONTINUOUS
 62
2
 10
638.8269
 20
454.9024
 40
0.9800
 50
121.4556
 51
135.0000
  0
ARC
  8
0_00
  6
CONTINUOUS
 62
2
 10
638.8269
 20
454.9024
 40
0.9800
 50
45.0000
 51
58.6333
  0
ARC
  8
0_00
  6
CONTINUOUS
 62
2
 10
638.8269
 20
454.9024
 40
0.9800
 50
301.4556
 51
315.0000
  0
ARC
  8
0_00
  6
CONTINUOUS
 62
2
 10
638.8269
 20
454.9024
 40
0.9800
 50
225.0000
 51
238.6333
  0
ARC
  8
0_00
  6
CONTINUOUS
 62
2
 10
638.8269
 20
454.9024
 40
0.9800
 50
135.0000
 51
148.5444
  0
ARC
  8
0_00
  6
CONTINUOUS
 62
2
 10
638.8269
 20
454.9024
 40
0.9800
 50
211.3667
 51
225.0000
  0
CIRCLE
  8
0_00
  6
CONTINUOUS
 62
2
 10
638.8269
 20
454.9024
 40
2.3600
  0
ARC
  8
0_00
  6
CONTINUOUS
 62
2
 10
764.8269
 20
454.9024
 40
0.9800
 50
315.0000
 51
328.5444
  0
ARC
  8
0_00
  6
CONTINUOUS
 62
2
 10
764.8269
 20
454.9024
 40
0.9800
 50
31.3667
 51
45.0000
  0
ARC
  8
0_00
  6
CONTINUOUS
 62
2
 10
764.8269
 20
454.9024
 40
0.9800
 50
121.4556
 51
135.0000
  0
ARC
  8
0_00
  6
CONTINUOUS
 62
2
 10
764.8269
 20
454.9024
 40
0.9800
 50
45.0000
 51
58.6333
  0
ARC
  8
0_00
  6
CONTINUOUS
 62
2
 10
764.8269
 20
454.9024
 40
0.9800
 50
301.4556
 51
315.0000
  0
ARC
  8
0_00
  6
CONTINUOUS
 62
2
 10
764.8269
 20
454.9024
 40
0.9800
 50
225.0000
 51
238.6333
  0
ARC
  8
0_00
  6
CONTINUOUS
 62
2
 10
764.8269
 20
454.9024
 40
0.9800
 50
135.0000
 51
148.5444
  0
ARC
  8
0_00
  6
CONTINUOUS
 62
2
 10
764.8269
 20
454.9024
 40
0.9800
 50
211.3667
 51
225.0000
  0
CIRCLE
  8
0_00
  6
CONTINUOUS
 62
2
 10
764.8269
 20
454.9024
 40
2.3600
  0
ARC
  8
0_00
  6
CONTINUOUS
 62
3
 10
726.4507
 20
48.1575
 40
0.3575
 50
270.0000
 51
450.0000
  0
ARC
  8
0_00
  6
CONTINUOUS
 62
3
 10
725.4562
 20
51.3750
 40
0.4355
 50
0.0000
 51
180.0000
  0
ARC
  8
0_00
  6
CONTINUOUS
 62
3
 10
726.1257
 20
55.6000
 40
1.3000
 50
333.9999
 51
450.0000
  0
CIRCLE
  8
0_00
  6
CONTINUOUS
 62
3
 10
726.7107
 20
58.2000
 40
1.0400
  0
ARC
  8
0_00
  6
CONTINUOUS
 62
3
 10
725.5208
 20
51.3750
 40
0.3000
 50
0.0000
 51
180.0000
  0
ARC
  8
0_00
  6
CONTINUOUS
 62
3
 10
725.5208
 20
51.3750
 40
0.1000
 50
0.0000
 51
180.0000
  0
ARC
  8
0_00
  6
CONTINUOUS
 62
3
 10
726.4507
 20
48.1150
 40
0.2000
 50
270.0000
 51
450.0000
  0
CIRCLE
  8
0_00
  6
CONTINUOUS
 62
3
 10
726.7107
 20
58.2000
 40
0.8830
  0
CIRCLE
  8
0_00
  6
CONTINUOUS
 62
3
 10
726.7107
 20
58.2000
 40
0.6837
  0
CIRCLE
  8
0_00
  6
CONTINUOUS
 62
3
 10
726.7107
 20
58.2000
 40
0.4684
  0
CIRCLE
  8
0_00
  6
CONTINUOUS
 62
3
 10
726.7107
 20
58.2000
 40
0.2293
  0
CIRCLE
  8
0_00
  6
CONTINUOUS
 62
3
 10
726.7107
 20
58.2000
 40
0.1133
  0
CIRCLE
  8
0_00
  6
CONTINUOUS
 62
4
 10
587.3607
 20
54.8000
 40
2.5000
  0
CIRCLE
  8
0_00
  6
CONTINUOUS
 62
4
 10
587.3607
 20
54.8000
 40
4.0000
  0
TEXT
  8
15_0F
 62
7
 10
549.4407
 20
46.8000
 40
5.00
 41
1.00
 50
0.0000
  1
１
  0
TEXT
  8
15_0F
 62
7
 10
568.4407
 20
46.8000
 40
5.00
 41
1.00
 50
0.0000
  1
２
  0
TEXT
  8
15_0F
 62
7
 10
469.5407
 20
49.8000
 40
5.00
 41
1.00
 50
0.0000
  1
納まり図
  0
TEXT
  8
15_0F
 62
7
 10
341.1407
 20
27.8000
 40
5.00
 41
1.00
 50
0.0000
  1
木造
  0
TEXT
  8
15_0F
 62
7
 10
341.1407
 20
47.8000
 40
5.00
 41
1.00
 50
0.0000
  1
低層
  0
TEXT
  8
15_0F
 62
7
 10
386.4407
 20
47.8000
 40
5.00
 41
1.00
 50
0.0000
  1
アルミ笠木
  0
TEXT
  8
15_0F
 62
7
 10
387.9073
 20
27.8000
 40
5.00
 41
1.00
 50
0.0000
  1
ＡＭ型
  0
TEXT
  8
15_0F
 62
7
 10
440.7407
 20
27.8000
 40
5.00
 41
1.00
 50
0.0000
  1
コーナー部、ジョイント部納まり図
  0
TEXT
  8
15_0F
 62
7
 10
106.8304
 20
346.2963
 40
5.00
 41
1.00
 50
0.0000
  1
１０
  0
TEXT
  8
15_0F
 62
7
 10
199.2304
 20
346.2963
 40
5.00
 41
1.00
 50
0.0000
  1
躯体寸法（推奨寸法１８０）
  0
TEXT
  8
15_0F
 62
7
 10
344.4304
 20
346.2963
 40
5.00
 41
1.00
 50
0.0000
  1
１０
  0
TEXT
  8
0_00
 62
7
 10
356.3018
 20
500.5407
 40
5.00
 41
1.00
 50
0.0000
  1
ブラケット２１０
  0
TEXT
  8
0_00
 62
7
 10
304.8578
 20
512.1835
 40
5.00
 41
1.00
 50
0.0000
  1
笠木２１０
  0
TEXT
  8
15_0F
 62
7
 10
204.2804
 20
338.2963
 40
5.00
 41
1.00
 50
0.0000
  1
（最大躯体寸法１９０）
  0
TEXT
  8
15_0F
 62
7
 10
312.0071
 20
346.7317
 40
5.00
 41
1.00
 50
0.0000
  1
ｎ
  0
TEXT
  8
15_0F
 62
7
 10
144.7470
 20
347.1485
 40
5.00
 41
1.00
 50
0.0000
  1
ｎ
  0
TEXT
  8
0_00
 62
7
 10
85.5533
 20
415.1643
 40
5.00
 41
1.00
 50
0.0000
  1
タッピンねじ・トラス
  0
TEXT
  8
0_00
 62
7
 10
97.5533
 20
407.1643
 40
5.00
 41
1.00
 50
0.0000
  1
φ５×５０
  0
TEXT
  8
15_0F
 62
7
 10
223.2304
 20
542.2963
 40
4.50
 41
0.75
 50
0.0000
  1
210
  0
TEXT
  8
15_0F
 62
7
 10
73.6805
 20
460.9563
 40
4.50
 41
0.75
 50
90.0000
  1
55
  0
TEXT
  8
15_0F
 62
7
 10
87.6805
 20
502.2561
 40
4.50
 41
0.75
 50
90.0000
  1
15
  0
TEXT
  8
0_00
 62
7
 10
85.9568
 20
396.2858
 40
5.00
 41
1.00
 50
0.0000
  1
下穴（φ３）現場加工
  0
TEXT
  8
0_00
 62
7
 10
88.7567
 20
388.2858
 40
5.00
 41
1.00
 50
0.0000
  1
下穴コーキング処理
  0
TEXT
  8
0_00
 62
2
 10
96.2468
 20
164.2385
 40
6.00
 41
1.00
 50
-10.0000
  1
６０
  0
TEXT
  8
0_00
 62
2
 10
87.2262
 20
185.4736
 40
6.00
 41
1.00
 50
-10.0000
  1
９８
  0
TEXT
  8
0_00
 62
2
 10
197.9033
 20
281.6828
 40
6.00
 41
1.00
 50
-17.0000
  1
笠木隙間（１０）
  0
TEXT
  8
0_00
 62
2
 10
63.1261
 20
238.9057
 40
5.40
 41
0.75
 50
-10.0001
  1
35
  0
TEXT
  8
0_00
 62
2
 10
68.3043
 20
290.3919
 40
6.00
 41
1.00
 50
0.0000
  1
ジョイントカバー
  0
TEXT
  8
0_00
 62
2
 10
224.7496
 20
252.6265
 40
6.00
 41
1.00
 50
0.0000
  1
笠木
  0
TEXT
  8
0_00
 62
2
 10
83.6970
 20
226.6228
 40
6.00
 41
1.00
 50
0.0000
  1
ジョイント
  0
TEXT
  8
0_00
 62
2
 10
118.0186
 20
143.5144
 40
6.00
 41
1.00
 50
-15.0000
  1
１１０≦ＬＢ（ブラケットピッチ）≦１３６５
  0
TEXT
  8
0_00
 62
2
 10
147.4301
 20
156.9422
 40
6.00
 41
1.00
 50
0.0000
  1
ジョイントブラケット
  0
TEXT
  8
0_00
 62
2
 10
380.1536
 20
103.5681
 40
6.00
 41
1.00
 50
0.0000
  1
ブラケット
  0
TEXT
  8
0_00
 62
7
 10
560.0658
 20
503.3572
 40
5.00
 41
1.00
 50
0.0000
  1
コーナーブラケット
  0
TEXT
  8
0_00
 62
7
 10
660.0658
 20
503.3572
 40
5.00
 41
1.00
 50
0.0000
  1
ブラケット
  0
TEXT
  8
0_00
 62
7
 10
576.5829
 20
405.3355
 40
5.00
 41
1.00
 50
0.0000
  1
コーナージョイントカバー
  0
TEXT
  8
0_00
 62
7
 10
434.8446
 20
436.2545
 40
5.00
 41
1.00
 50
0.0000
  1
コーナージョイント
  0
TEXT
  8
15_0F
 62
7
 10
457.5407
 20
35.8000
 40
5.00
 41
1.00
 50
0.0000
  1
笠木２１０納まり図
  0
TEXT
  8
0_00
 62
7
 10
562.3163
 20
494.0871
 40
5.00
 41
1.00
 50
0.0000
  1
片側、現場切断品
  0
TEXT
  8
0_00
 62
7
 10
562.0269
 20
543.2963
 40
5.00
 41
1.00
 50
0.0000
  1
２５０～３００
  0
TEXT
  8
0_00
 62
7
 10
651.4269
 20
543.2963
 40
5.00
 41
1.00
 50
0.0000
  1
１１０≦ＬＢ（ブラケットピッチ）≦１３６５
  0
TEXT
  8
0_00
 62
7
 10
544.8269
 20
529.2963
 40
5.00
 41
1.00
 50
0.0000
  1
（５０～１００）
  0
TEXT
  8
0_00
 62
7
 10
477.1439
 20
507.0706
 40
5.00
 41
1.00
 50
45.0000
  1
笠木隙間（１０）
  0
TEXT
  8
0_00
 62
7
 10
730.9593
 20
351.2390
 40
5.00
 41
1.00
 50
0.0000
  1
１：５
  0
TEXT
  8
0_00
 62
7
 10
656.8269
 20
529.2963
 40
4.50
 41
0.75
 50
0.0000
  1
60
  0
TEXT
  8
0_00
 62
7
 10
458.6077
 20
508.3334
 40
4.50
 41
0.75
 50
45.0000
  1
35
  0
TEXT
  8
0_00
 62
7
 10
46.8603
 20
26.8000
 40
5.00
 41
1.00
 50
0.0000
  1
適用製品
  0
TEXT
  8
0_00
 62
7
 10
86.8603
 20
26.8000
 40
5.00
 41
1.00
 50
0.0000
  1
適用日付
  0
TEXT
  8
0_00
 62
7
 10
119.0603
 20
66.8000
 40
5.00
 41
1.00
 50
0.0000
  1
記事
  0
TEXT
  8
0_00
 62
7
 10
315.0407
 20
56.8000
 40
5.00
 41
1.00
 50
0.0000
  1
階層仕様
  0
TEXT
  8
0_00
 62
7
 10
315.0407
 20
36.8000
 40
5.00
 41
1.00
 50
0.0000
  1
適用躯体
  0
TEXT
  8
0_00
 62
7
 10
420.0407
 20
56.8000
 40
5.00
 41
1.00
 50
0.0000
  1
名　称
  0
TEXT
  8
0_00
 62
7
 10
420.0407
 20
36.8000
 40
5.00
 41
1.00
 50
0.0000
  1
図　名
  0
TEXT
  8
0_00
 62
7
 10
543.2912
 20
66.8305
 40
5.00
 41
1.00
 50
0.0000
  1
Ｎｏ．
  0
TEXT
  8
0_00
 62
7
 10
749.0407
 20
66.8000
 40
5.00
 41
1.00
 50
0.0000
  1
適　　　　　　　　用
  0
TEXT
  8
0_00
 62
7
 10
718.9407
 20
66.8000
 40
5.00
 41
1.00
 50
0.0000
  1
個数
  0
TEXT
  8
0_00
 62
7
 10
682.1407
 20
66.8000
 40
5.00
 41
1.00
 50
0.0000
  1
材　　質
  0
TEXT
  8
0_00
 62
7
 10
617.4407
 20
66.8000
 40
5.00
 41
1.00
 50
0.0000
  1
部　　　品　　　名
  0
TEXT
  8
0_00
 62
7
 10
597.2907
 20
66.8000
 40
5.00
 41
1.00
 50
0.0000
  1
品番
  0
TEXT
  8
0_00
 62
7
 10
567.2407
 20
66.8000
 40
5.00
 41
1.00
 50
0.0000
  1
図　　番
  0
TEXT
  8
0_00
 62
7
 10
544.4407
 20
56.8000
 40
5.00
 41
1.00
 50
0.0000
  1
尺度
  0
TEXT
  8
0_00
 62
7
 10
544.4407
 20
36.8000
 40
5.00
 41
1.00
 50
0.0000
  1
日付
  0
TEXT
  8
0_00
 62
7
 10
618.9294
 20
56.8000
 40
5.00
 41
1.00
 50
0.0000
  1
承認
  0
TEXT
  8
0_00
 62
7
 10
647.0406
 20
56.8000
 40
5.00
 41
1.00
 50
0.0000
  1
検図
  0
TEXT
  8
0_00
 62
7
 10
671.2407
 20
56.8000
 40
5.00
 41
1.00
 50
0.0000
  1
設計
  0
TEXT
  8
0_00
 62
7
 10
696.1407
 20
56.8000
 40
5.00
 41
1.00
 50
0.0000
  1
製図
  0
TEXT
  8
0_00
 62
7
 10
716.3407
 20
36.8000
 40
5.00
 41
1.00
 50
0.0000
  1
図番
  0
TEXT
  8
0_00
 62
2
 10
735.9479
 20
49.4900
 40
8.00
 41
1.00
 50
0.0000
  1
文化シヤッター株式会社
  0
TEXT
  8
0_00
 62
7
 10
133.8603
 20
575.3000
 40
5.00
 41
1.00
 50
180.0000
  1
図番
  0
TEXT
  8
0_00
 62
7
 10
532.7007
 20
569.3446
 40
4.00
 41
1.00
 50
0.0000
  1
ＮＯ
  0
TEXT
  8
0_00
 62
7
 10
550.1407
 20
569.3000
 40
5.00
 41
1.00
 50
0.0000
  1
個　数
  0
TEXT
  8
0_00
 62
7
 10
580.2407
 20
569.3000
 40
5.00
 41
1.00
 50
0.0000
  1
日　　付
  0
TEXT
  8
0_00
 62
7
 10
656.1407
 20
569.3000
 40
5.00
 41
1.00
 50
0.0000
  1
訂　　　正　　　記　　　事
  0
TEXT
  8
0_00
 62
7
 10
558.9407
 20
46.8000
 40
4.50
 41
0.75
 50
0.0000
  1
:
  0
TEXT
  8
0_00
 62
7
 10
758.5808
 20
17.8000
 40
4.00
 41
1.00
 50
0.0000
  1
ＪＩＳ　Ａ－３
  0
TEXT
  8
0_00
 62
7
 10
786.3323
 20
17.7988
 40
4.00
 41
1.00
 50
0.0000
  1
（２９７×４２０）
  0
TEXT
  8
0_00
 62
7
 10
768.7407
 20
569.3000
 40
5.00
 41
1.00
 50
0.0000
  1
担　当
  0
TEXT
  8
0_00
 62
7
 10
792.7407
 20
569.3000
 40
5.00
 41
1.00
 50
0.0000
  1
承　認
  0
TEXT
  8
0_00
 62
7
 10
367.5407
 20
56.8000
 40
5.00
 41
1.00
 50
0.0000
  1
機種名
  0
TEXT
  8
0_00
 62
7
 10
367.5407
 20
36.8000
 40
5.00
 41
1.00
 50
0.0000
  1
型　式
  0
TEXT
  8
0_00
 62
7
 10
567.5242
 20
358.4280
 40
5.00
 41
1.00
 50
0.0000
  1
９０度コーナー笠木
  0
POINT
  8
15_0F
 62
6
 10
135.4304
 20
345.2963
  0
POINT
  8
15_0F
 62
6
 10
325.4304
 20
345.2963
  0
POINT
  8
0_00
 62
6
 10
89.4755
 20
197.8651
  0
POINT
  8
0_00
 62
6
 10
106.0717
 20
193.4181
  0
POINT
  8
0_00
 62
6
 10
97.9579
 20
177.6822
  0
POINT
  8
0_00
 62
6
 10
111.1327
 20
174.1520
  0
POINT
  8
0_00
 62
6
 10
207.4573
 20
271.3601
  0
POINT
  8
0_00
 62
6
 10
213.2704
 20
269.8025
  0
POINT
  8
0_00
 62
6
 10
79.0589
 20
248.6823
  0
POINT
  8
0_00
 62
6
 10
71.3005
 20
250.7612
  0
POINT
  8
0_00
 62
6
 10
301.1855
 20
105.5744
  0
POINT
  8
0_00
 62
6
 10
76.6096
 20
165.7493
  0
POINT
  8
12_0C
 62
5
 10
230.4304
 20
481.7561
  0
POINT
  8
0_00
 62
2
 10
638.8269
 20
454.9024
  0
POINT
  8
0_00
 62
2
 10
764.8269
 20
454.9024
  0
POINT
  8
0_00
 62
2
 10
16.0603
 20
9.9994
  0
POINT
  8
0_00
 62
2
 10
16.0603
 20
9.9994
  0
POINT
  8
0_00
 62
2
 10
56.4603
 20
39.8000
  0
POINT
  8
0_00
 62
2
 10
56.4603
 20
49.8000
  0
POINT
  8
0_00
 62
2
 10
56.4603
 20
59.8000
  0
POINT
  8
0_00
 62
2
 10
56.4603
 20
69.8000
  0
POINT
  8
0_00
 62
2
 10
345.9407
 20
50.8000
  0
POINT
  8
0_00
 62
2
 10
345.9407
 20
30.8000
  0
POINT
  8
0_00
 62
2
 10
479.1407
 20
52.8000
  0
POINT
  8
0_00
 62
2
 10
479.1407
 20
32.8000
  0
POINT
  8
0_00
 62
2
 10
731.8407
 20
34.8000
  0
POINT
  8
0_00
 62
2
 10
676.0406
 20
39.8000
  0
POINT
  8
0_00
 62
2
 10
96.4603
 20
39.8000
  0
POINT
  8
0_00
 62
2
 10
96.4603
 20
49.8000
  0
POINT
  8
0_00
 62
2
 10
96.4603
 20
59.8000
  0
POINT
  8
0_00
 62
2
 10
96.4603
 20
69.8000
  0
POINT
  8
0_00
 62
2
 10
570.8407
 20
49.8000
  0
POINT
  8
0_00
 62
2
 10
551.8407
 20
49.8000
  0
POINT
  8
0_00
 62
2
 10
136.4603
 20
69.8000
  0
POINT
  8
0_00
 62
2
 10
136.4603
 20
59.8000
  0
POINT
  8
0_00
 62
2
 10
136.4603
 20
49.8000
  0
POINT
  8
0_00
 62
2
 10
136.4603
 20
39.8000
  0
POINT
  8
0_00
 62
2
 10
136.4603
 20
29.8001
  0
POINT
  8
0_00
 62
2
 10
700.9407
 20
39.8000
  0
POINT
  8
0_00
 62
2
 10
56.4603
 20
29.8001
  0
POINT
  8
0_00
 62
2
 10
96.4603
 20
29.8001
  0
POINT
  8
0_00
 62
2
 10
116.4603
 20
572.3000
  0
POINT
  8
0_00
 62
2
 10
575.0907
 20
32.8000
  0
POINT
  8
0_00
 62
2
 10
398.4407
 20
50.8000
  0
POINT
  8
0_00
 62
2
 10
398.4407
 20
30.8000
  0
ENDSEC
  0
EOF
