999
  
  0
SECTION
  2
HEADER
  9
$EXTMIN
 10
0
 20
0
  9
$EXTMAX
 10
1260
 20
888
  9
$LTSCALE
 40
3.00
  9
$PDMODE
 70
33
  9
$PDSIZE
 40
1.80
  0
ENDSEC
  0
SECTION
  2
TABLES
  0
TABLE
  2
LTYPE
 70
9
  0
LTYPE
  2
CONTINUOUS
 70
64
  3
実線
 72
65
 73
0
 40
0.00
  0
LTYPE
  2
DASHED
 70
64
  3
__  __  __  __  __  __  __ 
 72
65
 73
2
 40
1.00
 49
0.50
 49
-0.50
  0
LTYPE
  2
HIDDEN1
 70
64
  3
____    ____    ____    ___
 72
65
 73
2
 40
2.20
 49
1.20
 49
-1.00
  0
LTYPE
  2
HIDDEN2
 70
64
  3
______  ______  ______  ___
 72
65
 73
2
 40
4.50
 49
3.50
 49
-1.00
  0
LTYPE
  2
CENTER1
 70
64
  3
_______ _ _______ _ _______
 72
65
 73
4
 40
20.00
 49
17.00
 49
-1.00
 49
1.00
 49
-1.00
  0
LTYPE
  2
CENTER2
 70
64
  3
___________  __  __________
 72
65
 73
4
 40
40.00
 49
34.00
 49
-2.00
 49
2.00
 49
-2.00
  0
LTYPE
  2
PHANTOM1
 70
64
  3
______ _ _ ______ _ _ _____
 72
65
 73
6
 40
20.00
 49
15.00
 49
-1.00
 49
1.00
 49
-1.00
 49
1.00
 49
-1.00
  0
LTYPE
  2
PHANTOM2
 70
64
  3
__________  _  _  _________
 72
65
 73
6
 40
40.00
 49
30.00
 49
-2.00
 49
2.00
 49
-2.00
 49
2.00
 49
-2.00
  0
LTYPE
  2
DOT
 70
64
  3
 .  .  .  .  .  .  .  .  . 
 72
65
 73
2
 40
1.00
 49
0.00
 49
-1.00
  0
ENDTAB
  0
TABLE
  2
STYLE
 70
1
  0
STYLE
  2
STANDARD
 70
64
 40
0.0
 41
1.0
 42
0.0
 50
0.0
 71
0
  3
ROMANS
  4
BIGFONT
  0
ENDTAB
  0
TABLE
  2
LAYER
 70
9
  0
LAYER
  2
0_00
 70
64
 62
7
  6
CONTINUOUS
  0
LAYER
  2
2_02
 70
64
 62
7
  6
CONTINUOUS
  0
LAYER
  2
3_03
 70
64
 62
7
  6
CONTINUOUS
  0
LAYER
  2
6_06
 70
64
 62
7
  6
CONTINUOUS
  0
LAYER
  2
11_0B
 70
64
 62
7
  6
CONTINUOUS
  0
LAYER
  2
12_0C
 70
64
 62
7
  6
CONTINUOUS
  0
LAYER
  2
13_0D
 70
64
 62
7
  6
CONTINUOUS
  0
LAYER
  2
14_0E
 70
64
 62
7
  6
CONTINUOUS
  0
LAYER
  2
15_0F
 70
64
 62
7
  6
CONTINUOUS
  0
ENDTAB
  0
ENDSEC
  0
SECTION
  2
ENTITIES
  0
LINE
  8
0_00
  6
CONTINUOUS
 62
4
 10
163.0754
 20
541.1005
 11
515.9520
 21
541.1005
  0
LINE
  8
0_00
  6
CONTINUOUS
 62
4
 10
163.0754
 20
607.1005
 11
515.9520
 21
607.1005
  0
LINE
  8
0_00
  6
CENTER1
 62
6
 10
290.9519
 20
771.5065
 11
290.9519
 21
521.1004
  0
LINE
  8
0_00
  6
CONTINUOUS
 62
4
 10
163.0754
 20
751.9728
 11
515.9520
 21
751.9728
  0
LINE
  8
0_00
  6
DASHED
 62
2
 10
520.9520
 20
584.1004
 11
163.0754
 21
584.1004
  0
LINE
  8
0_00
  6
CONTINUOUS
 62
4
 10
274.9519
 20
608.9265
 11
274.9519
 21
607.1005
  0
LINE
  8
0_00
  6
CONTINUOUS
 62
4
 10
275.4519
 20
609.4265
 11
306.4519
 21
609.4265
  0
LINE
  8
0_00
  6
CONTINUOUS
 62
4
 10
306.9519
 20
608.9265
 11
306.9519
 21
607.1005
  0
LINE
  8
0_00
  6
CONTINUOUS
 62
4
 10
480.9464
 20
704.9728
 11
163.0754
 21
704.9728
  0
LINE
  8
0_00
  6
CONTINUOUS
 62
4
 10
276.9519
 20
609.4265
 11
276.9519
 21
704.9728
  0
LINE
  8
0_00
  6
CONTINUOUS
 62
4
 10
304.9520
 20
609.4265
 11
304.9520
 21
704.9728
  0
LINE
  8
0_00
  6
CENTER1
 62
6
 10
457.9520
 20
613.0978
 11
457.9520
 21
529.7985
  0
LINE
  8
0_00
  6
DASHED
 62
2
 10
487.9520
 20
603.2336
 11
487.9520
 21
542.8004
  0
LINE
  8
0_00
  6
DASHED
 62
2
 10
427.9519
 20
603.2336
 11
427.9519
 21
542.8004
  0
LINE
  8
0_00
  6
DASHED
 62
2
 10
427.9519
 20
542.8004
 11
487.9520
 21
542.8004
  0
LINE
  8
0_00
  6
DASHED
 62
2
 10
427.9519
 20
603.2336
 11
487.9520
 21
603.2336
  0
LINE
  8
0_00
  6
DASHED
 62
2
 10
427.9519
 20
598.2738
 11
487.9520
 21
598.2738
  0
LINE
  8
0_00
  6
DASHED
 62
2
 10
515.9520
 20
595.1505
 11
513.9520
 21
595.1505
  0
LINE
  8
0_00
  6
DASHED
 62
2
 10
515.9520
 20
591.8504
 11
513.9520
 21
591.8504
  0
LINE
  8
0_00
  6
DASHED
 62
2
 10
512.1519
 20
595.1005
 11
512.1519
 21
591.9005
  0
LINE
  8
0_00
  6
CONTINUOUS
 62
2
 10
518.3519
 20
595.8004
 11
518.3519
 21
591.2005
  0
LINE
  8
0_00
  6
DASHED
 62
2
 10
517.4520
 20
595.1005
 11
513.9520
 21
595.1005
  0
LINE
  8
0_00
  6
DASHED
 62
2
 10
517.4520
 20
591.9005
 11
513.9520
 21
591.9005
  0
LINE
  8
0_00
  6
CONTINUOUS
 62
4
 10
515.9520
 20
540.5004
 11
517.4520
 21
540.5004
  0
LINE
  8
0_00
  6
CONTINUOUS
 62
4
 10
515.9520
 20
607.3825
 11
517.4520
 21
607.3825
  0
LINE
  8
0_00
  6
CONTINUOUS
 62
4
 10
515.9520
 20
607.3825
 11
515.9520
 21
540.5004
  0
LINE
  8
0_00
  6
DASHED
 62
2
 10
513.9520
 20
597.1005
 11
513.9520
 21
589.6004
  0
LINE
  8
0_00
  6
DASHED
 62
2
 10
515.9520
 20
597.1005
 11
515.9520
 21
589.6004
  0
LINE
  8
0_00
  6
DASHED
 62
2
 10
515.9520
 20
587.6005
 11
427.9519
 21
587.6005
  0
LINE
  8
0_00
  6
DASHED
 62
2
 10
513.9520
 20
589.6004
 11
435.9519
 21
589.6004
  0
LINE
  8
0_00
  6
DASHED
 62
2
 10
435.9519
 20
589.6004
 11
435.9519
 21
587.6005
  0
LINE
  8
0_00
  6
DASHED
 62
2
 10
513.9520
 20
597.1005
 11
515.9520
 21
597.1005
  0
LINE
  8
0_00
  6
DASHED
 62
2
 10
460.4519
 20
589.6004
 11
460.4519
 21
543.9305
  0
LINE
  8
0_00
  6
DASHED
 62
2
 10
463.8519
 20
589.9482
 11
463.8519
 21
589.6004
  0
LINE
  8
0_00
  6
DASHED
 62
2
 10
459.7019
 20
589.6004
 11
459.7019
 21
542.6315
  0
LINE
  8
0_00
  6
DASHED
 62
2
 10
457.9520
 20
539.6005
 11
460.4519
 21
543.9305
  0
LINE
  8
0_00
  6
DASHED
 62
2
 10
455.4519
 20
589.6004
 11
455.4519
 21
543.9305
  0
LINE
  8
0_00
  6
DASHED
 62
2
 10
452.0520
 20
589.9482
 11
452.0520
 21
589.6004
  0
LINE
  8
0_00
  6
DASHED
 62
2
 10
456.2019
 20
589.6004
 11
456.2019
 21
542.6315
  0
LINE
  8
0_00
  6
DASHED
 62
2
 10
457.9520
 20
539.6005
 11
455.4519
 21
543.9305
  0
LINE
  8
0_00
  6
DASHED
 62
2
 10
452.0520
 20
589.9482
 11
463.8519
 21
589.9482
  0
LINE
  8
0_00
  6
DASHED
 62
2
 10
515.9520
 20
545.0004
 11
508.9520
 21
545.0004
  0
LINE
  8
0_00
  6
DASHED
 62
2
 10
508.9520
 20
545.0004
 11
508.9520
 21
605.4988
  0
LINE
  8
0_00
  6
DASHED
 62
2
 10
508.9520
 20
605.4988
 11
515.9520
 21
605.4988
  0
LINE
  8
0_00
  6
CONTINUOUS
 62
2
 10
513.9520
 20
607.1005
 11
513.9520
 21
540.5004
  0
LINE
  8
0_00
  6
CONTINUOUS
 62
2
 10
513.9520
 20
540.5004
 11
520.9520
 21
540.5004
  0
LINE
  8
0_00
  6
CONTINUOUS
 62
2
 10
513.9520
 20
605.0045
 11
516.5464
 21
607.5990
  0
LINE
  8
0_00
  6
CONTINUOUS
 62
2
 10
520.4534
 20
611.5060
 11
520.9520
 21
612.0045
  0
LINE
  8
11_0B
  6
DASHED
 62
2
 10
454.9520
 20
584.1004
 11
454.9520
 21
575.1506
  0
LINE
  8
11_0B
  6
DASHED
 62
2
 10
454.4781
 20
572.7989
 11
454.3443
 21
571.2693
  0
LINE
  8
11_0B
  6
DASHED
 62
2
 10
454.1512
 20
569.0632
 11
454.0175
 21
567.5336
  0
LINE
  8
11_0B
  6
DASHED
 62
2
 10
453.8244
 20
565.3275
 11
453.6906
 21
563.7979
  0
LINE
  8
11_0B
  6
DASHED
 62
2
 10
453.4976
 20
561.5918
 11
453.3638
 21
560.0621
  0
LINE
  8
11_0B
  6
DASHED
 62
2
 10
453.1707
 20
557.8560
 11
453.0505
 21
556.4818
  0
LINE
  8
11_0B
  6
DASHED
 62
2
 10
460.9519
 20
584.1004
 11
460.9519
 21
575.1506
  0
LINE
  8
11_0B
  6
DASHED
 62
2
 10
461.4258
 20
572.7989
 11
461.5596
 21
571.2693
  0
LINE
  8
11_0B
  6
DASHED
 62
2
 10
461.7526
 20
569.0632
 11
461.8865
 21
567.5336
  0
LINE
  8
11_0B
  6
DASHED
 62
2
 10
462.0795
 20
565.3275
 11
462.2133
 21
563.7979
  0
LINE
  8
11_0B
  6
DASHED
 62
2
 10
462.4063
 20
561.5918
 11
462.5401
 21
560.0621
  0
LINE
  8
11_0B
  6
DASHED
 62
2
 10
462.7331
 20
557.8560
 11
462.8533
 21
556.4818
  0
LINE
  8
11_0B
  6
DASHED
 62
2
 10
454.9520
 20
584.1004
 11
460.9519
 21
584.1004
  0
LINE
  8
11_0B
  6
DASHED
 62
2
 10
457.5769
 20
578.1004
 11
458.3270
 21
578.1004
  0
LINE
  8
11_0B
  6
DASHED
 62
2
 10
458.3270
 20
578.1004
 11
460.4187
 21
554.1918
  0
LINE
  8
11_0B
  6
DASHED
 62
2
 10
455.4852
 20
554.1918
 11
457.5769
 21
578.1004
  0
LINE
  8
11_0B
  6
DASHED
 62
2
 10
453.9909
 20
554.3225
 11
455.4852
 21
554.1918
  0
LINE
  8
11_0B
  6
DASHED
 62
2
 10
460.4187
 20
554.1918
 11
461.9130
 21
554.3225
  0
LINE
  8
11_0B
  6
DASHED
 62
2
 10
461.9130
 20
554.3225
 11
462.8129
 21
556.2524
  0
LINE
  8
11_0B
  6
DASHED
 62
2
 10
453.9909
 20
554.3225
 11
453.0910
 21
556.2524
  0
LINE
  8
11_0B
  6
DASHED
 62
2
 10
453.0401
 20
556.3617
 11
455.6550
 21
556.1329
  0
LINE
  8
11_0B
  6
DASHED
 62
2
 10
460.2488
 20
556.1329
 11
462.8639
 21
556.3617
  0
LINE
  8
11_0B
  6
DASHED
 62
2
 10
453.1707
 20
557.8560
 11
454.8144
 21
557.7122
  0
LINE
  8
11_0B
  6
DASHED
 62
2
 10
461.0894
 20
557.7122
 11
462.7331
 21
557.8560
  0
LINE
  8
11_0B
  6
DASHED
 62
2
 10
453.4976
 20
561.5918
 11
455.1413
 21
561.4479
  0
LINE
  8
11_0B
  6
DASHED
 62
2
 10
460.7626
 20
561.4479
 11
462.4063
 21
561.5918
  0
LINE
  8
11_0B
  6
DASHED
 62
2
 10
453.8244
 20
565.3275
 11
455.4681
 21
565.1837
  0
LINE
  8
11_0B
  6
DASHED
 62
2
 10
460.4357
 20
565.1837
 11
462.0795
 21
565.3275
  0
LINE
  8
11_0B
  6
DASHED
 62
2
 10
454.1512
 20
569.0632
 11
455.7950
 21
568.9194
  0
LINE
  8
11_0B
  6
DASHED
 62
2
 10
460.1089
 20
568.9194
 11
461.7526
 21
569.0632
  0
LINE
  8
11_0B
  6
DASHED
 62
2
 10
454.4781
 20
572.7989
 11
455.6735
 21
572.6944
  0
LINE
  8
11_0B
  6
DASHED
 62
2
 10
460.2303
 20
572.6944
 11
461.4258
 21
572.7989
  0
LINE
  8
11_0B
  6
DASHED
 62
2
 10
455.6464
 20
570.6638
 11
455.4961
 21
568.9455
  0
LINE
  8
11_0B
  6
DASHED
 62
2
 10
455.3196
 20
566.9280
 11
455.1693
 21
565.2098
  0
LINE
  8
11_0B
  6
DASHED
 62
2
 10
454.9928
 20
563.1923
 11
454.8425
 21
561.4741
  0
LINE
  8
11_0B
  6
DASHED
 62
2
 10
454.6659
 20
559.4566
 11
454.5157
 21
557.7383
  0
LINE
  8
11_0B
  6
DASHED
 62
2
 10
461.3882
 20
557.7383
 11
461.2379
 21
559.4566
  0
LINE
  8
11_0B
  6
DASHED
 62
2
 10
461.0614
 20
561.4741
 11
460.9111
 21
563.1923
  0
LINE
  8
11_0B
  6
DASHED
 62
2
 10
460.7346
 20
565.2098
 11
460.5843
 21
566.9280
  0
LINE
  8
11_0B
  6
DASHED
 62
2
 10
460.4078
 20
568.9455
 11
460.2574
 21
570.6638
  0
LINE
  8
11_0B
  6
DASHED
 62
2
 10
461.0397
 20
559.4035
 11
462.3189
 21
559.7462
  0
LINE
  8
11_0B
  6
DASHED
 62
2
 10
454.9857
 20
559.3709
 11
453.5850
 21
559.7462
  0
LINE
  8
11_0B
  6
DASHED
 62
2
 10
460.7129
 20
563.1392
 11
461.9920
 21
563.4819
  0
LINE
  8
11_0B
  6
DASHED
 62
2
 10
455.1909
 20
563.1392
 11
453.9118
 21
563.4819
  0
LINE
  8
11_0B
  6
DASHED
 62
2
 10
460.3861
 20
566.8749
 11
461.6652
 21
567.2177
  0
LINE
  8
11_0B
  6
DASHED
 62
2
 10
455.5178
 20
566.8749
 11
454.2387
 21
567.2177
  0
LINE
  8
11_0B
  6
DASHED
 62
2
 10
460.0592
 20
570.6107
 11
461.3383
 21
570.9534
  0
LINE
  8
11_0B
  6
DASHED
 62
2
 10
455.8446
 20
570.6107
 11
454.5655
 21
570.9534
  0
LINE
  8
11_0B
  6
DASHED
 62
2
 10
455.5241
 20
572.7074
 11
455.7259
 21
575.0142
  0
LINE
  8
11_0B
  6
DASHED
 62
2
 10
460.3798
 20
572.7074
 11
460.1780
 21
575.0142
  0
LINE
  8
11_0B
  6
DASHED
 62
2
 10
456.0659
 20
570.2947
 11
455.9574
 21
569.0557
  0
LINE
  8
11_0B
  6
DASHED
 62
2
 10
455.7391
 20
566.5590
 11
455.6306
 21
565.3200
  0
LINE
  8
11_0B
  6
DASHED
 62
2
 10
455.4122
 20
562.8232
 11
455.3038
 21
561.5842
  0
LINE
  8
11_0B
  6
DASHED
 62
2
 10
455.0964
 20
559.2129
 11
454.9770
 21
557.8485
  0
LINE
  8
11_0B
  6
DASHED
 62
2
 10
460.9269
 20
557.8485
 11
460.8185
 21
559.0875
  0
LINE
  8
11_0B
  6
DASHED
 62
2
 10
460.6001
 20
561.5842
 11
460.4917
 21
562.8232
  0
LINE
  8
11_0B
  6
DASHED
 62
2
 10
460.2733
 20
565.3200
 11
460.1649
 21
566.5590
  0
LINE
  8
11_0B
  6
DASHED
 62
2
 10
459.9464
 20
569.0557
 11
459.8380
 21
570.2947
  0
LINE
  8
11_0B
  6
DASHED
 62
2
 10
455.7518
 20
575.0096
 11
454.9520
 21
575.1506
  0
LINE
  8
11_0B
  6
DASHED
 62
2
 10
460.1521
 20
575.0096
 11
460.9519
 21
575.1506
  0
LINE
  8
11_0B
  6
DASHED
 62
2
 10
461.7526
 20
569.0632
 11
463.8446
 21
573.5494
  0
LINE
  8
11_0B
  6
DASHED
 62
2
 10
463.1648
 20
573.8663
 11
460.8899
 21
568.9877
  0
LINE
  8
11_0B
  6
DASHED
 62
2
 10
454.1512
 20
569.0632
 11
452.0593
 21
573.5494
  0
LINE
  8
11_0B
  6
DASHED
 62
2
 10
452.7390
 20
573.8663
 11
455.0140
 21
568.9877
  0
LINE
  8
11_0B
  6
DASHED
 62
2
 10
463.6994
 20
573.9480
 11
463.5635
 21
574.0115
  0
LINE
  8
11_0B
  6
DASHED
 62
2
 10
452.2044
 20
573.9480
 11
452.3404
 21
574.0115
  0
LINE
  8
11_0B
  6
DASHED
 62
2
 10
455.9985
 20
574.6880
 11
455.8360
 21
572.8307
  0
LINE
  8
11_0B
  6
DASHED
 62
2
 10
459.9053
 20
574.6880
 11
460.2574
 21
570.6638
  0
LINE
  8
3_03
  6
DASHED
 62
2
 10
716.5278
 20
585.4728
 11
716.8279
 21
585.1727
  0
LINE
  8
3_03
  6
DASHED
 62
2
 10
716.8279
 20
585.1727
 11
717.1279
 21
585.4728
  0
LINE
  8
0_00
  6
DASHED
 62
2
 10
719.3279
 20
587.4728
 11
719.3279
 21
541.8029
  0
LINE
  8
0_00
  6
CONTINUOUS
 62
2
 10
710.9279
 20
587.4728
 11
722.7279
 21
587.4728
  0
LINE
  8
0_00
  6
CONTINUOUS
 62
2
 10
722.7279
 20
587.8204
 11
722.7279
 21
587.4728
  0
LINE
  8
0_00
  6
DASHED
 62
2
 10
718.5779
 20
587.4728
 11
718.5779
 21
540.5039
  0
LINE
  8
0_00
  6
DASHED
 62
2
 10
716.8279
 20
537.4728
 11
719.3279
 21
541.8029
  0
LINE
  8
0_00
  6
DASHED
 62
2
 10
714.3279
 20
587.4728
 11
714.3279
 21
541.8029
  0
LINE
  8
0_00
  6
CONTINUOUS
 62
2
 10
710.9279
 20
587.8204
 11
710.9279
 21
587.4728
  0
LINE
  8
0_00
  6
DASHED
 62
2
 10
715.0779
 20
587.4728
 11
715.0779
 21
540.5039
  0
LINE
  8
0_00
  6
DASHED
 62
2
 10
716.8279
 20
537.4728
 11
714.3279
 21
541.8029
  0
LINE
  8
0_00
  6
CONTINUOUS
 62
2
 10
710.9279
 20
587.8204
 11
722.7279
 21
587.8204
  0
LINE
  8
3_03
  6
CONTINUOUS
 62
4
 10
803.3279
 20
541.6728
 11
803.8279
 21
541.6728
  0
LINE
  8
3_03
  6
CONTINUOUS
 62
4
 10
630.3279
 20
540.6727
 11
629.8278
 21
540.6727
  0
LINE
  8
3_03
  6
CONTINUOUS
 62
4
 10
803.3279
 20
541.6728
 11
797.3914
 21
581.5464
  0
LINE
  8
3_03
  6
CONTINUOUS
 62
4
 10
800.6278
 20
581.9728
 11
805.3279
 21
543.1728
  0
LINE
  8
3_03
  6
CONTINUOUS
 62
4
 10
628.3278
 20
542.1727
 11
633.0278
 21
581.9728
  0
LINE
  8
3_03
  6
CONTINUOUS
 62
4
 10
636.2657
 20
581.5446
 11
630.3279
 21
540.6727
  0
LINE
  8
3_03
  6
CONTINUOUS
 62
4
 10
796.8968
 20
581.9728
 11
636.7604
 21
581.9728
  0
LINE
  8
3_03
  6
CONTINUOUS
 62
4
 10
769.1279
 20
585.4728
 11
717.1279
 21
585.4728
  0
LINE
  8
3_03
  6
CONTINUOUS
 62
4
 10
716.5278
 20
585.4728
 11
689.8279
 21
585.4728
  0
LINE
  8
3_03
  6
CONTINUOUS
 62
4
 10
689.2278
 20
585.4728
 11
684.8279
 21
585.4728
  0
LINE
  8
3_03
  6
CONTINUOUS
 62
4
 10
684.2278
 20
585.4728
 11
679.8279
 21
585.4728
  0
LINE
  8
3_03
  6
CONTINUOUS
 62
4
 10
679.2279
 20
585.4728
 11
674.8278
 21
585.4728
  0
LINE
  8
3_03
  6
CONTINUOUS
 62
4
 10
674.2278
 20
585.4728
 11
664.5278
 21
585.4728
  0
LINE
  8
3_03
  6
CONTINUOUS
 62
4
 10
769.1279
 20
587.9728
 11
769.1279
 21
585.4728
  0
LINE
  8
3_03
  6
CONTINUOUS
 62
4
 10
664.5278
 20
585.4728
 11
664.5278
 21
587.9728
  0
LINE
  8
3_03
  6
CONTINUOUS
 62
4
 10
717.1279
 20
585.4728
 11
716.8279
 21
585.1727
  0
LINE
  8
3_03
  6
CONTINUOUS
 62
4
 10
716.8279
 20
585.1727
 11
716.5278
 21
585.4728
  0
LINE
  8
3_03
  6
CONTINUOUS
 62
4
 10
689.8279
 20
585.4728
 11
689.5279
 21
585.1727
  0
LINE
  8
3_03
  6
CONTINUOUS
 62
4
 10
689.5279
 20
585.1727
 11
689.2278
 21
585.4728
  0
LINE
  8
3_03
  6
CONTINUOUS
 62
4
 10
684.8279
 20
585.4728
 11
684.5278
 21
585.1727
  0
LINE
  8
3_03
  6
CONTINUOUS
 62
4
 10
684.5278
 20
585.1727
 11
684.2278
 21
585.4728
  0
LINE
  8
3_03
  6
CONTINUOUS
 62
4
 10
679.8279
 20
585.4728
 11
679.5278
 21
585.1727
  0
LINE
  8
3_03
  6
CONTINUOUS
 62
4
 10
679.5278
 20
585.1727
 11
679.2279
 21
585.4728
  0
LINE
  8
3_03
  6
CONTINUOUS
 62
4
 10
674.8278
 20
585.4728
 11
674.5278
 21
585.1727
  0
LINE
  8
3_03
  6
CONTINUOUS
 62
4
 10
674.5278
 20
585.1727
 11
674.2278
 21
585.4728
  0
LINE
  8
3_03
  6
CONTINUOUS
 62
4
 10
800.6278
 20
581.9728
 11
795.7769
 21
597.7753
  0
LINE
  8
3_03
  6
CONTINUOUS
 62
4
 10
793.7984
 20
599.1873
 11
791.6278
 21
599.1150
  0
LINE
  8
3_03
  6
CONTINUOUS
 62
4
 10
791.3179
 20
601.1057
 11
791.1279
 21
601.0994
  0
LINE
  8
3_03
  6
CONTINUOUS
 62
4
 10
784.4179
 20
600.8757
 11
784.6279
 21
600.8828
  0
LINE
  8
3_03
  6
CONTINUOUS
 62
4
 10
637.8566
 20
594.7582
 11
633.0278
 21
581.9728
  0
LINE
  8
3_03
  6
CONTINUOUS
 62
4
 10
649.2178
 20
596.3691
 11
649.0278
 21
596.3627
  0
LINE
  8
3_03
  6
CONTINUOUS
 62
4
 10
642.5278
 20
596.1461
 11
639.6610
 21
596.0506
  0
LINE
  8
3_03
  6
CONTINUOUS
 62
4
 10
791.1279
 20
600.8993
 11
784.6279
 21
600.6826
  0
LINE
  8
3_03
  6
CONTINUOUS
 62
4
 10
649.0278
 20
596.1626
 11
642.5278
 21
595.9460
  0
LINE
  8
3_03
  6
CONTINUOUS
 62
4
 10
771.6279
 20
585.2728
 11
796.6371
 21
585.2728
  0
LINE
  8
3_03
  6
CONTINUOUS
 62
4
 10
662.0278
 20
585.2728
 11
637.3491
 21
585.2728
  0
LINE
  8
3_03
  6
CONTINUOUS
 62
4
 10
662.5279
 20
585.7728
 11
662.5279
 21
587.9728
  0
LINE
  8
3_03
  6
CONTINUOUS
 62
4
 10
771.1278
 20
587.9728
 11
771.1278
 21
585.7728
  0
LINE
  8
3_03
  6
CONTINUOUS
 62
4
 10
791.6278
 20
599.1150
 11
791.6278
 21
600.8059
  0
LINE
  8
3_03
  6
CONTINUOUS
 62
4
 10
784.1278
 20
600.5760
 11
784.1278
 21
599.1817
  0
LINE
  8
3_03
  6
CONTINUOUS
 62
4
 10
791.1279
 20
600.8993
 11
791.1279
 21
601.0994
  0
LINE
  8
3_03
  6
CONTINUOUS
 62
4
 10
784.6279
 20
600.8828
 11
784.6279
 21
600.6826
  0
LINE
  8
3_03
  6
CONTINUOUS
 62
4
 10
649.5278
 20
596.0692
 11
649.5278
 21
594.6618
  0
LINE
  8
3_03
  6
CONTINUOUS
 62
4
 10
649.0278
 20
596.3627
 11
649.0278
 21
596.1626
  0
LINE
  8
3_03
  6
CONTINUOUS
 62
4
 10
642.5278
 20
596.1461
 11
642.5278
 21
595.9460
  0
LINE
  8
3_03
  6
CONTINUOUS
 62
4
 10
793.9432
 20
596.2520
 11
797.1150
 21
585.9194
  0
LINE
  8
3_03
  6
CONTINUOUS
 62
4
 10
792.9540
 20
596.9579
 11
789.4278
 21
596.8404
  0
LINE
  8
3_03
  6
CONTINUOUS
 62
4
 10
789.4278
 20
598.3246
 11
789.4278
 21
596.8404
  0
LINE
  8
3_03
  6
CONTINUOUS
 62
4
 10
784.6445
 20
598.6821
 11
788.9112
 21
598.8243
  0
LINE
  8
3_03
  6
CONTINUOUS
 62
4
 10
636.8814
 20
585.9494
 11
639.6319
 21
593.2323
  0
LINE
  8
3_03
  6
CONTINUOUS
 62
4
 10
640.5341
 20
593.8784
 11
649.0445
 21
594.1621
  0
LINE
  8
6_06
  6
CONTINUOUS
 62
2
 10
785.1279
 20
600.6993
 11
785.1279
 21
602.6486
  0
LINE
  8
6_06
  6
CONTINUOUS
 62
2
 10
790.1278
 20
600.8660
 11
790.1278
 21
602.8152
  0
LINE
  8
6_06
  6
CONTINUOUS
 62
2
 10
790.1278
 20
602.1081
 11
789.4436
 21
602.7924
  0
LINE
  8
6_06
  6
CONTINUOUS
 62
2
 10
790.1278
 20
601.4010
 11
788.7593
 21
602.7695
  0
LINE
  8
6_06
  6
CONTINUOUS
 62
2
 10
789.9613
 20
600.8604
 11
788.0750
 21
602.7468
  0
LINE
  8
6_06
  6
CONTINUOUS
 62
2
 10
789.2769
 20
600.8376
 11
787.3907
 21
602.7240
  0
LINE
  8
6_06
  6
CONTINUOUS
 62
2
 10
788.5927
 20
600.8148
 11
786.7064
 21
602.7012
  0
LINE
  8
6_06
  6
CONTINUOUS
 62
2
 10
787.9084
 20
600.7920
 11
786.0221
 21
602.6783
  0
LINE
  8
6_06
  6
CONTINUOUS
 62
2
 10
787.2242
 20
600.7692
 11
785.3378
 21
602.6555
  0
LINE
  8
6_06
  6
CONTINUOUS
 62
2
 10
786.5398
 20
600.7463
 11
785.1279
 21
602.1584
  0
LINE
  8
6_06
  6
CONTINUOUS
 62
2
 10
785.8555
 20
600.7236
 11
785.1279
 21
601.4512
  0
LINE
  8
6_06
  6
CONTINUOUS
 62
2
 10
785.1713
 20
600.7007
 11
785.1279
 21
600.7441
  0
LINE
  8
6_06
  6
CONTINUOUS
 62
2
 10
648.5278
 20
596.1460
 11
648.5278
 21
598.0952
  0
LINE
  8
6_06
  6
CONTINUOUS
 62
2
 10
643.5278
 20
595.9793
 11
643.5278
 21
597.9285
  0
LINE
  8
6_06
  6
CONTINUOUS
 62
2
 10
648.5278
 20
597.3880
 11
647.8436
 21
598.0724
  0
LINE
  8
6_06
  6
CONTINUOUS
 62
2
 10
648.5278
 20
596.6810
 11
647.1592
 21
598.0496
  0
LINE
  8
6_06
  6
CONTINUOUS
 62
2
 10
648.3614
 20
596.1404
 11
646.4750
 21
598.0267
  0
LINE
  8
6_06
  6
CONTINUOUS
 62
2
 10
647.6770
 20
596.1176
 11
645.7906
 21
598.0039
  0
LINE
  8
6_06
  6
CONTINUOUS
 62
2
 10
646.9926
 20
596.0948
 11
645.1064
 21
597.9812
  0
LINE
  8
6_06
  6
CONTINUOUS
 62
2
 10
646.3084
 20
596.0720
 11
644.4221
 21
597.9583
  0
LINE
  8
6_06
  6
CONTINUOUS
 62
2
 10
645.6241
 20
596.0492
 11
643.7378
 21
597.9355
  0
LINE
  8
6_06
  6
CONTINUOUS
 62
2
 10
644.9398
 20
596.0264
 11
643.5278
 21
597.4384
  0
LINE
  8
6_06
  6
CONTINUOUS
 62
2
 10
644.2555
 20
596.0035
 11
643.5278
 21
596.7312
  0
LINE
  8
6_06
  6
CONTINUOUS
 62
2
 10
643.5712
 20
595.9807
 11
643.5278
 21
596.0241
  0
LINE
  8
0_00
  6
CONTINUOUS
 62
4
 10
806.8279
 20
542.9728
 11
806.8279
 21
601.8711
  0
LINE
  8
0_00
  6
CONTINUOUS
 62
4
 10
803.7279
 20
604.8694
 11
629.7280
 21
599.0694
  0
LINE
  8
0_00
  6
CONTINUOUS
 62
4
 10
626.8279
 20
596.0711
 11
626.8279
 21
541.9728
  0
LINE
  8
0_00
  6
CONTINUOUS
 62
4
 10
800.0391
 20
540.1713
 11
803.8279
 21
539.9728
  0
LINE
  8
0_00
  6
CONTINUOUS
 62
4
 10
629.8278
 20
538.9728
 11
633.6167
 21
539.1713
  0
LINE
  8
0_00
  6
CONTINUOUS
 62
4
 10
762.1377
 20
601.6821
 11
761.8279
 21
601.9720
  0
LINE
  8
0_00
  6
CONTINUOUS
 62
4
 10
761.8279
 20
601.9720
 11
761.5380
 21
601.6621
  0
LINE
  8
0_00
  6
CONTINUOUS
 62
4
 10
761.5380
 20
601.6621
 11
761.2281
 21
601.9519
  0
LINE
  8
0_00
  6
CONTINUOUS
 62
4
 10
762.1377
 20
601.6821
 11
762.4275
 21
601.9919
  0
LINE
  8
0_00
  6
CONTINUOUS
 62
4
 10
717.1377
 20
600.1821
 11
716.8279
 21
600.4720
  0
LINE
  8
0_00
  6
CONTINUOUS
 62
4
 10
716.8279
 20
600.4720
 11
716.5380
 21
600.1621
  0
LINE
  8
0_00
  6
CONTINUOUS
 62
4
 10
716.5380
 20
600.1621
 11
716.2282
 21
600.4519
  0
LINE
  8
0_00
  6
CONTINUOUS
 62
4
 10
717.1377
 20
600.1821
 11
717.4275
 21
600.4919
  0
LINE
  8
0_00
  6
CONTINUOUS
 62
4
 10
672.1377
 20
598.6821
 11
671.8279
 21
598.9720
  0
LINE
  8
0_00
  6
CONTINUOUS
 62
4
 10
671.8279
 20
598.9720
 11
671.5380
 21
598.6621
  0
LINE
  8
0_00
  6
CONTINUOUS
 62
4
 10
671.5380
 20
598.6621
 11
671.2282
 21
598.9519
  0
LINE
  8
0_00
  6
CONTINUOUS
 62
4
 10
672.1377
 20
598.6821
 11
672.4275
 21
598.9919
  0
LINE
  8
0_00
  6
CONTINUOUS
 62
4
 10
628.3278
 20
561.1729
 11
628.6279
 21
561.4729
  0
LINE
  8
0_00
  6
CONTINUOUS
 62
4
 10
628.6279
 20
561.4729
 11
628.3278
 21
561.7728
  0
LINE
  8
0_00
  6
CONTINUOUS
 62
4
 10
628.3278
 20
566.1728
 11
628.6279
 21
566.4728
  0
LINE
  8
0_00
  6
CONTINUOUS
 62
4
 10
628.6279
 20
566.4728
 11
628.3278
 21
566.7728
  0
LINE
  8
0_00
  6
CONTINUOUS
 62
4
 10
628.3278
 20
571.1728
 11
628.6279
 21
571.4729
  0
LINE
  8
0_00
  6
CONTINUOUS
 62
4
 10
628.6279
 20
571.4729
 11
628.3278
 21
571.7728
  0
LINE
  8
0_00
  6
CONTINUOUS
 62
4
 10
628.3278
 20
576.1729
 11
628.6279
 21
576.4728
  0
LINE
  8
0_00
  6
CONTINUOUS
 62
4
 10
628.6279
 20
576.4728
 11
628.3278
 21
576.7728
  0
LINE
  8
0_00
  6
CONTINUOUS
 62
4
 10
800.1175
 20
541.6692
 11
801.1349
 21
541.6160
  0
LINE
  8
0_00
  6
CONTINUOUS
 62
4
 10
801.5343
 20
541.5950
 11
803.8604
 21
541.4731
  0
LINE
  8
0_00
  6
CONTINUOUS
 62
4
 10
805.3279
 20
542.9728
 11
805.3279
 21
601.8711
  0
LINE
  8
0_00
  6
CONTINUOUS
 62
4
 10
803.7779
 20
603.3702
 11
762.4275
 21
601.9919
  0
LINE
  8
0_00
  6
CONTINUOUS
 62
4
 10
761.2281
 20
601.9519
 11
730.9275
 21
600.9419
  0
LINE
  8
0_00
  6
CONTINUOUS
 62
4
 10
729.7283
 20
600.9019
 11
717.4275
 21
600.4919
  0
LINE
  8
0_00
  6
CONTINUOUS
 62
4
 10
716.2282
 20
600.4519
 11
703.9275
 21
600.0419
  0
LINE
  8
0_00
  6
CONTINUOUS
 62
4
 10
702.7282
 20
600.0019
 11
672.4275
 21
598.9919
  0
LINE
  8
0_00
  6
CONTINUOUS
 62
4
 10
671.2282
 20
598.9519
 11
629.7779
 21
597.5702
  0
LINE
  8
0_00
  6
CONTINUOUS
 62
4
 10
628.3278
 20
596.0711
 11
628.3278
 21
576.7728
  0
LINE
  8
0_00
  6
CONTINUOUS
 62
4
 10
628.3278
 20
576.1729
 11
628.3278
 21
571.7728
  0
LINE
  8
0_00
  6
CONTINUOUS
 62
4
 10
628.3278
 20
571.1728
 11
628.3278
 21
566.7728
  0
LINE
  8
0_00
  6
CONTINUOUS
 62
4
 10
628.3278
 20
566.1728
 11
628.3278
 21
561.7728
  0
LINE
  8
0_00
  6
CONTINUOUS
 62
4
 10
628.3278
 20
561.1729
 11
628.3278
 21
541.9728
  0
LINE
  8
0_00
  6
CONTINUOUS
 62
4
 10
629.7952
 20
540.4731
 11
633.5382
 21
540.6693
  0
LINE
  8
0_00
  6
CONTINUOUS
 62
4
 10
801.5343
 20
541.5950
 11
801.3241
 21
541.4057
  0
LINE
  8
0_00
  6
CONTINUOUS
 62
4
 10
801.3241
 20
541.4057
 11
801.1349
 21
541.6160
  0
LINE
  8
0_00
  6
CONTINUOUS
 62
4
 10
730.6377
 20
600.6321
 11
730.3279
 21
600.9218
  0
LINE
  8
0_00
  6
CONTINUOUS
 62
4
 10
730.3279
 20
600.9218
 11
730.0380
 21
600.6120
  0
LINE
  8
0_00
  6
CONTINUOUS
 62
4
 10
730.0380
 20
600.6120
 11
729.7283
 21
600.9019
  0
LINE
  8
0_00
  6
CONTINUOUS
 62
4
 10
730.9275
 20
600.9419
 11
730.6377
 21
600.6321
  0
LINE
  8
0_00
  6
CONTINUOUS
 62
4
 10
703.6377
 20
599.7321
 11
703.3279
 21
600.0219
  0
LINE
  8
0_00
  6
CONTINUOUS
 62
4
 10
703.3279
 20
600.0219
 11
703.0380
 21
599.7121
  0
LINE
  8
0_00
  6
CONTINUOUS
 62
4
 10
703.0380
 20
599.7121
 11
702.7282
 21
600.0019
  0
LINE
  8
0_00
  6
CONTINUOUS
 62
4
 10
703.9275
 20
600.0419
 11
703.6377
 21
599.7321
  0
LINE
  8
0_00
  6
CONTINUOUS
 62
4
 10
807.3279
 20
541.8728
 11
807.3279
 21
601.7548
  0
LINE
  8
0_00
  6
CONTINUOUS
 62
4
 10
626.3279
 20
541.8728
 11
626.3279
 21
595.9868
  0
LINE
  8
0_00
  6
CONTINUOUS
 62
4
 10
803.8279
 20
538.3727
 11
797.3278
 21
538.3727
  0
LINE
  8
0_00
  6
CONTINUOUS
 62
4
 10
636.3279
 20
538.3727
 11
629.8278
 21
538.3727
  0
LINE
  8
0_00
  6
CONTINUOUS
 62
4
 10
629.7119
 20
599.4849
 11
803.7119
 21
605.2529
  0
LINE
  8
0_00
  6
CONTINUOUS
 62
4
 10
635.3279
 20
542.8727
 11
630.6475
 21
542.8727
  0
LINE
  8
0_00
  6
CONTINUOUS
 62
4
 10
628.4106
 20
542.8727
 11
628.3278
 21
542.8727
  0
LINE
  8
0_00
  6
CONTINUOUS
 62
4
 10
805.3279
 20
542.8727
 11
805.2976
 21
542.8727
  0
LINE
  8
0_00
  6
CONTINUOUS
 62
4
 10
803.1492
 20
542.8727
 11
798.3279
 21
542.8727
  0
LINE
  8
0_00
  6
CONTINUOUS
 62
4
 10
769.3279
 20
594.9727
 11
769.3279
 21
588.5728
  0
LINE
  8
0_00
  6
CONTINUOUS
 62
4
 10
664.3279
 20
594.9727
 11
664.3279
 21
588.5728
  0
LINE
  8
0_00
  6
CONTINUOUS
 62
4
 10
805.3279
 20
601.8039
 11
805.3279
 21
542.8727
  0
LINE
  8
0_00
  6
CONTINUOUS
 62
4
 10
635.3279
 20
542.8727
 11
635.3279
 21
575.0894
  0
LINE
  8
0_00
  6
CONTINUOUS
 62
4
 10
664.3279
 20
594.9727
 11
769.3279
 21
594.9727
  0
LINE
  8
0_00
  6
CONTINUOUS
 62
4
 10
798.3279
 20
575.2561
 11
798.3279
 21
542.8727
  0
LINE
  8
0_00
  6
CONTINUOUS
 62
4
 10
664.8279
 20
587.4728
 11
768.8279
 21
587.4728
  0
LINE
  8
0_00
  6
CONTINUOUS
 62
4
 10
768.8279
 20
594.9727
 11
768.8279
 21
585.4728
  0
LINE
  8
0_00
  6
CONTINUOUS
 62
4
 10
664.8279
 20
594.9727
 11
664.8279
 21
585.4728
  0
LINE
  8
0_00
  6
CONTINUOUS
 62
4
 10
771.1278
 20
587.9728
 11
796.4847
 21
587.9728
  0
LINE
  8
0_00
  6
CONTINUOUS
 62
4
 10
637.6456
 20
587.9728
 11
662.5279
 21
587.9728
  0
LINE
  8
0_00
  6
CONTINUOUS
 62
4
 10
636.3279
 20
538.3727
 11
636.3279
 21
581.7234
  0
LINE
  8
0_00
  6
CONTINUOUS
 62
4
 10
797.3278
 20
538.3727
 11
797.3278
 21
581.7261
  0
LINE
  8
2_02
  6
CENTER1
 62
6
 10
716.8279
 20
521.7978
 11
716.8279
 21
770.4958
  0
LINE
  8
0_00
  6
CONTINUOUS
 62
4
 10
746.8279
 20
744.4948
 11
746.8278
 21
705.6727
  0
LINE
  8
0_00
  6
CONTINUOUS
 62
4
 10
745.4279
 20
744.4699
 11
745.4278
 21
718.0965
  0
LINE
  8
0_00
  6
CONTINUOUS
 62
4
 10
745.4277
 20
705.6727
 11
745.4278
 21
708.8466
  0
LINE
  8
0_00
  6
CONTINUOUS
 62
4
 10
686.8278
 20
744.4948
 11
686.8280
 21
705.7011
  0
LINE
  8
0_00
  6
CONTINUOUS
 62
4
 10
688.2278
 20
744.4699
 11
688.2279
 21
718.0752
  0
LINE
  8
0_00
  6
CONTINUOUS
 62
4
 10
688.2274
 20
708.8466
 11
688.2274
 21
705.6727
  0
LINE
  8
0_00
  6
CONTINUOUS
 62
4
 10
716.8279
 20
708.2727
 11
716.5278
 21
707.9728
  0
LINE
  8
0_00
  6
CONTINUOUS
 62
4
 10
729.1279
 20
707.9728
 11
717.1279
 21
707.9728
  0
LINE
  8
0_00
  6
CONTINUOUS
 62
4
 10
716.8279
 20
708.2727
 11
717.1279
 21
707.9728
  0
LINE
  8
14_0E
  6
CONTINUOUS
 62
4
 10
729.9040
 20
709.5824
 11
720.8279
 21
709.9727
  0
LINE
  8
0_00
  6
CONTINUOUS
 62
4
 10
729.1279
 20
707.9728
 11
729.5278
 21
706.4728
  0
LINE
  8
0_00
  6
CONTINUOUS
 62
4
 10
732.3279
 20
708.1727
 11
737.3279
 21
708.1727
  0
LINE
  8
0_00
  6
CONTINUOUS
 62
4
 10
734.8279
 20
706.7727
 11
734.5279
 21
706.4728
  0
LINE
  8
0_00
  6
CONTINUOUS
 62
4
 10
734.8279
 20
706.7727
 11
735.1279
 21
706.4728
  0
LINE
  8
0_00
  6
CONTINUOUS
 62
4
 10
742.1556
 20
707.9728
 11
737.6278
 21
707.9728
  0
LINE
  8
0_00
  6
CONTINUOUS
 62
4
 10
737.3279
 20
708.1727
 11
737.6278
 21
707.9728
  0
LINE
  8
0_00
  6
CONTINUOUS
 62
4
 10
732.0278
 20
707.9728
 11
730.8402
 21
707.9728
  0
LINE
  8
0_00
  6
CONTINUOUS
 62
4
 10
732.3279
 20
708.1727
 11
732.0278
 21
707.9728
  0
LINE
  8
0_00
  6
CONTINUOUS
 62
4
 10
730.1822
 20
709.3554
 11
730.4521
 21
708.2757
  0
LINE
  8
0_00
  6
CONTINUOUS
 62
4
 10
716.8279
 20
708.2727
 11
717.1279
 21
707.9728
  0
LINE
  8
0_00
  6
CONTINUOUS
 62
4
 10
704.5278
 20
707.9728
 11
716.5278
 21
707.9728
  0
LINE
  8
0_00
  6
CONTINUOUS
 62
4
 10
716.8279
 20
708.2727
 11
716.5278
 21
707.9728
  0
LINE
  8
14_0E
  6
CONTINUOUS
 62
4
 10
703.7517
 20
709.5824
 11
712.8279
 21
709.9727
  0
LINE
  8
0_00
  6
CONTINUOUS
 62
4
 10
704.5278
 20
707.9728
 11
704.1279
 21
706.4728
  0
LINE
  8
0_00
  6
CONTINUOUS
 62
4
 10
701.3279
 20
708.1727
 11
696.3279
 21
708.1727
  0
LINE
  8
0_00
  6
CONTINUOUS
 62
4
 10
698.5278
 20
706.4728
 11
689.4279
 21
706.4728
  0
LINE
  8
0_00
  6
CONTINUOUS
 62
4
 10
698.8278
 20
706.7727
 11
699.1279
 21
706.4728
  0
LINE
  8
0_00
  6
CONTINUOUS
 62
4
 10
698.8278
 20
706.7727
 11
698.5278
 21
706.4728
  0
LINE
  8
0_00
  6
CONTINUOUS
 62
4
 10
691.5000
 20
707.9728
 11
696.0278
 21
707.9728
  0
LINE
  8
0_00
  6
CONTINUOUS
 62
4
 10
696.3279
 20
708.1727
 11
696.0278
 21
707.9728
  0
LINE
  8
0_00
  6
CONTINUOUS
 62
4
 10
701.6279
 20
707.9728
 11
702.8155
 21
707.9728
  0
LINE
  8
0_00
  6
CONTINUOUS
 62
4
 10
701.3279
 20
708.1727
 11
701.6279
 21
707.9728
  0
LINE
  8
0_00
  6
CONTINUOUS
 62
4
 10
703.4735
 20
709.3554
 11
703.2036
 21
708.2757
  0
LINE
  8
0_00
  6
CONTINUOUS
 62
4
 10
720.8279
 20
709.9727
 11
712.8279
 21
709.9727
  0
LINE
  8
0_00
  6
CONTINUOUS
 62
4
 10
744.2278
 20
706.4728
 11
745.2279
 21
707.4727
  0
LINE
  8
0_00
  6
CONTINUOUS
 62
4
 10
745.2279
 20
707.4727
 11
745.2279
 21
708.7727
  0
LINE
  8
0_00
  6
CONTINUOUS
 62
4
 10
745.2279
 20
707.9728
 11
745.2279
 21
707.4727
  0
LINE
  8
0_00
  6
CONTINUOUS
 62
4
 10
744.2473
 20
710.8507
 11
745.1040
 21
710.9257
  0
LINE
  8
0_00
  6
CONTINUOUS
 62
4
 10
743.1407
 20
711.8581
 11
743.9788
 21
711.9314
  0
LINE
  8
0_00
  6
CONTINUOUS
 62
4
 10
742.2279
 20
710.8619
 11
742.2279
 21
710.4290
  0
LINE
  8
14_0E
  6
CONTINUOUS
 62
4
 10
745.3717
 20
711.2848
 11
744.2862
 21
716.5728
  0
LINE
  8
0_00
  6
CONTINUOUS
 62
4
 10
743.5401
 20
715.7320
 11
744.2465
 21
712.2906
  0
LINE
  8
0_00
  6
CONTINUOUS
 62
4
 10
744.2257
 20
716.5728
 11
744.2862
 21
716.5728
  0
LINE
  8
0_00
  6
CONTINUOUS
 62
4
 10
689.4279
 20
706.4728
 11
688.4279
 21
707.4727
  0
LINE
  8
0_00
  6
CONTINUOUS
 62
4
 10
688.4279
 20
707.4727
 11
688.4279
 21
708.7727
  0
LINE
  8
0_00
  6
CONTINUOUS
 62
4
 10
688.4279
 20
707.9728
 11
688.4279
 21
707.4727
  0
LINE
  8
0_00
  6
CONTINUOUS
 62
4
 10
689.4083
 20
710.8507
 11
688.5517
 21
710.9257
  0
LINE
  8
0_00
  6
CONTINUOUS
 62
4
 10
690.5150
 20
711.8581
 11
689.6769
 21
711.9314
  0
LINE
  8
0_00
  6
CONTINUOUS
 62
4
 10
691.4278
 20
710.8619
 11
691.4278
 21
710.4290
  0
LINE
  8
0_00
  6
CONTINUOUS
 62
4
 10
688.2840
 20
711.2848
 11
689.3694
 21
716.5728
  0
LINE
  8
0_00
  6
CONTINUOUS
 62
4
 10
690.1156
 20
715.7320
 11
689.4092
 21
712.2906
  0
LINE
  8
0_00
  6
CONTINUOUS
 62
4
 10
689.4299
 20
716.5728
 11
689.3694
 21
716.5728
  0
LINE
  8
0_00
  6
CONTINUOUS
 62
4
 10
745.4278
 20
713.8966
 11
745.4278
 21
716.2966
  0
LINE
  8
0_00
  6
CONTINUOUS
 62
4
 10
742.7278
 20
716.6965
 11
745.0277
 21
716.6965
  0
LINE
  8
0_00
  6
CONTINUOUS
 62
4
 10
742.4278
 20
717.6965
 11
745.0277
 21
717.6965
  0
LINE
  8
0_00
  6
CONTINUOUS
 62
4
 10
741.9278
 20
717.1966
 11
741.9278
 21
716.0966
  0
LINE
  8
0_00
  6
CONTINUOUS
 62
4
 10
742.7278
 20
716.6965
 11
742.7278
 21
716.4966
  0
LINE
  8
0_00
  6
CONTINUOUS
 62
4
 10
744.3473
 20
710.8020
 11
745.0626
 21
710.8646
  0
LINE
  8
0_00
  6
CONTINUOUS
 62
4
 10
745.4199
 20
711.3422
 11
744.9532
 21
713.6570
  0
LINE
  8
0_00
  6
CONTINUOUS
 62
4
 10
745.1492
 20
713.8966
 11
745.4278
 21
713.8966
  0
LINE
  8
0_00
  6
CONTINUOUS
 62
4
 10
688.2274
 20
713.8966
 11
688.2274
 21
716.2966
  0
LINE
  8
0_00
  6
CONTINUOUS
 62
4
 10
690.9273
 20
716.6965
 11
688.6273
 21
716.6965
  0
LINE
  8
0_00
  6
CONTINUOUS
 62
4
 10
691.2273
 20
717.6965
 11
688.6273
 21
717.6965
  0
LINE
  8
0_00
  6
CONTINUOUS
 62
4
 10
691.7273
 20
717.1966
 11
691.7273
 21
716.0966
  0
LINE
  8
0_00
  6
CONTINUOUS
 62
4
 10
690.9273
 20
716.6965
 11
690.9273
 21
716.4966
  0
LINE
  8
0_00
  6
CONTINUOUS
 62
4
 10
689.3078
 20
710.8020
 11
688.5925
 21
710.8646
  0
LINE
  8
0_00
  6
CONTINUOUS
 62
4
 10
688.2353
 20
711.3422
 11
688.7020
 21
713.6570
  0
LINE
  8
0_00
  6
CONTINUOUS
 62
4
 10
688.5059
 20
713.8966
 11
688.2274
 21
713.8966
  0
LINE
  8
0_00
  6
CONTINUOUS
 62
4
 10
704.1279
 20
706.4728
 11
699.1279
 21
706.4728
  0
LINE
  8
0_00
  6
CONTINUOUS
 62
4
 10
729.5278
 20
706.4728
 11
734.5279
 21
706.4728
  0
LINE
  8
0_00
  6
CONTINUOUS
 62
4
 10
735.1279
 20
706.4728
 11
744.2278
 21
706.4728
  0
LINE
  8
0_00
  6
CONTINUOUS
 62
2
 10
753.8279
 20
744.4948
 11
753.8278
 21
704.9728
  0
LINE
  8
0_00
  6
CONTINUOUS
 62
2
 10
679.8278
 20
744.4948
 11
679.8280
 21
704.9728
  0
LINE
  8
0_00
  6
CONTINUOUS
 62
2
 10
746.1278
 20
704.9728
 11
753.8278
 21
704.9728
  0
LINE
  8
0_00
  6
CONTINUOUS
 62
2
 10
687.5274
 20
704.9728
 11
679.8280
 21
704.9728
  0
LINE
  8
0_00
  6
CONTINUOUS
 62
2
 10
709.3223
 20
707.9728
 11
724.3334
 21
707.9728
  0
LINE
  8
0_00
  6
CONTINUOUS
 62
2
 10
724.3334
 20
705.1192
 11
724.3334
 21
703.1688
  0
LINE
  8
0_00
  6
CONTINUOUS
 62
2
 10
724.3334
 20
707.9728
 11
724.3334
 21
705.1192
  0
LINE
  8
0_00
  6
CONTINUOUS
 62
2
 10
709.3223
 20
705.1192
 11
709.3223
 21
703.1688
  0
LINE
  8
0_00
  6
CONTINUOUS
 62
2
 10
709.3223
 20
707.9728
 11
709.3223
 21
705.1192
  0
LINE
  8
0_00
  6
CONTINUOUS
 62
2
 10
724.3334
 20
703.1688
 11
723.1279
 21
702.4728
  0
LINE
  8
0_00
  6
CONTINUOUS
 62
2
 10
709.3223
 20
703.1688
 11
710.5279
 21
702.4728
  0
LINE
  8
0_00
  6
CONTINUOUS
 62
2
 10
710.5279
 20
702.4728
 11
723.1279
 21
702.4728
  0
LINE
  8
0_00
  6
CONTINUOUS
 62
2
 10
720.5806
 20
705.1192
 11
720.5806
 21
703.1688
  0
LINE
  8
0_00
  6
CONTINUOUS
 62
2
 10
720.5806
 20
707.9728
 11
720.5806
 21
705.1192
  0
LINE
  8
0_00
  6
CONTINUOUS
 62
2
 10
713.0750
 20
705.1192
 11
713.0750
 21
703.1688
  0
LINE
  8
0_00
  6
CONTINUOUS
 62
2
 10
713.0750
 20
707.9728
 11
713.0750
 21
705.1192
  0
LINE
  8
0_00
  6
CONTINUOUS
 62
2
 10
720.8279
 20
722.4678
 11
720.8279
 21
726.7727
  0
LINE
  8
0_00
  6
CONTINUOUS
 62
2
 10
712.8279
 20
722.4678
 11
712.8279
 21
726.7727
  0
LINE
  8
0_00
  6
CONTINUOUS
 62
2
 10
720.8279
 20
726.7727
 11
719.6279
 21
727.9728
  0
LINE
  8
0_00
  6
CONTINUOUS
 62
2
 10
712.8279
 20
726.7727
 11
714.0278
 21
727.9728
  0
LINE
  8
0_00
  6
CONTINUOUS
 62
2
 10
714.0278
 20
727.9728
 11
719.6279
 21
727.9728
  0
LINE
  8
0_00
  6
CONTINUOUS
 62
2
 10
712.8279
 20
726.7727
 11
720.8279
 21
726.7727
  0
LINE
  8
0_00
  6
CONTINUOUS
 62
6
 10
720.0779
 20
722.4678
 11
720.0779
 21
727.5228
  0
LINE
  8
0_00
  6
CONTINUOUS
 62
6
 10
713.5779
 20
722.4678
 11
713.5779
 21
727.5228
  0
LINE
  8
0_00
  6
CONTINUOUS
 62
2
 10
724.5278
 20
715.9679
 11
709.1278
 21
715.9679
  0
LINE
  8
0_00
  6
CONTINUOUS
 62
2
 10
709.1278
 20
715.9679
 11
709.1278
 21
713.9678
  0
LINE
  8
0_00
  6
CONTINUOUS
 62
2
 10
724.5278
 20
715.9679
 11
724.5278
 21
713.9678
  0
LINE
  8
0_00
  6
CONTINUOUS
 62
2
 10
724.5278
 20
713.9678
 11
709.1278
 21
713.9678
  0
LINE
  8
0_00
  6
CONTINUOUS
 62
2
 10
716.5600
 20
715.9679
 11
717.0958
 21
713.9678
  0
LINE
  8
0_00
  6
CONTINUOUS
 62
2
 10
724.3334
 20
715.9679
 11
709.3223
 21
715.9679
  0
LINE
  8
0_00
  6
CONTINUOUS
 62
2
 10
709.3223
 20
715.9679
 11
709.3223
 21
721.7429
  0
LINE
  8
0_00
  6
CONTINUOUS
 62
2
 10
724.3334
 20
715.9679
 11
724.3334
 21
721.7429
  0
LINE
  8
0_00
  6
CONTINUOUS
 62
2
 10
709.3223
 20
721.7429
 11
710.5779
 21
722.4678
  0
LINE
  8
0_00
  6
CONTINUOUS
 62
2
 10
724.3334
 20
721.7429
 11
723.0779
 21
722.4678
  0
LINE
  8
0_00
  6
CONTINUOUS
 62
2
 10
723.0779
 20
722.4678
 11
710.5779
 21
722.4678
  0
LINE
  8
0_00
  6
CONTINUOUS
 62
2
 10
713.0750
 20
715.9679
 11
713.0750
 21
721.7429
  0
LINE
  8
0_00
  6
CONTINUOUS
 62
2
 10
720.5806
 20
715.9679
 11
720.5806
 21
721.7429
  0
LINE
  8
0_00
  6
DASHED
 62
2
 10
720.8279
 20
713.9678
 11
720.8279
 21
709.9727
  0
LINE
  8
0_00
  6
DASHED
 62
2
 10
720.8279
 20
707.9728
 11
720.8279
 21
709.9727
  0
LINE
  8
0_00
  6
DASHED
 62
6
 10
720.0779
 20
713.9678
 11
720.0779
 21
709.9727
  0
LINE
  8
0_00
  6
DASHED
 62
6
 10
720.0779
 20
707.9728
 11
720.0779
 21
709.9727
  0
LINE
  8
0_00
  6
DASHED
 62
6
 10
713.5779
 20
713.9678
 11
713.5779
 21
709.9727
  0
LINE
  8
0_00
  6
DASHED
 62
6
 10
713.5779
 20
707.9728
 11
713.5779
 21
709.9727
  0
LINE
  8
0_00
  6
DASHED
 62
2
 10
712.8279
 20
713.9678
 11
712.8279
 21
709.9727
  0
LINE
  8
0_00
  6
DASHED
 62
2
 10
712.8279
 20
707.9728
 11
712.8279
 21
709.9727
  0
LINE
  8
2_02
  6
CENTER1
 62
6
 10
732.8247
 20
728.4727
 11
702.1260
 21
728.4727
  0
LINE
  8
0_00
  6
CONTINUOUS
 62
2
 10
480.9464
 20
707.9728
 11
495.9575
 21
707.9728
  0
LINE
  8
0_00
  6
CONTINUOUS
 62
2
 10
495.9575
 20
705.1192
 11
495.9575
 21
703.1688
  0
LINE
  8
0_00
  6
CONTINUOUS
 62
2
 10
495.9575
 20
707.9728
 11
495.9575
 21
705.1192
  0
LINE
  8
0_00
  6
CONTINUOUS
 62
2
 10
480.9464
 20
705.1192
 11
480.9464
 21
703.1688
  0
LINE
  8
0_00
  6
CONTINUOUS
 62
2
 10
480.9464
 20
707.9728
 11
480.9464
 21
705.1192
  0
LINE
  8
0_00
  6
CONTINUOUS
 62
2
 10
495.9575
 20
703.1688
 11
494.7519
 21
702.4728
  0
LINE
  8
0_00
  6
CONTINUOUS
 62
2
 10
480.9464
 20
703.1688
 11
482.1519
 21
702.4728
  0
LINE
  8
0_00
  6
CONTINUOUS
 62
2
 10
482.1519
 20
702.4728
 11
494.7519
 21
702.4728
  0
LINE
  8
0_00
  6
CONTINUOUS
 62
2
 10
492.2047
 20
705.1192
 11
492.2047
 21
703.1688
  0
LINE
  8
0_00
  6
CONTINUOUS
 62
2
 10
492.2047
 20
707.9728
 11
492.2047
 21
705.1192
  0
LINE
  8
0_00
  6
CONTINUOUS
 62
2
 10
484.6992
 20
705.1192
 11
484.6992
 21
703.1688
  0
LINE
  8
0_00
  6
CONTINUOUS
 62
2
 10
484.6992
 20
707.9728
 11
484.6992
 21
705.1192
  0
LINE
  8
0_00
  6
CONTINUOUS
 62
2
 10
492.4520
 20
722.4728
 11
492.4520
 21
726.7727
  0
LINE
  8
0_00
  6
CONTINUOUS
 62
2
 10
484.4519
 20
722.4728
 11
484.4519
 21
726.7727
  0
LINE
  8
0_00
  6
CONTINUOUS
 62
2
 10
492.4520
 20
726.7727
 11
491.2520
 21
727.9728
  0
LINE
  8
0_00
  6
CONTINUOUS
 62
2
 10
484.4519
 20
726.7727
 11
485.6519
 21
727.9728
  0
LINE
  8
0_00
  6
CONTINUOUS
 62
2
 10
485.6519
 20
727.9728
 11
491.2520
 21
727.9728
  0
LINE
  8
0_00
  6
CONTINUOUS
 62
2
 10
484.4519
 20
726.7727
 11
492.4520
 21
726.7727
  0
LINE
  8
0_00
  6
CONTINUOUS
 62
6
 10
491.7020
 20
722.4728
 11
491.7020
 21
727.5228
  0
LINE
  8
0_00
  6
CONTINUOUS
 62
6
 10
485.2019
 20
722.4728
 11
485.2019
 21
727.5228
  0
LINE
  8
0_00
  6
CONTINUOUS
 62
2
 10
496.1520
 20
715.9728
 11
480.7520
 21
715.9728
  0
LINE
  8
0_00
  6
CONTINUOUS
 62
2
 10
480.7520
 20
715.9728
 11
480.7520
 21
713.9728
  0
LINE
  8
0_00
  6
CONTINUOUS
 62
2
 10
496.1520
 20
715.9728
 11
496.1520
 21
713.9728
  0
LINE
  8
0_00
  6
CONTINUOUS
 62
2
 10
496.1520
 20
713.9728
 11
480.7520
 21
713.9728
  0
LINE
  8
0_00
  6
CONTINUOUS
 62
2
 10
488.1840
 20
715.9728
 11
488.7199
 21
713.9728
  0
LINE
  8
0_00
  6
CONTINUOUS
 62
2
 10
495.9575
 20
715.9728
 11
480.9464
 21
715.9728
  0
LINE
  8
0_00
  6
CONTINUOUS
 62
2
 10
480.9464
 20
715.9728
 11
480.9464
 21
721.7479
  0
LINE
  8
0_00
  6
CONTINUOUS
 62
2
 10
495.9575
 20
715.9728
 11
495.9575
 21
721.7479
  0
LINE
  8
0_00
  6
CONTINUOUS
 62
2
 10
480.9464
 20
721.7479
 11
482.2019
 21
722.4728
  0
LINE
  8
0_00
  6
CONTINUOUS
 62
2
 10
495.9575
 20
721.7479
 11
494.7019
 21
722.4728
  0
LINE
  8
0_00
  6
CONTINUOUS
 62
2
 10
494.7019
 20
722.4728
 11
482.2019
 21
722.4728
  0
LINE
  8
0_00
  6
CONTINUOUS
 62
2
 10
484.6992
 20
715.9728
 11
484.6992
 21
721.7479
  0
LINE
  8
0_00
  6
CONTINUOUS
 62
2
 10
492.2047
 20
715.9728
 11
492.2047
 21
721.7479
  0
LINE
  8
0_00
  6
CONTINUOUS
 62
4
 10
495.9575
 20
704.9728
 11
515.9520
 21
704.9728
  0
LINE
  8
0_00
  6
CONTINUOUS
 62
2
 10
492.4520
 20
713.9728
 11
492.4520
 21
709.9727
  0
LINE
  8
0_00
  6
CONTINUOUS
 62
2
 10
492.4520
 20
707.9728
 11
492.4520
 21
709.9727
  0
LINE
  8
0_00
  6
CONTINUOUS
 62
6
 10
491.7020
 20
713.9728
 11
491.7020
 21
709.9727
  0
LINE
  8
0_00
  6
CONTINUOUS
 62
6
 10
491.7020
 20
707.9728
 11
491.7020
 21
709.9727
  0
LINE
  8
0_00
  6
CONTINUOUS
 62
6
 10
485.2019
 20
713.9728
 11
485.2019
 21
709.9727
  0
LINE
  8
0_00
  6
CONTINUOUS
 62
6
 10
485.2019
 20
707.9728
 11
485.2019
 21
709.9727
  0
LINE
  8
0_00
  6
CONTINUOUS
 62
2
 10
484.4519
 20
713.9728
 11
484.4519
 21
709.9727
  0
LINE
  8
0_00
  6
CONTINUOUS
 62
2
 10
484.4519
 20
707.9728
 11
484.4519
 21
709.9727
  0
LINE
  8
0_00
  6
CONTINUOUS
 62
4
 10
515.9520
 20
750.3728
 11
461.2617
 21
750.3728
  0
LINE
  8
0_00
  6
CONTINUOUS
 62
2
 10
520.8444
 20
758.5133
 11
520.9520
 21
758.4057
  0
LINE
  8
0_00
  6
CONTINUOUS
 62
2
 10
519.4998
 20
755.6152
 11
520.9520
 21
754.1631
  0
LINE
  8
0_00
  6
CONTINUOUS
 62
2
 10
517.3900
 20
753.4823
 11
520.4831
 21
750.3894
  0
LINE
  8
0_00
  6
CONTINUOUS
 62
2
 10
514.5202
 20
752.1096
 11
514.6570
 21
751.9728
  0
LINE
  8
0_00
  6
CONTINUOUS
 62
4
 10
460.8087
 20
751.9728
 11
460.8841
 21
751.7113
  0
LINE
  8
0_00
  6
CONTINUOUS
 62
4
 10
460.8841
 20
751.7113
 11
460.9593
 21
751.4498
  0
LINE
  8
0_00
  6
CONTINUOUS
 62
4
 10
460.9593
 20
751.4498
 11
461.0340
 21
751.1883
  0
LINE
  8
0_00
  6
CONTINUOUS
 62
4
 10
461.0340
 20
751.1883
 11
461.1081
 21
750.9269
  0
LINE
  8
0_00
  6
CONTINUOUS
 62
4
 10
461.1081
 20
750.9269
 11
461.1812
 21
750.6653
  0
LINE
  8
0_00
  6
CONTINUOUS
 62
4
 10
461.1812
 20
750.6653
 11
461.2533
 21
750.4037
  0
LINE
  8
0_00
  6
CONTINUOUS
 62
4
 10
461.2533
 20
750.4037
 11
461.3240
 21
750.1422
  0
LINE
  8
0_00
  6
CONTINUOUS
 62
4
 10
461.3240
 20
750.1422
 11
461.3931
 21
749.8805
  0
LINE
  8
0_00
  6
CONTINUOUS
 62
4
 10
461.3931
 20
749.8805
 11
461.4605
 21
749.6188
  0
LINE
  8
0_00
  6
CONTINUOUS
 62
4
 10
461.4605
 20
749.6188
 11
461.5258
 21
749.3570
  0
LINE
  8
0_00
  6
CONTINUOUS
 62
4
 10
461.5258
 20
749.3570
 11
461.5888
 21
749.0952
  0
LINE
  8
0_00
  6
CONTINUOUS
 62
4
 10
461.5888
 20
749.0952
 11
461.6494
 21
748.8333
  0
LINE
  8
0_00
  6
CONTINUOUS
 62
4
 10
461.6494
 20
748.8333
 11
461.7073
 21
748.5713
  0
LINE
  8
0_00
  6
CONTINUOUS
 62
4
 10
461.7073
 20
748.5713
 11
461.7623
 21
748.3092
  0
LINE
  8
0_00
  6
CONTINUOUS
 62
4
 10
461.7623
 20
748.3092
 11
461.8141
 21
748.0469
  0
LINE
  8
0_00
  6
CONTINUOUS
 62
4
 10
461.8141
 20
748.0469
 11
461.8626
 21
747.7847
  0
LINE
  8
0_00
  6
CONTINUOUS
 62
4
 10
461.8626
 20
747.7847
 11
461.9074
 21
747.5222
  0
LINE
  8
0_00
  6
CONTINUOUS
 62
4
 10
461.9074
 20
747.5222
 11
461.9484
 21
747.2597
  0
LINE
  8
0_00
  6
CONTINUOUS
 62
4
 10
461.9484
 20
747.2597
 11
461.9854
 21
746.9970
  0
LINE
  8
0_00
  6
CONTINUOUS
 62
4
 10
461.9854
 20
746.9970
 11
462.0181
 21
746.7343
  0
LINE
  8
0_00
  6
CONTINUOUS
 62
4
 10
462.0181
 20
746.7343
 11
462.0463
 21
746.4713
  0
LINE
  8
0_00
  6
CONTINUOUS
 62
4
 10
462.0463
 20
746.4713
 11
462.0698
 21
746.2082
  0
LINE
  8
0_00
  6
CONTINUOUS
 62
4
 10
462.0698
 20
746.2082
 11
462.0884
 21
745.9449
  0
LINE
  8
0_00
  6
CONTINUOUS
 62
4
 10
462.0884
 20
745.9449
 11
462.1017
 21
745.6815
  0
LINE
  8
0_00
  6
CONTINUOUS
 62
4
 10
462.1017
 20
745.6815
 11
462.1098
 21
745.4180
  0
LINE
  8
0_00
  6
CONTINUOUS
 62
4
 10
462.1098
 20
745.4180
 11
462.1121
 21
745.1543
  0
LINE
  8
0_00
  6
CONTINUOUS
 62
4
 10
462.1121
 20
745.1543
 11
462.1086
 21
744.8903
  0
LINE
  8
0_00
  6
CONTINUOUS
 62
4
 10
462.1086
 20
744.8903
 11
462.0992
 21
744.6261
  0
LINE
  8
0_00
  6
CONTINUOUS
 62
4
 10
462.0992
 20
744.6261
 11
462.0833
 21
744.3618
  0
LINE
  8
0_00
  6
CONTINUOUS
 62
4
 10
462.0833
 20
744.3618
 11
462.0609
 21
744.0973
  0
LINE
  8
0_00
  6
CONTINUOUS
 62
4
 10
462.0609
 20
744.0973
 11
462.0319
 21
743.8326
  0
LINE
  8
0_00
  6
CONTINUOUS
 62
4
 10
462.0319
 20
743.8326
 11
461.9967
 21
743.5676
  0
LINE
  8
0_00
  6
CONTINUOUS
 62
4
 10
461.9967
 20
743.5676
 11
461.9556
 21
743.3025
  0
LINE
  8
0_00
  6
CONTINUOUS
 62
4
 10
461.9556
 20
743.3025
 11
461.9091
 21
743.0372
  0
LINE
  8
0_00
  6
CONTINUOUS
 62
4
 10
461.9091
 20
743.0372
 11
461.8579
 21
742.7718
  0
LINE
  8
0_00
  6
CONTINUOUS
 62
4
 10
461.8579
 20
742.7718
 11
461.8022
 21
742.5061
  0
LINE
  8
0_00
  6
CONTINUOUS
 62
4
 10
461.8022
 20
742.5061
 11
461.7424
 21
742.2403
  0
LINE
  8
0_00
  6
CONTINUOUS
 62
4
 10
461.7424
 20
742.2403
 11
461.6792
 21
741.9743
  0
LINE
  8
0_00
  6
CONTINUOUS
 62
4
 10
461.6792
 20
741.9743
 11
461.6131
 21
741.7083
  0
LINE
  8
0_00
  6
CONTINUOUS
 62
4
 10
461.6131
 20
741.7083
 11
461.5443
 21
741.4421
  0
LINE
  8
0_00
  6
CONTINUOUS
 62
4
 10
461.5443
 20
741.4421
 11
461.4735
 21
741.1757
  0
LINE
  8
0_00
  6
CONTINUOUS
 62
4
 10
461.4735
 20
741.1757
 11
461.4011
 21
740.9093
  0
LINE
  8
0_00
  6
CONTINUOUS
 62
4
 10
461.4011
 20
740.9093
 11
461.3274
 21
740.6428
  0
LINE
  8
0_00
  6
CONTINUOUS
 62
4
 10
461.3274
 20
740.6428
 11
461.2531
 21
740.3761
  0
LINE
  8
0_00
  6
CONTINUOUS
 62
4
 10
461.2531
 20
740.3761
 11
461.1785
 21
740.1095
  0
LINE
  8
0_00
  6
CONTINUOUS
 62
4
 10
461.1785
 20
740.1095
 11
461.1042
 21
739.8427
  0
LINE
  8
0_00
  6
CONTINUOUS
 62
4
 10
461.1042
 20
739.8427
 11
461.0305
 21
739.5759
  0
LINE
  8
0_00
  6
CONTINUOUS
 62
4
 10
461.0305
 20
739.5759
 11
460.9581
 21
739.3091
  0
LINE
  8
0_00
  6
CONTINUOUS
 62
4
 10
460.9581
 20
739.3091
 11
460.8873
 21
739.0421
  0
LINE
  8
0_00
  6
CONTINUOUS
 62
4
 10
460.8873
 20
739.0421
 11
460.8186
 21
738.7752
  0
LINE
  8
0_00
  6
CONTINUOUS
 62
4
 10
460.8186
 20
738.7752
 11
460.7524
 21
738.5083
  0
LINE
  8
0_00
  6
CONTINUOUS
 62
4
 10
460.7524
 20
738.5083
 11
460.6892
 21
738.2413
  0
LINE
  8
0_00
  6
CONTINUOUS
 62
4
 10
460.6892
 20
738.2413
 11
460.6295
 21
737.9744
  0
LINE
  8
0_00
  6
CONTINUOUS
 62
4
 10
460.6295
 20
737.9744
 11
460.5738
 21
737.7074
  0
LINE
  8
0_00
  6
CONTINUOUS
 62
4
 10
460.5738
 20
737.7074
 11
460.5225
 21
737.4406
  0
LINE
  8
0_00
  6
CONTINUOUS
 62
4
 10
460.5225
 20
737.4406
 11
460.4762
 21
737.1736
  0
LINE
  8
0_00
  6
CONTINUOUS
 62
4
 10
460.4762
 20
737.1736
 11
460.4350
 21
736.9068
  0
LINE
  8
0_00
  6
CONTINUOUS
 62
4
 10
460.4350
 20
736.9068
 11
460.3998
 21
736.6400
  0
LINE
  8
0_00
  6
CONTINUOUS
 62
4
 10
460.3998
 20
736.6400
 11
460.3709
 21
736.3732
  0
LINE
  8
0_00
  6
CONTINUOUS
 62
4
 10
460.3709
 20
736.3732
 11
460.3486
 21
736.1066
  0
LINE
  8
0_00
  6
CONTINUOUS
 62
4
 10
460.3486
 20
736.1066
 11
460.3334
 21
735.8400
  0
LINE
  8
0_00
  6
CONTINUOUS
 62
4
 10
460.3334
 20
735.8400
 11
460.3250
 21
735.5733
  0
LINE
  8
0_00
  6
CONTINUOUS
 62
4
 10
460.3250
 20
735.5733
 11
460.3227
 21
735.3066
  0
LINE
  8
0_00
  6
CONTINUOUS
 62
4
 10
460.3227
 20
735.3066
 11
460.3261
 21
735.0396
  0
LINE
  8
0_00
  6
CONTINUOUS
 62
4
 10
460.3261
 20
735.0396
 11
460.3348
 21
734.7724
  0
LINE
  8
0_00
  6
CONTINUOUS
 62
4
 10
460.3348
 20
734.7724
 11
460.3482
 21
734.5046
  0
LINE
  8
0_00
  6
CONTINUOUS
 62
4
 10
460.3482
 20
734.5046
 11
460.3657
 21
734.2364
  0
LINE
  8
0_00
  6
CONTINUOUS
 62
4
 10
460.3657
 20
734.2364
 11
460.3870
 21
733.9674
  0
LINE
  8
0_00
  6
CONTINUOUS
 62
4
 10
460.3870
 20
733.9674
 11
460.4114
 21
733.6977
  0
LINE
  8
0_00
  6
CONTINUOUS
 62
4
 10
460.4114
 20
733.6977
 11
460.4386
 21
733.4274
  0
LINE
  8
0_00
  6
CONTINUOUS
 62
4
 10
460.4386
 20
733.4274
 11
460.4679
 21
733.1560
  0
LINE
  8
0_00
  6
CONTINUOUS
 62
4
 10
460.4679
 20
733.1560
 11
460.4989
 21
732.8835
  0
LINE
  8
0_00
  6
CONTINUOUS
 62
4
 10
460.4989
 20
732.8835
 11
460.5312
 21
732.6100
  0
LINE
  8
0_00
  6
CONTINUOUS
 62
4
 10
460.5312
 20
732.6100
 11
460.5641
 21
732.3352
  0
LINE
  8
0_00
  6
CONTINUOUS
 62
4
 10
460.5641
 20
732.3352
 11
460.5973
 21
732.0591
  0
LINE
  8
0_00
  6
CONTINUOUS
 62
4
 10
460.5973
 20
732.0591
 11
460.6301
 21
731.7815
  0
LINE
  8
0_00
  6
CONTINUOUS
 62
4
 10
460.6301
 20
731.7815
 11
460.6621
 21
731.5023
  0
LINE
  8
0_00
  6
CONTINUOUS
 62
4
 10
460.6621
 20
731.5023
 11
460.6929
 21
731.2216
  0
LINE
  8
0_00
  6
CONTINUOUS
 62
4
 10
460.6929
 20
731.2216
 11
460.7217
 21
730.9391
  0
LINE
  8
0_00
  6
CONTINUOUS
 62
4
 10
460.7217
 20
730.9391
 11
460.7483
 21
730.6548
  0
LINE
  8
0_00
  6
CONTINUOUS
 62
4
 10
460.7483
 20
730.6548
 11
460.7721
 21
730.3686
  0
LINE
  8
0_00
  6
CONTINUOUS
 62
4
 10
460.7721
 20
730.3686
 11
460.7926
 21
730.0802
  0
LINE
  8
0_00
  6
CONTINUOUS
 62
4
 10
460.7926
 20
730.0802
 11
460.8092
 21
729.7897
  0
LINE
  8
0_00
  6
CONTINUOUS
 62
4
 10
460.8092
 20
729.7897
 11
460.8214
 21
729.4969
  0
LINE
  8
0_00
  6
CONTINUOUS
 62
4
 10
460.8214
 20
729.4969
 11
460.8290
 21
729.2019
  0
LINE
  8
0_00
  6
CONTINUOUS
 62
4
 10
460.8290
 20
729.2019
 11
460.8312
 21
728.9044
  0
LINE
  8
0_00
  6
CONTINUOUS
 62
4
 10
460.8312
 20
728.9044
 11
460.8275
 21
728.6043
  0
LINE
  8
0_00
  6
CONTINUOUS
 62
4
 10
460.8275
 20
728.6043
 11
460.8176
 21
728.3016
  0
LINE
  8
0_00
  6
CONTINUOUS
 62
4
 10
460.8176
 20
728.3016
 11
460.8008
 21
727.9961
  0
LINE
  8
0_00
  6
CONTINUOUS
 62
4
 10
460.8008
 20
727.9961
 11
460.7767
 21
727.6877
  0
LINE
  8
0_00
  6
CONTINUOUS
 62
4
 10
460.7767
 20
727.6877
 11
460.7449
 21
727.3766
  0
LINE
  8
0_00
  6
CONTINUOUS
 62
4
 10
460.7449
 20
727.3766
 11
460.7059
 21
727.0627
  0
LINE
  8
0_00
  6
CONTINUOUS
 62
4
 10
460.7059
 20
727.0627
 11
460.6603
 21
726.7463
  0
LINE
  8
0_00
  6
CONTINUOUS
 62
4
 10
460.6603
 20
726.7463
 11
460.6086
 21
726.4279
  0
LINE
  8
0_00
  6
CONTINUOUS
 62
4
 10
460.6086
 20
726.4279
 11
460.5515
 21
726.1074
  0
LINE
  8
0_00
  6
CONTINUOUS
 62
4
 10
460.5515
 20
726.1074
 11
460.4894
 21
725.7855
  0
LINE
  8
0_00
  6
CONTINUOUS
 62
4
 10
460.4894
 20
725.7855
 11
460.4230
 21
725.4621
  0
LINE
  8
0_00
  6
CONTINUOUS
 62
4
 10
460.4230
 20
725.4621
 11
460.3530
 21
725.1377
  0
LINE
  8
0_00
  6
CONTINUOUS
 62
4
 10
460.3530
 20
725.1377
 11
460.2798
 21
724.8125
  0
LINE
  8
0_00
  6
CONTINUOUS
 62
4
 10
460.2798
 20
724.8125
 11
460.2041
 21
724.4867
  0
LINE
  8
0_00
  6
CONTINUOUS
 62
4
 10
460.2041
 20
724.4867
 11
460.1264
 21
724.1607
  0
LINE
  8
0_00
  6
CONTINUOUS
 62
4
 10
460.1264
 20
724.1607
 11
460.0475
 21
723.8347
  0
LINE
  8
0_00
  6
CONTINUOUS
 62
4
 10
460.0475
 20
723.8347
 11
459.9676
 21
723.5089
  0
LINE
  8
0_00
  6
CONTINUOUS
 62
4
 10
459.9676
 20
723.5089
 11
459.8877
 21
723.1836
  0
LINE
  8
0_00
  6
CONTINUOUS
 62
4
 10
459.8877
 20
723.1836
 11
459.8081
 21
722.8591
  0
LINE
  8
0_00
  6
CONTINUOUS
 62
4
 10
459.8081
 20
722.8591
 11
459.7296
 21
722.5357
  0
LINE
  8
0_00
  6
CONTINUOUS
 62
4
 10
459.7296
 20
722.5357
 11
459.6526
 21
722.2137
  0
LINE
  8
0_00
  6
CONTINUOUS
 62
4
 10
459.6526
 20
722.2137
 11
459.5779
 21
721.8932
  0
LINE
  8
0_00
  6
CONTINUOUS
 62
4
 10
459.5779
 20
721.8932
 11
459.5058
 21
721.5746
  0
LINE
  8
0_00
  6
CONTINUOUS
 62
4
 10
459.5058
 20
721.5746
 11
459.4372
 21
721.2582
  0
LINE
  8
0_00
  6
CONTINUOUS
 62
4
 10
459.4372
 20
721.2582
 11
459.3725
 21
720.9441
  0
LINE
  8
0_00
  6
CONTINUOUS
 62
4
 10
459.3725
 20
720.9441
 11
459.3123
 21
720.6328
  0
LINE
  8
0_00
  6
CONTINUOUS
 62
4
 10
459.3123
 20
720.6328
 11
459.2572
 21
720.3243
  0
LINE
  8
0_00
  6
CONTINUOUS
 62
4
 10
459.2572
 20
720.3243
 11
459.2078
 21
720.0191
  0
LINE
  8
0_00
  6
CONTINUOUS
 62
4
 10
459.2078
 20
720.0191
 11
459.1648
 21
719.7173
  0
LINE
  8
0_00
  6
CONTINUOUS
 62
4
 10
459.1648
 20
719.7173
 11
459.1285
 21
719.4193
  0
LINE
  8
0_00
  6
CONTINUOUS
 62
4
 10
459.1285
 20
719.4193
 11
459.0999
 21
719.1254
  0
LINE
  8
0_00
  6
CONTINUOUS
 62
4
 10
459.0999
 20
719.1254
 11
459.0791
 21
718.8357
  0
LINE
  8
0_00
  6
CONTINUOUS
 62
4
 10
459.0791
 20
718.8357
 11
459.0672
 21
718.5504
  0
LINE
  8
0_00
  6
CONTINUOUS
 62
4
 10
459.0672
 20
718.5504
 11
459.0644
 21
718.2702
  0
LINE
  8
0_00
  6
CONTINUOUS
 62
4
 10
459.0644
 20
718.2702
 11
459.0712
 21
717.9949
  0
LINE
  8
0_00
  6
CONTINUOUS
 62
4
 10
459.0712
 20
717.9949
 11
459.0873
 21
717.7245
  0
LINE
  8
0_00
  6
CONTINUOUS
 62
4
 10
459.0873
 20
717.7245
 11
459.1122
 21
717.4593
  0
LINE
  8
0_00
  6
CONTINUOUS
 62
4
 10
459.1122
 20
717.4593
 11
459.1452
 21
717.1989
  0
LINE
  8
0_00
  6
CONTINUOUS
 62
4
 10
459.1452
 20
717.1989
 11
459.1858
 21
716.9434
  0
LINE
  8
0_00
  6
CONTINUOUS
 62
4
 10
459.1858
 20
716.9434
 11
459.2335
 21
716.6927
  0
LINE
  8
0_00
  6
CONTINUOUS
 62
4
 10
459.2335
 20
716.6927
 11
459.2877
 21
716.4469
  0
LINE
  8
0_00
  6
CONTINUOUS
 62
4
 10
459.2877
 20
716.4469
 11
459.3479
 21
716.2057
  0
LINE
  8
0_00
  6
CONTINUOUS
 62
4
 10
459.3479
 20
716.2057
 11
459.4134
 21
715.9693
  0
LINE
  8
0_00
  6
CONTINUOUS
 62
4
 10
459.4134
 20
715.9693
 11
459.4838
 21
715.7374
  0
LINE
  8
0_00
  6
CONTINUOUS
 62
4
 10
459.4838
 20
715.7374
 11
459.5586
 21
715.5102
  0
LINE
  8
0_00
  6
CONTINUOUS
 62
4
 10
459.5586
 20
715.5102
 11
459.6370
 21
715.2874
  0
LINE
  8
0_00
  6
CONTINUOUS
 62
4
 10
459.6370
 20
715.2874
 11
459.7187
 21
715.0691
  0
LINE
  8
0_00
  6
CONTINUOUS
 62
4
 10
459.7187
 20
715.0691
 11
459.8030
 21
714.8551
  0
LINE
  8
0_00
  6
CONTINUOUS
 62
4
 10
459.8030
 20
714.8551
 11
459.8895
 21
714.6456
  0
LINE
  8
0_00
  6
CONTINUOUS
 62
4
 10
459.8895
 20
714.6456
 11
459.9774
 21
714.4404
  0
LINE
  8
0_00
  6
CONTINUOUS
 62
4
 10
459.9774
 20
714.4404
 11
460.0664
 21
714.2395
  0
LINE
  8
0_00
  6
CONTINUOUS
 62
4
 10
460.0664
 20
714.2395
 11
460.1558
 21
714.0428
  0
LINE
  8
0_00
  6
CONTINUOUS
 62
4
 10
460.1558
 20
714.0428
 11
460.2450
 21
713.8503
  0
LINE
  8
0_00
  6
CONTINUOUS
 62
4
 10
460.2450
 20
713.8503
 11
460.3337
 21
713.6618
  0
LINE
  8
0_00
  6
CONTINUOUS
 62
4
 10
460.3337
 20
713.6618
 11
460.4211
 21
713.4773
  0
LINE
  8
0_00
  6
CONTINUOUS
 62
4
 10
460.4211
 20
713.4773
 11
460.5067
 21
713.2969
  0
LINE
  8
0_00
  6
CONTINUOUS
 62
4
 10
460.5067
 20
713.2969
 11
460.5901
 21
713.1205
  0
LINE
  8
0_00
  6
CONTINUOUS
 62
4
 10
460.5901
 20
713.1205
 11
460.6706
 21
712.9480
  0
LINE
  8
0_00
  6
CONTINUOUS
 62
4
 10
460.6706
 20
712.9480
 11
460.7476
 21
712.7792
  0
LINE
  8
0_00
  6
CONTINUOUS
 62
4
 10
460.7476
 20
712.7792
 11
460.8206
 21
712.6143
  0
LINE
  8
0_00
  6
CONTINUOUS
 62
4
 10
460.8206
 20
712.6143
 11
460.8891
 21
712.4532
  0
LINE
  8
0_00
  6
CONTINUOUS
 62
4
 10
460.8891
 20
712.4532
 11
460.9526
 21
712.2957
  0
LINE
  8
0_00
  6
CONTINUOUS
 62
4
 10
460.9526
 20
712.2957
 11
461.0105
 21
712.1419
  0
LINE
  8
0_00
  6
CONTINUOUS
 62
4
 10
461.0105
 20
712.1419
 11
461.0621
 21
711.9917
  0
LINE
  8
0_00
  6
CONTINUOUS
 62
4
 10
461.0621
 20
711.9917
 11
461.1071
 21
711.8449
  0
LINE
  8
0_00
  6
CONTINUOUS
 62
4
 10
461.1071
 20
711.8449
 11
461.1457
 21
711.7017
  0
LINE
  8
0_00
  6
CONTINUOUS
 62
4
 10
461.1457
 20
711.7017
 11
461.1782
 21
711.5617
  0
LINE
  8
0_00
  6
CONTINUOUS
 62
4
 10
461.1782
 20
711.5617
 11
461.2048
 21
711.4247
  0
LINE
  8
0_00
  6
CONTINUOUS
 62
4
 10
461.2048
 20
711.4247
 11
461.2258
 21
711.2907
  0
LINE
  8
0_00
  6
CONTINUOUS
 62
4
 10
461.2258
 20
711.2907
 11
461.2416
 21
711.1596
  0
LINE
  8
0_00
  6
CONTINUOUS
 62
4
 10
461.2416
 20
711.1596
 11
461.2525
 21
711.0310
  0
LINE
  8
0_00
  6
CONTINUOUS
 62
4
 10
461.2525
 20
711.0310
 11
461.2587
 21
710.9050
  0
LINE
  8
0_00
  6
CONTINUOUS
 62
4
 10
461.2587
 20
710.9050
 11
461.2604
 21
710.7814
  0
LINE
  8
0_00
  6
CONTINUOUS
 62
4
 10
461.2604
 20
710.7814
 11
461.2581
 21
710.6599
  0
LINE
  8
0_00
  6
CONTINUOUS
 62
4
 10
461.2581
 20
710.6599
 11
461.2520
 21
710.5406
  0
LINE
  8
0_00
  6
CONTINUOUS
 62
4
 10
461.2520
 20
710.5406
 11
461.2424
 21
710.4232
  0
LINE
  8
0_00
  6
CONTINUOUS
 62
4
 10
461.2424
 20
710.4232
 11
461.2297
 21
710.3075
  0
LINE
  8
0_00
  6
CONTINUOUS
 62
4
 10
461.2297
 20
710.3075
 11
461.2140
 21
710.1935
  0
LINE
  8
0_00
  6
CONTINUOUS
 62
4
 10
461.2140
 20
710.1935
 11
461.1957
 21
710.0810
  0
LINE
  8
0_00
  6
CONTINUOUS
 62
4
 10
461.1957
 20
710.0810
 11
461.1751
 21
709.9698
  0
LINE
  8
0_00
  6
CONTINUOUS
 62
4
 10
461.1751
 20
709.9698
 11
461.1525
 21
709.8599
  0
LINE
  8
0_00
  6
CONTINUOUS
 62
4
 10
461.1525
 20
709.8599
 11
461.1281
 21
709.7510
  0
LINE
  8
0_00
  6
CONTINUOUS
 62
4
 10
461.1281
 20
709.7510
 11
461.1024
 21
709.6430
  0
LINE
  8
0_00
  6
CONTINUOUS
 62
4
 10
461.1024
 20
709.6430
 11
461.0755
 21
709.5358
  0
LINE
  8
0_00
  6
CONTINUOUS
 62
4
 10
461.0755
 20
709.5358
 11
461.0477
 21
709.4291
  0
LINE
  8
0_00
  6
CONTINUOUS
 62
4
 10
461.0477
 20
709.4291
 11
461.0194
 21
709.3230
  0
LINE
  8
0_00
  6
CONTINUOUS
 62
4
 10
461.0194
 20
709.3230
 11
460.9909
 21
709.2171
  0
LINE
  8
0_00
  6
CONTINUOUS
 62
4
 10
460.9909
 20
709.2171
 11
460.9623
 21
709.1115
  0
LINE
  8
0_00
  6
CONTINUOUS
 62
4
 10
460.9623
 20
709.1115
 11
460.9341
 21
709.0057
  0
LINE
  8
0_00
  6
CONTINUOUS
 62
4
 10
460.9341
 20
709.0057
 11
460.9066
 21
708.9000
  0
LINE
  8
0_00
  6
CONTINUOUS
 62
4
 10
460.9066
 20
708.9000
 11
460.8800
 21
708.7939
  0
LINE
  8
0_00
  6
CONTINUOUS
 62
4
 10
460.8800
 20
708.7939
 11
460.8546
 21
708.6875
  0
LINE
  8
0_00
  6
CONTINUOUS
 62
4
 10
460.8546
 20
708.6875
 11
460.8307
 21
708.5804
  0
LINE
  8
0_00
  6
CONTINUOUS
 62
4
 10
460.8307
 20
708.5804
 11
460.8087
 21
708.4728
  0
LINE
  8
0_00
  6
CONTINUOUS
 62
4
 10
460.8087
 20
708.4728
 11
460.7887
 21
708.3642
  0
LINE
  8
0_00
  6
CONTINUOUS
 62
4
 10
460.7887
 20
708.3642
 11
460.7706
 21
708.2548
  0
LINE
  8
0_00
  6
CONTINUOUS
 62
4
 10
460.7706
 20
708.2548
 11
460.7547
 21
708.1447
  0
LINE
  8
0_00
  6
CONTINUOUS
 62
4
 10
460.7547
 20
708.1447
 11
460.7406
 21
708.0336
  0
LINE
  8
0_00
  6
CONTINUOUS
 62
4
 10
460.7406
 20
708.0336
 11
460.7282
 21
707.9220
  0
LINE
  8
0_00
  6
CONTINUOUS
 62
4
 10
460.7282
 20
707.9220
 11
460.7177
 21
707.8096
  0
LINE
  8
0_00
  6
CONTINUOUS
 62
4
 10
460.7177
 20
707.8096
 11
460.7088
 21
707.6965
  0
LINE
  8
0_00
  6
CONTINUOUS
 62
4
 10
460.7088
 20
707.6965
 11
460.7016
 21
707.5828
  0
LINE
  8
0_00
  6
CONTINUOUS
 62
4
 10
460.7016
 20
707.5828
 11
460.6959
 21
707.4685
  0
LINE
  8
0_00
  6
CONTINUOUS
 62
4
 10
460.6959
 20
707.4685
 11
460.6917
 21
707.3535
  0
LINE
  8
0_00
  6
CONTINUOUS
 62
4
 10
460.6917
 20
707.3535
 11
460.6888
 21
707.2380
  0
LINE
  8
0_00
  6
CONTINUOUS
 62
4
 10
460.6888
 20
707.2380
 11
460.6874
 21
707.1219
  0
LINE
  8
0_00
  6
CONTINUOUS
 62
4
 10
460.6874
 20
707.1219
 11
460.6871
 21
707.0054
  0
LINE
  8
0_00
  6
CONTINUOUS
 62
4
 10
460.6871
 20
707.0054
 11
460.6881
 21
706.8883
  0
LINE
  8
0_00
  6
CONTINUOUS
 62
4
 10
460.6881
 20
706.8883
 11
460.6902
 21
706.7708
  0
LINE
  8
0_00
  6
CONTINUOUS
 62
4
 10
460.6902
 20
706.7708
 11
460.6934
 21
706.6528
  0
LINE
  8
0_00
  6
CONTINUOUS
 62
4
 10
460.6934
 20
706.6528
 11
460.6975
 21
706.5345
  0
LINE
  8
0_00
  6
CONTINUOUS
 62
4
 10
460.6975
 20
706.5345
 11
460.7025
 21
706.4158
  0
LINE
  8
0_00
  6
CONTINUOUS
 62
4
 10
460.7025
 20
706.4158
 11
460.7084
 21
706.2968
  0
LINE
  8
0_00
  6
CONTINUOUS
 62
4
 10
460.7084
 20
706.2968
 11
460.7151
 21
706.1773
  0
LINE
  8
0_00
  6
CONTINUOUS
 62
4
 10
460.7151
 20
706.1773
 11
460.7224
 21
706.0578
  0
LINE
  8
0_00
  6
CONTINUOUS
 62
4
 10
460.7224
 20
706.0578
 11
460.7304
 21
705.9378
  0
LINE
  8
0_00
  6
CONTINUOUS
 62
4
 10
460.7304
 20
705.9378
 11
460.7390
 21
705.8176
  0
LINE
  8
0_00
  6
CONTINUOUS
 62
4
 10
460.7390
 20
705.8176
 11
460.7480
 21
705.6974
  0
LINE
  8
0_00
  6
CONTINUOUS
 62
4
 10
460.7480
 20
705.6974
 11
460.7574
 21
705.5768
  0
LINE
  8
0_00
  6
CONTINUOUS
 62
4
 10
460.7574
 20
705.5768
 11
460.7673
 21
705.4562
  0
LINE
  8
0_00
  6
CONTINUOUS
 62
4
 10
460.7673
 20
705.4562
 11
460.7774
 21
705.3355
  0
LINE
  8
0_00
  6
CONTINUOUS
 62
4
 10
460.7774
 20
705.3355
 11
460.7877
 21
705.2146
  0
LINE
  8
0_00
  6
CONTINUOUS
 62
4
 10
460.7877
 20
705.2146
 11
460.7981
 21
705.0937
  0
LINE
  8
0_00
  6
CONTINUOUS
 62
4
 10
460.7981
 20
705.0937
 11
460.8087
 21
704.9728
  0
LINE
  8
0_00
  6
CONTINUOUS
 62
4
 10
515.9520
 20
751.9728
 11
515.9520
 21
714.2407
  0
LINE
  8
0_00
  6
CONTINUOUS
 62
4
 10
515.9520
 20
709.9727
 11
515.9520
 21
704.9728
  0
LINE
  8
0_00
  6
CONTINUOUS
 62
4
 10
461.1751
 20
709.9727
 11
515.9520
 21
709.9727
  0
LINE
  8
0_00
  6
CONTINUOUS
 62
4
 10
460.7177
 20
707.9728
 11
515.9520
 21
707.9728
  0
LINE
  8
0_00
  6
CONTINUOUS
 62
4
 10
495.9575
 20
704.9728
 11
515.9520
 21
704.9728
  0
LINE
  8
0_00
  6
CONTINUOUS
 62
4
 10
460.7084
 20
706.4728
 11
480.9464
 21
706.4728
  0
LINE
  8
0_00
  6
CONTINUOUS
 62
4
 10
495.9575
 20
706.4728
 11
515.9520
 21
706.4728
  0
LINE
  8
0_00
  6
CONTINUOUS
 62
2
 10
515.9520
 20
736.9728
 11
515.9520
 21
719.9728
  0
LINE
  8
0_00
  6
CONTINUOUS
 62
2
 10
514.9520
 20
719.9728
 11
515.9520
 21
719.9728
  0
LINE
  8
0_00
  6
CONTINUOUS
 62
2
 10
514.9520
 20
736.9728
 11
515.9520
 21
736.9728
  0
LINE
  8
0_00
  6
CONTINUOUS
 62
2
 10
516.9520
 20
721.4728
 11
515.9520
 21
721.4728
  0
LINE
  8
0_00
  6
CONTINUOUS
 62
2
 10
516.9520
 20
735.4727
 11
515.9520
 21
735.4727
  0
LINE
  8
0_00
  6
CONTINUOUS
 62
2
 10
516.9520
 20
734.6443
 11
515.9520
 21
733.6443
  0
LINE
  8
0_00
  6
CONTINUOUS
 62
2
 10
516.9520
 20
731.8159
 11
515.9520
 21
730.8159
  0
LINE
  8
0_00
  6
CONTINUOUS
 62
2
 10
516.9520
 20
728.9874
 11
515.9520
 21
727.9874
  0
LINE
  8
0_00
  6
CONTINUOUS
 62
2
 10
516.9520
 20
726.1591
 11
515.9520
 21
725.1590
  0
LINE
  8
0_00
  6
CONTINUOUS
 62
2
 10
516.9520
 20
723.3306
 11
515.9520
 21
722.3306
  0
LINE
  8
0_00
  6
CENTER1
 62
6
 10
527.4688
 20
728.4727
 11
592.5392
 21
728.4727
  0
LINE
  8
0_00
  6
CENTER1
 62
6
 10
488.4519
 20
732.0997
 11
488.4519
 21
695.7289
  0
LINE
  8
0_00
  6
CONTINUOUS
 62
4
 10
781.8279
 20
581.9728
 11
791.8279
 21
571.9728
  0
LINE
  8
0_00
  6
CONTINUOUS
 62
4
 10
651.8279
 20
581.9728
 11
641.8279
 21
571.9728
  0
LINE
  8
0_00
  6
CONTINUOUS
 62
4
 10
776.8279
 20
566.9728
 11
656.8279
 21
566.9728
  0
LINE
  8
0_00
  6
CONTINUOUS
 62
4
 10
656.8279
 20
566.9728
 11
656.8279
 21
524.5427
  0
LINE
  8
0_00
  6
CONTINUOUS
 62
4
 10
776.8279
 20
566.9728
 11
776.8279
 21
524.5427
  0
LINE
  8
0_00
  6
CONTINUOUS
 62
2
 10
751.2510
 20
566.9728
 11
776.8279
 21
541.3959
  0
LINE
  8
0_00
  6
CONTINUOUS
 62
2
 10
744.1799
 20
566.9728
 11
776.8279
 21
534.3248
  0
LINE
  8
0_00
  6
CONTINUOUS
 62
2
 10
737.1088
 20
566.9728
 11
776.8279
 21
527.2538
  0
LINE
  8
0_00
  6
CONTINUOUS
 62
2
 10
666.3982
 20
566.9728
 11
708.8281
 21
524.5427
  0
LINE
  8
0_00
  6
CONTINUOUS
 62
2
 10
659.3271
 20
566.9728
 11
701.7571
 21
524.5427
  0
LINE
  8
0_00
  6
CONTINUOUS
 62
2
 10
656.8279
 20
562.4009
 11
694.6860
 21
524.5427
  0
LINE
  8
0_00
  6
CONTINUOUS
 62
7
 10
1221.5110
 20
481.9501
 11
54.6905
 21
481.9501
  0
LINE
  8
0_00
  6
CONTINUOUS
 62
4
 10
530.9520
 20
574.1005
 11
520.9520
 21
584.1004
  0
LINE
  8
0_00
  6
CONTINUOUS
 62
2
 10
520.9520
 20
584.1004
 11
520.9520
 21
540.5004
  0
LINE
  8
2_02
  6
DASHED
 62
2
 10
497.9519
 20
709.9776
 11
497.9519
 21
713.9728
  0
LINE
  8
2_02
  6
DASHED
 62
2
 10
478.9520
 20
709.9776
 11
478.9520
 21
713.9728
  0
LINE
  8
2_02
  6
CENTER1
 62
6
 10
488.4519
 20
705.2607
 11
488.4519
 21
719.2497
  0
LINE
  8
0_00
  6
CONTINUOUS
 62
4
 10
477.9519
 20
713.9728
 11
514.9520
 21
713.9728
  0
LINE
  8
0_00
  6
CONTINUOUS
 62
4
 10
520.9520
 20
711.9728
 11
520.9520
 21
736.9777
  0
LINE
  8
0_00
  6
CONTINUOUS
 62
4
 10
518.9520
 20
709.9727
 11
477.9519
 21
709.9727
  0
LINE
  8
0_00
  6
CONTINUOUS
 62
4
 10
516.9520
 20
709.9727
 11
516.9520
 21
736.9777
  0
LINE
  8
0_00
  6
CONTINUOUS
 62
4
 10
515.9520
 20
734.2727
 11
515.9520
 21
736.9777
  0
LINE
  8
0_00
  6
CONTINUOUS
 62
4
 10
520.9520
 20
736.9777
 11
516.9520
 21
736.9777
  0
LINE
  8
0_00
  6
CONTINUOUS
 62
2
 10
514.9520
 20
736.9728
 11
514.9520
 21
719.9728
  0
LINE
  8
0_00
  6
DASHED
 62
2
 10
163.0754
 20
574.1005
 11
517.9520
 21
574.1005
  0
LINE
  8
0_00
  6
CONTINUOUS
 62
4
 10
530.9520
 20
574.1005
 11
517.9520
 21
574.1005
  0
LINE
  8
0_00
  6
CONTINUOUS
 62
2
 10
520.9520
 20
602.1050
 11
513.9520
 21
595.1050
  0
LINE
  8
0_00
  6
CONTINUOUS
 62
2
 10
520.9520
 20
592.2056
 11
513.9520
 21
585.2056
  0
LINE
  8
0_00
  6
CONTINUOUS
 62
2
 10
520.9520
 20
582.3061
 11
513.9520
 21
575.3060
  0
LINE
  8
0_00
  6
CONTINUOUS
 62
2
 10
520.9520
 20
572.4066
 11
513.9520
 21
565.4065
  0
LINE
  8
0_00
  6
CONTINUOUS
 62
2
 10
520.9520
 20
562.5071
 11
513.9520
 21
555.5071
  0
LINE
  8
0_00
  6
CONTINUOUS
 62
2
 10
520.9520
 20
552.6076
 11
513.9520
 21
545.6076
  0
LINE
  8
0_00
  6
CONTINUOUS
 62
2
 10
520.9520
 20
542.7080
 11
518.7443
 21
540.5004
  0
LINE
  8
0_00
  6
CONTINUOUS
 62
2
 10
806.0628
 20
612.3346
 11
627.0628
 21
606.4010
  0
LINE
  8
0_00
  6
CONTINUOUS
 62
2
 10
619.3279
 20
598.4053
 11
619.3279
 21
538.3727
  0
LINE
  8
0_00
  6
CONTINUOUS
 62
2
 10
814.3279
 20
604.3391
 11
814.3279
 21
538.3727
  0
LINE
  8
0_00
  6
CONTINUOUS
 62
2
 10
629.8278
 20
538.3727
 11
619.3279
 21
538.3727
  0
LINE
  8
0_00
  6
CONTINUOUS
 62
2
 10
803.8279
 20
538.3727
 11
814.3279
 21
538.3727
  0
LINE
  8
0_00
  6
CONTINUOUS
 62
6
 10
148.0753
 20
751.9728
 11
94.0000
 21
751.9728
  0
LINE
  8
0_00
  6
CONTINUOUS
 62
6
 10
100.0000
 20
751.9728
 11
100.0000
 21
601.9728
  0
LINE
  8
0_00
  6
CONTINUOUS
 62
6
 10
100.0000
 20
751.9728
 11
98.4407
 21
744.6366
  0
LINE
  8
0_00
  6
CONTINUOUS
 62
6
 10
100.0000
 20
751.9728
 11
101.5593
 21
744.6366
  0
LINE
  8
0_00
  6
CONTINUOUS
 62
6
 10
100.0000
 20
601.9728
 11
101.5593
 21
609.3089
  0
LINE
  8
0_00
  6
CONTINUOUS
 62
6
 10
100.0000
 20
601.9728
 11
98.4407
 21
609.3089
  0
LINE
  8
0_00
  6
CONTINUOUS
 62
4
 10
517.4520
 20
607.3825
 11
517.4520
 21
540.5004
  0
LINE
  8
2_02
  6
CONTINUOUS
 62
4
 10
734.8279
 20
709.9727
 11
698.8278
 21
709.9727
  0
LINE
  8
2_02
  6
DASHED
 62
2
 10
712.3279
 20
709.9727
 11
712.3279
 21
713.9678
  0
LINE
  8
2_02
  6
DASHED
 62
2
 10
721.3278
 20
709.9727
 11
721.3278
 21
713.9678
  0
LINE
  8
2_02
  6
CENTER1
 62
6
 10
723.4855
 20
728.4727
 11
710.7390
 21
728.4727
  0
LINE
  8
0_00
  6
CONTINUOUS
 62
4
 10
705.0779
 20
709.9727
 11
705.0779
 21
713.9678
  0
LINE
  8
0_00
  6
CONTINUOUS
 62
4
 10
728.5779
 20
709.9727
 11
728.5779
 21
713.9678
  0
LINE
  8
0_00
  6
CONTINUOUS
 62
4
 10
698.8278
 20
709.9727
 11
698.8278
 21
736.9728
  0
LINE
  8
0_00
  6
CONTINUOUS
 62
4
 10
734.8279
 20
709.9727
 11
734.8279
 21
736.9728
  0
LINE
  8
0_00
  6
CONTINUOUS
 62
4
 10
728.5779
 20
713.9678
 11
705.0779
 21
713.9678
  0
LINE
  8
2_02
  6
CONTINUOUS
 62
4
 10
734.8279
 20
736.9728
 11
717.8280
 21
736.9728
  0
LINE
  8
2_02
  6
CONTINUOUS
 62
4
 10
715.8955
 20
736.9728
 11
698.8278
 21
736.9728
  0
LINE
  8
0_00
  6
DASHED
 62
2
 10
514.9520
 20
731.4727
 11
559.7558
 21
731.4727
  0
LINE
  8
0_00
  6
CONTINUOUS
 62
2
 10
514.9520
 20
721.4728
 11
514.9520
 21
735.4727
  0
LINE
  8
0_00
  6
DASHED
 62
2
 10
564.9520
 20
728.4727
 11
559.7558
 21
731.4727
  0
LINE
  8
0_00
  6
DASHED
 62
2
 10
514.9520
 20
725.4727
 11
559.7558
 21
725.4727
  0
LINE
  8
0_00
  6
DASHED
 62
2
 10
564.9520
 20
728.4727
 11
559.7558
 21
725.4727
  0
LINE
  8
0_00
  6
CONTINUOUS
 62
2
 10
514.5373
 20
735.4727
 11
514.9520
 21
735.4727
  0
LINE
  8
0_00
  6
CONTINUOUS
 62
2
 10
514.5373
 20
721.4728
 11
514.5373
 21
735.4727
  0
LINE
  8
0_00
  6
CONTINUOUS
 62
2
 10
514.5373
 20
721.4728
 11
514.9520
 21
721.4728
  0
LINE
  8
0_00
  6
DASHED
 62
2
 10
514.9520
 20
730.6227
 11
561.2280
 21
730.6227
  0
LINE
  8
0_00
  6
DASHED
 62
2
 10
514.9520
 20
726.3228
 11
561.2280
 21
726.3228
  0
LINE
  8
0_00
  6
CONTINUOUS
 62
4
 10
651.8279
 20
585.2728
 11
651.8279
 21
587.9728
  0
LINE
  8
0_00
  6
CONTINUOUS
 62
4
 10
781.8279
 20
585.2728
 11
781.8279
 21
587.9728
  0
LINE
  8
0_00
  6
CONTINUOUS
 62
4
 10
641.8279
 20
524.5427
 11
641.8279
 21
581.9728
  0
LINE
  8
0_00
  6
CONTINUOUS
 62
4
 10
641.8279
 20
585.2728
 11
641.8279
 21
587.9728
  0
LINE
  8
0_00
  6
CONTINUOUS
 62
4
 10
791.8279
 20
524.5427
 11
791.8279
 21
581.9728
  0
LINE
  8
0_00
  6
CONTINUOUS
 62
4
 10
791.8279
 20
585.2728
 11
791.8279
 21
587.9728
  0
LINE
  8
0_00
  6
CONTINUOUS
 62
6
 10
484.4496
 20
727.7639
 11
457.6082
 21
774.2544
  0
LINE
  8
0_00
  6
CONTINUOUS
 62
6
 10
484.4496
 20
727.7639
 11
482.1319
 21
734.8969
  0
LINE
  8
0_00
  6
CONTINUOUS
 62
6
 10
484.4496
 20
727.7639
 11
479.4311
 21
733.3375
  0
LINE
  8
0_00
  6
CONTINUOUS
 62
6
 10
457.6082
 20
774.2544
 11
347.8082
 21
774.2544
  0
LINE
  8
0_00
  6
CONTINUOUS
 62
6
 10
672.0458
 20
666.5802
 11
575.0470
 21
666.5802
  0
LINE
  8
0_00
  6
CONTINUOUS
 62
6
 10
645.2396
 20
692.9754
 11
559.8077
 21
692.9754
  0
LINE
  8
0_00
  6
CONTINUOUS
 62
6
 10
542.3049
 20
723.2911
 11
575.0470
 21
666.5802
  0
LINE
  8
0_00
  6
CONTINUOUS
 62
6
 10
542.3049
 20
723.2911
 11
544.6226
 21
716.1582
  0
LINE
  8
0_00
  6
CONTINUOUS
 62
6
 10
542.3049
 20
723.2911
 11
547.3233
 21
717.7175
  0
LINE
  8
0_00
  6
CONTINUOUS
 62
4
 10
651.8279
 20
600.2180
 11
651.8279
 21
648.2122
  0
LINE
  8
0_00
  6
CONTINUOUS
 62
4
 10
651.8279
 20
678.6238
 11
651.8279
 21
826.0000
  0
LINE
  8
0_00
  6
CONTINUOUS
 62
4
 10
641.8279
 20
599.8866
 11
641.8279
 21
648.2122
  0
LINE
  8
0_00
  6
CONTINUOUS
 62
4
 10
641.8279
 20
702.0056
 11
641.8279
 21
826.0000
  0
LINE
  8
0_00
  6
CONTINUOUS
 62
6
 10
769.3279
 20
594.5810
 11
795.4224
 21
639.7781
  0
LINE
  8
0_00
  6
CONTINUOUS
 62
6
 10
769.3279
 20
594.5810
 11
774.3463
 21
600.1547
  0
LINE
  8
0_00
  6
CONTINUOUS
 62
6
 10
769.3279
 20
594.5810
 11
771.6455
 21
601.7140
  0
LINE
  8
0_00
  6
CONTINUOUS
 62
6
 10
795.4224
 20
639.7781
 11
862.0224
 21
639.7781
  0
LINE
  8
0_00
  6
CONTINUOUS
 62
6
 10
797.2729
 20
590.8562
 11
811.7852
 21
615.9924
  0
LINE
  8
0_00
  6
CONTINUOUS
 62
6
 10
797.2729
 20
590.8562
 11
802.2913
 21
596.4298
  0
LINE
  8
0_00
  6
CONTINUOUS
 62
6
 10
797.2729
 20
590.8562
 11
799.5905
 21
597.9891
  0
LINE
  8
0_00
  6
CONTINUOUS
 62
6
 10
811.7852
 20
615.9924
 11
856.7852
 21
615.9924
  0
LINE
  8
0_00
  6
CONTINUOUS
 62
6
 10
733.6019
 20
736.9728
 11
752.9311
 21
770.4517
  0
LINE
  8
0_00
  6
CONTINUOUS
 62
6
 10
733.6019
 20
736.9728
 11
738.6205
 21
742.5463
  0
LINE
  8
0_00
  6
CONTINUOUS
 62
6
 10
733.6019
 20
736.9728
 11
735.9196
 21
744.1057
  0
LINE
  8
0_00
  6
CONTINUOUS
 62
6
 10
752.9311
 20
770.4517
 11
805.1311
 21
770.4517
  0
LINE
  8
0_00
  6
CONTINUOUS
 62
4
 10
781.8279
 20
604.5275
 11
781.8279
 21
744.6393
  0
LINE
  8
0_00
  6
CONTINUOUS
 62
4
 10
781.8279
 20
788.4882
 11
781.8279
 21
826.0000
  0
LINE
  8
0_00
  6
CONTINUOUS
 62
4
 10
791.8279
 20
604.8589
 11
791.8279
 21
741.3625
  0
LINE
  8
0_00
  6
CONTINUOUS
 62
4
 10
791.8279
 20
788.4882
 11
791.8279
 21
826.0000
  0
LINE
  8
0_00
  6
CONTINUOUS
 62
6
 10
516.2371
 20
726.3228
 11
543.6340
 21
678.8698
  0
LINE
  8
0_00
  6
CONTINUOUS
 62
6
 10
516.2371
 20
726.3228
 11
518.5548
 21
719.1898
  0
LINE
  8
0_00
  6
CONTINUOUS
 62
6
 10
516.2371
 20
726.3228
 11
521.2555
 21
720.7491
  0
LINE
  8
0_00
  6
CONTINUOUS
 62
6
 10
543.6340
 20
678.8698
 11
455.4341
 21
678.8698
  0
LINE
  8
0_00
  6
CONTINUOUS
 62
4
 10
520.9520
 20
584.1004
 11
520.9520
 21
672.4521
  0
LINE
  8
0_00
  6
CONTINUOUS
 62
4
 10
520.9520
 20
696.2092
 11
520.9520
 21
826.0000
  0
LINE
  8
0_00
  6
CONTINUOUS
 62
4
 10
530.9520
 20
796.2414
 11
530.9520
 21
696.2092
  0
LINE
  8
0_00
  6
CONTINUOUS
 62
4
 10
530.9520
 20
672.4521
 11
530.9520
 21
574.1005
  0
LINE
  8
0_00
  6
CONTINUOUS
 62
4
 10
838.0279
 20
810.4692
 11
806.8279
 21
810.4692
  0
LINE
  8
0_00
  6
CONTINUOUS
 62
4
 10
806.8279
 20
810.4692
 11
806.8279
 21
824.8693
  0
LINE
  8
0_00
  6
CONTINUOUS
 62
4
 10
838.0279
 20
824.8693
 11
806.8279
 21
824.8693
  0
LINE
  8
0_00
  6
CONTINUOUS
 62
4
 10
838.0279
 20
810.4692
 11
838.0279
 21
824.8693
  0
LINE
  8
0_00
  6
CONTINUOUS
 62
4
 10
626.8279
 20
810.4692
 11
595.6279
 21
810.4692
  0
LINE
  8
0_00
  6
CONTINUOUS
 62
4
 10
595.6279
 20
810.4692
 11
595.6279
 21
824.8693
  0
LINE
  8
0_00
  6
CONTINUOUS
 62
4
 10
626.8279
 20
824.8693
 11
595.6279
 21
824.8693
  0
LINE
  8
0_00
  6
CONTINUOUS
 62
4
 10
626.8279
 20
810.4692
 11
626.8279
 21
824.8693
  0
LINE
  8
0_00
  6
CONTINUOUS
 62
6
 10
701.8279
 20
601.9728
 11
542.7759
 21
601.9728
  0
LINE
  8
0_00
  6
CONTINUOUS
 62
6
 10
411.7484
 20
601.9728
 11
94.0000
 21
601.9728
  0
LINE
  8
0_00
  6
CONTINUOUS
 62
4
 10
953.6646
 20
718.0167
 11
953.3646
 21
717.7167
  0
LINE
  8
0_00
  6
CONTINUOUS
 62
4
 10
953.6646
 20
718.0167
 11
953.9646
 21
717.7167
  0
LINE
  8
14_0E
  6
CONTINUOUS
 62
4
 10
966.7408
 20
719.3263
 11
957.6646
 21
719.7166
  0
LINE
  8
0_00
  6
CONTINUOUS
 62
4
 10
953.6646
 20
718.0167
 11
953.9646
 21
717.7167
  0
LINE
  8
0_00
  6
CONTINUOUS
 62
4
 10
953.6646
 20
718.0167
 11
953.3646
 21
717.7167
  0
LINE
  8
14_0E
  6
CONTINUOUS
 62
4
 10
940.5883
 20
719.3263
 11
949.6646
 21
719.7166
  0
LINE
  8
0_00
  6
CONTINUOUS
 62
4
 10
957.6646
 20
719.7166
 11
949.6646
 21
719.7166
  0
LINE
  8
0_00
  6
CONTINUOUS
 62
4
 10
969.1646
 20
717.9167
 11
974.1646
 21
717.9167
  0
LINE
  8
0_00
  6
CONTINUOUS
 62
4
 10
968.8646
 20
717.7167
 11
967.6769
 21
717.7167
  0
LINE
  8
0_00
  6
CONTINUOUS
 62
4
 10
969.1646
 20
717.9167
 11
968.8646
 21
717.7167
  0
LINE
  8
0_00
  6
CONTINUOUS
 62
4
 10
967.0189
 20
719.0993
 11
967.2888
 21
718.0196
  0
LINE
  8
0_00
  6
CONTINUOUS
 62
4
 10
938.1646
 20
717.9167
 11
933.1645
 21
717.9167
  0
LINE
  8
0_00
  6
CONTINUOUS
 62
4
 10
933.1645
 20
717.9167
 11
932.8646
 21
717.7167
  0
LINE
  8
0_00
  6
CONTINUOUS
 62
4
 10
938.4646
 20
717.7167
 11
939.6522
 21
717.7167
  0
LINE
  8
0_00
  6
CONTINUOUS
 62
4
 10
938.1646
 20
717.9167
 11
938.4646
 21
717.7167
  0
LINE
  8
0_00
  6
CONTINUOUS
 62
4
 10
940.3103
 20
719.0993
 11
940.0403
 21
718.0196
  0
LINE
  8
0_00
  6
CONTINUOUS
 62
4
 10
953.6646
 20
718.0167
 11
953.3646
 21
717.7167
  0
LINE
  8
0_00
  6
CONTINUOUS
 62
4
 10
965.9646
 20
717.7167
 11
953.9646
 21
717.7167
  0
LINE
  8
0_00
  6
CONTINUOUS
 62
4
 10
953.6646
 20
718.0167
 11
953.9646
 21
717.7167
  0
LINE
  8
14_0E
  6
CONTINUOUS
 62
4
 10
966.7408
 20
719.3263
 11
957.6646
 21
719.7166
  0
LINE
  8
0_00
  6
CONTINUOUS
 62
4
 10
953.6646
 20
718.0167
 11
953.9646
 21
717.7167
  0
LINE
  8
0_00
  6
CONTINUOUS
 62
4
 10
941.3646
 20
717.7167
 11
953.3646
 21
717.7167
  0
LINE
  8
0_00
  6
CONTINUOUS
 62
4
 10
953.6646
 20
718.0167
 11
953.3646
 21
717.7167
  0
LINE
  8
14_0E
  6
CONTINUOUS
 62
4
 10
940.5883
 20
719.3263
 11
949.6646
 21
719.7166
  0
LINE
  8
0_00
  6
CONTINUOUS
 62
4
 10
957.6646
 20
719.7166
 11
949.6646
 21
719.7166
  0
LINE
  8
0_00
  6
CONTINUOUS
 62
4
 10
966.3647
 20
716.2167
 11
971.3646
 21
716.2167
  0
LINE
  8
0_00
  6
CONTINUOUS
 62
4
 10
965.9646
 20
717.7167
 11
966.3647
 21
716.2167
  0
LINE
  8
0_00
  6
CONTINUOUS
 62
4
 10
969.1646
 20
717.9167
 11
974.1646
 21
717.9167
  0
LINE
  8
0_00
  6
CONTINUOUS
 62
4
 10
971.9646
 20
716.2167
 11
981.0645
 21
716.2167
  0
LINE
  8
0_00
  6
CONTINUOUS
 62
4
 10
971.6646
 20
716.5167
 11
971.3646
 21
716.2167
  0
LINE
  8
0_00
  6
CONTINUOUS
 62
4
 10
971.6646
 20
716.5167
 11
971.9646
 21
716.2167
  0
LINE
  8
0_00
  6
CONTINUOUS
 62
4
 10
978.9923
 20
717.7167
 11
974.4646
 21
717.7167
  0
LINE
  8
0_00
  6
CONTINUOUS
 62
4
 10
974.1646
 20
717.9167
 11
974.4646
 21
717.7167
  0
LINE
  8
0_00
  6
CONTINUOUS
 62
4
 10
968.8646
 20
717.7167
 11
967.6769
 21
717.7167
  0
LINE
  8
0_00
  6
CONTINUOUS
 62
4
 10
969.1646
 20
717.9167
 11
968.8646
 21
717.7167
  0
LINE
  8
0_00
  6
CONTINUOUS
 62
4
 10
967.0189
 20
719.0993
 11
967.2888
 21
718.0196
  0
LINE
  8
0_00
  6
CONTINUOUS
 62
4
 10
981.0645
 20
716.2167
 11
982.0646
 21
717.2167
  0
LINE
  8
0_00
  6
CONTINUOUS
 62
4
 10
982.0646
 20
717.2167
 11
982.0646
 21
718.5167
  0
LINE
  8
0_00
  6
CONTINUOUS
 62
4
 10
982.0646
 20
717.7167
 11
982.0646
 21
717.2167
  0
LINE
  8
0_00
  6
CONTINUOUS
 62
4
 10
981.0841
 20
720.5947
 11
981.9407
 21
720.6697
  0
LINE
  8
0_00
  6
CONTINUOUS
 62
4
 10
979.9774
 20
721.6021
 11
980.8156
 21
721.6753
  0
LINE
  8
0_00
  6
CONTINUOUS
 62
4
 10
979.0646
 20
720.6058
 11
979.0646
 21
720.1729
  0
LINE
  8
0_00
  6
CONTINUOUS
 62
4
 10
982.2085
 20
721.0288
 11
981.1230
 21
726.3167
  0
LINE
  8
0_00
  6
CONTINUOUS
 62
4
 10
980.3769
 20
725.4760
 11
981.0832
 21
722.0345
  0
LINE
  8
0_00
  6
CONTINUOUS
 62
4
 10
981.0624
 20
726.3167
 11
981.1230
 21
726.3167
  0
LINE
  8
0_00
  6
CONTINUOUS
 62
4
 10
983.6652
 20
726.4632
 11
983.6651
 21
717.2553
  0
LINE
  8
0_00
  6
CONTINUOUS
 62
4
 10
982.2652
 20
718.6133
 11
982.2652
 21
716.2728
  0
LINE
  8
0_00
  6
CONTINUOUS
 62
4
 10
982.2652
 20
723.6632
 11
982.2652
 21
726.0593
  0
LINE
  8
0_00
  6
CONTINUOUS
 62
4
 10
979.5652
 20
726.4632
 11
981.8652
 21
726.4632
  0
LINE
  8
0_00
  6
CONTINUOUS
 62
4
 10
978.7652
 20
726.7633
 11
978.7652
 21
725.8633
  0
LINE
  8
0_00
  6
CONTINUOUS
 62
4
 10
979.5652
 20
726.4632
 11
979.5652
 21
726.2633
  0
LINE
  8
0_00
  6
CONTINUOUS
 62
4
 10
981.1848
 20
720.5688
 11
981.9001
 21
720.6313
  0
LINE
  8
0_00
  6
CONTINUOUS
 62
4
 10
982.2572
 20
721.1088
 11
981.7906
 21
723.4237
  0
LINE
  8
0_00
  6
CONTINUOUS
 62
4
 10
981.9866
 20
723.6632
 11
982.2652
 21
723.6632
  0
LINE
  8
0_00
  6
CONTINUOUS
 62
4
 10
979.7652
 20
727.7633
 11
982.3651
 21
727.7633
  0
LINE
  8
0_00
  6
CONTINUOUS
 62
4
 10
940.9646
 20
716.2167
 11
935.9647
 21
716.2167
  0
LINE
  8
0_00
  6
CONTINUOUS
 62
4
 10
941.3646
 20
717.7167
 11
940.9646
 21
716.2167
  0
LINE
  8
0_00
  6
CONTINUOUS
 62
4
 10
938.1646
 20
717.9167
 11
933.1645
 21
717.9167
  0
LINE
  8
0_00
  6
CONTINUOUS
 62
4
 10
935.3646
 20
716.2167
 11
926.2646
 21
716.2167
  0
LINE
  8
0_00
  6
CONTINUOUS
 62
4
 10
935.6646
 20
716.5167
 11
935.9647
 21
716.2167
  0
LINE
  8
0_00
  6
CONTINUOUS
 62
4
 10
935.6646
 20
716.5167
 11
935.3646
 21
716.2167
  0
LINE
  8
0_00
  6
CONTINUOUS
 62
4
 10
928.3368
 20
717.7167
 11
932.8646
 21
717.7167
  0
LINE
  8
0_00
  6
CONTINUOUS
 62
4
 10
933.1645
 20
717.9167
 11
932.8646
 21
717.7167
  0
LINE
  8
0_00
  6
CONTINUOUS
 62
4
 10
938.4646
 20
717.7167
 11
939.6522
 21
717.7167
  0
LINE
  8
0_00
  6
CONTINUOUS
 62
4
 10
938.1646
 20
717.9167
 11
938.4646
 21
717.7167
  0
LINE
  8
0_00
  6
CONTINUOUS
 62
4
 10
940.3103
 20
719.0993
 11
940.0403
 21
718.0196
  0
LINE
  8
0_00
  6
CONTINUOUS
 62
4
 10
926.2646
 20
716.2167
 11
925.2646
 21
717.2167
  0
LINE
  8
0_00
  6
CONTINUOUS
 62
4
 10
925.2646
 20
717.2167
 11
925.2646
 21
718.5167
  0
LINE
  8
0_00
  6
CONTINUOUS
 62
4
 10
925.2646
 20
717.7167
 11
925.2646
 21
717.2167
  0
LINE
  8
0_00
  6
CONTINUOUS
 62
4
 10
926.2451
 20
720.5947
 11
925.3884
 21
720.6697
  0
LINE
  8
0_00
  6
CONTINUOUS
 62
4
 10
927.3517
 20
721.6021
 11
926.5137
 21
721.6753
  0
LINE
  8
0_00
  6
CONTINUOUS
 62
4
 10
928.2646
 20
720.6058
 11
928.2646
 21
720.1729
  0
LINE
  8
0_00
  6
CONTINUOUS
 62
4
 10
925.1208
 20
721.0288
 11
926.2061
 21
726.3167
  0
LINE
  8
0_00
  6
CONTINUOUS
 62
4
 10
926.9524
 20
725.4760
 11
926.2460
 21
722.0345
  0
LINE
  8
0_00
  6
CONTINUOUS
 62
4
 10
926.2667
 20
726.3167
 11
926.2061
 21
726.3167
  0
LINE
  8
0_00
  6
CONTINUOUS
 62
4
 10
923.6641
 20
726.4632
 11
923.6641
 21
717.2553
  0
LINE
  8
0_00
  6
CONTINUOUS
 62
4
 10
925.0641
 20
718.6133
 11
925.0641
 21
716.2728
  0
LINE
  8
0_00
  6
CONTINUOUS
 62
4
 10
925.0640
 20
723.6632
 11
925.0640
 21
726.0593
  0
LINE
  8
0_00
  6
CONTINUOUS
 62
4
 10
927.7640
 20
726.4632
 11
925.4640
 21
726.4632
  0
LINE
  8
0_00
  6
CONTINUOUS
 62
4
 10
928.5640
 20
726.7633
 11
928.5640
 21
725.8633
  0
LINE
  8
0_00
  6
CONTINUOUS
 62
4
 10
927.7640
 20
726.4632
 11
927.7640
 21
726.2633
  0
LINE
  8
0_00
  6
CONTINUOUS
 62
4
 10
926.1445
 20
720.5688
 11
925.4292
 21
720.6313
  0
LINE
  8
0_00
  6
CONTINUOUS
 62
4
 10
925.0719
 20
721.1088
 11
925.5386
 21
723.4237
  0
LINE
  8
0_00
  6
CONTINUOUS
 62
4
 10
925.3426
 20
723.6632
 11
925.0640
 21
723.6632
  0
LINE
  8
0_00
  6
CONTINUOUS
 62
4
 10
927.5640
 20
727.7633
 11
924.9640
 21
727.7633
  0
LINE
  8
2_02
  6
CENTER1
 62
6
 10
953.6646
 20
688.8486
 11
953.6646
 21
770.4958
  0
LINE
  8
0_00
  6
CONTINUOUS
 62
2
 10
957.6646
 20
732.2118
 11
957.6646
 21
736.5168
  0
LINE
  8
0_00
  6
CONTINUOUS
 62
2
 10
949.6646
 20
732.2118
 11
949.6646
 21
736.5168
  0
LINE
  8
0_00
  6
CONTINUOUS
 62
2
 10
957.6646
 20
736.5168
 11
956.4646
 21
737.7167
  0
LINE
  8
0_00
  6
CONTINUOUS
 62
2
 10
949.6646
 20
736.5168
 11
950.8646
 21
737.7167
  0
LINE
  8
0_00
  6
CONTINUOUS
 62
2
 10
950.8646
 20
737.7167
 11
956.4646
 21
737.7167
  0
LINE
  8
0_00
  6
CONTINUOUS
 62
2
 10
949.6646
 20
736.5168
 11
957.6646
 21
736.5168
  0
LINE
  8
0_00
  6
CONTINUOUS
 62
6
 10
956.9145
 20
732.2118
 11
956.9145
 21
737.2667
  0
LINE
  8
0_00
  6
CONTINUOUS
 62
6
 10
950.4145
 20
732.2118
 11
950.4145
 21
737.2667
  0
LINE
  8
0_00
  6
CONTINUOUS
 62
2
 10
961.3647
 20
725.7118
 11
945.9646
 21
725.7118
  0
LINE
  8
0_00
  6
CONTINUOUS
 62
2
 10
945.9646
 20
725.7118
 11
945.9646
 21
723.7118
  0
LINE
  8
0_00
  6
CONTINUOUS
 62
2
 10
961.3647
 20
725.7118
 11
961.3647
 21
723.7118
  0
LINE
  8
0_00
  6
CONTINUOUS
 62
2
 10
961.3647
 20
723.7118
 11
945.9646
 21
723.7118
  0
LINE
  8
0_00
  6
CONTINUOUS
 62
2
 10
953.3966
 20
725.7118
 11
953.9325
 21
723.7118
  0
LINE
  8
0_00
  6
CONTINUOUS
 62
2
 10
961.1701
 20
725.7118
 11
946.1591
 21
725.7118
  0
LINE
  8
0_00
  6
CONTINUOUS
 62
2
 10
946.1591
 20
725.7118
 11
946.1591
 21
731.4869
  0
LINE
  8
0_00
  6
CONTINUOUS
 62
2
 10
961.1701
 20
725.7118
 11
961.1701
 21
731.4869
  0
LINE
  8
0_00
  6
CONTINUOUS
 62
2
 10
946.1591
 20
731.4869
 11
947.4145
 21
732.2118
  0
LINE
  8
0_00
  6
CONTINUOUS
 62
2
 10
961.1701
 20
731.4869
 11
959.9145
 21
732.2118
  0
LINE
  8
0_00
  6
CONTINUOUS
 62
2
 10
959.9145
 20
732.2118
 11
947.4145
 21
732.2118
  0
LINE
  8
0_00
  6
CONTINUOUS
 62
2
 10
949.9118
 20
725.7118
 11
949.9118
 21
731.4869
  0
LINE
  8
0_00
  6
CONTINUOUS
 62
2
 10
957.4174
 20
725.7118
 11
957.4174
 21
731.4869
  0
LINE
  8
2_02
  6
CENTER1
 62
6
 10
969.6615
 20
738.2167
 11
938.9627
 21
738.2167
  0
LINE
  8
2_02
  6
CENTER1
 62
6
 10
960.3223
 20
738.2167
 11
947.5757
 21
738.2167
  0
LINE
  8
0_00
  6
CONTINUOUS
 62
4
 10
965.4145
 20
723.7118
 11
941.9146
 21
723.7118
  0
LINE
  8
2_02
  6
CONTINUOUS
 62
4
 10
971.6646
 20
746.7166
 11
954.6647
 21
746.7166
  0
LINE
  8
2_02
  6
CONTINUOUS
 62
4
 10
952.7323
 20
746.7166
 11
935.6646
 21
746.7166
  0
LINE
  8
0_00
  6
CONTINUOUS
 62
4
 10
971.6646
 20
719.7166
 11
971.6646
 21
746.7166
  0
LINE
  8
2_02
  6
CONTINUOUS
 62
4
 10
971.6646
 20
719.7166
 11
935.6646
 21
719.7166
  0
LINE
  8
0_00
  6
CONTINUOUS
 62
4
 10
965.4145
 20
719.7166
 11
965.4145
 21
723.7118
  0
LINE
  8
0_00
  6
CONTINUOUS
 62
4
 10
941.9146
 20
719.7166
 11
941.9146
 21
723.7118
  0
LINE
  8
0_00
  6
CONTINUOUS
 62
4
 10
935.6646
 20
719.7166
 11
935.6646
 21
746.7166
  0
LINE
  8
0_00
  6
CONTINUOUS
 62
2
 10
946.1591
 20
717.7167
 11
961.1701
 21
717.7167
  0
LINE
  8
0_00
  6
CONTINUOUS
 62
2
 10
961.1701
 20
714.8632
 11
961.1701
 21
712.9127
  0
LINE
  8
0_00
  6
CONTINUOUS
 62
2
 10
961.1701
 20
717.7167
 11
961.1701
 21
714.8632
  0
LINE
  8
0_00
  6
CONTINUOUS
 62
2
 10
946.1591
 20
714.8632
 11
946.1591
 21
712.9127
  0
LINE
  8
0_00
  6
CONTINUOUS
 62
2
 10
946.1591
 20
717.7167
 11
946.1591
 21
714.8632
  0
LINE
  8
0_00
  6
CONTINUOUS
 62
2
 10
961.1701
 20
712.9127
 11
959.9647
 21
712.2167
  0
LINE
  8
0_00
  6
CONTINUOUS
 62
2
 10
946.1591
 20
712.9127
 11
947.3646
 21
712.2167
  0
LINE
  8
0_00
  6
CONTINUOUS
 62
2
 10
947.3646
 20
712.2167
 11
959.9647
 21
712.2167
  0
LINE
  8
0_00
  6
CONTINUOUS
 62
2
 10
957.4174
 20
714.8632
 11
957.4174
 21
712.9127
  0
LINE
  8
0_00
  6
CONTINUOUS
 62
2
 10
957.4174
 20
717.7167
 11
957.4174
 21
714.8632
  0
LINE
  8
0_00
  6
CONTINUOUS
 62
2
 10
949.9118
 20
714.8632
 11
949.9118
 21
712.9127
  0
LINE
  8
0_00
  6
CONTINUOUS
 62
2
 10
949.9118
 20
717.7167
 11
949.9118
 21
714.8632
  0
LINE
  8
0_00
  6
DASHED
 62
2
 10
957.6646
 20
723.7118
 11
957.6646
 21
719.7166
  0
LINE
  8
0_00
  6
DASHED
 62
2
 10
957.6646
 20
717.7167
 11
957.6646
 21
719.7166
  0
LINE
  8
0_00
  6
DASHED
 62
2
 10
949.6646
 20
723.7118
 11
949.6646
 21
719.7166
  0
LINE
  8
0_00
  6
DASHED
 62
2
 10
949.6646
 20
717.7167
 11
949.6646
 21
719.7166
  0
LINE
  8
2_02
  6
DASHED
 62
2
 10
949.1646
 20
719.7166
 11
949.1646
 21
723.7118
  0
LINE
  8
2_02
  6
DASHED
 62
2
 10
958.1646
 20
719.7166
 11
958.1646
 21
723.7118
  0
LINE
  8
0_00
  6
DASHED
 62
6
 10
956.9145
 20
723.7118
 11
956.9145
 21
719.7166
  0
LINE
  8
0_00
  6
DASHED
 62
6
 10
950.4145
 20
723.7118
 11
950.4145
 21
719.7166
  0
LINE
  8
0_00
  6
DASHED
 62
6
 10
956.9145
 20
717.7167
 11
956.9145
 21
719.7166
  0
LINE
  8
0_00
  6
DASHED
 62
6
 10
950.4145
 20
717.7167
 11
950.4145
 21
719.7166
  0
LINE
  8
0_00
  6
CONTINUOUS
 62
6
 10
753.8278
 20
733.0974
 11
763.7117
 21
750.2168
  0
LINE
  8
0_00
  6
CONTINUOUS
 62
6
 10
753.8278
 20
733.0974
 11
758.8462
 21
738.6710
  0
LINE
  8
0_00
  6
CONTINUOUS
 62
6
 10
753.8278
 20
733.0974
 11
756.1455
 21
740.2304
  0
LINE
  8
0_00
  6
CONTINUOUS
 62
6
 10
763.7117
 20
750.2168
 11
823.1117
 21
750.2168
  0
LINE
  8
0_00
  6
CONTINUOUS
 62
6
 10
814.3279
 20
565.9495
 11
823.8508
 21
582.4438
  0
LINE
  8
0_00
  6
CONTINUOUS
 62
6
 10
814.3279
 20
565.9495
 11
819.3463
 21
571.5231
  0
LINE
  8
0_00
  6
CONTINUOUS
 62
6
 10
814.3279
 20
565.9495
 11
816.6455
 21
573.0824
  0
LINE
  8
0_00
  6
CONTINUOUS
 62
6
 10
823.8508
 20
582.4438
 11
883.2508
 21
582.4438
  0
LINE
  8
2_02
  6
CENTER1
 62
6
 10
1133.6646
 20
688.8486
 11
1133.6646
 21
770.4958
  0
LINE
  8
0_00
  6
CONTINUOUS
 62
6
 10
970.4387
 20
746.7166
 11
978.6477
 21
760.9351
  0
LINE
  8
0_00
  6
CONTINUOUS
 62
6
 10
970.4387
 20
746.7166
 11
975.4572
 21
752.2903
  0
LINE
  8
0_00
  6
CONTINUOUS
 62
6
 10
970.4387
 20
746.7166
 11
972.7563
 21
753.8496
  0
LINE
  8
0_00
  6
CONTINUOUS
 62
6
 10
978.6477
 20
760.9351
 11
1030.8477
 21
760.9351
  0
LINE
  8
0_00
  6
CENTER1
 62
6
 10
1151.6646
 20
724.7727
 11
1151.6646
 21
703.7078
  0
LINE
  8
0_00
  6
CENTER1
 62
6
 10
1115.6646
 20
724.7727
 11
1115.6646
 21
703.7078
  0
LINE
  8
0_00
  6
CENTER1
 62
6
 10
1121.2923
 20
730.4728
 11
1146.7907
 21
730.4728
  0
LINE
  8
0_00
  6
CONTINUOUS
 62
6
 10
1113.5037
 20
712.7024
 11
1102.0022
 21
692.7811
  0
LINE
  8
0_00
  6
CONTINUOUS
 62
6
 10
1113.5037
 20
712.7024
 11
1108.4853
 21
707.1288
  0
LINE
  8
0_00
  6
CONTINUOUS
 62
6
 10
1113.5037
 20
712.7024
 11
1111.1862
 21
705.5695
  0
LINE
  8
0_00
  6
CONTINUOUS
 62
6
 10
1102.0022
 20
692.7811
 11
1009.3922
 21
692.7811
  0
LINE
  8
0_00
  6
CONTINUOUS
 62
6
 10
1145.6334
 20
737.5821
 11
1155.6929
 21
755.0054
  0
LINE
  8
0_00
  6
CONTINUOUS
 62
6
 10
1145.6334
 20
737.5821
 11
1150.6519
 21
743.1556
  0
LINE
  8
0_00
  6
CONTINUOUS
 62
6
 10
1145.6334
 20
737.5821
 11
1147.9510
 21
744.7150
  0
LINE
  8
0_00
  6
CONTINUOUS
 62
6
 10
1155.6929
 20
755.0054
 11
1215.0927
 21
755.0054
  0
LINE
  8
0_00
  6
CONTINUOUS
 62
4
 10
163.0754
 20
196.3504
 11
515.9520
 21
196.3504
  0
LINE
  8
0_00
  6
CONTINUOUS
 62
4
 10
163.0754
 20
262.3504
 11
515.9520
 21
262.3504
  0
LINE
  8
0_00
  6
CENTER1
 62
6
 10
290.9519
 20
426.7565
 11
290.9519
 21
180.9492
  0
LINE
  8
0_00
  6
CONTINUOUS
 62
4
 10
163.0754
 20
407.2228
 11
460.9519
 21
407.2228
  0
LINE
  8
0_00
  6
DASHED
 62
2
 10
510.9519
 20
239.3504
 11
163.0754
 21
239.3504
  0
LINE
  8
0_00
  6
CONTINUOUS
 62
4
 10
274.9519
 20
264.1765
 11
274.9519
 21
262.3504
  0
LINE
  8
0_00
  6
CONTINUOUS
 62
4
 10
275.4519
 20
264.6765
 11
306.4519
 21
264.6765
  0
LINE
  8
0_00
  6
CONTINUOUS
 62
4
 10
306.9519
 20
264.1765
 11
306.9519
 21
262.3504
  0
LINE
  8
0_00
  6
CONTINUOUS
 62
4
 10
460.9519
 20
360.2227
 11
163.0754
 21
360.2227
  0
LINE
  8
0_00
  6
CONTINUOUS
 62
4
 10
276.9519
 20
264.6765
 11
276.9519
 21
360.2227
  0
LINE
  8
0_00
  6
CONTINUOUS
 62
4
 10
304.9520
 20
264.6765
 11
304.9520
 21
360.2227
  0
LINE
  8
0_00
  6
CENTER1
 62
6
 10
457.9520
 20
268.3478
 11
457.9520
 21
185.0484
  0
LINE
  8
0_00
  6
DASHED
 62
2
 10
487.9520
 20
258.4836
 11
487.9520
 21
198.0504
  0
LINE
  8
0_00
  6
DASHED
 62
2
 10
427.9519
 20
258.4836
 11
427.9519
 21
198.0504
  0
LINE
  8
0_00
  6
DASHED
 62
2
 10
427.9519
 20
198.0504
 11
487.9520
 21
198.0504
  0
LINE
  8
0_00
  6
DASHED
 62
2
 10
427.9519
 20
258.4836
 11
487.9520
 21
258.4836
  0
LINE
  8
0_00
  6
DASHED
 62
2
 10
427.9519
 20
253.5238
 11
487.9520
 21
253.5238
  0
LINE
  8
0_00
  6
DASHED
 62
2
 10
515.9520
 20
250.4004
 11
513.9520
 21
250.4004
  0
LINE
  8
0_00
  6
DASHED
 62
2
 10
515.9520
 20
247.1004
 11
513.9520
 21
247.1004
  0
LINE
  8
0_00
  6
DASHED
 62
2
 10
512.1519
 20
250.3504
 11
512.1519
 21
247.1504
  0
LINE
  8
0_00
  6
DASHED
 62
2
 10
517.4520
 20
250.3504
 11
513.9520
 21
250.3504
  0
LINE
  8
0_00
  6
DASHED
 62
2
 10
517.4520
 20
247.1504
 11
513.9520
 21
247.1504
  0
LINE
  8
0_00
  6
CONTINUOUS
 62
4
 10
515.9520
 20
195.7504
 11
517.4520
 21
195.7504
  0
LINE
  8
0_00
  6
CONTINUOUS
 62
4
 10
515.9520
 20
262.6325
 11
517.4520
 21
262.6325
  0
LINE
  8
0_00
  6
CONTINUOUS
 62
4
 10
515.9520
 20
262.6325
 11
515.9520
 21
195.7504
  0
LINE
  8
0_00
  6
DASHED
 62
2
 10
513.9520
 20
252.3504
 11
513.9520
 21
244.8504
  0
LINE
  8
0_00
  6
DASHED
 62
2
 10
515.9520
 20
252.3504
 11
515.9520
 21
244.8504
  0
LINE
  8
0_00
  6
DASHED
 62
2
 10
515.9520
 20
242.8504
 11
427.9519
 21
242.8504
  0
LINE
  8
0_00
  6
DASHED
 62
2
 10
513.9520
 20
244.8504
 11
435.9519
 21
244.8504
  0
LINE
  8
0_00
  6
DASHED
 62
2
 10
435.9519
 20
244.8504
 11
435.9519
 21
242.8504
  0
LINE
  8
0_00
  6
DASHED
 62
2
 10
513.9520
 20
252.3504
 11
515.9520
 21
252.3504
  0
LINE
  8
0_00
  6
DASHED
 62
2
 10
460.4519
 20
244.8504
 11
460.4519
 21
199.1805
  0
LINE
  8
0_00
  6
DASHED
 62
2
 10
463.8519
 20
245.1982
 11
463.8519
 21
244.8504
  0
LINE
  8
0_00
  6
DASHED
 62
2
 10
459.7019
 20
244.8504
 11
459.7019
 21
197.8815
  0
LINE
  8
0_00
  6
DASHED
 62
2
 10
457.9520
 20
194.8504
 11
460.4519
 21
199.1805
  0
LINE
  8
0_00
  6
DASHED
 62
2
 10
455.4519
 20
244.8504
 11
455.4519
 21
199.1805
  0
LINE
  8
0_00
  6
DASHED
 62
2
 10
452.0520
 20
245.1982
 11
452.0520
 21
244.8504
  0
LINE
  8
0_00
  6
DASHED
 62
2
 10
456.2019
 20
244.8504
 11
456.2019
 21
197.8815
  0
LINE
  8
0_00
  6
DASHED
 62
2
 10
457.9520
 20
194.8504
 11
455.4519
 21
199.1805
  0
LINE
  8
0_00
  6
DASHED
 62
2
 10
452.0520
 20
245.1982
 11
463.8519
 21
245.1982
  0
LINE
  8
0_00
  6
DASHED
 62
2
 10
515.9520
 20
200.2504
 11
508.9520
 21
200.2504
  0
LINE
  8
0_00
  6
DASHED
 62
2
 10
508.9520
 20
200.2504
 11
508.9520
 21
260.7488
  0
LINE
  8
0_00
  6
DASHED
 62
2
 10
508.9520
 20
260.7488
 11
515.9520
 21
260.7488
  0
LINE
  8
11_0B
  6
DASHED
 62
2
 10
454.9520
 20
239.3504
 11
454.9520
 21
230.4007
  0
LINE
  8
11_0B
  6
DASHED
 62
2
 10
454.4781
 20
228.0489
 11
454.3443
 21
226.5193
  0
LINE
  8
11_0B
  6
DASHED
 62
2
 10
454.1512
 20
224.3132
 11
454.0175
 21
222.7836
  0
LINE
  8
11_0B
  6
DASHED
 62
2
 10
453.8244
 20
220.5775
 11
453.6906
 21
219.0479
  0
LINE
  8
11_0B
  6
DASHED
 62
2
 10
453.4976
 20
216.8417
 11
453.3638
 21
215.3121
  0
LINE
  8
11_0B
  6
DASHED
 62
2
 10
453.1707
 20
213.1060
 11
453.0505
 21
211.7318
  0
LINE
  8
11_0B
  6
DASHED
 62
2
 10
460.9519
 20
239.3504
 11
460.9519
 21
230.4007
  0
LINE
  8
11_0B
  6
DASHED
 62
2
 10
461.4258
 20
228.0489
 11
461.5596
 21
226.5193
  0
LINE
  8
11_0B
  6
DASHED
 62
2
 10
461.7526
 20
224.3132
 11
461.8865
 21
222.7836
  0
LINE
  8
11_0B
  6
DASHED
 62
2
 10
462.0795
 20
220.5775
 11
462.2133
 21
219.0479
  0
LINE
  8
11_0B
  6
DASHED
 62
2
 10
462.4063
 20
216.8417
 11
462.5401
 21
215.3121
  0
LINE
  8
11_0B
  6
DASHED
 62
2
 10
462.7331
 20
213.1060
 11
462.8533
 21
211.7318
  0
LINE
  8
11_0B
  6
DASHED
 62
2
 10
454.9520
 20
239.3504
 11
460.9519
 21
239.3504
  0
LINE
  8
11_0B
  6
DASHED
 62
2
 10
457.5769
 20
233.3504
 11
458.3270
 21
233.3504
  0
LINE
  8
11_0B
  6
DASHED
 62
2
 10
458.3270
 20
233.3504
 11
460.4187
 21
209.4418
  0
LINE
  8
11_0B
  6
DASHED
 62
2
 10
455.4852
 20
209.4418
 11
457.5769
 21
233.3504
  0
LINE
  8
11_0B
  6
DASHED
 62
2
 10
453.9909
 20
209.5725
 11
455.4852
 21
209.4418
  0
LINE
  8
11_0B
  6
DASHED
 62
2
 10
460.4187
 20
209.4418
 11
461.9130
 21
209.5725
  0
LINE
  8
11_0B
  6
DASHED
 62
2
 10
461.9130
 20
209.5725
 11
462.8129
 21
211.5024
  0
LINE
  8
11_0B
  6
DASHED
 62
2
 10
453.9909
 20
209.5725
 11
453.0910
 21
211.5024
  0
LINE
  8
11_0B
  6
DASHED
 62
2
 10
453.0401
 20
211.6117
 11
455.6550
 21
211.3829
  0
LINE
  8
11_0B
  6
DASHED
 62
2
 10
460.2488
 20
211.3829
 11
462.8639
 21
211.6117
  0
LINE
  8
11_0B
  6
DASHED
 62
2
 10
453.1707
 20
213.1060
 11
454.8144
 21
212.9622
  0
LINE
  8
11_0B
  6
DASHED
 62
2
 10
461.0894
 20
212.9622
 11
462.7331
 21
213.1060
  0
LINE
  8
11_0B
  6
DASHED
 62
2
 10
453.4976
 20
216.8417
 11
455.1413
 21
216.6979
  0
LINE
  8
11_0B
  6
DASHED
 62
2
 10
460.7626
 20
216.6979
 11
462.4063
 21
216.8417
  0
LINE
  8
11_0B
  6
DASHED
 62
2
 10
453.8244
 20
220.5775
 11
455.4681
 21
220.4336
  0
LINE
  8
11_0B
  6
DASHED
 62
2
 10
460.4357
 20
220.4336
 11
462.0795
 21
220.5775
  0
LINE
  8
11_0B
  6
DASHED
 62
2
 10
454.1512
 20
224.3132
 11
455.7950
 21
224.1694
  0
LINE
  8
11_0B
  6
DASHED
 62
2
 10
460.1089
 20
224.1694
 11
461.7526
 21
224.3132
  0
LINE
  8
11_0B
  6
DASHED
 62
2
 10
454.4781
 20
228.0489
 11
455.6735
 21
227.9443
  0
LINE
  8
11_0B
  6
DASHED
 62
2
 10
460.2303
 20
227.9443
 11
461.4258
 21
228.0489
  0
LINE
  8
11_0B
  6
DASHED
 62
2
 10
455.6464
 20
225.9138
 11
455.4961
 21
224.1955
  0
LINE
  8
11_0B
  6
DASHED
 62
2
 10
455.3196
 20
222.1780
 11
455.1693
 21
220.4598
  0
LINE
  8
11_0B
  6
DASHED
 62
2
 10
454.9928
 20
218.4423
 11
454.8425
 21
216.7240
  0
LINE
  8
11_0B
  6
DASHED
 62
2
 10
454.6659
 20
214.7066
 11
454.5157
 21
212.9883
  0
LINE
  8
11_0B
  6
DASHED
 62
2
 10
461.3882
 20
212.9883
 11
461.2379
 21
214.7066
  0
LINE
  8
11_0B
  6
DASHED
 62
2
 10
461.0614
 20
216.7240
 11
460.9111
 21
218.4423
  0
LINE
  8
11_0B
  6
DASHED
 62
2
 10
460.7346
 20
220.4598
 11
460.5843
 21
222.1780
  0
LINE
  8
11_0B
  6
DASHED
 62
2
 10
460.4078
 20
224.1955
 11
460.2574
 21
225.9138
  0
LINE
  8
11_0B
  6
DASHED
 62
2
 10
461.0397
 20
214.6535
 11
462.3189
 21
214.9962
  0
LINE
  8
11_0B
  6
DASHED
 62
2
 10
454.9857
 20
214.6209
 11
453.5850
 21
214.9962
  0
LINE
  8
11_0B
  6
DASHED
 62
2
 10
460.7129
 20
218.3892
 11
461.9920
 21
218.7320
  0
LINE
  8
11_0B
  6
DASHED
 62
2
 10
455.1909
 20
218.3892
 11
453.9118
 21
218.7320
  0
LINE
  8
11_0B
  6
DASHED
 62
2
 10
460.3861
 20
222.1249
 11
461.6652
 21
222.4677
  0
LINE
  8
11_0B
  6
DASHED
 62
2
 10
455.5178
 20
222.1249
 11
454.2387
 21
222.4677
  0
LINE
  8
11_0B
  6
DASHED
 62
2
 10
460.0592
 20
225.8607
 11
461.3383
 21
226.2034
  0
LINE
  8
11_0B
  6
DASHED
 62
2
 10
455.8446
 20
225.8607
 11
454.5655
 21
226.2034
  0
LINE
  8
11_0B
  6
DASHED
 62
2
 10
455.5241
 20
227.9574
 11
455.7259
 21
230.2642
  0
LINE
  8
11_0B
  6
DASHED
 62
2
 10
460.3798
 20
227.9574
 11
460.1780
 21
230.2642
  0
LINE
  8
11_0B
  6
DASHED
 62
2
 10
456.0659
 20
225.5447
 11
455.9574
 21
224.3057
  0
LINE
  8
11_0B
  6
DASHED
 62
2
 10
455.7391
 20
221.8090
 11
455.6306
 21
220.5700
  0
LINE
  8
11_0B
  6
DASHED
 62
2
 10
455.4122
 20
218.0733
 11
455.3038
 21
216.8343
  0
LINE
  8
11_0B
  6
DASHED
 62
2
 10
455.0964
 20
214.4629
 11
454.9770
 21
213.0985
  0
LINE
  8
11_0B
  6
DASHED
 62
2
 10
460.9269
 20
213.0985
 11
460.8185
 21
214.3375
  0
LINE
  8
11_0B
  6
DASHED
 62
2
 10
460.6001
 20
216.8343
 11
460.4917
 21
218.0733
  0
LINE
  8
11_0B
  6
DASHED
 62
2
 10
460.2733
 20
220.5700
 11
460.1649
 21
221.8090
  0
LINE
  8
11_0B
  6
DASHED
 62
2
 10
459.9464
 20
224.3057
 11
459.8380
 21
225.5447
  0
LINE
  8
11_0B
  6
DASHED
 62
2
 10
455.7518
 20
230.2596
 11
454.9520
 21
230.4007
  0
LINE
  8
11_0B
  6
DASHED
 62
2
 10
460.1521
 20
230.2596
 11
460.9519
 21
230.4007
  0
LINE
  8
11_0B
  6
DASHED
 62
2
 10
461.7526
 20
224.3132
 11
463.8446
 21
228.7994
  0
LINE
  8
11_0B
  6
DASHED
 62
2
 10
463.1648
 20
229.1164
 11
460.8899
 21
224.2377
  0
LINE
  8
11_0B
  6
DASHED
 62
2
 10
454.1512
 20
224.3132
 11
452.0593
 21
228.7994
  0
LINE
  8
11_0B
  6
DASHED
 62
2
 10
452.7390
 20
229.1164
 11
455.0140
 21
224.2377
  0
LINE
  8
11_0B
  6
DASHED
 62
2
 10
463.6994
 20
229.1981
 11
463.5635
 21
229.2615
  0
LINE
  8
11_0B
  6
DASHED
 62
2
 10
452.2044
 20
229.1981
 11
452.3404
 21
229.2615
  0
LINE
  8
11_0B
  6
DASHED
 62
2
 10
455.9985
 20
229.9381
 11
455.8360
 21
228.0807
  0
LINE
  8
11_0B
  6
DASHED
 62
2
 10
459.9053
 20
229.9381
 11
460.2574
 21
225.9138
  0
LINE
  8
0_00
  6
CONTINUOUS
 62
4
 10
626.3279
 20
197.1227
 11
626.3279
 21
257.0048
  0
LINE
  8
0_00
  6
CONTINUOUS
 62
4
 10
807.3279
 20
197.1227
 11
807.3279
 21
251.2369
  0
LINE
  8
0_00
  6
CONTINUOUS
 62
4
 10
803.8279
 20
193.6227
 11
629.8278
 21
193.6227
  0
LINE
  8
0_00
  6
CONTINUOUS
 62
4
 10
803.9439
 20
254.7349
 11
629.9438
 21
260.5029
  0
LINE
  8
2_02
  6
CENTER1
 62
6
 10
716.8279
 20
132.4565
 11
716.8279
 21
425.7458
  0
LINE
  8
0_00
  6
DASHED
 62
2
 10
163.0754
 20
229.3504
 11
510.9519
 21
229.3504
  0
LINE
  8
0_00
  6
CONTINUOUS
 62
6
 10
148.0753
 20
407.2228
 11
94.0000
 21
407.2228
  0
LINE
  8
0_00
  6
CONTINUOUS
 62
6
 10
100.0000
 20
407.2228
 11
100.0000
 21
257.2227
  0
LINE
  8
0_00
  6
CONTINUOUS
 62
6
 10
100.0000
 20
407.2228
 11
98.4407
 21
399.8866
  0
LINE
  8
0_00
  6
CONTINUOUS
 62
6
 10
100.0000
 20
407.2228
 11
101.5593
 21
399.8866
  0
LINE
  8
0_00
  6
CONTINUOUS
 62
6
 10
100.0000
 20
257.2227
 11
101.5593
 21
264.5588
  0
LINE
  8
0_00
  6
CONTINUOUS
 62
6
 10
100.0000
 20
257.2227
 11
98.4407
 21
264.5588
  0
LINE
  8
0_00
  6
CONTINUOUS
 62
4
 10
517.4520
 20
262.6325
 11
517.4520
 21
195.7504
  0
LINE
  8
0_00
  6
CONTINUOUS
 62
4
 10
791.8279
 20
131.8716
 11
791.8279
 21
193.6227
  0
LINE
  8
0_00
  6
CONTINUOUS
 62
4
 10
641.8279
 20
131.8716
 11
641.8279
 21
193.6227
  0
LINE
  8
0_00
  6
CONTINUOUS
 62
4
 10
615.6279
 20
440.7193
 11
646.8279
 21
440.7193
  0
LINE
  8
0_00
  6
CONTINUOUS
 62
4
 10
646.8279
 20
440.7193
 11
646.8279
 21
455.1193
  0
LINE
  8
0_00
  6
CONTINUOUS
 62
4
 10
615.6279
 20
455.1193
 11
646.8279
 21
455.1193
  0
LINE
  8
0_00
  6
CONTINUOUS
 62
4
 10
615.6279
 20
440.7193
 11
615.6279
 21
455.1193
  0
LINE
  8
0_00
  6
CONTINUOUS
 62
4
 10
786.8279
 20
440.7193
 11
818.0278
 21
440.7193
  0
LINE
  8
0_00
  6
CONTINUOUS
 62
4
 10
818.0278
 20
440.7193
 11
818.0278
 21
455.1193
  0
LINE
  8
0_00
  6
CONTINUOUS
 62
4
 10
786.8279
 20
455.1193
 11
818.0278
 21
455.1193
  0
LINE
  8
0_00
  6
CONTINUOUS
 62
4
 10
786.8279
 20
440.7193
 11
786.8279
 21
455.1193
  0
LINE
  8
0_00
  6
CONTINUOUS
 62
6
 10
411.7484
 20
257.2227
 11
94.0000
 21
257.2227
  0
LINE
  8
2_02
  6
CENTER1
 62
6
 10
953.6646
 20
316.0350
 11
953.6646
 21
419.8221
  0
LINE
  8
2_02
  6
CENTER1
 62
6
 10
1133.6646
 20
329.0986
 11
1133.6646
 21
419.8221
  0
LINE
  8
0_00
  6
CONTINUOUS
 62
2
 10
327.5776
 20
769.6615
 11
327.5776
 21
519.2267
  0
LINE
  8
0_00
  6
CONTINUOUS
 62
2
 10
327.5776
 20
769.6615
 11
346.5868
 21
769.6615
  0
LINE
  8
0_00
  6
CONTINUOUS
 62
2
 10
346.5868
 20
769.6615
 11
339.2507
 21
771.2208
  0
LINE
  8
0_00
  6
CONTINUOUS
 62
2
 10
346.5868
 20
769.6615
 11
339.2507
 21
768.1022
  0
LINE
  8
0_00
  6
CONTINUOUS
 62
2
 10
327.5776
 20
519.2267
 11
346.5868
 21
519.2267
  0
LINE
  8
0_00
  6
CONTINUOUS
 62
2
 10
346.5868
 20
519.2267
 11
339.2507
 21
520.7861
  0
LINE
  8
0_00
  6
CONTINUOUS
 62
2
 10
346.5868
 20
519.2267
 11
339.2507
 21
517.6674
  0
LINE
  8
0_00
  6
CONTINUOUS
 62
4
 10
510.9519
 20
196.3504
 11
510.9519
 21
131.8716
  0
LINE
  8
0_00
  6
DASHED
 62
2
 10
510.9519
 20
239.3504
 11
510.9519
 21
196.3504
  0
LINE
  8
0_00
  6
DASHED
 62
2
 10
460.9519
 20
363.4227
 11
163.0754
 21
363.4227
  0
LINE
  8
0_00
  6
DASHED
 62
2
 10
460.9519
 20
361.7227
 11
163.0754
 21
361.7227
  0
LINE
  8
0_00
  6
CONTINUOUS
 62
4
 10
464.4519
 20
406.0227
 11
464.4519
 21
361.5227
  0
LINE
  8
0_00
  6
CONTINUOUS
 62
4
 10
460.9519
 20
408.0227
 11
460.9519
 21
368.7227
  0
LINE
  8
0_00
  6
CONTINUOUS
 62
4
 10
460.9519
 20
366.7227
 11
460.9519
 21
359.5227
  0
LINE
  8
0_00
  6
CONTINUOUS
 62
4
 10
460.9519
 20
408.0227
 11
462.4519
 21
408.0227
  0
LINE
  8
0_00
  6
CONTINUOUS
 62
4
 10
460.9519
 20
359.5227
 11
462.4519
 21
359.5227
  0
LINE
  8
0_00
  6
DASHED
 62
2
 10
460.9519
 20
403.7227
 11
441.9519
 21
403.7227
  0
LINE
  8
0_00
  6
DASHED
 62
2
 10
460.9519
 20
375.7227
 11
440.9519
 21
375.7227
  0
LINE
  8
0_00
  6
DASHED
 62
2
 10
440.9519
 20
402.7228
 11
440.9519
 21
375.7227
  0
LINE
  8
0_00
  6
DASHED
 62
2
 10
460.9519
 20
368.7227
 11
420.9519
 21
368.7227
  0
LINE
  8
0_00
  6
DASHED
 62
2
 10
420.9519
 20
368.7227
 11
420.9519
 21
365.3793
  0
LINE
  8
0_00
  6
DASHED
 62
2
 10
460.9519
 20
366.7227
 11
455.9519
 21
366.7227
  0
LINE
  8
0_00
  6
DASHED
 62
2
 10
455.9519
 20
366.2227
 11
450.9520
 21
366.2227
  0
LINE
  8
0_00
  6
DASHED
 62
2
 10
455.9519
 20
366.2227
 11
455.9519
 21
368.7227
  0
LINE
  8
0_00
  6
DASHED
 62
2
 10
450.9520
 20
366.2227
 11
450.9520
 21
365.2227
  0
LINE
  8
0_00
  6
DASHED
 62
2
 10
450.9520
 20
365.2227
 11
424.1142
 21
365.2227
  0
LINE
  8
0_00
  6
DASHED
 62
2
 10
460.9519
 20
364.7227
 11
421.9520
 21
364.7227
  0
LINE
  8
0_00
  6
DASHED
 62
2
 10
423.7980
 20
365.2741
 11
421.6357
 21
365.9948
  0
LINE
  8
0_00
  6
DASHED
 62
2
 10
460.9519
 20
363.4227
 11
446.9519
 21
363.4227
  0
LINE
  8
0_00
  6
DASHED
 62
2
 10
423.7617
 20
363.5052
 11
421.5543
 21
364.4617
  0
LINE
  8
0_00
  6
DASHED
 62
2
 10
460.9519
 20
402.2227
 11
440.9519
 21
402.2227
  0
LINE
  8
0_00
  6
DASHED
 62
2
 10
460.9519
 20
371.2228
 11
440.9519
 21
368.7227
  0
LINE
  8
0_00
  6
DASHED
 62
2
 10
451.9519
 20
404.6058
 11
460.9519
 21
404.6058
  0
LINE
  8
0_00
  6
DASHED
 62
2
 10
451.9519
 20
404.6058
 11
448.9520
 21
403.7227
  0
LINE
  8
0_00
  6
CENTER1
 62
6
 10
444.4520
 20
379.5837
 11
444.4520
 21
355.8649
  0
LINE
  8
0_00
  6
DASHED
 62
2
 10
445.9520
 20
368.7227
 11
445.9520
 21
365.2227
  0
LINE
  8
0_00
  6
DASHED
 62
2
 10
442.9520
 20
368.7227
 11
442.9520
 21
365.2227
  0
LINE
  8
0_00
  6
DASHED
 62
2
 10
445.9520
 20
365.2227
 11
442.9520
 21
365.2227
  0
LINE
  8
0_00
  6
DASHED
 62
2
 10
446.6019
 20
364.7227
 11
445.9520
 21
365.2227
  0
LINE
  8
0_00
  6
DASHED
 62
2
 10
442.9520
 20
365.2227
 11
442.3020
 21
364.7227
  0
LINE
  8
0_00
  6
DASHED
 62
2
 10
446.9519
 20
363.4227
 11
446.9519
 21
364.7227
  0
LINE
  8
0_00
  6
DASHED
 62
2
 10
441.9519
 20
363.4227
 11
441.9519
 21
364.7227
  0
LINE
  8
0_00
  6
DASHED
 62
2
 10
440.4502
 20
361.7227
 11
440.4502
 21
361.3227
  0
LINE
  8
0_00
  6
DASHED
 62
2
 10
448.4502
 20
361.7227
 11
448.4502
 21
361.3227
  0
LINE
  8
0_00
  6
DASHED
 62
2
 10
445.9001
 20
373.7227
 11
443.0002
 21
373.7227
  0
LINE
  8
0_00
  6
DASHED
 62
2
 10
442.4501
 20
361.7227
 11
442.4501
 21
364.2228
  0
LINE
  8
0_00
  6
DASHED
 62
2
 10
443.0002
 20
361.7227
 11
443.0002
 21
364.2228
  0
LINE
  8
0_00
  6
DASHED
 62
2
 10
445.9001
 20
361.7227
 11
445.9001
 21
364.2228
  0
LINE
  8
0_00
  6
DASHED
 62
2
 10
446.4501
 20
361.7227
 11
446.4501
 21
364.2228
  0
LINE
  8
0_00
  6
DASHED
 62
2
 10
445.9001
 20
368.9727
 11
445.9001
 21
373.7227
  0
LINE
  8
0_00
  6
DASHED
 62
2
 10
445.9001
 20
367.1227
 11
445.9001
 21
368.9727
  0
LINE
  8
0_00
  6
DASHED
 62
2
 10
445.9001
 20
364.2228
 11
445.9001
 21
367.1227
  0
LINE
  8
0_00
  6
DASHED
 62
2
 10
446.4501
 20
367.1227
 11
446.4501
 21
368.9027
  0
LINE
  8
0_00
  6
DASHED
 62
2
 10
446.4501
 20
364.2228
 11
446.4501
 21
367.1227
  0
LINE
  8
0_00
  6
DASHED
 62
2
 10
443.0002
 20
369.1227
 11
443.0002
 21
373.7227
  0
LINE
  8
0_00
  6
DASHED
 62
2
 10
443.0002
 20
367.1227
 11
443.0002
 21
369.1227
  0
LINE
  8
0_00
  6
DASHED
 62
2
 10
443.0002
 20
364.2228
 11
443.0002
 21
367.1227
  0
LINE
  8
0_00
  6
DASHED
 62
2
 10
442.4501
 20
367.1227
 11
442.4501
 21
368.9027
  0
LINE
  8
0_00
  6
DASHED
 62
2
 10
442.4501
 20
364.2228
 11
442.4501
 21
367.1227
  0
LINE
  8
0_00
  6
DASHED
 62
2
 10
442.4753
 20
369.1227
 11
443.0002
 21
373.7227
  0
LINE
  8
0_00
  6
DASHED
 62
2
 10
442.4753
 20
369.1227
 11
442.4501
 21
368.9027
  0
LINE
  8
0_00
  6
DASHED
 62
2
 10
446.4250
 20
369.1227
 11
445.9001
 21
373.7227
  0
LINE
  8
0_00
  6
DASHED
 62
2
 10
446.4250
 20
369.1227
 11
446.4501
 21
368.9027
  0
LINE
  8
0_00
  6
CONTINUOUS
 62
4
 10
744.5278
 20
359.5227
 11
746.6279
 21
359.5227
  0
LINE
  8
0_00
  6
CONTINUOUS
 62
4
 10
747.6279
 20
399.7447
 11
747.6279
 21
360.5227
  0
LINE
  8
0_00
  6
CONTINUOUS
 62
4
 10
743.5278
 20
360.5227
 11
743.5278
 21
361.3227
  0
LINE
  8
0_00
  6
CONTINUOUS
 62
4
 10
729.5278
 20
361.3227
 11
743.5278
 21
361.3227
  0
LINE
  8
0_00
  6
CONTINUOUS
 62
4
 10
704.6279
 20
363.2227
 11
729.0279
 21
363.2227
  0
LINE
  8
0_00
  6
CONTINUOUS
 62
4
 10
729.5278
 20
361.3227
 11
729.0279
 21
363.2227
  0
LINE
  8
0_00
  6
CONTINUOUS
 62
4
 10
689.1279
 20
359.5227
 11
687.0278
 21
359.5227
  0
LINE
  8
0_00
  6
CONTINUOUS
 62
4
 10
686.0278
 20
399.7447
 11
686.0278
 21
360.5227
  0
LINE
  8
0_00
  6
CONTINUOUS
 62
4
 10
690.1279
 20
360.5227
 11
690.1279
 21
361.3227
  0
LINE
  8
0_00
  6
CONTINUOUS
 62
4
 10
704.1279
 20
361.3227
 11
690.1279
 21
361.3227
  0
LINE
  8
0_00
  6
CONTINUOUS
 62
4
 10
704.1279
 20
361.3227
 11
704.6279
 21
363.2227
  0
LINE
  8
0_00
  6
CONTINUOUS
 62
4
 10
695.3279
 20
262.8577
 11
695.3279
 21
361.2228
  0
LINE
  8
0_00
  6
CONTINUOUS
 62
4
 10
738.3279
 20
262.8577
 11
738.3279
 21
361.2228
  0
LINE
  8
15_0F
  6
CONTINUOUS
 62
4
 10
694.3279
 20
361.2228
 11
739.3279
 21
361.2228
  0
LINE
  8
15_0F
  6
CONTINUOUS
 62
4
 10
739.3279
 20
361.3227
 11
739.3279
 21
361.2228
  0
LINE
  8
0_00
  6
CONTINUOUS
 62
4
 10
740.3279
 20
262.3577
 11
740.3279
 21
257.0548
  0
LINE
  8
0_00
  6
CONTINUOUS
 62
4
 10
693.3279
 20
258.6611
 11
693.3279
 21
262.3577
  0
LINE
  8
0_00
  6
CONTINUOUS
 62
4
 10
739.8279
 20
262.8577
 11
692.8279
 21
262.8577
  0
LINE
  8
0_00
  6
CONTINUOUS
 62
4
 10
740.3279
 20
262.3577
 11
740.3279
 21
257.0548
  0
LINE
  8
0_00
  6
CONTINUOUS
 62
4
 10
693.3279
 20
258.6611
 11
693.3279
 21
262.3577
  0
LINE
  8
0_00
  6
CONTINUOUS
 62
4
 10
692.3279
 20
258.6611
 11
692.3279
 21
262.3577
  0
LINE
  8
0_00
  6
CONTINUOUS
 62
4
 10
692.3279
 20
258.6611
 11
692.3279
 21
262.3577
  0
LINE
  8
0_00
  6
CONTINUOUS
 62
6
 10
701.8279
 20
257.2227
 11
542.7759
 21
257.2227
  0
LINE
  8
0_00
  6
CONTINUOUS
 62
4
 10
941.4646
 20
373.0228
 11
965.8646
 21
373.0228
  0
LINE
  8
0_00
  6
CONTINUOUS
 62
4
 10
980.4646
 20
371.1227
 11
980.4646
 21
369.3227
  0
LINE
  8
0_00
  6
CONTINUOUS
 62
4
 10
926.8646
 20
371.1227
 11
926.8646
 21
369.3227
  0
LINE
  8
0_00
  6
CONTINUOUS
 62
4
 10
983.9365
 20
369.3227
 11
980.4646
 21
369.3227
  0
LINE
  8
0_00
  6
CONTINUOUS
 62
4
 10
926.8646
 20
369.3227
 11
923.3928
 21
369.3227
  0
LINE
  8
0_00
  6
CONTINUOUS
 62
4
 10
926.8646
 20
371.1227
 11
940.9646
 21
371.1227
  0
LINE
  8
0_00
  6
CONTINUOUS
 62
4
 10
966.3647
 20
371.1227
 11
980.4646
 21
371.1227
  0
LINE
  8
0_00
  6
CONTINUOUS
 62
4
 10
966.3647
 20
371.1227
 11
965.8646
 21
373.0228
  0
LINE
  8
0_00
  6
CONTINUOUS
 62
4
 10
975.1645
 20
331.8809
 11
975.1645
 21
371.0228
  0
LINE
  8
0_00
  6
CONTINUOUS
 62
4
 10
932.1646
 20
331.8809
 11
932.1646
 21
371.0228
  0
LINE
  8
0_00
  6
CONTINUOUS
 62
4
 10
940.9646
 20
371.1227
 11
941.4646
 21
373.0228
  0
LINE
  8
15_0F
  6
CONTINUOUS
 62
4
 10
931.1646
 20
371.0228
 11
976.1646
 21
371.0228
  0
LINE
  8
15_0F
  6
CONTINUOUS
 62
4
 10
976.1646
 20
371.1227
 11
976.1646
 21
371.0228
  0
LINE
  8
0_00
  6
CONTINUOUS
 62
4
 10
1155.1646
 20
331.8809
 11
1155.1646
 21
357.5881
  0
LINE
  8
0_00
  6
CONTINUOUS
 62
4
 10
1112.1646
 20
331.8809
 11
1112.1646
 21
357.5881
  0
LINE
  8
0_00
  6
CONTINUOUS
 62
6
 10
777.0186
 20
244.2578
 11
795.0459
 21
275.4818
  0
LINE
  8
0_00
  6
CONTINUOUS
 62
6
 10
777.0186
 20
244.2578
 11
782.0371
 21
249.8313
  0
LINE
  8
0_00
  6
CONTINUOUS
 62
6
 10
777.0186
 20
244.2578
 11
779.3362
 21
251.3907
  0
LINE
  8
0_00
  6
CONTINUOUS
 62
6
 10
795.0459
 20
275.4818
 11
861.6459
 21
275.4818
  0
LINE
  8
0_00
  6
CONTINUOUS
 62
6
 10
686.0278
 20
393.8905
 11
676.6444
 21
410.1431
  0
LINE
  8
0_00
  6
CONTINUOUS
 62
6
 10
686.0278
 20
393.8905
 11
683.7102
 21
401.0234
  0
LINE
  8
0_00
  6
CONTINUOUS
 62
6
 10
686.0278
 20
393.8905
 11
681.0094
 21
399.4640
  0
LINE
  8
0_00
  6
CONTINUOUS
 62
6
 10
676.6444
 20
410.1431
 11
588.4444
 21
410.1431
  0
LINE
  8
0_00
  6
CONTINUOUS
 62
6
 10
923.9253
 20
393.9678
 11
914.8647
 21
409.6612
  0
LINE
  8
0_00
  6
CONTINUOUS
 62
6
 10
923.9253
 20
393.9678
 11
921.6076
 21
401.1007
  0
LINE
  8
0_00
  6
CONTINUOUS
 62
6
 10
923.9253
 20
393.9678
 11
918.9068
 21
399.5413
  0
LINE
  8
0_00
  6
CONTINUOUS
 62
6
 10
914.8647
 20
409.6612
 11
826.6647
 21
409.6612
  0
LINE
  8
0_00
  6
CONTINUOUS
 62
6
 10
1111.2712
 20
397.8844
 11
1103.1793
 21
411.9000
  0
LINE
  8
0_00
  6
CONTINUOUS
 62
6
 10
1111.2712
 20
397.8844
 11
1108.9536
 21
405.0173
  0
LINE
  8
0_00
  6
CONTINUOUS
 62
6
 10
1111.2712
 20
397.8844
 11
1106.2527
 21
403.4579
  0
LINE
  8
0_00
  6
CONTINUOUS
 62
6
 10
1103.1793
 20
411.9000
 11
1014.9793
 21
411.9000
  0
LINE
  8
0_00
  6
CONTINUOUS
 62
6
 10
445.6328
 20
355.8494
 11
457.0276
 21
336.1128
  0
LINE
  8
0_00
  6
CONTINUOUS
 62
6
 10
445.6328
 20
355.8494
 11
447.9504
 21
348.7164
  0
LINE
  8
0_00
  6
CONTINUOUS
 62
6
 10
445.6328
 20
355.8494
 11
450.6512
 21
350.2758
  0
LINE
  8
0_00
  6
CONTINUOUS
 62
6
 10
545.2342
 20
336.1128
 11
457.0276
 21
336.1128
  0
LINE
  8
0_00
  6
CONTINUOUS
 62
6
 10
720.6311
 20
541.6888
 11
749.3495
 21
491.9473
  0
LINE
  8
0_00
  6
CONTINUOUS
 62
6
 10
720.6311
 20
541.6888
 11
722.9487
 21
534.5559
  0
LINE
  8
0_00
  6
CONTINUOUS
 62
6
 10
720.6311
 20
541.6888
 11
725.6496
 21
536.1152
  0
LINE
  8
0_00
  6
CONTINUOUS
 62
6
 10
888.3658
 20
511.3732
 11
738.1339
 21
511.3732
  0
LINE
  8
0_00
  6
CONTINUOUS
 62
6
 10
749.3495
 20
491.9473
 11
932.6308
 21
491.9473
  0
LINE
  8
11_0B
  6
DASHED
 62
2
 10
719.8278
 20
581.9728
 11
719.8278
 21
573.0230
  0
LINE
  8
11_0B
  6
DASHED
 62
2
 10
720.3017
 20
570.6712
 11
720.4355
 21
569.1417
  0
LINE
  8
11_0B
  6
DASHED
 62
2
 10
720.6285
 20
566.9355
 11
720.7624
 21
565.4059
  0
LINE
  8
11_0B
  6
DASHED
 62
2
 10
720.9554
 20
563.1998
 11
721.0892
 21
561.6702
  0
LINE
  8
11_0B
  6
DASHED
 62
2
 10
721.2822
 20
559.4640
 11
721.4160
 21
557.9344
  0
LINE
  8
11_0B
  6
DASHED
 62
2
 10
721.6090
 20
555.7283
 11
721.7292
 21
554.3541
  0
LINE
  8
11_0B
  6
DASHED
 62
2
 10
713.8279
 20
581.9728
 11
713.8279
 21
573.0230
  0
LINE
  8
11_0B
  6
DASHED
 62
2
 10
713.3540
 20
570.6712
 11
713.2202
 21
569.1417
  0
LINE
  8
11_0B
  6
DASHED
 62
2
 10
713.0272
 20
566.9355
 11
712.8934
 21
565.4059
  0
LINE
  8
11_0B
  6
DASHED
 62
2
 10
712.7003
 20
563.1998
 11
712.5666
 21
561.6702
  0
LINE
  8
11_0B
  6
DASHED
 62
2
 10
712.3735
 20
559.4640
 11
712.2397
 21
557.9344
  0
LINE
  8
11_0B
  6
DASHED
 62
2
 10
712.0466
 20
555.7283
 11
711.9265
 21
554.3541
  0
LINE
  8
11_0B
  6
DASHED
 62
2
 10
719.8278
 20
581.9728
 11
713.8279
 21
581.9728
  0
LINE
  8
11_0B
  6
DASHED
 62
2
 10
717.2029
 20
575.9728
 11
716.4529
 21
575.9728
  0
LINE
  8
11_0B
  6
DASHED
 62
2
 10
716.4529
 20
575.9728
 11
714.3611
 21
552.0641
  0
LINE
  8
11_0B
  6
DASHED
 62
2
 10
719.2946
 20
552.0641
 11
717.2029
 21
575.9728
  0
LINE
  8
11_0B
  6
DASHED
 62
2
 10
720.7889
 20
552.1948
 11
719.2946
 21
552.0641
  0
LINE
  8
11_0B
  6
DASHED
 62
2
 10
714.3611
 20
552.0641
 11
712.8668
 21
552.1948
  0
LINE
  8
11_0B
  6
DASHED
 62
2
 10
712.8668
 20
552.1948
 11
711.9669
 21
554.1247
  0
LINE
  8
11_0B
  6
DASHED
 62
2
 10
720.7889
 20
552.1948
 11
721.6888
 21
554.1247
  0
LINE
  8
11_0B
  6
DASHED
 62
2
 10
721.7398
 20
554.2340
 11
719.1247
 21
554.0052
  0
LINE
  8
11_0B
  6
DASHED
 62
2
 10
714.5310
 20
554.0052
 11
711.9160
 21
554.2340
  0
LINE
  8
11_0B
  6
DASHED
 62
2
 10
721.6090
 20
555.7283
 11
719.9653
 21
555.5845
  0
LINE
  8
11_0B
  6
DASHED
 62
2
 10
713.6904
 20
555.5845
 11
712.0466
 21
555.7283
  0
LINE
  8
11_0B
  6
DASHED
 62
2
 10
721.2822
 20
559.4640
 11
719.6385
 21
559.3202
  0
LINE
  8
11_0B
  6
DASHED
 62
2
 10
714.0172
 20
559.3202
 11
712.3735
 21
559.4640
  0
LINE
  8
11_0B
  6
DASHED
 62
2
 10
720.9554
 20
563.1998
 11
719.3117
 21
563.0560
  0
LINE
  8
11_0B
  6
DASHED
 62
2
 10
714.3441
 20
563.0560
 11
712.7003
 21
563.1998
  0
LINE
  8
11_0B
  6
DASHED
 62
2
 10
720.6285
 20
566.9355
 11
718.9848
 21
566.7917
  0
LINE
  8
11_0B
  6
DASHED
 62
2
 10
714.6709
 20
566.7917
 11
713.0272
 21
566.9355
  0
LINE
  8
11_0B
  6
DASHED
 62
2
 10
720.3017
 20
570.6712
 11
719.1063
 21
570.5666
  0
LINE
  8
11_0B
  6
DASHED
 62
2
 10
714.5495
 20
570.5666
 11
713.3540
 21
570.6712
  0
LINE
  8
11_0B
  6
DASHED
 62
2
 10
719.1333
 20
568.5361
 11
719.2836
 21
566.8178
  0
LINE
  8
11_0B
  6
DASHED
 62
2
 10
719.4602
 20
564.8004
 11
719.6105
 21
563.0821
  0
LINE
  8
11_0B
  6
DASHED
 62
2
 10
719.7870
 20
561.0646
 11
719.9373
 21
559.3464
  0
LINE
  8
11_0B
  6
DASHED
 62
2
 10
720.1138
 20
557.3288
 11
720.2642
 21
555.6106
  0
LINE
  8
11_0B
  6
DASHED
 62
2
 10
713.3916
 20
555.6106
 11
713.5419
 21
557.3288
  0
LINE
  8
11_0B
  6
DASHED
 62
2
 10
713.7184
 20
559.3464
 11
713.8687
 21
561.0646
  0
LINE
  8
11_0B
  6
DASHED
 62
2
 10
714.0452
 20
563.0821
 11
714.1956
 21
564.8004
  0
LINE
  8
11_0B
  6
DASHED
 62
2
 10
714.3720
 20
566.8178
 11
714.5224
 21
568.5361
  0
LINE
  8
11_0B
  6
DASHED
 62
2
 10
713.7400
 20
557.2758
 11
712.4609
 21
557.6185
  0
LINE
  8
11_0B
  6
DASHED
 62
2
 10
719.7941
 20
557.2431
 11
721.1948
 21
557.6185
  0
LINE
  8
11_0B
  6
DASHED
 62
2
 10
714.0669
 20
561.0114
 11
712.7877
 21
561.3543
  0
LINE
  8
11_0B
  6
DASHED
 62
2
 10
719.5888
 20
561.0114
 11
720.8680
 21
561.3543
  0
LINE
  8
11_0B
  6
DASHED
 62
2
 10
714.3937
 20
564.7473
 11
713.1145
 21
565.0899
  0
LINE
  8
11_0B
  6
DASHED
 62
2
 10
719.2620
 20
564.7473
 11
720.5411
 21
565.0899
  0
LINE
  8
11_0B
  6
DASHED
 62
2
 10
714.7206
 20
568.4830
 11
713.4414
 21
568.8257
  0
LINE
  8
11_0B
  6
DASHED
 62
2
 10
718.9352
 20
568.4830
 11
720.2143
 21
568.8257
  0
LINE
  8
11_0B
  6
DASHED
 62
2
 10
719.2557
 20
570.5797
 11
719.0539
 21
572.8865
  0
LINE
  8
11_0B
  6
DASHED
 62
2
 10
714.4000
 20
570.5797
 11
714.6018
 21
572.8865
  0
LINE
  8
11_0B
  6
DASHED
 62
2
 10
718.7139
 20
568.1671
 11
718.8223
 21
566.9280
  0
LINE
  8
11_0B
  6
DASHED
 62
2
 10
719.0408
 20
564.4313
 11
719.1492
 21
563.1923
  0
LINE
  8
11_0B
  6
DASHED
 62
2
 10
719.3676
 20
560.6956
 11
719.4759
 21
559.4566
  0
LINE
  8
11_0B
  6
DASHED
 62
2
 10
719.6835
 20
557.0852
 11
719.8027
 21
555.7208
  0
LINE
  8
11_0B
  6
DASHED
 62
2
 10
713.8529
 20
555.7208
 11
713.9613
 21
556.9598
  0
LINE
  8
11_0B
  6
DASHED
 62
2
 10
714.1798
 20
559.4566
 11
714.2882
 21
560.6956
  0
LINE
  8
11_0B
  6
DASHED
 62
2
 10
714.5065
 20
563.1923
 11
714.6149
 21
564.4313
  0
LINE
  8
11_0B
  6
DASHED
 62
2
 10
714.8334
 20
566.9280
 11
714.9418
 21
568.1671
  0
LINE
  8
11_0B
  6
DASHED
 62
2
 10
719.0280
 20
572.8819
 11
719.8278
 21
573.0230
  0
LINE
  8
11_0B
  6
DASHED
 62
2
 10
714.6277
 20
572.8819
 11
713.8279
 21
573.0230
  0
LINE
  8
11_0B
  6
DASHED
 62
2
 10
713.0272
 20
566.9355
 11
710.9352
 21
571.4217
  0
LINE
  8
11_0B
  6
DASHED
 62
2
 10
711.6149
 20
571.7386
 11
713.8899
 21
566.8600
  0
LINE
  8
11_0B
  6
DASHED
 62
2
 10
720.6285
 20
566.9355
 11
722.7205
 21
571.4217
  0
LINE
  8
11_0B
  6
DASHED
 62
2
 10
722.0408
 20
571.7386
 11
719.7658
 21
566.8600
  0
LINE
  8
11_0B
  6
DASHED
 62
2
 10
711.0803
 20
571.8204
 11
711.2163
 21
571.8838
  0
LINE
  8
11_0B
  6
DASHED
 62
2
 10
722.5754
 20
571.8204
 11
722.4395
 21
571.8838
  0
LINE
  8
11_0B
  6
DASHED
 62
2
 10
718.7812
 20
572.5604
 11
718.9438
 21
570.7030
  0
LINE
  8
11_0B
  6
DASHED
 62
2
 10
714.8744
 20
572.5604
 11
714.5224
 21
568.5361
  0
LINE
  8
0_00
  6
CONTINUOUS
 62
2
 10
742.2705
 20
757.4154
 11
735.9216
 21
751.0665
  0
LINE
  8
0_00
  6
CONTINUOUS
 62
2
 10
733.2787
 20
758.3231
 11
726.6871
 21
751.7315
  0
LINE
  8
0_00
  6
CONTINUOUS
 62
2
 10
686.8280
 20
711.8724
 11
679.9283
 21
704.9728
  0
LINE
  8
0_00
  6
CONTINUOUS
 62
2
 10
723.9086
 20
758.8526
 11
717.0287
 21
751.9726
  0
LINE
  8
0_00
  6
CONTINUOUS
 62
2
 10
686.8279
 20
721.7718
 11
679.8280
 21
714.7717
  0
LINE
  8
0_00
  6
CONTINUOUS
 62
2
 10
714.1117
 20
758.9550
 11
706.8840
 21
751.7273
  0
LINE
  8
0_00
  6
CONTINUOUS
 62
2
 10
686.8279
 20
731.6713
 11
679.8279
 21
724.6712
  0
LINE
  8
0_00
  6
CONTINUOUS
 62
2
 10
703.8242
 20
758.5670
 11
696.1685
 21
750.9114
  0
LINE
  8
0_00
  6
CONTINUOUS
 62
2
 10
686.8279
 20
741.5707
 11
679.8279
 21
734.5708
  0
LINE
  8
0_00
  6
CONTINUOUS
 62
2
 10
692.9604
 20
757.6028
 11
679.8278
 21
744.4702
  0
LINE
  8
0_00
  6
CONTINUOUS
 62
2
 10
749.1970
 20
754.4424
 11
744.2072
 21
749.4527
  0
LINE
  8
0_00
  6
CONTINUOUS
 62
2
 10
753.1853
 20
748.5313
 11
746.8279
 21
742.1738
  0
LINE
  8
0_00
  6
CONTINUOUS
 62
2
 10
753.8278
 20
739.2743
 11
746.8278
 21
732.2742
  0
LINE
  8
0_00
  6
CONTINUOUS
 62
2
 10
753.8278
 20
729.3747
 11
746.8278
 21
722.3747
  0
LINE
  8
0_00
  6
CONTINUOUS
 62
2
 10
753.8278
 20
719.4753
 11
746.8278
 21
712.4752
  0
LINE
  8
0_00
  6
CONTINUOUS
 62
2
 10
753.8278
 20
709.5757
 11
749.2249
 21
704.9728
  0
LINE
  8
0_00
  6
CONTINUOUS
 62
3
 10
547.4110
 20
97.2001
 11
547.4110
 21
37.2000
  0
LINE
  8
0_00
  6
CONTINUOUS
 62
7
 10
54.6905
 20
112.2001
 11
1218.5110
 21
112.2001
  0
LINE
  8
0_00
  6
CONTINUOUS
 62
3
 10
1218.5110
 20
851.7001
 11
1218.5110
 21
865.2001
  0
LINE
  8
0_00
  6
CONTINUOUS
 62
7
 10
1218.5110
 20
37.2000
 11
1218.5110
 21
851.7001
  0
LINE
  8
0_00
  6
CONTINUOUS
 62
3
 10
54.6905
 20
851.7001
 11
54.6905
 21
865.2001
  0
LINE
  8
0_00
  6
CONTINUOUS
 62
7
 10
54.6905
 20
37.2000
 11
54.6905
 21
851.7001
  0
LINE
  8
0_00
  6
CONTINUOUS
 62
7
 10
54.6905
 20
851.7001
 11
1218.5110
 21
851.7001
  0
LINE
  8
0_00
  6
CONTINUOUS
 62
7
 10
54.6905
 20
37.2000
 11
1218.5110
 21
37.2000
  0
LINE
  8
0_00
  6
CONTINUOUS
 62
3
 10
39.6905
 20
22.2000
 11
39.6905
 21
865.2001
  0
LINE
  8
0_00
  6
CONTINUOUS
 62
3
 10
1233.5110
 20
22.2000
 11
1233.5110
 21
865.2001
  0
LINE
  8
0_00
  6
CONTINUOUS
 62
3
 10
39.6905
 20
865.2001
 11
1233.5110
 21
865.2001
  0
LINE
  8
0_00
  6
CONTINUOUS
 62
3
 10
1070.6111
 20
37.2000
 11
1070.6111
 21
112.2001
  0
LINE
  8
0_00
  6
CONTINUOUS
 62
3
 10
54.6905
 20
97.2001
 11
812.7610
 21
97.2001
  0
LINE
  8
0_00
  6
CONTINUOUS
 62
7
 10
812.7610
 20
97.2001
 11
1218.5110
 21
97.2001
  0
LINE
  8
0_00
  6
CONTINUOUS
 62
3
 10
1070.6111
 20
67.2000
 11
1218.5110
 21
67.2000
  0
LINE
  8
0_00
  6
CONTINUOUS
 62
3
 10
1100.6111
 20
112.2001
 11
1100.6111
 21
97.2001
  0
LINE
  8
0_00
  6
CONTINUOUS
 62
3
 10
812.7610
 20
37.2000
 11
812.7610
 21
97.2001
  0
LINE
  8
0_00
  6
CONTINUOUS
 62
7
 10
812.7610
 20
97.2001
 11
812.7610
 21
112.2001
  0
LINE
  8
0_00
  6
CONTINUOUS
 62
3
 10
836.7610
 20
97.2001
 11
836.7610
 21
112.2001
  0
LINE
  8
0_00
  6
CONTINUOUS
 62
3
 10
912.5110
 20
37.2000
 11
912.5110
 21
112.2001
  0
LINE
  8
0_00
  6
CONTINUOUS
 62
3
 10
1004.6111
 20
97.2001
 11
1004.6111
 21
112.2001
  0
LINE
  8
0_00
  6
CONTINUOUS
 62
3
 10
1032.2110
 20
37.2000
 11
1032.2110
 21
97.2001
  0
LINE
  8
0_00
  6
CONTINUOUS
 62
3
 10
995.9110
 20
37.2000
 11
995.9110
 21
97.2001
  0
LINE
  8
0_00
  6
CONTINUOUS
 62
3
 10
959.6110
 20
37.2000
 11
959.6110
 21
97.2001
  0
LINE
  8
0_00
  6
CONTINUOUS
 62
3
 10
468.6610
 20
37.2000
 11
468.6610
 21
112.2001
  0
LINE
  8
0_00
  6
CONTINUOUS
 62
3
 10
626.1610
 20
37.2000
 11
626.1610
 21
97.2001
  0
LINE
  8
0_00
  6
CONTINUOUS
 62
3
 10
54.6905
 20
82.2001
 11
468.6610
 21
82.2001
  0
LINE
  8
0_00
  6
CONTINUOUS
 62
3
 10
54.6905
 20
67.2000
 11
912.5110
 21
67.2000
  0
LINE
  8
0_00
  6
CONTINUOUS
 62
3
 10
174.6905
 20
52.2000
 11
468.6610
 21
52.2000
  0
LINE
  8
0_00
  6
CONTINUOUS
 62
7
 10
54.6905
 20
52.2000
 11
174.6905
 21
52.2000
  0
LINE
  8
0_00
  6
CONTINUOUS
 62
3
 10
818.0110
 20
851.7001
 11
818.0110
 21
865.2001
  0
LINE
  8
0_00
  6
CONTINUOUS
 62
3
 10
788.0110
 20
851.7001
 11
788.0110
 21
865.2001
  0
LINE
  8
0_00
  6
CONTINUOUS
 62
3
 10
204.6905
 20
851.7001
 11
204.6905
 21
865.2001
  0
LINE
  8
0_00
  6
CONTINUOUS
 62
3
 10
854.0110
 20
851.7001
 11
854.0110
 21
865.2001
  0
LINE
  8
0_00
  6
CONTINUOUS
 62
3
 10
915.5110
 20
851.7001
 11
915.5110
 21
865.2001
  0
LINE
  8
0_00
  6
CONTINUOUS
 62
3
 10
1146.5110
 20
851.7001
 11
1146.5110
 21
865.2001
  0
LINE
  8
0_00
  6
CONTINUOUS
 62
3
 10
114.6905
 20
112.2001
 11
114.6905
 21
37.2000
  0
LINE
  8
0_00
  6
CONTINUOUS
 62
7
 10
174.6905
 20
112.2001
 11
174.6905
 21
37.2000
  0
LINE
  8
0_00
  6
CONTINUOUS
 62
3
 10
869.7610
 20
67.2000
 11
869.7610
 21
97.2001
  0
LINE
  8
0_00
  6
CONTINUOUS
 62
3
 10
893.7610
 20
112.2001
 11
893.7610
 21
97.2001
  0
LINE
  8
0_00
  6
CONTINUOUS
 62
3
 10
912.5110
 20
82.2001
 11
1070.6111
 21
82.2001
  0
LINE
  8
0_00
  6
CONTINUOUS
 62
3
 10
1076.6111
 20
71.7000
 11
1078.5610
 21
71.7000
  0
LINE
  8
0_00
  6
CONTINUOUS
 62
3
 10
1078.5610
 20
71.7000
 11
1078.5610
 21
91.2000
  0
LINE
  8
0_00
  6
CONTINUOUS
 62
3
 10
1078.5610
 20
91.2000
 11
1076.6111
 21
91.2000
  0
LINE
  8
0_00
  6
CONTINUOUS
 62
3
 10
1076.6111
 20
71.7000
 11
1076.6111
 21
91.2000
  0
LINE
  8
0_00
  6
CONTINUOUS
 62
3
 10
1079.3410
 20
71.7000
 11
1081.2911
 21
71.7000
  0
LINE
  8
0_00
  6
CONTINUOUS
 62
3
 10
1081.2911
 20
71.7000
 11
1081.2911
 21
91.2000
  0
LINE
  8
0_00
  6
CONTINUOUS
 62
3
 10
1081.2911
 20
91.2000
 11
1079.3410
 21
91.2000
  0
LINE
  8
0_00
  6
CONTINUOUS
 62
3
 10
1079.3410
 20
71.7000
 11
1079.3410
 21
91.2000
  0
LINE
  8
0_00
  6
CONTINUOUS
 62
3
 10
1082.0711
 20
71.7000
 11
1084.0210
 21
71.7000
  0
LINE
  8
0_00
  6
CONTINUOUS
 62
3
 10
1084.0210
 20
71.7000
 11
1084.0210
 21
91.2000
  0
LINE
  8
0_00
  6
CONTINUOUS
 62
3
 10
1084.0210
 20
91.2000
 11
1082.0711
 21
91.2000
  0
LINE
  8
0_00
  6
CONTINUOUS
 62
3
 10
1082.0711
 20
71.7000
 11
1082.0711
 21
91.2000
  0
LINE
  8
0_00
  6
CONTINUOUS
 62
3
 10
1084.8010
 20
71.7000
 11
1086.7511
 21
71.7000
  0
LINE
  8
0_00
  6
CONTINUOUS
 62
3
 10
1086.7511
 20
91.2000
 11
1084.8010
 21
91.2000
  0
LINE
  8
0_00
  6
CONTINUOUS
 62
3
 10
1084.8010
 20
71.7000
 11
1084.8010
 21
91.2000
  0
LINE
  8
0_00
  6
CONTINUOUS
 62
3
 10
1092.4061
 20
71.7000
 11
1100.0110
 21
71.7000
  0
LINE
  8
0_00
  6
CONTINUOUS
 62
3
 10
1100.0110
 20
71.7000
 11
1100.0110
 21
73.4550
  0
LINE
  8
0_00
  6
CONTINUOUS
 62
3
 10
1100.0110
 20
73.4550
 11
1092.4061
 21
73.4550
  0
LINE
  8
0_00
  6
CONTINUOUS
 62
3
 10
1092.4061
 20
73.4550
 11
1092.4061
 21
71.7000
  0
LINE
  8
0_00
  6
CONTINUOUS
 62
3
 10
1092.4061
 20
74.2350
 11
1100.0110
 21
74.2350
  0
LINE
  8
0_00
  6
CONTINUOUS
 62
3
 10
1100.0110
 20
74.2350
 11
1100.0110
 21
75.9900
  0
LINE
  8
0_00
  6
CONTINUOUS
 62
3
 10
1100.0110
 20
75.9900
 11
1092.4061
 21
75.9900
  0
LINE
  8
0_00
  6
CONTINUOUS
 62
3
 10
1092.4061
 20
75.9900
 11
1092.4061
 21
74.2350
  0
LINE
  8
0_00
  6
CONTINUOUS
 62
3
 10
1092.4061
 20
76.7700
 11
1100.0110
 21
76.7700
  0
LINE
  8
0_00
  6
CONTINUOUS
 62
3
 10
1100.0110
 20
76.7700
 11
1100.0110
 21
78.5250
  0
LINE
  8
0_00
  6
CONTINUOUS
 62
3
 10
1100.0110
 20
78.5250
 11
1092.4061
 21
78.5250
  0
LINE
  8
0_00
  6
CONTINUOUS
 62
3
 10
1092.4061
 20
78.5250
 11
1092.4061
 21
76.7700
  0
LINE
  8
0_00
  6
CONTINUOUS
 62
3
 10
1092.4061
 20
79.3050
 11
1100.0110
 21
79.3050
  0
LINE
  8
0_00
  6
CONTINUOUS
 62
3
 10
1100.0110
 20
79.3050
 11
1100.0110
 21
81.0600
  0
LINE
  8
0_00
  6
CONTINUOUS
 62
3
 10
1100.0110
 20
81.0600
 11
1092.4061
 21
81.0600
  0
LINE
  8
0_00
  6
CONTINUOUS
 62
3
 10
1092.4061
 20
81.0600
 11
1092.4061
 21
79.3050
  0
LINE
  8
0_00
  6
CONTINUOUS
 62
3
 10
1092.4061
 20
81.8401
 11
1100.0110
 21
81.8401
  0
LINE
  8
0_00
  6
CONTINUOUS
 62
3
 10
1100.0110
 20
81.8401
 11
1100.0110
 21
83.5950
  0
LINE
  8
0_00
  6
CONTINUOUS
 62
3
 10
1100.0110
 20
83.5950
 11
1092.4061
 21
83.5950
  0
LINE
  8
0_00
  6
CONTINUOUS
 62
3
 10
1092.4061
 20
83.5950
 11
1092.4061
 21
81.8401
  0
LINE
  8
0_00
  6
CONTINUOUS
 62
3
 10
1092.4061
 20
84.3751
 11
1100.0110
 21
84.3751
  0
LINE
  8
0_00
  6
CONTINUOUS
 62
3
 10
1100.0110
 20
84.3751
 11
1100.0110
 21
86.1300
  0
LINE
  8
0_00
  6
CONTINUOUS
 62
3
 10
1100.0110
 20
86.1300
 11
1092.4061
 21
86.1300
  0
LINE
  8
0_00
  6
CONTINUOUS
 62
3
 10
1092.4061
 20
86.1300
 11
1092.4061
 21
84.3751
  0
LINE
  8
0_00
  6
CONTINUOUS
 62
3
 10
1092.4061
 20
86.9101
 11
1100.0110
 21
86.9101
  0
LINE
  8
0_00
  6
CONTINUOUS
 62
3
 10
1100.0110
 20
86.9101
 11
1100.0110
 21
88.6650
  0
LINE
  8
0_00
  6
CONTINUOUS
 62
3
 10
1100.0110
 20
88.6650
 11
1092.4061
 21
88.6650
  0
LINE
  8
0_00
  6
CONTINUOUS
 62
3
 10
1092.4061
 20
88.6650
 11
1092.4061
 21
86.9101
  0
LINE
  8
0_00
  6
CONTINUOUS
 62
3
 10
1092.4061
 20
89.4451
 11
1100.0110
 21
89.4451
  0
LINE
  8
0_00
  6
CONTINUOUS
 62
3
 10
1100.0110
 20
89.4451
 11
1100.0110
 21
91.2000
  0
LINE
  8
0_00
  6
CONTINUOUS
 62
3
 10
1100.0110
 20
91.2000
 11
1092.4061
 21
91.2000
  0
LINE
  8
0_00
  6
CONTINUOUS
 62
3
 10
1092.4061
 20
91.2000
 11
1092.4061
 21
89.4451
  0
LINE
  8
0_00
  6
CONTINUOUS
 62
3
 10
1087.5311
 20
71.7000
 11
1087.5311
 21
77.0626
  0
LINE
  8
0_00
  6
CONTINUOUS
 62
3
 10
1088.8375
 20
72.7725
 11
1088.8375
 21
77.0626
  0
LINE
  8
0_00
  6
CONTINUOUS
 62
3
 10
1087.5311
 20
71.7000
 11
1089.6760
 21
71.7000
  0
LINE
  8
0_00
  6
CONTINUOUS
 62
3
 10
1088.8375
 20
72.7725
 11
1089.6760
 21
72.7725
  0
LINE
  8
0_00
  6
CONTINUOUS
 62
3
 10
1089.6050
 20
79.8056
 11
1090.4561
 21
78.1351
  0
LINE
  8
0_00
  6
CONTINUOUS
 62
3
 10
1090.9410
 20
82.5453
 11
1089.6047
 21
79.8055
  0
LINE
  8
0_00
  6
CONTINUOUS
 62
3
 10
1086.7511
 20
85.3501
 11
1086.7511
 21
91.2000
  0
LINE
  8
0_00
  6
CONTINUOUS
 62
3
 10
1086.7511
 20
85.3501
 11
1089.1886
 21
85.3501
  0
LINE
  8
0_00
  6
CONTINUOUS
 62
3
 10
1086.7511
 20
84.1801
 11
1087.8333
 21
84.1801
  0
LINE
  8
0_00
  6
CONTINUOUS
 62
3
 10
1086.7511
 20
78.1351
 11
1090.4561
 21
78.1351
  0
LINE
  8
0_00
  6
CONTINUOUS
 62
3
 10
1086.7511
 20
81.9611
 11
1087.8334
 21
84.1801
  0
LINE
  8
0_00
  6
CONTINUOUS
 62
3
 10
1086.7511
 20
81.9613
 11
1086.7511
 21
84.1801
  0
LINE
  8
0_00
  6
CONTINUOUS
 62
3
 10
1086.7511
 20
78.1351
 11
1086.7511
 21
71.7000
  0
LINE
  8
0_00
  6
CONTINUOUS
 62
3
 10
1076.9110
 20
91.2000
 11
1076.9110
 21
71.7000
  0
LINE
  8
0_00
  6
CONTINUOUS
 62
3
 10
1077.2110
 20
91.2000
 11
1077.2110
 21
71.7000
  0
LINE
  8
0_00
  6
CONTINUOUS
 62
3
 10
1077.5110
 20
91.2000
 11
1077.5110
 21
71.7000
  0
LINE
  8
0_00
  6
CONTINUOUS
 62
3
 10
1077.8109
 20
91.2000
 11
1077.8109
 21
71.7000
  0
LINE
  8
0_00
  6
CONTINUOUS
 62
3
 10
1078.1111
 20
91.2000
 11
1078.1111
 21
71.7000
  0
LINE
  8
0_00
  6
CONTINUOUS
 62
3
 10
1079.6411
 20
91.2000
 11
1079.6411
 21
71.7000
  0
LINE
  8
0_00
  6
CONTINUOUS
 62
3
 10
1079.9410
 20
91.2000
 11
1079.9410
 21
71.7000
  0
LINE
  8
0_00
  6
CONTINUOUS
 62
3
 10
1080.2410
 20
91.2000
 11
1080.2410
 21
71.7000
  0
LINE
  8
0_00
  6
CONTINUOUS
 62
3
 10
1080.5410
 20
91.2000
 11
1080.5410
 21
71.7000
  0
LINE
  8
0_00
  6
CONTINUOUS
 62
3
 10
1080.8410
 20
91.2000
 11
1080.8410
 21
71.7000
  0
LINE
  8
0_00
  6
CONTINUOUS
 62
3
 10
1081.1411
 20
91.2000
 11
1081.1411
 21
71.7000
  0
LINE
  8
0_00
  6
CONTINUOUS
 62
3
 10
1082.3709
 20
91.2000
 11
1082.3709
 21
71.7000
  0
LINE
  8
0_00
  6
CONTINUOUS
 62
3
 10
1082.6711
 20
91.2000
 11
1082.6711
 21
71.7000
  0
LINE
  8
0_00
  6
CONTINUOUS
 62
3
 10
1082.9711
 20
91.2000
 11
1082.9711
 21
71.7000
  0
LINE
  8
0_00
  6
CONTINUOUS
 62
3
 10
1083.2710
 20
91.2000
 11
1083.2710
 21
71.7000
  0
LINE
  8
0_00
  6
CONTINUOUS
 62
3
 10
1083.5711
 20
91.2000
 11
1083.5711
 21
71.7000
  0
LINE
  8
0_00
  6
CONTINUOUS
 62
3
 10
1083.8709
 20
91.2000
 11
1083.8709
 21
71.7000
  0
LINE
  8
0_00
  6
CONTINUOUS
 62
3
 10
1092.4061
 20
72.0001
 11
1100.0110
 21
72.0001
  0
LINE
  8
0_00
  6
CONTINUOUS
 62
3
 10
1092.4061
 20
72.3001
 11
1100.0110
 21
72.3001
  0
LINE
  8
0_00
  6
CONTINUOUS
 62
3
 10
1092.4061
 20
72.6000
 11
1100.0110
 21
72.6000
  0
LINE
  8
0_00
  6
CONTINUOUS
 62
3
 10
1092.4061
 20
72.9000
 11
1100.0110
 21
72.9000
  0
LINE
  8
0_00
  6
CONTINUOUS
 62
3
 10
1092.4061
 20
73.2000
 11
1100.0110
 21
73.2000
  0
LINE
  8
0_00
  6
CONTINUOUS
 62
3
 10
1092.4061
 20
74.5351
 11
1100.0110
 21
74.5351
  0
LINE
  8
0_00
  6
CONTINUOUS
 62
3
 10
1092.4061
 20
74.8351
 11
1100.0110
 21
74.8351
  0
LINE
  8
0_00
  6
CONTINUOUS
 62
3
 10
1092.4061
 20
75.1350
 11
1100.0110
 21
75.1350
  0
LINE
  8
0_00
  6
CONTINUOUS
 62
3
 10
1092.4061
 20
75.4350
 11
1100.0110
 21
75.4350
  0
LINE
  8
0_00
  6
CONTINUOUS
 62
3
 10
1092.4061
 20
75.7350
 11
1100.0110
 21
75.7350
  0
LINE
  8
0_00
  6
CONTINUOUS
 62
3
 10
1092.4061
 20
77.0701
 11
1100.0110
 21
77.0701
  0
LINE
  8
0_00
  6
CONTINUOUS
 62
3
 10
1092.4061
 20
77.3701
 11
1100.0110
 21
77.3701
  0
LINE
  8
0_00
  6
CONTINUOUS
 62
3
 10
1092.4061
 20
77.6700
 11
1100.0110
 21
77.6700
  0
LINE
  8
0_00
  6
CONTINUOUS
 62
3
 10
1092.4061
 20
77.9700
 11
1100.0110
 21
77.9700
  0
LINE
  8
0_00
  6
CONTINUOUS
 62
3
 10
1092.4061
 20
78.2701
 11
1100.0110
 21
78.2701
  0
LINE
  8
0_00
  6
CONTINUOUS
 62
3
 10
1092.4061
 20
79.6051
 11
1100.0110
 21
79.6051
  0
LINE
  8
0_00
  6
CONTINUOUS
 62
3
 10
1092.4061
 20
79.9051
 11
1100.0110
 21
79.9051
  0
LINE
  8
0_00
  6
CONTINUOUS
 62
3
 10
1092.4061
 20
80.2050
 11
1100.0110
 21
80.2050
  0
LINE
  8
0_00
  6
CONTINUOUS
 62
3
 10
1092.4061
 20
80.5050
 11
1100.0110
 21
80.5050
  0
LINE
  8
0_00
  6
CONTINUOUS
 62
3
 10
1092.4061
 20
80.8051
 11
1100.0110
 21
80.8051
  0
LINE
  8
0_00
  6
CONTINUOUS
 62
3
 10
1092.4061
 20
82.1401
 11
1100.0110
 21
82.1401
  0
LINE
  8
0_00
  6
CONTINUOUS
 62
3
 10
1092.4061
 20
82.4401
 11
1100.0110
 21
82.4401
  0
LINE
  8
0_00
  6
CONTINUOUS
 62
3
 10
1092.4061
 20
82.7400
 11
1100.0110
 21
82.7400
  0
LINE
  8
0_00
  6
CONTINUOUS
 62
3
 10
1092.4061
 20
83.0400
 11
1100.0110
 21
83.0400
  0
LINE
  8
0_00
  6
CONTINUOUS
 62
3
 10
1092.4061
 20
83.3401
 11
1100.0110
 21
83.3401
  0
LINE
  8
0_00
  6
CONTINUOUS
 62
3
 10
1100.0110
 20
84.6751
 11
1092.4061
 21
84.6751
  0
LINE
  8
0_00
  6
CONTINUOUS
 62
3
 10
1100.0110
 20
84.9751
 11
1092.4061
 21
84.9751
  0
LINE
  8
0_00
  6
CONTINUOUS
 62
3
 10
1100.0110
 20
85.2750
 11
1092.4061
 21
85.2750
  0
LINE
  8
0_00
  6
CONTINUOUS
 62
3
 10
1100.0110
 20
85.5750
 11
1092.4061
 21
85.5750
  0
LINE
  8
0_00
  6
CONTINUOUS
 62
3
 10
1100.0110
 20
85.8751
 11
1092.4061
 21
85.8751
  0
LINE
  8
0_00
  6
CONTINUOUS
 62
3
 10
1092.4061
 20
87.2101
 11
1100.0110
 21
87.2101
  0
LINE
  8
0_00
  6
CONTINUOUS
 62
3
 10
1092.4061
 20
87.5101
 11
1100.0110
 21
87.5101
  0
LINE
  8
0_00
  6
CONTINUOUS
 62
3
 10
1092.4061
 20
87.8100
 11
1100.0110
 21
87.8100
  0
LINE
  8
0_00
  6
CONTINUOUS
 62
3
 10
1092.4061
 20
88.1100
 11
1100.0110
 21
88.1100
  0
LINE
  8
0_00
  6
CONTINUOUS
 62
3
 10
1092.4061
 20
88.4101
 11
1100.0110
 21
88.4101
  0
LINE
  8
0_00
  6
CONTINUOUS
 62
3
 10
1092.4061
 20
89.7451
 11
1100.0110
 21
89.7451
  0
LINE
  8
0_00
  6
CONTINUOUS
 62
3
 10
1092.4061
 20
90.0451
 11
1100.0110
 21
90.0451
  0
LINE
  8
0_00
  6
CONTINUOUS
 62
3
 10
1092.4061
 20
90.3450
 11
1100.0110
 21
90.3450
  0
LINE
  8
0_00
  6
CONTINUOUS
 62
3
 10
1092.4061
 20
90.6450
 11
1100.0110
 21
90.6450
  0
LINE
  8
0_00
  6
CONTINUOUS
 62
3
 10
1092.4061
 20
90.9451
 11
1100.0110
 21
90.9451
  0
LINE
  8
0_00
  6
CONTINUOUS
 62
3
 10
1085.1010
 20
91.2000
 11
1085.1010
 21
71.7000
  0
LINE
  8
0_00
  6
CONTINUOUS
 62
3
 10
1085.4011
 20
91.2000
 11
1085.4011
 21
71.7000
  0
LINE
  8
0_00
  6
CONTINUOUS
 62
3
 10
1085.7009
 20
91.2000
 11
1085.7009
 21
71.7000
  0
LINE
  8
0_00
  6
CONTINUOUS
 62
3
 10
1086.0008
 20
91.2000
 11
1086.0008
 21
71.7000
  0
LINE
  8
0_00
  6
CONTINUOUS
 62
3
 10
1086.3010
 20
91.2000
 11
1086.3010
 21
71.7000
  0
LINE
  8
0_00
  6
CONTINUOUS
 62
3
 10
1086.6010
 20
91.2000
 11
1086.6010
 21
71.7000
  0
LINE
  8
0_00
  6
CONTINUOUS
 62
3
 10
1087.8311
 20
71.7000
 11
1087.8311
 21
77.0626
  0
LINE
  8
0_00
  6
CONTINUOUS
 62
3
 10
1088.1312
 20
71.7000
 11
1088.1312
 21
77.0626
  0
LINE
  8
0_00
  6
CONTINUOUS
 62
3
 10
1088.4310
 20
71.7000
 11
1088.4310
 21
77.0626
  0
LINE
  8
0_00
  6
CONTINUOUS
 62
3
 10
1088.7309
 20
71.7000
 11
1088.7309
 21
77.0626
  0
LINE
  8
0_00
  6
CONTINUOUS
 62
3
 10
1088.8375
 20
72.4725
 11
1089.6760
 21
72.4725
  0
LINE
  8
0_00
  6
CONTINUOUS
 62
3
 10
1088.8375
 20
72.1725
 11
1089.6760
 21
72.1725
  0
LINE
  8
0_00
  6
CONTINUOUS
 62
3
 10
1088.8375
 20
71.8725
 11
1089.6760
 21
71.8725
  0
LINE
  8
0_00
  6
CONTINUOUS
 62
3
 10
1090.2825
 20
78.4758
 11
1086.7853
 21
78.4758
  0
LINE
  8
0_00
  6
CONTINUOUS
 62
3
 10
1090.1032
 20
78.8278
 11
1086.7853
 21
78.8278
  0
LINE
  8
0_00
  6
CONTINUOUS
 62
3
 10
1089.8939
 20
79.2384
 11
1086.7779
 21
79.2384
  0
LINE
  8
0_00
  6
CONTINUOUS
 62
3
 10
1089.7204
 20
79.5787
 11
1086.7744
 21
79.5787
  0
LINE
  8
0_00
  6
CONTINUOUS
 62
3
 10
1091.0859
 20
83.5262
 11
1089.1502
 21
79.5579
  0
LINE
  8
0_00
  6
CONTINUOUS
 62
3
 10
1090.9896
 20
84.0133
 11
1088.8107
 21
79.5458
  0
LINE
  8
0_00
  6
CONTINUOUS
 62
3
 10
1090.8083
 20
84.3258
 11
1088.4914
 21
79.5758
  0
LINE
  8
0_00
  6
CONTINUOUS
 62
3
 10
1090.6029
 20
84.5893
 11
1088.1454
 21
79.5508
  0
LINE
  8
0_00
  6
CONTINUOUS
 62
3
 10
1090.4008
 20
84.8596
 11
1087.8790
 21
79.6887
  0
LINE
  8
0_00
  6
CONTINUOUS
 62
3
 10
1090.1371
 20
85.0026
 11
1087.4908
 21
79.5774
  0
LINE
  8
0_00
  6
CONTINUOUS
 62
3
 10
1089.8761
 20
85.1521
 11
1087.1534
 21
79.5697
  0
LINE
  8
0_00
  6
CONTINUOUS
 62
3
 10
1089.5665
 20
85.2017
 11
1086.8386
 21
79.6087
  0
LINE
  8
0_00
  6
CONTINUOUS
 62
3
 10
1089.2498
 20
85.2367
 11
1086.7053
 21
80.0197
  0
LINE
  8
0_00
  6
CONTINUOUS
 62
3
 10
1088.9374
 20
85.2802
 11
1086.7329
 21
80.7607
  0
LINE
  8
0_00
  6
CONTINUOUS
 62
3
 10
1088.5957
 20
85.2643
 11
1086.6388
 21
81.2521
  0
LINE
  8
0_00
  6
CONTINUOUS
 62
3
 10
1087.9926
 20
84.4801
 11
1086.7511
 21
84.4801
  0
LINE
  8
0_00
  6
CONTINUOUS
 62
3
 10
1088.2355
 20
84.7801
 11
1086.7511
 21
84.7801
  0
LINE
  8
0_00
  6
CONTINUOUS
 62
3
 10
1088.3496
 20
85.0800
 11
1086.7511
 21
85.0800
  0
LINE
  8
0_00
  6
CONTINUOUS
 62
3
 10
796.2610
 20
852.4893
 11
809.7610
 21
852.4893
  0
LINE
  8
0_00
  6
CONTINUOUS
 62
3
 10
797.1685
 20
854.0609
 11
796.2610
 21
852.4893
  0
LINE
  8
0_00
  6
CONTINUOUS
 62
3
 10
800.8929
 20
860.5119
 11
803.0110
 21
864.1806
  0
LINE
  8
0_00
  6
CONTINUOUS
 62
3
 10
808.8538
 20
854.0609
 11
809.7610
 21
852.4893
  0
LINE
  8
0_00
  6
CONTINUOUS
 62
3
 10
805.1292
 20
860.5119
 11
803.0110
 21
864.1806
  0
LINE
  8
0_00
  6
CONTINUOUS
 62
3
 10
1218.5110
 20
154.2001
 11
1221.5110
 21
154.2001
  0
LINE
  8
0_00
  6
CONTINUOUS
 62
3
 10
1218.5110
 20
175.2001
 11
1221.5110
 21
175.2001
  0
LINE
  8
0_00
  6
CONTINUOUS
 62
3
 10
1218.5110
 20
196.2001
 11
1221.5110
 21
196.2001
  0
LINE
  8
0_00
  6
CONTINUOUS
 62
3
 10
1218.5110
 20
217.2001
 11
1221.5110
 21
217.2001
  0
LINE
  8
0_00
  6
CONTINUOUS
 62
3
 10
1218.5110
 20
238.2001
 11
1221.5110
 21
238.2001
  0
LINE
  8
0_00
  6
CONTINUOUS
 62
3
 10
1218.5110
 20
259.2001
 11
1221.5110
 21
259.2001
  0
LINE
  8
0_00
  6
CONTINUOUS
 62
3
 10
1218.5110
 20
280.2001
 11
1221.5110
 21
280.2001
  0
LINE
  8
0_00
  6
CONTINUOUS
 62
3
 10
1218.5110
 20
301.2001
 11
1221.5110
 21
301.2001
  0
LINE
  8
0_00
  6
CONTINUOUS
 62
3
 10
1218.5110
 20
322.2001
 11
1221.5110
 21
322.2001
  0
LINE
  8
0_00
  6
CONTINUOUS
 62
3
 10
1218.5110
 20
343.2001
 11
1221.5110
 21
343.2001
  0
LINE
  8
0_00
  6
CONTINUOUS
 62
3
 10
1218.5110
 20
364.2001
 11
1221.5110
 21
364.2001
  0
LINE
  8
0_00
  6
CONTINUOUS
 62
3
 10
1218.5110
 20
385.2001
 11
1221.5110
 21
385.2001
  0
LINE
  8
0_00
  6
CONTINUOUS
 62
3
 10
1218.5110
 20
406.2001
 11
1221.5110
 21
406.2001
  0
LINE
  8
0_00
  6
CONTINUOUS
 62
3
 10
1218.5110
 20
427.2001
 11
1221.5110
 21
427.2001
  0
LINE
  8
0_00
  6
CONTINUOUS
 62
3
 10
1218.5110
 20
448.2001
 11
1221.5110
 21
448.2001
  0
LINE
  8
0_00
  6
CONTINUOUS
 62
3
 10
1218.5110
 20
469.2001
 11
1221.5110
 21
469.2001
  0
LINE
  8
0_00
  6
CONTINUOUS
 62
3
 10
1218.5110
 20
490.2001
 11
1221.5110
 21
490.2001
  0
LINE
  8
0_00
  6
CONTINUOUS
 62
3
 10
1218.5110
 20
833.7001
 11
1221.5110
 21
833.7001
  0
LINE
  8
0_00
  6
CONTINUOUS
 62
3
 10
1218.5110
 20
815.7001
 11
1221.5110
 21
815.7001
  0
LINE
  8
0_00
  6
CONTINUOUS
 62
3
 10
1218.5110
 20
797.7001
 11
1221.5110
 21
797.7001
  0
LINE
  8
0_00
  6
CONTINUOUS
 62
3
 10
1218.5110
 20
779.7001
 11
1221.5110
 21
779.7001
  0
LINE
  8
0_00
  6
CONTINUOUS
 62
3
 10
1218.5110
 20
761.7001
 11
1221.5110
 21
761.7001
  0
LINE
  8
0_00
  6
CONTINUOUS
 62
3
 10
1218.5110
 20
743.7001
 11
1221.5110
 21
743.7001
  0
LINE
  8
0_00
  6
CONTINUOUS
 62
3
 10
1218.5110
 20
511.2001
 11
1221.5110
 21
511.2001
  0
LINE
  8
0_00
  6
CONTINUOUS
 62
3
 10
1218.5110
 20
532.2001
 11
1221.5110
 21
532.2001
  0
LINE
  8
0_00
  6
CONTINUOUS
 62
3
 10
1218.5110
 20
553.2001
 11
1221.5110
 21
553.2001
  0
LINE
  8
0_00
  6
CONTINUOUS
 62
3
 10
1218.5110
 20
574.2001
 11
1221.5110
 21
574.2001
  0
LINE
  8
0_00
  6
CONTINUOUS
 62
3
 10
1218.5110
 20
595.2001
 11
1221.5110
 21
595.2001
  0
LINE
  8
0_00
  6
CONTINUOUS
 62
3
 10
1218.5110
 20
616.2001
 11
1221.5110
 21
616.2001
  0
LINE
  8
0_00
  6
CONTINUOUS
 62
3
 10
1218.5110
 20
637.2000
 11
1221.5110
 21
637.2000
  0
LINE
  8
0_00
  6
CONTINUOUS
 62
3
 10
1218.5110
 20
658.2000
 11
1221.5110
 21
658.2000
  0
LINE
  8
0_00
  6
CONTINUOUS
 62
3
 10
1218.5110
 20
679.2000
 11
1221.5110
 21
679.2000
  0
LINE
  8
0_00
  6
CONTINUOUS
 62
3
 10
1218.5110
 20
700.2001
 11
1221.5110
 21
700.2001
  0
LINE
  8
0_00
  6
CONTINUOUS
 62
3
 10
1218.5110
 20
721.2001
 11
1221.5110
 21
721.2001
  0
LINE
  8
0_00
  6
CENTER1
 62
3
 10
881.0410
 20
73.2001
 11
881.0410
 21
91.2001
  0
LINE
  8
0_00
  6
CONTINUOUS
 62
4
 10
891.5411
 20
78.4501
 11
891.5411
 21
85.9501
  0
LINE
  8
0_00
  6
CONTINUOUS
 62
4
 10
905.0410
 20
76.2001
 11
905.0410
 21
88.2001
  0
LINE
  8
0_00
  6
CONTINUOUS
 62
4
 10
891.5411
 20
85.9501
 11
905.0410
 21
88.2001
  0
LINE
  8
0_00
  6
CONTINUOUS
 62
4
 10
891.5411
 20
78.4501
 11
905.0410
 21
76.2001
  0
LINE
  8
0_00
  6
CENTER1
 62
3
 10
872.0411
 20
82.2001
 11
907.3555
 21
82.2001
  0
LINE
  8
0_00
  6
CONTINUOUS
 62
3
 10
1191.5110
 20
37.2000
 11
1191.5110
 21
67.2000
  0
LINE
  8
0_00
  6
CONTINUOUS
 62
3
 10
39.6905
 20
22.2000
 11
1233.5110
 21
22.2000
  0
LINE
  8
0_00
  6
CONTINUOUS
 62
3
 10
1182.5110
 20
865.2001
 11
1182.5110
 21
851.7001
  0
LINE
  8
0_00
  6
CONTINUOUS
 62
3
 10
0.0000
 20
443.7000
 11
39.6905
 21
443.7000
  0
LINE
  8
0_00
  6
CONTINUOUS
 62
3
 10
626.1610
 20
22.2000
 11
626.1610
 21
0.0000
  0
LINE
  8
0_00
  6
CONTINUOUS
 62
3
 10
626.1610
 20
865.2001
 11
626.1610
 21
891.0000
  0
LINE
  8
0_00
  6
CONTINUOUS
 62
3
 10
1233.5110
 20
443.7000
 11
1260.0000
 21
443.7000
  0
LINE
  8
0_00
  6
CONTINUOUS
 62
2
 10
683.8988
 20
608.2850
 11
690.6779
 21
601.5059
  0
LINE
  8
0_00
  6
CONTINUOUS
 62
2
 10
693.4806
 20
608.6027
 11
700.2597
 21
601.8235
  0
LINE
  8
0_00
  6
CONTINUOUS
 62
2
 10
703.0624
 20
608.9203
 11
709.8416
 21
602.1412
  0
LINE
  8
0_00
  6
CONTINUOUS
 62
2
 10
712.6443
 20
609.2379
 11
719.4234
 21
602.4588
  0
LINE
  8
0_00
  6
CONTINUOUS
 62
2
 10
722.2262
 20
609.5555
 11
729.0053
 21
602.7764
  0
LINE
  8
0_00
  6
CONTINUOUS
 62
2
 10
731.8081
 20
609.8731
 11
738.5872
 21
603.0941
  0
LINE
  8
0_00
  6
CONTINUOUS
 62
2
 10
741.3899
 20
610.1908
 11
748.1691
 21
603.4117
  0
LINE
  8
0_00
  6
CONTINUOUS
 62
2
 10
807.3279
 20
544.2529
 11
813.2080
 21
538.3727
  0
LINE
  8
0_00
  6
CONTINUOUS
 62
2
 10
750.9718
 20
610.5084
 11
757.7509
 21
603.7293
  0
LINE
  8
0_00
  6
CONTINUOUS
 62
2
 10
807.3279
 20
554.1524
 11
814.3279
 21
547.1524
  0
LINE
  8
0_00
  6
CONTINUOUS
 62
2
 10
760.5536
 20
610.8260
 11
767.3327
 21
604.0470
  0
LINE
  8
0_00
  6
CONTINUOUS
 62
2
 10
807.3279
 20
564.0519
 11
814.3279
 21
557.0519
  0
LINE
  8
0_00
  6
CONTINUOUS
 62
2
 10
770.1355
 20
611.1437
 11
776.9146
 21
604.3645
  0
LINE
  8
0_00
  6
CONTINUOUS
 62
2
 10
807.3279
 20
573.9514
 11
814.3279
 21
566.9513
  0
LINE
  8
0_00
  6
CONTINUOUS
 62
2
 10
779.7175
 20
611.4613
 11
786.4965
 21
604.6822
  0
LINE
  8
0_00
  6
CONTINUOUS
 62
2
 10
807.3279
 20
583.8508
 11
814.3279
 21
576.8508
  0
LINE
  8
0_00
  6
CONTINUOUS
 62
2
 10
789.2992
 20
611.7789
 11
796.0784
 21
604.9998
  0
LINE
  8
0_00
  6
CONTINUOUS
 62
2
 10
807.3279
 20
593.7504
 11
814.3279
 21
586.7504
  0
LINE
  8
0_00
  6
CONTINUOUS
 62
2
 10
798.8811
 20
612.0965
 11
814.3279
 21
596.6499
  0
LINE
  8
0_00
  6
CONTINUOUS
 62
2
 10
808.9963
 20
611.8809
 11
813.8697
 21
607.0074
  0
LINE
  8
0_00
  6
CONTINUOUS
 62
2
 10
674.3169
 20
607.9674
 11
681.0960
 21
601.1882
  0
LINE
  8
0_00
  6
CONTINUOUS
 62
2
 10
664.7350
 20
607.6498
 11
671.5141
 21
600.8706
  0
LINE
  8
0_00
  6
CONTINUOUS
 62
2
 10
655.1531
 20
607.3321
 11
661.9323
 21
600.5530
  0
LINE
  8
0_00
  6
CONTINUOUS
 62
2
 10
645.5712
 20
607.0145
 11
652.3504
 21
600.2354
  0
LINE
  8
0_00
  6
CONTINUOUS
 62
2
 10
635.9894
 20
606.6969
 11
642.7685
 21
599.9177
  0
LINE
  8
0_00
  6
CONTINUOUS
 62
2
 10
626.4317
 20
606.3549
 11
633.1866
 21
599.6001
  0
LINE
  8
0_00
  6
CONTINUOUS
 62
2
 10
620.4299
 20
602.4574
 11
626.3685
 21
596.5188
  0
LINE
  8
0_00
  6
CONTINUOUS
 62
2
 10
619.3279
 20
593.6599
 11
626.3279
 21
586.6599
  0
LINE
  8
0_00
  6
CONTINUOUS
 62
2
 10
619.3279
 20
583.7604
 11
626.3279
 21
576.7604
  0
LINE
  8
0_00
  6
CONTINUOUS
 62
2
 10
619.3279
 20
573.8610
 11
626.3279
 21
566.8610
  0
LINE
  8
0_00
  6
CONTINUOUS
 62
2
 10
619.3279
 20
563.9615
 11
626.3279
 21
556.9614
  0
LINE
  8
0_00
  6
CONTINUOUS
 62
2
 10
619.3279
 20
554.0620
 11
626.3279
 21
547.0619
  0
LINE
  8
0_00
  6
CONTINUOUS
 62
2
 10
619.3279
 20
544.1625
 11
625.1175
 21
538.3727
  0
LINE
  8
0_00
  6
CONTINUOUS
 62
6
 10
290.9519
 20
786.5065
 11
290.9519
 21
826.0000
  0
LINE
  8
0_00
  6
CONTINUOUS
 62
6
 10
290.9519
 20
820.0000
 11
520.9520
 21
820.0000
  0
LINE
  8
0_00
  6
CONTINUOUS
 62
6
 10
290.9519
 20
820.0000
 11
298.2881
 21
818.4407
  0
LINE
  8
0_00
  6
CONTINUOUS
 62
6
 10
290.9519
 20
820.0000
 11
298.2881
 21
821.5594
  0
LINE
  8
0_00
  6
CONTINUOUS
 62
6
 10
520.9520
 20
820.0000
 11
513.6158
 21
821.5594
  0
LINE
  8
0_00
  6
CONTINUOUS
 62
6
 10
520.9520
 20
820.0000
 11
513.6158
 21
818.4407
  0
LINE
  8
0_00
  6
CONTINUOUS
 62
6
 10
488.4519
 20
747.0997
 11
488.4519
 21
806.0000
  0
LINE
  8
0_00
  6
CONTINUOUS
 62
6
 10
515.9520
 20
766.9728
 11
515.9520
 21
806.0000
  0
LINE
  8
0_00
  6
CONTINUOUS
 62
6
 10
488.4519
 20
800.0000
 11
515.9520
 21
800.0000
  0
LINE
  8
0_00
  6
CONTINUOUS
 62
6
 10
444.6519
 20
800.0000
 11
488.4519
 21
800.0000
  0
LINE
  8
0_00
  6
CONTINUOUS
 62
6
 10
488.4519
 20
800.0000
 11
481.1158
 21
801.5593
  0
LINE
  8
0_00
  6
CONTINUOUS
 62
6
 10
488.4519
 20
800.0000
 11
481.1158
 21
798.4406
  0
LINE
  8
0_00
  6
CONTINUOUS
 62
6
 10
515.9520
 20
800.0000
 11
520.9520
 21
800.0000
  0
LINE
  8
0_00
  6
CONTINUOUS
 62
6
 10
543.1519
 20
800.0000
 11
520.9520
 21
800.0000
  0
LINE
  8
0_00
  6
CONTINUOUS
 62
6
 10
520.9520
 20
800.0000
 11
528.2880
 21
798.4406
  0
LINE
  8
0_00
  6
CONTINUOUS
 62
6
 10
520.9520
 20
800.0000
 11
528.2880
 21
801.5593
  0
LINE
  8
0_00
  6
CONTINUOUS
 62
6
 10
526.5839
 20
751.9728
 11
676.3604
 21
751.9728
  0
LINE
  8
0_00
  6
CONTINUOUS
 62
6
 10
598.8693
 20
728.4727
 11
692.5016
 21
728.4727
  0
LINE
  8
0_00
  6
CONTINUOUS
 62
6
 10
620.0000
 20
751.9728
 11
620.0000
 21
728.4727
  0
LINE
  8
0_00
  6
CONTINUOUS
 62
6
 10
620.0000
 20
798.1188
 11
620.0000
 21
751.9728
  0
LINE
  8
0_00
  6
CONTINUOUS
 62
6
 10
620.0000
 20
751.9728
 11
621.5593
 21
759.3089
  0
LINE
  8
0_00
  6
CONTINUOUS
 62
6
 10
620.0000
 20
751.9728
 11
618.4407
 21
759.3089
  0
LINE
  8
0_00
  6
CONTINUOUS
 62
6
 10
620.0000
 20
710.4727
 11
620.0000
 21
728.4727
  0
LINE
  8
0_00
  6
CONTINUOUS
 62
6
 10
620.0000
 20
728.4727
 11
618.4407
 21
721.1366
  0
LINE
  8
0_00
  6
CONTINUOUS
 62
6
 10
620.0000
 20
728.4727
 11
621.5593
 21
721.1366
  0
LINE
  8
0_00
  6
CONTINUOUS
 62
6
 10
148.0753
 20
751.9728
 11
114.0000
 21
751.9728
  0
LINE
  8
0_00
  6
CONTINUOUS
 62
6
 10
148.0753
 20
704.9728
 11
114.0000
 21
704.9728
  0
LINE
  8
0_00
  6
CONTINUOUS
 62
6
 10
120.0000
 20
751.9728
 11
120.0000
 21
704.9728
  0
LINE
  8
0_00
  6
CONTINUOUS
 62
6
 10
120.0000
 20
751.9728
 11
118.4407
 21
744.6366
  0
LINE
  8
0_00
  6
CONTINUOUS
 62
6
 10
120.0000
 20
751.9728
 11
121.5593
 21
744.6366
  0
LINE
  8
0_00
  6
CONTINUOUS
 62
6
 10
120.0000
 20
704.9728
 11
121.5593
 21
712.3088
  0
LINE
  8
0_00
  6
CONTINUOUS
 62
6
 10
120.0000
 20
704.9728
 11
118.4407
 21
712.3088
  0
LINE
  8
0_00
  6
CONTINUOUS
 62
6
 10
686.8279
 20
756.5707
 11
686.8279
 21
796.0000
  0
LINE
  8
0_00
  6
CONTINUOUS
 62
6
 10
746.8279
 20
757.1738
 11
746.8279
 21
796.0000
  0
LINE
  8
0_00
  6
CONTINUOUS
 62
6
 10
686.8279
 20
789.9999
 11
746.8279
 21
789.9999
  0
LINE
  8
0_00
  6
CONTINUOUS
 62
6
 10
686.8279
 20
789.9999
 11
694.1640
 21
788.4407
  0
LINE
  8
0_00
  6
CONTINUOUS
 62
6
 10
686.8279
 20
789.9999
 11
694.1640
 21
791.5593
  0
LINE
  8
0_00
  6
CONTINUOUS
 62
6
 10
746.8279
 20
789.9999
 11
739.4918
 21
791.5593
  0
LINE
  8
0_00
  6
CONTINUOUS
 62
6
 10
746.8279
 20
789.9999
 11
739.4918
 21
788.4407
  0
LINE
  8
0_00
  6
CONTINUOUS
 62
6
 10
457.9520
 20
524.9742
 11
457.9520
 21
504.0000
  0
LINE
  8
0_00
  6
CONTINUOUS
 62
6
 10
520.9520
 20
555.6936
 11
520.9520
 21
504.0000
  0
LINE
  8
0_00
  6
CONTINUOUS
 62
6
 10
520.9520
 20
510.0000
 11
457.9520
 21
510.0000
  0
LINE
  8
0_00
  6
CONTINUOUS
 62
6
 10
520.9520
 20
510.0000
 11
513.6158
 21
511.5593
  0
LINE
  8
0_00
  6
CONTINUOUS
 62
6
 10
520.9520
 20
510.0000
 11
513.6158
 21
508.4407
  0
LINE
  8
0_00
  6
CONTINUOUS
 62
6
 10
457.9520
 20
510.0000
 11
465.2880
 21
508.4407
  0
LINE
  8
0_00
  6
CONTINUOUS
 62
6
 10
457.9520
 20
510.0000
 11
465.2880
 21
511.5593
  0
LINE
  8
0_00
  6
CONTINUOUS
 62
6
 10
515.9520
 20
611.8665
 11
515.9520
 21
641.0000
  0
LINE
  8
0_00
  6
CONTINUOUS
 62
6
 10
517.4520
 20
611.8665
 11
517.4520
 21
641.0000
  0
LINE
  8
0_00
  6
CONTINUOUS
 62
6
 10
515.9520
 20
635.0000
 11
517.4520
 21
635.0000
  0
LINE
  8
0_00
  6
CONTINUOUS
 62
6
 10
479.3519
 20
635.0000
 11
515.9520
 21
635.0000
  0
LINE
  8
0_00
  6
CONTINUOUS
 62
6
 10
515.9520
 20
635.0000
 11
508.6159
 21
636.5593
  0
LINE
  8
0_00
  6
CONTINUOUS
 62
6
 10
515.9520
 20
635.0000
 11
508.6159
 21
633.4406
  0
LINE
  8
0_00
  6
CONTINUOUS
 62
6
 10
520.9520
 20
599.1004
 11
520.9520
 21
641.0000
  0
LINE
  8
0_00
  6
CONTINUOUS
 62
6
 10
517.4520
 20
635.0000
 11
520.9520
 21
635.0000
  0
LINE
  8
0_00
  6
CONTINUOUS
 62
6
 10
567.9668
 20
635.0000
 11
520.9520
 21
635.0000
  0
LINE
  8
0_00
  6
CONTINUOUS
 62
6
 10
520.9520
 20
635.0000
 11
528.2880
 21
633.4406
  0
LINE
  8
0_00
  6
CONTINUOUS
 62
6
 10
520.9520
 20
635.0000
 11
528.2880
 21
636.5593
  0
LINE
  8
0_00
  6
CONTINUOUS
 62
2
 10
715.2237
 20
727.9903
 11
715.4117
 21
728.5053
  0
LINE
  8
0_00
  6
CONTINUOUS
 62
2
 10
715.4117
 20
728.5053
 11
715.2342
 21
728.9924
  0
LINE
  8
0_00
  6
CONTINUOUS
 62
2
 10
715.2342
 20
728.9924
 11
714.1660
 21
730.1267
  0
LINE
  8
0_00
  6
CONTINUOUS
 62
2
 10
718.4214
 20
731.1496
 11
717.3219
 21
730.0884
  0
LINE
  8
0_00
  6
CONTINUOUS
 62
2
 10
717.3219
 20
730.0884
 11
716.8069
 21
729.9005
  0
LINE
  8
0_00
  6
CONTINUOUS
 62
2
 10
716.8069
 20
729.9005
 11
716.3198
 21
730.0780
  0
LINE
  8
0_00
  6
CONTINUOUS
 62
2
 10
716.3198
 20
730.0780
 11
715.1855
 21
731.1461
  0
LINE
  8
0_00
  6
CONTINUOUS
 62
2
 10
719.4513
 20
730.1197
 11
718.3900
 21
729.0203
  0
LINE
  8
0_00
  6
CONTINUOUS
 62
2
 10
718.3900
 20
729.0203
 11
718.2022
 21
728.5053
  0
LINE
  8
0_00
  6
CONTINUOUS
 62
2
 10
718.2022
 20
728.5053
 11
718.3797
 21
728.0181
  0
LINE
  8
0_00
  6
CONTINUOUS
 62
2
 10
718.3797
 20
728.0181
 11
718.4224
 21
727.9728
  0
LINE
  8
0_00
  6
CONTINUOUS
 62
2
 10
715.2068
 20
727.9728
 11
715.2237
 21
727.9903
  0
LINE
  8
12_0C
  6
DASHED
 62
2
 10
520.9520
 20
724.4728
 11
532.8849
 21
724.4728
  0
LINE
  8
12_0C
  6
DASHED
 62
2
 10
536.0207
 20
723.8410
 11
538.0600
 21
723.6624
  0
LINE
  8
12_0C
  6
DASHED
 62
2
 10
541.0016
 20
723.4052
 11
543.0411
 21
723.2267
  0
LINE
  8
12_0C
  6
DASHED
 62
2
 10
545.9826
 20
722.9693
 11
548.0220
 21
722.7910
  0
LINE
  8
12_0C
  6
DASHED
 62
2
 10
550.9636
 20
722.5336
 11
553.0030
 21
722.3552
  0
LINE
  8
12_0C
  6
DASHED
 62
2
 10
555.9445
 20
722.0979
 11
557.7768
 21
721.9375
  0
LINE
  8
12_0C
  6
DASHED
 62
2
 10
520.9520
 20
732.4727
 11
532.8849
 21
732.4727
  0
LINE
  8
12_0C
  6
DASHED
 62
2
 10
536.0207
 20
733.1045
 11
538.0600
 21
733.2830
  0
LINE
  8
12_0C
  6
DASHED
 62
2
 10
541.0016
 20
733.5403
 11
543.0411
 21
733.7187
  0
LINE
  8
12_0C
  6
DASHED
 62
2
 10
545.9826
 20
733.9761
 11
548.0220
 21
734.1546
  0
LINE
  8
12_0C
  6
DASHED
 62
2
 10
550.9636
 20
734.4118
 11
553.0030
 21
734.5903
  0
LINE
  8
12_0C
  6
DASHED
 62
2
 10
555.9445
 20
734.8477
 11
557.7768
 21
735.0079
  0
LINE
  8
12_0C
  6
DASHED
 62
2
 10
520.9520
 20
724.4728
 11
520.9520
 21
732.4727
  0
LINE
  8
12_0C
  6
DASHED
 62
2
 10
528.9520
 20
727.9728
 11
528.9520
 21
728.9728
  0
LINE
  8
12_0C
  6
DASHED
 62
2
 10
528.9520
 20
728.9728
 11
560.8302
 21
731.7617
  0
LINE
  8
12_0C
  6
DASHED
 62
2
 10
560.8302
 20
725.1837
 11
528.9520
 21
727.9728
  0
LINE
  8
12_0C
  6
DASHED
 62
2
 10
560.6559
 20
723.1914
 11
560.8302
 21
725.1837
  0
LINE
  8
12_0C
  6
DASHED
 62
2
 10
560.8302
 20
731.7617
 11
560.6559
 21
733.7542
  0
LINE
  8
12_0C
  6
DASHED
 62
2
 10
560.6559
 20
733.7542
 11
558.0826
 21
734.9540
  0
LINE
  8
12_0C
  6
DASHED
 62
2
 10
560.6559
 20
723.1914
 11
558.0826
 21
721.9915
  0
LINE
  8
12_0C
  6
DASHED
 62
2
 10
557.9370
 20
721.9235
 11
558.2420
 21
725.4102
  0
LINE
  8
12_0C
  6
DASHED
 62
2
 10
558.2420
 20
731.5353
 11
557.9370
 21
735.0219
  0
LINE
  8
12_0C
  6
DASHED
 62
2
 10
555.9445
 20
722.0979
 11
556.1363
 21
724.2894
  0
LINE
  8
12_0C
  6
DASHED
 62
2
 10
556.1363
 20
732.6560
 11
555.9445
 21
734.8477
  0
LINE
  8
12_0C
  6
DASHED
 62
2
 10
550.9636
 20
722.5336
 11
551.1553
 21
724.7252
  0
LINE
  8
12_0C
  6
DASHED
 62
2
 10
551.1553
 20
732.2202
 11
550.9636
 21
734.4118
  0
LINE
  8
12_0C
  6
DASHED
 62
2
 10
545.9826
 20
722.9693
 11
546.1743
 21
725.1611
  0
LINE
  8
12_0C
  6
DASHED
 62
2
 10
546.1743
 20
731.7845
 11
545.9826
 21
733.9761
  0
LINE
  8
12_0C
  6
DASHED
 62
2
 10
541.0016
 20
723.4052
 11
541.1933
 21
725.5968
  0
LINE
  8
12_0C
  6
DASHED
 62
2
 10
541.1933
 20
731.3487
 11
541.0016
 21
733.5403
  0
LINE
  8
12_0C
  6
DASHED
 62
2
 10
536.0207
 20
723.8410
 11
536.1601
 21
725.4348
  0
LINE
  8
12_0C
  6
DASHED
 62
2
 10
536.1601
 20
731.5106
 11
536.0207
 21
733.1045
  0
LINE
  8
12_0C
  6
DASHED
 62
2
 10
538.8675
 20
725.3987
 11
541.1585
 21
725.1983
  0
LINE
  8
12_0C
  6
DASHED
 62
2
 10
543.8484
 20
724.9630
 11
546.1395
 21
724.7626
  0
LINE
  8
12_0C
  6
DASHED
 62
2
 10
548.8295
 20
724.5272
 11
551.1205
 21
724.3267
  0
LINE
  8
12_0C
  6
DASHED
 62
2
 10
553.8105
 20
724.0914
 11
556.1014
 21
723.8910
  0
LINE
  8
12_0C
  6
DASHED
 62
2
 10
556.1014
 20
733.0545
 11
553.8105
 21
732.8540
  0
LINE
  8
12_0C
  6
DASHED
 62
2
 10
551.1205
 20
732.6188
 11
548.8295
 21
732.4184
  0
LINE
  8
12_0C
  6
DASHED
 62
2
 10
546.1395
 20
732.1830
 11
543.8484
 21
731.9825
  0
LINE
  8
12_0C
  6
DASHED
 62
2
 10
541.1585
 20
731.7472
 11
538.8675
 21
731.5468
  0
LINE
  8
12_0C
  6
DASHED
 62
2
 10
553.8812
 20
732.5898
 11
553.4242
 21
734.2954
  0
LINE
  8
12_0C
  6
DASHED
 62
2
 10
553.9247
 20
724.5178
 11
553.4242
 21
722.6501
  0
LINE
  8
12_0C
  6
DASHED
 62
2
 10
548.9003
 20
732.1540
 11
548.4433
 21
733.8596
  0
LINE
  8
12_0C
  6
DASHED
 62
2
 10
548.9003
 20
724.7915
 11
548.4433
 21
723.0860
  0
LINE
  8
12_0C
  6
DASHED
 62
2
 10
543.9193
 20
731.7182
 11
543.4623
 21
733.4238
  0
LINE
  8
12_0C
  6
DASHED
 62
2
 10
543.9193
 20
725.2272
 11
543.4623
 21
723.5217
  0
LINE
  8
12_0C
  6
DASHED
 62
2
 10
538.9383
 20
731.2825
 11
538.4813
 21
732.9881
  0
LINE
  8
12_0C
  6
DASHED
 62
2
 10
538.9383
 20
725.6631
 11
538.4813
 21
723.9575
  0
LINE
  8
12_0C
  6
DASHED
 62
2
 10
536.1427
 20
725.2356
 11
533.0669
 21
725.5047
  0
LINE
  8
12_0C
  6
DASHED
 62
2
 10
536.1427
 20
731.7099
 11
533.0669
 21
731.4408
  0
LINE
  8
12_0C
  6
DASHED
 62
2
 10
539.3595
 20
725.9580
 11
541.0115
 21
725.8135
  0
LINE
  8
12_0C
  6
DASHED
 62
2
 10
544.3405
 20
725.5222
 11
545.9925
 21
725.3777
  0
LINE
  8
12_0C
  6
DASHED
 62
2
 10
549.3215
 20
725.0864
 11
550.9735
 21
724.9419
  0
LINE
  8
12_0C
  6
DASHED
 62
2
 10
554.1353
 20
724.6653
 11
555.9545
 21
724.5061
  0
LINE
  8
12_0C
  6
DASHED
 62
2
 10
555.9545
 20
732.4393
 11
554.3025
 21
732.2948
  0
LINE
  8
12_0C
  6
DASHED
 62
2
 10
550.9735
 20
732.0035
 11
549.3215
 21
731.8590
  0
LINE
  8
12_0C
  6
DASHED
 62
2
 10
545.9925
 20
731.5678
 11
544.3405
 21
731.4233
  0
LINE
  8
12_0C
  6
DASHED
 62
2
 10
541.0115
 20
731.1320
 11
539.3595
 21
730.9875
  0
LINE
  8
12_0C
  6
DASHED
 62
2
 10
533.0730
 20
725.5392
 11
532.8849
 21
724.4728
  0
LINE
  8
12_0C
  6
DASHED
 62
2
 10
533.0730
 20
731.4063
 11
532.8849
 21
732.4727
  0
LINE
  8
12_0C
  6
DASHED
 62
2
 10
541.0016
 20
733.5403
 11
535.0200
 21
736.3296
  0
LINE
  8
12_0C
  6
DASHED
 62
2
 10
534.5973
 20
735.4233
 11
541.1023
 21
732.3901
  0
LINE
  8
12_0C
  6
DASHED
 62
2
 10
541.0016
 20
723.4052
 11
535.0200
 21
720.6158
  0
LINE
  8
12_0C
  6
DASHED
 62
2
 10
534.5973
 20
721.5222
 11
541.1023
 21
724.5555
  0
LINE
  8
12_0C
  6
DASHED
 62
2
 10
534.4884
 20
736.1361
 11
534.4039
 21
735.9548
  0
LINE
  8
12_0C
  6
DASHED
 62
2
 10
534.4884
 20
720.8093
 11
534.4039
 21
720.9906
  0
LINE
  8
12_0C
  6
DASHED
 62
2
 10
533.5018
 20
725.8682
 11
535.9783
 21
725.6515
  0
LINE
  8
12_0C
  6
DASHED
 62
2
 10
533.5018
 20
731.0772
 11
538.8675
 21
731.5468
  0
LINE
  8
0_00
  6
CONTINUOUS
 62
2
 10
952.0605
 20
737.7343
 11
952.2484
 21
738.2493
  0
LINE
  8
0_00
  6
CONTINUOUS
 62
2
 10
952.2484
 20
738.2493
 11
952.0710
 21
738.7364
  0
LINE
  8
0_00
  6
CONTINUOUS
 62
2
 10
952.0710
 20
738.7364
 11
951.0028
 21
739.8707
  0
LINE
  8
0_00
  6
CONTINUOUS
 62
2
 10
955.2580
 20
740.8936
 11
954.1586
 21
739.8324
  0
LINE
  8
0_00
  6
CONTINUOUS
 62
2
 10
954.1586
 20
739.8324
 11
953.6437
 21
739.6445
  0
LINE
  8
0_00
  6
CONTINUOUS
 62
2
 10
953.6437
 20
739.6445
 11
953.1565
 21
739.8219
  0
LINE
  8
0_00
  6
CONTINUOUS
 62
2
 10
953.1565
 20
739.8219
 11
952.0222
 21
740.8901
  0
LINE
  8
0_00
  6
CONTINUOUS
 62
2
 10
956.2880
 20
739.8637
 11
955.2268
 21
738.7642
  0
LINE
  8
0_00
  6
CONTINUOUS
 62
2
 10
955.2268
 20
738.7642
 11
955.0389
 21
738.2493
  0
LINE
  8
0_00
  6
CONTINUOUS
 62
2
 10
955.0389
 20
738.2493
 11
955.2163
 21
737.7621
  0
LINE
  8
0_00
  6
CONTINUOUS
 62
2
 10
955.2163
 20
737.7621
 11
955.2591
 21
737.7167
  0
LINE
  8
0_00
  6
CONTINUOUS
 62
2
 10
952.0435
 20
737.7167
 11
952.0605
 21
737.7343
  0
LINE
  8
0_00
  6
CONTINUOUS
 62
6
 10
908.6547
 20
714.8632
 11
854.0000
 21
714.8632
  0
LINE
  8
0_00
  6
CONTINUOUS
 62
6
 10
938.6646
 20
751.9728
 11
854.0000
 21
751.9728
  0
LINE
  8
0_00
  6
CONTINUOUS
 62
6
 10
860.0001
 20
751.9728
 11
860.0001
 21
714.8632
  0
LINE
  8
0_00
  6
CONTINUOUS
 62
6
 10
860.0001
 20
751.9728
 11
858.4406
 21
744.6366
  0
LINE
  8
0_00
  6
CONTINUOUS
 62
6
 10
860.0001
 20
751.9728
 11
861.5594
 21
744.6366
  0
LINE
  8
0_00
  6
CONTINUOUS
 62
6
 10
860.0001
 20
714.8632
 11
861.5594
 21
722.1993
  0
LINE
  8
0_00
  6
CONTINUOUS
 62
6
 10
860.0001
 20
714.8632
 11
858.4406
 21
722.1993
  0
LINE
  8
0_00
  6
CONTINUOUS
 62
6
 10
923.6646
 20
751.9728
 11
874.0000
 21
751.9728
  0
LINE
  8
0_00
  6
CONTINUOUS
 62
6
 10
923.9627
 20
738.2167
 11
874.0000
 21
738.2167
  0
LINE
  8
0_00
  6
CONTINUOUS
 62
6
 10
879.9999
 20
751.9728
 11
879.9999
 21
738.2167
  0
LINE
  8
0_00
  6
CONTINUOUS
 62
6
 10
879.9999
 20
791.1053
 11
879.9999
 21
751.9728
  0
LINE
  8
0_00
  6
CONTINUOUS
 62
6
 10
879.9999
 20
751.9728
 11
881.5593
 21
759.3089
  0
LINE
  8
0_00
  6
CONTINUOUS
 62
6
 10
879.9999
 20
751.9728
 11
878.4407
 21
759.3089
  0
LINE
  8
0_00
  6
CONTINUOUS
 62
6
 10
879.9999
 20
720.2167
 11
879.9999
 21
738.2167
  0
LINE
  8
0_00
  6
CONTINUOUS
 62
6
 10
879.9999
 20
738.2167
 11
878.4407
 21
730.8806
  0
LINE
  8
0_00
  6
CONTINUOUS
 62
6
 10
879.9999
 20
738.2167
 11
881.5593
 21
730.8806
  0
LINE
  8
0_00
  6
CONTINUOUS
 62
6
 10
913.6645
 20
744.1750
 11
913.6645
 21
796.0000
  0
LINE
  8
0_00
  6
CONTINUOUS
 62
6
 10
913.6645
 20
789.9999
 11
993.6645
 21
789.9999
  0
LINE
  8
0_00
  6
CONTINUOUS
 62
6
 10
913.6645
 20
789.9999
 11
921.0007
 21
788.4407
  0
LINE
  8
0_00
  6
CONTINUOUS
 62
6
 10
913.6645
 20
789.9999
 11
921.0007
 21
791.5593
  0
LINE
  8
0_00
  6
CONTINUOUS
 62
6
 10
993.6645
 20
789.9999
 11
986.3285
 21
791.5593
  0
LINE
  8
0_00
  6
CONTINUOUS
 62
6
 10
993.6645
 20
789.9999
 11
986.3285
 21
788.4407
  0
LINE
  8
0_00
  6
CONTINUOUS
 62
6
 10
993.6645
 20
744.1750
 11
993.6645
 21
756.5862
  0
LINE
  8
0_00
  6
CONTINUOUS
 62
6
 10
993.6645
 20
777.7227
 11
993.6645
 21
796.0000
  0
LINE
  8
0_00
  6
CONTINUOUS
 62
2
 10
1132.3887
 20
732.5626
 11
1133.2575
 21
731.7240
  0
LINE
  8
0_00
  6
CONTINUOUS
 62
2
 10
1133.2575
 20
731.7240
 11
1133.6646
 21
731.5754
  0
LINE
  8
0_00
  6
CONTINUOUS
 62
2
 10
1133.6646
 20
731.5754
 11
1134.0495
 21
731.7157
  0
LINE
  8
0_00
  6
CONTINUOUS
 62
2
 10
1134.0495
 20
731.7157
 11
1134.9460
 21
732.5599
  0
LINE
  8
0_00
  6
CONTINUOUS
 62
2
 10
1131.5747
 20
731.7487
 11
1132.4135
 21
730.8797
  0
LINE
  8
0_00
  6
CONTINUOUS
 62
2
 10
1132.4135
 20
730.8797
 11
1132.5619
 21
730.4728
  0
LINE
  8
0_00
  6
CONTINUOUS
 62
2
 10
1132.5619
 20
730.4728
 11
1132.4216
 21
730.0877
  0
LINE
  8
0_00
  6
CONTINUOUS
 62
2
 10
1132.4216
 20
730.0877
 11
1131.5774
 21
729.1913
  0
LINE
  8
0_00
  6
CONTINUOUS
 62
2
 10
1135.7545
 20
729.1968
 11
1134.9157
 21
730.0658
  0
LINE
  8
0_00
  6
CONTINUOUS
 62
2
 10
1134.9157
 20
730.0658
 11
1134.7674
 21
730.4728
  0
LINE
  8
0_00
  6
CONTINUOUS
 62
2
 10
1134.7674
 20
730.4728
 11
1134.9075
 21
730.8577
  0
LINE
  8
0_00
  6
CONTINUOUS
 62
2
 10
1134.9075
 20
730.8577
 11
1135.7517
 21
731.7542
  0
LINE
  8
0_00
  6
CONTINUOUS
 62
2
 10
1134.9405
 20
728.3828
 11
1134.0715
 21
729.2215
  0
LINE
  8
0_00
  6
CONTINUOUS
 62
2
 10
1134.0715
 20
729.2215
 11
1133.6646
 21
729.3701
  0
LINE
  8
0_00
  6
CONTINUOUS
 62
2
 10
1133.6646
 20
729.3701
 11
1133.2795
 21
729.2298
  0
LINE
  8
0_00
  6
CONTINUOUS
 62
2
 10
1133.2795
 20
729.2298
 11
1132.3832
 21
728.3856
  0
LINE
  8
0_00
  6
CONTINUOUS
 62
2
 10
1109.1645
 20
716.4728
 11
1158.1645
 21
716.4728
  0
LINE
  8
0_00
  6
CONTINUOUS
 62
2
 10
1109.1645
 20
713.4728
 11
1158.1645
 21
713.4728
  0
LINE
  8
0_00
  6
CONTINUOUS
 62
2
 10
1118.6646
 20
740.7727
 11
1148.6646
 21
740.7727
  0
LINE
  8
0_00
  6
CONTINUOUS
 62
2
 10
1158.1645
 20
724.4977
 11
1158.1645
 21
717.9728
  0
LINE
  8
0_00
  6
CONTINUOUS
 62
2
 10
1158.1645
 20
716.7727
 11
1158.1645
 21
713.4728
  0
LINE
  8
0_00
  6
CONTINUOUS
 62
2
 10
1109.1645
 20
724.4977
 11
1109.1645
 21
717.9728
  0
LINE
  8
0_00
  6
CONTINUOUS
 62
2
 10
1109.1645
 20
716.7727
 11
1109.1645
 21
713.4728
  0
LINE
  8
0_00
  6
CONTINUOUS
 62
2
 10
1155.6646
 20
726.4977
 11
1156.1646
 21
726.4977
  0
LINE
  8
0_00
  6
CONTINUOUS
 62
2
 10
1153.6646
 20
735.7727
 11
1153.6646
 21
728.4977
  0
LINE
  8
0_00
  6
CONTINUOUS
 62
2
 10
1111.6645
 20
726.4977
 11
1111.1646
 21
726.4977
  0
LINE
  8
0_00
  6
CONTINUOUS
 62
2
 10
1113.6646
 20
735.7727
 11
1113.6646
 21
728.4977
  0
LINE
  8
0_00
  6
CONTINUOUS
 62
4
 10
1112.0594
 20
730.1976
 11
1107.4995
 21
730.1974
  0
LINE
  8
0_00
  6
CONTINUOUS
 62
4
 10
1111.7594
 20
729.1898
 11
1111.7596
 21
728.3976
  0
LINE
  8
0_00
  6
CONTINUOUS
 62
4
 10
1112.5593
 20
729.6977
 11
1112.5594
 21
728.3977
  0
LINE
  8
0_00
  6
CONTINUOUS
 62
4
 10
1106.5963
 20
714.2370
 11
1106.7258
 21
714.8687
  0
LINE
  8
0_00
  6
CONTINUOUS
 62
4
 10
1114.5702
 20
741.3530
 11
1114.0074
 21
741.9157
  0
LINE
  8
0_00
  6
CONTINUOUS
 62
4
 10
1115.2773
 20
742.0602
 11
1114.7147
 21
742.6227
  0
LINE
  8
0_00
  6
CONTINUOUS
 62
4
 10
1106.5659
 20
729.1980
 11
1111.5517
 21
729.3896
  0
LINE
  8
0_00
  6
CONTINUOUS
 62
4
 10
1105.8826
 20
724.0980
 11
1105.9883
 21
724.0980
  0
LINE
  8
0_00
  6
CONTINUOUS
 62
4
 10
1105.9839
 20
725.5980
 11
1106.2160
 21
725.5980
  0
LINE
  8
0_00
  6
CONTINUOUS
 62
4
 10
1106.4119
 20
725.3574
 11
1106.1841
 21
724.2574
  0
LINE
  8
0_00
  6
CONTINUOUS
 62
4
 10
1105.8769
 20
721.9973
 11
1106.9871
 21
721.9003
  0
LINE
  8
0_00
  6
CONTINUOUS
 62
4
 10
1155.2698
 20
730.1976
 11
1159.8296
 21
730.1974
  0
LINE
  8
0_00
  6
CONTINUOUS
 62
4
 10
1155.5698
 20
729.1898
 11
1155.5696
 21
728.3976
  0
LINE
  8
0_00
  6
CONTINUOUS
 62
4
 10
1154.7697
 20
729.6977
 11
1154.7697
 21
728.3977
  0
LINE
  8
0_00
  6
CONTINUOUS
 62
4
 10
1160.7328
 20
714.2370
 11
1160.6033
 21
714.8687
  0
LINE
  8
0_00
  6
CONTINUOUS
 62
4
 10
1152.7591
 20
741.3530
 11
1153.3217
 21
741.9157
  0
LINE
  8
0_00
  6
CONTINUOUS
 62
4
 10
1152.0520
 20
742.0602
 11
1152.6103
 21
742.6184
  0
LINE
  8
0_00
  6
CONTINUOUS
 62
4
 10
1160.7634
 20
729.1980
 11
1155.7775
 21
729.3896
  0
LINE
  8
0_00
  6
CONTINUOUS
 62
4
 10
1161.4465
 20
724.0980
 11
1161.3409
 21
724.0980
  0
LINE
  8
0_00
  6
CONTINUOUS
 62
4
 10
1161.3452
 20
725.5980
 11
1161.1132
 21
725.5980
  0
LINE
  8
0_00
  6
CONTINUOUS
 62
4
 10
1160.9172
 20
725.3574
 11
1161.1450
 21
724.2574
  0
LINE
  8
0_00
  6
CONTINUOUS
 62
4
 10
1161.4523
 20
721.9973
 11
1160.3420
 21
721.9003
  0
LINE
  8
0_00
  6
CONTINUOUS
 62
4
 10
1123.1646
 20
719.1728
 11
1121.1646
 21
719.1728
  0
LINE
  8
0_00
  6
CONTINUOUS
 62
4
 10
1123.1646
 20
719.1728
 11
1123.1646
 21
718.3727
  0
LINE
  8
0_00
  6
CONTINUOUS
 62
4
 10
1121.1646
 20
719.1728
 11
1121.1646
 21
717.5728
  0
LINE
  8
0_00
  6
CONTINUOUS
 62
4
 10
1144.1646
 20
719.1728
 11
1146.1645
 21
719.1728
  0
LINE
  8
0_00
  6
CONTINUOUS
 62
4
 10
1144.1646
 20
719.1728
 11
1144.1646
 21
718.3727
  0
LINE
  8
0_00
  6
CONTINUOUS
 62
4
 10
1146.1645
 20
719.1728
 11
1146.1645
 21
717.5728
  0
LINE
  8
0_00
  6
CONTINUOUS
 62
4
 10
1107.2647
 20
719.0728
 11
1107.2647
 21
713.5681
  0
LINE
  8
0_00
  6
CONTINUOUS
 62
4
 10
1160.0646
 20
719.0728
 11
1160.0646
 21
713.5681
  0
LINE
  8
0_00
  6
CONTINUOUS
 62
4
 10
1108.3646
 20
718.4728
 11
1108.3646
 21
721.9643
  0
LINE
  8
0_00
  6
CONTINUOUS
 62
4
 10
1158.9646
 20
718.4728
 11
1158.9646
 21
721.9643
  0
LINE
  8
0_00
  6
CONTINUOUS
 62
4
 10
1160.0646
 20
720.2727
 11
1160.0646
 21
721.8727
  0
LINE
  8
0_00
  6
CONTINUOUS
 62
4
 10
1160.6646
 20
720.2727
 11
1160.0646
 21
720.2727
  0
LINE
  8
0_00
  6
CONTINUOUS
 62
4
 10
1160.6646
 20
719.0728
 11
1160.0646
 21
719.0728
  0
LINE
  8
0_00
  6
CONTINUOUS
 62
4
 10
1133.6646
 20
694.2728
 11
1133.3661
 21
693.9743
  0
LINE
  8
0_00
  6
CONTINUOUS
 62
4
 10
1133.6646
 20
694.2728
 11
1133.9631
 21
693.9743
  0
LINE
  8
0_00
  6
CONTINUOUS
 62
4
 10
1108.8647
 20
717.9728
 11
1112.8646
 21
717.9728
  0
LINE
  8
0_00
  6
CONTINUOUS
 62
4
 10
1108.3646
 20
716.8727
 11
1112.8646
 21
716.8727
  0
LINE
  8
0_00
  6
CONTINUOUS
 62
4
 10
1154.1645
 20
716.4728
 11
1113.1645
 21
716.4728
  0
LINE
  8
0_00
  6
CONTINUOUS
 62
4
 10
1151.9646
 20
718.4728
 11
1151.6646
 21
718.1727
  0
LINE
  8
0_00
  6
CONTINUOUS
 62
4
 10
1154.1645
 20
718.4728
 11
1151.9646
 21
718.4728
  0
LINE
  8
0_00
  6
CONTINUOUS
 62
4
 10
1154.4646
 20
717.9728
 11
1154.1645
 21
718.4728
  0
LINE
  8
0_00
  6
CONTINUOUS
 62
4
 10
1151.3646
 20
718.4728
 11
1151.6646
 21
718.1727
  0
LINE
  8
0_00
  6
CONTINUOUS
 62
4
 10
1149.1646
 20
718.4728
 11
1151.3646
 21
718.4728
  0
LINE
  8
0_00
  6
CONTINUOUS
 62
4
 10
1158.4645
 20
717.9728
 11
1154.4646
 21
717.9728
  0
LINE
  8
0_00
  6
CONTINUOUS
 62
4
 10
1133.3646
 20
717.5728
 11
1133.6646
 21
717.2727
  0
LINE
  8
0_00
  6
CONTINUOUS
 62
4
 10
1133.9646
 20
717.5728
 11
1133.6646
 21
717.2727
  0
LINE
  8
0_00
  6
CONTINUOUS
 62
4
 10
1161.0082
 20
721.9553
 11
1160.0646
 21
721.8727
  0
LINE
  8
0_00
  6
CONTINUOUS
 62
4
 10
1159.8774
 20
722.9606
 11
1160.4421
 21
723.0100
  0
LINE
  8
0_00
  6
CONTINUOUS
 62
4
 10
1161.4544
 20
722.5540
 11
1161.0952
 21
724.3034
  0
LINE
  8
0_00
  6
CONTINUOUS
 62
4
 10
1160.2137
 20
724.1223
 11
1160.4421
 21
723.0100
  0
LINE
  8
0_00
  6
CONTINUOUS
 62
4
 10
1158.5645
 20
728.0018
 11
1159.7329
 21
726.8335
  0
LINE
  8
0_00
  6
CONTINUOUS
 62
4
 10
1157.9575
 20
727.3361
 11
1159.0966
 21
726.1970
  0
LINE
  8
0_00
  6
CONTINUOUS
 62
4
 10
1107.2647
 20
720.2727
 11
1107.2647
 21
721.8727
  0
LINE
  8
0_00
  6
CONTINUOUS
 62
4
 10
1106.6646
 20
720.2727
 11
1107.2647
 21
720.2727
  0
LINE
  8
0_00
  6
CONTINUOUS
 62
4
 10
1106.6646
 20
719.0728
 11
1107.2647
 21
719.0728
  0
LINE
  8
0_00
  6
CONTINUOUS
 62
4
 10
1106.3210
 20
721.9553
 11
1107.2647
 21
721.8727
  0
LINE
  8
0_00
  6
CONTINUOUS
 62
4
 10
1107.4518
 20
722.9606
 11
1106.8872
 21
723.0100
  0
LINE
  8
0_00
  6
CONTINUOUS
 62
4
 10
1105.8747
 20
722.5540
 11
1106.2339
 21
724.3034
  0
LINE
  8
0_00
  6
CONTINUOUS
 62
4
 10
1107.1155
 20
724.1223
 11
1106.8872
 21
723.0100
  0
LINE
  8
0_00
  6
CONTINUOUS
 62
4
 10
1108.7647
 20
728.0018
 11
1107.5962
 21
726.8335
  0
LINE
  8
0_00
  6
CONTINUOUS
 62
4
 10
1109.6646
 20
728.5227
 11
1109.6646
 21
728.0432
  0
LINE
  8
0_00
  6
CONTINUOUS
 62
4
 10
1108.7647
 20
728.5227
 11
1108.7647
 21
728.0018
  0
LINE
  8
0_00
  6
CONTINUOUS
 62
4
 10
1109.3717
 20
727.3361
 11
1108.2327
 21
726.1970
  0
LINE
  8
0_00
  6
CONTINUOUS
 62
4
 10
1133.9646
 20
717.5728
 11
1145.1646
 21
717.5728
  0
LINE
  8
0_00
  6
CONTINUOUS
 62
4
 10
1146.1645
 20
717.5728
 11
1148.8646
 21
717.5728
  0
LINE
  8
0_00
  6
CONTINUOUS
 62
4
 10
1118.4646
 20
717.5728
 11
1121.1646
 21
717.5728
  0
LINE
  8
0_00
  6
CONTINUOUS
 62
4
 10
1122.1645
 20
717.5728
 11
1133.3646
 21
717.5728
  0
LINE
  8
0_00
  6
CONTINUOUS
 62
4
 10
1157.6646
 20
728.5227
 11
1157.6646
 21
728.0432
  0
LINE
  8
0_00
  6
CONTINUOUS
 62
4
 10
1158.5645
 20
728.5227
 11
1158.5645
 21
728.0018
  0
LINE
  8
15_0F
  6
CONTINUOUS
 62
4
 10
1108.3646
 20
716.8727
 11
1108.3646
 21
713.2733
  0
LINE
  8
0_00
  6
CONTINUOUS
 62
4
 10
1158.9646
 20
716.8727
 11
1154.4646
 21
716.8727
  0
LINE
  8
0_00
  6
CONTINUOUS
 62
4
 10
1154.4646
 20
716.8727
 11
1154.1645
 21
716.4728
  0
LINE
  8
15_0F
  6
CONTINUOUS
 62
4
 10
1158.9646
 20
716.8727
 11
1158.9646
 21
713.2733
  0
LINE
  8
0_00
  6
CONTINUOUS
 62
4
 10
1148.8646
 20
717.5728
 11
1149.1646
 21
718.4728
  0
LINE
  8
15_0F
  6
CONTINUOUS
 62
4
 10
1122.1645
 20
718.3727
 11
1123.1646
 21
718.3727
  0
LINE
  8
15_0F
  6
CONTINUOUS
 62
4
 10
1122.1645
 20
718.3727
 11
1122.1645
 21
717.5728
  0
LINE
  8
15_0F
  6
CONTINUOUS
 62
4
 10
1145.1646
 20
718.3727
 11
1144.1646
 21
718.3727
  0
LINE
  8
15_0F
  6
CONTINUOUS
 62
4
 10
1145.1646
 20
718.3727
 11
1145.1646
 21
717.5728
  0
LINE
  8
15_0F
  6
CONTINUOUS
 62
4
 10
1107.2647
 20
713.5681
 11
1106.7526
 21
712.6815
  0
LINE
  8
15_0F
  6
CONTINUOUS
 62
4
 10
1108.3646
 20
713.2733
 11
1107.8516
 21
712.3849
  0
LINE
  8
15_0F
  6
CONTINUOUS
 62
4
 10
1160.0646
 20
713.5681
 11
1160.5764
 21
712.6815
  0
LINE
  8
15_0F
  6
CONTINUOUS
 62
4
 10
1158.9646
 20
713.2733
 11
1159.4776
 21
712.3849
  0
LINE
  8
15_0F
  6
CONTINUOUS
 62
4
 10
1126.6354
 20
695.9728
 11
1140.6938
 21
695.9728
  0
LINE
  8
0_00
  6
CONTINUOUS
 62
4
 10
1115.3646
 20
718.4728
 11
1115.6646
 21
718.1727
  0
LINE
  8
0_00
  6
CONTINUOUS
 62
4
 10
1113.1645
 20
718.4728
 11
1115.3646
 21
718.4728
  0
LINE
  8
0_00
  6
CONTINUOUS
 62
4
 10
1112.8646
 20
717.9728
 11
1113.1645
 21
718.4728
  0
LINE
  8
0_00
  6
CONTINUOUS
 62
4
 10
1115.9647
 20
718.4728
 11
1115.6646
 21
718.1727
  0
LINE
  8
0_00
  6
CONTINUOUS
 62
4
 10
1118.1646
 20
718.4728
 11
1115.9647
 21
718.4728
  0
LINE
  8
0_00
  6
CONTINUOUS
 62
4
 10
1112.8646
 20
716.8727
 11
1113.1645
 21
716.4728
  0
LINE
  8
0_00
  6
CONTINUOUS
 62
4
 10
1118.4646
 20
717.5728
 11
1118.1646
 21
718.4728
  0
LINE
  8
0_00
  6
CONTINUOUS
 62
2
 10
1111.6645
 20
718.4728
 11
1119.6646
 21
718.4728
  0
LINE
  8
0_00
  6
CONTINUOUS
 62
2
 10
1111.6645
 20
718.8727
 11
1119.6646
 21
718.8727
  0
LINE
  8
0_00
  6
CONTINUOUS
 62
2
 10
1119.6646
 20
718.4728
 11
1119.6646
 21
718.8727
  0
LINE
  8
0_00
  6
CONTINUOUS
 62
2
 10
1111.6645
 20
718.4728
 11
1111.6645
 21
718.8727
  0
LINE
  8
0_00
  6
CONTINUOUS
 62
2
 10
1114.2146
 20
706.4728
 11
1117.1147
 21
706.4728
  0
LINE
  8
0_00
  6
CONTINUOUS
 62
2
 10
1113.6646
 20
711.2927
 11
1114.2146
 21
706.4728
  0
LINE
  8
0_00
  6
CONTINUOUS
 62
2
 10
1117.6645
 20
711.2927
 11
1117.1147
 21
706.4728
  0
LINE
  8
0_00
  6
CONTINUOUS
 62
2
 10
1114.2146
 20
713.4728
 11
1114.2146
 21
706.4728
  0
LINE
  8
0_00
  6
DASHED
 62
2
 10
1114.2146
 20
718.4728
 11
1114.2146
 21
713.4728
  0
LINE
  8
0_00
  6
CONTINUOUS
 62
2
 10
1113.6646
 20
713.4728
 11
1113.6646
 21
711.2927
  0
LINE
  8
0_00
  6
DASHED
 62
2
 10
1113.6646
 20
718.4728
 11
1113.6646
 21
713.4728
  0
LINE
  8
0_00
  6
CONTINUOUS
 62
2
 10
1117.1147
 20
713.4728
 11
1117.1147
 21
706.4728
  0
LINE
  8
0_00
  6
DASHED
 62
2
 10
1117.1147
 20
718.4728
 11
1117.1147
 21
713.4728
  0
LINE
  8
0_00
  6
CONTINUOUS
 62
2
 10
1117.6645
 20
713.4728
 11
1117.6645
 21
711.2927
  0
LINE
  8
0_00
  6
DASHED
 62
2
 10
1117.6645
 20
718.4728
 11
1117.6645
 21
713.4728
  0
LINE
  8
0_00
  6
CONTINUOUS
 62
2
 10
1147.6645
 20
718.4728
 11
1155.6646
 21
718.4728
  0
LINE
  8
0_00
  6
CONTINUOUS
 62
2
 10
1147.6645
 20
718.8727
 11
1155.6646
 21
718.8727
  0
LINE
  8
0_00
  6
CONTINUOUS
 62
2
 10
1155.6646
 20
718.4728
 11
1155.6646
 21
718.8727
  0
LINE
  8
0_00
  6
CONTINUOUS
 62
2
 10
1147.6645
 20
718.4728
 11
1147.6645
 21
718.8727
  0
LINE
  8
0_00
  6
CONTINUOUS
 62
2
 10
1150.2145
 20
706.4728
 11
1153.1146
 21
706.4728
  0
LINE
  8
0_00
  6
CONTINUOUS
 62
2
 10
1149.6645
 20
711.2927
 11
1150.2145
 21
706.4728
  0
LINE
  8
0_00
  6
CONTINUOUS
 62
2
 10
1153.6646
 20
711.2927
 11
1153.1146
 21
706.4728
  0
LINE
  8
0_00
  6
CONTINUOUS
 62
2
 10
1150.2145
 20
713.4728
 11
1150.2145
 21
706.4728
  0
LINE
  8
0_00
  6
DASHED
 62
2
 10
1150.2145
 20
718.4728
 11
1150.2145
 21
713.4728
  0
LINE
  8
0_00
  6
CONTINUOUS
 62
2
 10
1149.6645
 20
713.4728
 11
1149.6645
 21
711.2927
  0
LINE
  8
0_00
  6
DASHED
 62
2
 10
1149.6645
 20
718.4728
 11
1149.6645
 21
713.4728
  0
LINE
  8
0_00
  6
CONTINUOUS
 62
2
 10
1153.1146
 20
713.4728
 11
1153.1146
 21
706.4728
  0
LINE
  8
0_00
  6
DASHED
 62
2
 10
1153.1146
 20
718.4728
 11
1153.1146
 21
713.4728
  0
LINE
  8
0_00
  6
CONTINUOUS
 62
2
 10
1153.6646
 20
713.4728
 11
1153.6646
 21
711.2927
  0
LINE
  8
0_00
  6
DASHED
 62
2
 10
1153.6646
 20
718.4728
 11
1153.6646
 21
713.4728
  0
LINE
  8
0_00
  6
CONTINUOUS
 62
6
 10
1106.2922
 20
730.4728
 11
1054.0000
 21
730.4728
  0
LINE
  8
0_00
  6
CONTINUOUS
 62
6
 10
1118.6646
 20
751.9728
 11
1054.0000
 21
751.9728
  0
LINE
  8
0_00
  6
CONTINUOUS
 62
6
 10
1059.9999
 20
751.9728
 11
1059.9999
 21
730.4728
  0
LINE
  8
0_00
  6
CONTINUOUS
 62
6
 10
1059.9999
 20
795.7727
 11
1059.9999
 21
751.9728
  0
LINE
  8
0_00
  6
CONTINUOUS
 62
6
 10
1059.9999
 20
751.9728
 11
1061.5593
 21
759.3089
  0
LINE
  8
0_00
  6
CONTINUOUS
 62
6
 10
1059.9999
 20
751.9728
 11
1058.4407
 21
759.3089
  0
LINE
  8
0_00
  6
CONTINUOUS
 62
6
 10
1059.9999
 20
712.4728
 11
1059.9999
 21
730.4728
  0
LINE
  8
0_00
  6
CONTINUOUS
 62
6
 10
1059.9999
 20
730.4728
 11
1058.4407
 21
723.1366
  0
LINE
  8
0_00
  6
CONTINUOUS
 62
6
 10
1059.9999
 20
730.4728
 11
1061.5593
 21
723.1366
  0
LINE
  8
0_00
  6
CONTINUOUS
 62
6
 10
1104.6645
 20
737.9728
 11
1104.6645
 21
796.0000
  0
LINE
  8
0_00
  6
CONTINUOUS
 62
6
 10
1162.6645
 20
789.9999
 11
1104.6645
 21
789.9999
  0
LINE
  8
0_00
  6
CONTINUOUS
 62
6
 10
1162.6645
 20
789.9999
 11
1155.3285
 21
791.5593
  0
LINE
  8
0_00
  6
CONTINUOUS
 62
6
 10
1162.6645
 20
789.9999
 11
1155.3285
 21
788.4407
  0
LINE
  8
0_00
  6
CONTINUOUS
 62
6
 10
1104.6645
 20
789.9999
 11
1112.0007
 21
788.4407
  0
LINE
  8
0_00
  6
CONTINUOUS
 62
6
 10
1104.6645
 20
789.9999
 11
1112.0007
 21
791.5593
  0
LINE
  8
0_00
  6
CONTINUOUS
 62
6
 10
1162.6645
 20
737.9728
 11
1162.6645
 21
749.2151
  0
LINE
  8
0_00
  6
CONTINUOUS
 62
6
 10
1162.6645
 20
769.0714
 11
1162.6645
 21
796.0000
  0
LINE
  8
0_00
  6
CONTINUOUS
 62
6
 10
148.0753
 20
407.2228
 11
114.0000
 21
407.2228
  0
LINE
  8
0_00
  6
CONTINUOUS
 62
6
 10
148.0753
 20
360.2227
 11
114.0000
 21
360.2227
  0
LINE
  8
0_00
  6
CONTINUOUS
 62
6
 10
120.0000
 20
407.2228
 11
120.0000
 21
360.2227
  0
LINE
  8
0_00
  6
CONTINUOUS
 62
6
 10
120.0000
 20
407.2228
 11
118.4407
 21
399.8866
  0
LINE
  8
0_00
  6
CONTINUOUS
 62
6
 10
120.0000
 20
407.2228
 11
121.5593
 21
399.8866
  0
LINE
  8
0_00
  6
CONTINUOUS
 62
6
 10
120.0000
 20
360.2227
 11
121.5593
 21
367.5588
  0
LINE
  8
0_00
  6
CONTINUOUS
 62
6
 10
120.0000
 20
360.2227
 11
118.4407
 21
367.5588
  0
LINE
  8
0_00
  6
CONTINUOUS
 62
6
 10
457.9520
 20
180.2242
 11
457.9520
 21
159.2500
  0
LINE
  8
0_00
  6
CONTINUOUS
 62
6
 10
457.9520
 20
165.2500
 11
510.9519
 21
165.2500
  0
LINE
  8
0_00
  6
CONTINUOUS
 62
6
 10
457.9520
 20
165.2500
 11
465.2880
 21
163.6907
  0
LINE
  8
0_00
  6
CONTINUOUS
 62
6
 10
457.9520
 20
165.2500
 11
465.2880
 21
166.8093
  0
LINE
  8
0_00
  6
CONTINUOUS
 62
6
 10
510.9519
 20
165.2500
 11
503.6158
 21
166.8093
  0
LINE
  8
0_00
  6
CONTINUOUS
 62
6
 10
510.9519
 20
165.2500
 11
503.6158
 21
163.6907
  0
LINE
  8
0_00
  6
CONTINUOUS
 62
4
 10
137.8677
 20
510.4726
 11
168.4677
 21
510.4726
  0
LINE
  8
0_00
  6
CONTINUOUS
 62
4
 10
137.8677
 20
165.7226
 11
168.4677
 21
165.7226
  0
LINE
  8
0_00
  6
CONTINUOUS
 62
4
 10
575.6367
 20
510.4726
 11
620.6367
 21
510.4726
  0
LINE
  8
0_00
  6
CONTINUOUS
 62
6
 10
464.4519
 20
421.0227
 11
464.4519
 21
461.0000
  0
LINE
  8
0_00
  6
CONTINUOUS
 62
6
 10
290.9519
 20
436.7565
 11
290.9519
 21
461.0000
  0
LINE
  8
0_00
  6
CONTINUOUS
 62
6
 10
290.9519
 20
455.0000
 11
464.4519
 21
455.0000
  0
LINE
  8
0_00
  6
CONTINUOUS
 62
6
 10
290.9519
 20
455.0000
 11
298.2881
 21
453.4407
  0
LINE
  8
0_00
  6
CONTINUOUS
 62
6
 10
290.9519
 20
455.0000
 11
298.2881
 21
456.5593
  0
LINE
  8
0_00
  6
CONTINUOUS
 62
6
 10
464.4519
 20
455.0000
 11
457.1158
 21
456.5593
  0
LINE
  8
0_00
  6
CONTINUOUS
 62
6
 10
464.4519
 20
455.0000
 11
457.1158
 21
453.4407
  0
LINE
  8
0_00
  6
CONTINUOUS
 62
6
 10
464.4519
 20
421.0227
 11
464.4519
 21
441.0000
  0
LINE
  8
0_00
  6
CONTINUOUS
 62
6
 10
460.9519
 20
423.0228
 11
460.9519
 21
441.0000
  0
LINE
  8
0_00
  6
CONTINUOUS
 62
6
 10
460.9519
 20
435.0000
 11
464.4519
 21
435.0000
  0
LINE
  8
0_00
  6
CONTINUOUS
 62
6
 10
527.1209
 20
435.0000
 11
464.4519
 21
435.0000
  0
LINE
  8
0_00
  6
CONTINUOUS
 62
6
 10
464.4519
 20
435.0000
 11
471.7880
 21
433.4407
  0
LINE
  8
0_00
  6
CONTINUOUS
 62
6
 10
464.4519
 20
435.0000
 11
471.7880
 21
436.5593
  0
LINE
  8
0_00
  6
CONTINUOUS
 62
6
 10
442.9520
 20
435.0000
 11
460.9519
 21
435.0000
  0
LINE
  8
0_00
  6
CONTINUOUS
 62
6
 10
460.9519
 20
435.0000
 11
453.6158
 21
436.5593
  0
LINE
  8
0_00
  6
CONTINUOUS
 62
6
 10
460.9519
 20
435.0000
 11
453.6158
 21
433.4407
  0
LINE
  8
0_00
  6
CONTINUOUS
 62
6
 10
290.9519
 20
173.9771
 11
290.9519
 21
134.0000
  0
LINE
  8
0_00
  6
CONTINUOUS
 62
6
 10
290.9519
 20
140.0000
 11
510.9519
 21
140.0000
  0
LINE
  8
0_00
  6
CONTINUOUS
 62
6
 10
290.9519
 20
140.0000
 11
298.2881
 21
138.4407
  0
LINE
  8
0_00
  6
CONTINUOUS
 62
6
 10
290.9519
 20
140.0000
 11
298.2881
 21
141.5593
  0
LINE
  8
0_00
  6
CONTINUOUS
 62
6
 10
510.9519
 20
140.0000
 11
503.6158
 21
141.5593
  0
LINE
  8
0_00
  6
CONTINUOUS
 62
6
 10
510.9519
 20
140.0000
 11
503.6158
 21
138.4407
  0
ARC
  8
0_00
  6
CONTINUOUS
 62
4
 10
275.4519
 20
608.9265
 40
0.5000
 50
90.0000
 51
180.0000
  0
ARC
  8
0_00
  6
CONTINUOUS
 62
4
 10
306.4519
 20
608.9265
 40
0.5000
 50
0.0000
 51
90.0000
  0
ARC
  8
0_00
  6
DASHED
 62
2
 10
513.0520
 20
595.1005
 40
0.9000
 50
0.0000
 51
180.0000
  0
ARC
  8
0_00
  6
DASHED
 62
2
 10
513.0520
 20
591.9005
 40
0.9000
 50
180.0000
 51
360.0000
  0
ARC
  8
0_00
  6
CONTINUOUS
 62
2
 10
517.4520
 20
591.2005
 40
0.9000
 50
270.0000
 51
360.0000
  0
ARC
  8
0_00
  6
CONTINUOUS
 62
2
 10
517.4520
 20
595.8004
 40
0.9000
 50
0.0000
 51
90.0000
  0
ARC
  8
0_00
  6
DASHED
 62
2
 10
513.9520
 20
589.6004
 40
2.0000
 50
270.0000
 51
360.0000
  0
ARC
  8
0_00
  6
DASHED
 62
2
 10
457.9520
 20
585.0005
 40
7.7000
 50
39.9831
 51
140.0169
  0
ARC
  8
0_00
  6
CONTINUOUS
 62
2
 10
513.9520
 20
614.1005
 40
7.0000
 50
270.0000
 51
360.0000
  0
ARC
  8
11_0B
  6
DASHED
 62
2
 10
454.6431
 20
571.2432
 40
0.3000
 50
175.0000
 51
255.0000
  0
ARC
  8
11_0B
  6
DASHED
 62
2
 10
454.3163
 20
567.5075
 40
0.3000
 50
175.0000
 51
255.0000
  0
ARC
  8
11_0B
  6
DASHED
 62
2
 10
453.9895
 20
563.7718
 40
0.3000
 50
175.0000
 51
255.0000
  0
ARC
  8
11_0B
  6
DASHED
 62
2
 10
453.6627
 20
560.0360
 40
0.3000
 50
175.0000
 51
255.0000
  0
ARC
  8
11_0B
  6
DASHED
 62
2
 10
453.4988
 20
556.4426
 40
0.4500
 50
175.0000
 51
205.0000
  0
ARC
  8
11_0B
  6
DASHED
 62
2
 10
461.2608
 20
571.2432
 40
0.3000
 50
285.0000
 51
365.0000
  0
ARC
  8
11_0B
  6
DASHED
 62
2
 10
461.5876
 20
567.5075
 40
0.3000
 50
285.0000
 51
365.0000
  0
ARC
  8
11_0B
  6
DASHED
 62
2
 10
461.9144
 20
563.7718
 40
0.3000
 50
285.0000
 51
365.0000
  0
ARC
  8
11_0B
  6
DASHED
 62
2
 10
462.2413
 20
560.0360
 40
0.3000
 50
285.0000
 51
365.0000
  0
ARC
  8
11_0B
  6
DASHED
 62
2
 10
462.4050
 20
556.4426
 40
0.4500
 50
335.0000
 51
365.0000
  0
ARC
  8
11_0B
  6
DASHED
 62
2
 10
454.8276
 20
557.8616
 40
0.1500
 50
265.0000
 51
355.0000
  0
ARC
  8
11_0B
  6
DASHED
 62
2
 10
461.0764
 20
557.8616
 40
0.1500
 50
185.0000
 51
275.0000
  0
ARC
  8
11_0B
  6
DASHED
 62
2
 10
455.1544
 20
561.5973
 40
0.1500
 50
265.0000
 51
355.0000
  0
ARC
  8
11_0B
  6
DASHED
 62
2
 10
460.7495
 20
561.5973
 40
0.1500
 50
185.0000
 51
275.0000
  0
ARC
  8
11_0B
  6
DASHED
 62
2
 10
455.4812
 20
565.3331
 40
0.1500
 50
265.0000
 51
355.0000
  0
ARC
  8
11_0B
  6
DASHED
 62
2
 10
460.4227
 20
565.3331
 40
0.1500
 50
185.0000
 51
275.0000
  0
ARC
  8
11_0B
  6
DASHED
 62
2
 10
455.8081
 20
569.0688
 40
0.1500
 50
265.0000
 51
355.0000
  0
ARC
  8
11_0B
  6
DASHED
 62
2
 10
460.0958
 20
569.0688
 40
0.1500
 50
185.0000
 51
275.0000
  0
ARC
  8
11_0B
  6
DASHED
 62
2
 10
455.6866
 20
572.8437
 40
0.1500
 50
265.0000
 51
355.0000
  0
ARC
  8
11_0B
  6
DASHED
 62
2
 10
460.2173
 20
572.8437
 40
0.1500
 50
185.0000
 51
275.0000
  0
ARC
  8
11_0B
  6
DASHED
 62
2
 10
461.1174
 20
559.1136
 40
0.3000
 50
105.0000
 51
185.0000
  0
ARC
  8
11_0B
  6
DASHED
 62
2
 10
454.9469
 20
559.2260
 40
0.1500
 50
355.0000
 51
435.0000
  0
ARC
  8
11_0B
  6
DASHED
 62
2
 10
460.7905
 20
562.8495
 40
0.3000
 50
105.0000
 51
185.0000
  0
ARC
  8
11_0B
  6
DASHED
 62
2
 10
455.1134
 20
562.8495
 40
0.3000
 50
355.0000
 51
435.0000
  0
ARC
  8
11_0B
  6
DASHED
 62
2
 10
460.4637
 20
566.5851
 40
0.3000
 50
105.0000
 51
185.0000
  0
ARC
  8
11_0B
  6
DASHED
 62
2
 10
455.4402
 20
566.5851
 40
0.3000
 50
355.0000
 51
435.0000
  0
ARC
  8
11_0B
  6
DASHED
 62
2
 10
460.1369
 20
570.3208
 40
0.3000
 50
105.0000
 51
185.0000
  0
ARC
  8
11_0B
  6
DASHED
 62
2
 10
455.7670
 20
570.3208
 40
0.3000
 50
355.0000
 51
435.0000
  0
ARC
  8
11_0B
  6
DASHED
 62
2
 10
455.6996
 20
574.7141
 40
0.3000
 50
355.0000
 51
440.0000
  0
ARC
  8
11_0B
  6
DASHED
 62
2
 10
460.2042
 20
574.7141
 40
0.3000
 50
100.0000
 51
185.0000
  0
ARC
  8
11_0B
  6
DASHED
 62
2
 10
463.5727
 20
573.6761
 40
0.3000
 50
335.0000
 51
425.0000
  0
ARC
  8
11_0B
  6
DASHED
 62
2
 10
463.4367
 20
573.7396
 40
0.3000
 50
65.0000
 51
155.0000
  0
ARC
  8
11_0B
  6
DASHED
 62
2
 10
452.3312
 20
573.6761
 40
0.3000
 50
115.0000
 51
205.0000
  0
ARC
  8
11_0B
  6
DASHED
 62
2
 10
452.4671
 20
573.7396
 40
0.3000
 50
25.0000
 51
115.0000
  0
ARC
  8
0_00
  6
CONTINUOUS
 62
2
 10
716.8279
 20
582.8727
 40
7.7000
 50
39.9831
 51
140.0169
  0
ARC
  8
3_03
  6
CONTINUOUS
 62
4
 10
803.8279
 20
543.1728
 40
1.5000
 50
270.0000
 51
360.0000
  0
ARC
  8
3_03
  6
CONTINUOUS
 62
4
 10
629.8278
 20
542.1727
 40
1.5000
 50
180.0000
 51
270.0000
  0
ARC
  8
3_03
  6
CONTINUOUS
 62
4
 10
636.7604
 20
581.4728
 40
0.5000
 50
90.0000
 51
171.7340
  0
ARC
  8
3_03
  6
CONTINUOUS
 62
4
 10
796.8968
 20
581.4728
 40
0.5000
 50
8.4682
 51
90.0000
  0
ARC
  8
3_03
  6
CONTINUOUS
 62
4
 10
793.8650
 20
597.1884
 40
2.0000
 50
17.0649
 51
91.9091
  0
ARC
  8
3_03
  6
CONTINUOUS
 62
4
 10
639.7276
 20
594.0516
 40
2.0000
 50
91.9091
 51
159.3098
  0
ARC
  8
3_03
  6
CONTINUOUS
 62
4
 10
662.0278
 20
585.7728
 40
0.5000
 50
270.0000
 51
360.0000
  0
ARC
  8
3_03
  6
CONTINUOUS
 62
4
 10
771.6279
 20
585.7728
 40
0.5000
 50
180.0000
 51
270.0000
  0
ARC
  8
3_03
  6
CONTINUOUS
 62
4
 10
791.3279
 20
600.8059
 40
0.3000
 50
0.0000
 51
91.9091
  0
ARC
  8
3_03
  6
CONTINUOUS
 62
4
 10
784.4279
 20
600.5760
 40
0.3000
 50
91.9091
 51
180.0000
  0
ARC
  8
3_03
  6
CONTINUOUS
 62
4
 10
649.2279
 20
596.0692
 40
0.3000
 50
0.0000
 51
91.9091
  0
ARC
  8
3_03
  6
CONTINUOUS
 62
4
 10
770.1279
 20
587.9728
 40
1.0000
 50
0.0000
 51
180.0000
  0
ARC
  8
3_03
  6
CONTINUOUS
 62
4
 10
663.5278
 20
587.9728
 40
1.0000
 50
0.0000
 51
180.0000
  0
ARC
  8
3_03
  6
CONTINUOUS
 62
4
 10
796.6371
 20
585.7728
 40
0.5000
 50
270.0000
 51
377.0649
  0
ARC
  8
3_03
  6
CONTINUOUS
 62
4
 10
792.9873
 20
595.9585
 40
1.0000
 50
17.0649
 51
91.9091
  0
ARC
  8
3_03
  6
CONTINUOUS
 62
4
 10
784.6279
 20
599.1817
 40
0.5000
 50
180.0000
 51
271.9092
  0
ARC
  8
3_03
  6
CONTINUOUS
 62
4
 10
788.9279
 20
598.3246
 40
0.5000
 50
0.0000
 51
91.9091
  0
ARC
  8
3_03
  6
CONTINUOUS
 62
4
 10
637.3491
 20
585.7728
 40
0.5000
 50
159.3098
 51
270.0000
  0
ARC
  8
3_03
  6
CONTINUOUS
 62
4
 10
640.5674
 20
592.8790
 40
1.0000
 50
91.9091
 51
159.3098
  0
ARC
  8
3_03
  6
CONTINUOUS
 62
4
 10
649.0278
 20
594.6618
 40
0.5000
 50
271.9092
 51
360.0000
  0
ARC
  8
0_00
  6
CONTINUOUS
 62
4
 10
803.8279
 20
601.8711
 40
3.0000
 50
0.0000
 51
91.9091
  0
ARC
  8
0_00
  6
CONTINUOUS
 62
4
 10
629.8278
 20
596.0711
 40
3.0000
 50
91.9091
 51
180.0000
  0
ARC
  8
0_00
  6
CONTINUOUS
 62
4
 10
803.8279
 20
542.9728
 40
3.0000
 50
270.0000
 51
360.0000
  0
ARC
  8
0_00
  6
CONTINUOUS
 62
4
 10
629.8278
 20
541.9728
 40
3.0000
 50
180.0000
 51
270.0000
  0
ARC
  8
0_00
  6
CONTINUOUS
 62
4
 10
803.8279
 20
542.9728
 40
1.5000
 50
271.2431
 51
360.0000
  0
ARC
  8
0_00
  6
CONTINUOUS
 62
4
 10
803.8279
 20
601.8711
 40
1.5000
 50
0.0000
 51
91.9091
  0
ARC
  8
0_00
  6
CONTINUOUS
 62
4
 10
629.8278
 20
596.0711
 40
1.5000
 50
91.9091
 51
180.0000
  0
ARC
  8
0_00
  6
CONTINUOUS
 62
4
 10
629.8278
 20
541.9728
 40
1.5000
 50
180.0000
 51
268.7569
  0
ARC
  8
0_00
  6
CONTINUOUS
 62
4
 10
800.0782
 20
540.9203
 40
0.7500
 50
87.0000
 51
267.0000
  0
ARC
  8
0_00
  6
CONTINUOUS
 62
4
 10
633.5775
 20
539.9203
 40
0.7500
 50
273.0000
 51
453.0000
  0
ARC
  8
0_00
  6
CONTINUOUS
 62
4
 10
803.8279
 20
541.8728
 40
3.5000
 50
270.0000
 51
360.0000
  0
ARC
  8
0_00
  6
CONTINUOUS
 62
4
 10
629.8278
 20
541.8728
 40
3.5000
 50
180.0000
 51
270.0000
  0
ARC
  8
0_00
  6
CONTINUOUS
 62
4
 10
803.8279
 20
601.7548
 40
3.5000
 50
0.0000
 51
91.8986
  0
ARC
  8
0_00
  6
CONTINUOUS
 62
4
 10
629.8278
 20
595.9868
 40
3.5000
 50
91.8986
 51
180.0000
  0
ARC
  8
0_00
  6
CONTINUOUS
 62
4
 10
803.3279
 20
601.8039
 40
2.0000
 50
0.0000
 51
91.9415
  0
CIRCLE
  8
0_00
  6
CONTINUOUS
 62
2
 10
751.8279
 20
591.3727
 40
2.5000
  0
CIRCLE
  8
0_00
  6
CONTINUOUS
 62
2
 10
681.8279
 20
591.3727
 40
2.5000
  0
ARC
  8
0_00
  6
CONTINUOUS
 62
4
 10
716.8279
 20
550.3727
 40
201.6000
 50
82.9521
 51
97.0479
  0
ARC
  8
0_00
  6
CONTINUOUS
 62
4
 10
692.8278
 20
744.4948
 40
6.0000
 50
97.0479
 51
180.0001
  0
ARC
  8
0_00
  6
CONTINUOUS
 62
4
 10
740.8278
 20
744.4948
 40
6.0000
 50
359.9999
 51
442.9521
  0
ARC
  8
14_0E
  6
CONTINUOUS
 62
4
 10
716.8279
 20
550.3727
 40
200.0000
 50
82.8930
 51
97.1069
  0
ARC
  8
14_0E
  6
CONTINUOUS
 62
4
 10
692.6278
 20
744.4699
 40
4.4000
 50
97.1069
 51
180.0000
  0
ARC
  8
14_0E
  6
CONTINUOUS
 62
4
 10
741.0278
 20
744.4699
 40
4.4000
 50
0.0000
 51
82.8930
  0
ARC
  8
0_00
  6
CONTINUOUS
 62
4
 10
746.1278
 20
705.6727
 40
0.7000
 50
179.9999
 51
359.9999
  0
ARC
  8
0_00
  6
CONTINUOUS
 62
4
 10
687.5274
 20
705.6727
 40
0.7000
 50
177.6832
 51
360.0001
  0
ARC
  8
0_00
  6
CONTINUOUS
 62
4
 10
742.1556
 20
708.5727
 40
0.6000
 50
270.0000
 51
388.8667
  0
ARC
  8
0_00
  6
CONTINUOUS
 62
4
 10
730.8402
 20
708.3728
 40
0.4000
 50
194.0363
 51
270.0000
  0
ARC
  8
0_00
  6
CONTINUOUS
 62
4
 10
729.8911
 20
709.2827
 40
0.3000
 50
14.0362
 51
87.5372
  0
ARC
  8
0_00
  6
CONTINUOUS
 62
4
 10
702.8155
 20
708.3728
 40
0.4000
 50
270.0000
 51
345.9637
  0
ARC
  8
0_00
  6
CONTINUOUS
 62
4
 10
703.7645
 20
709.2827
 40
0.3000
 50
92.4628
 51
165.9637
  0
ARC
  8
0_00
  6
CONTINUOUS
 62
4
 10
745.0779
 20
711.2245
 40
0.3000
 50
275.0000
 51
371.6000
  0
ARC
  8
0_00
  6
CONTINUOUS
 62
4
 10
744.2779
 20
710.5020
 40
0.3500
 50
95.0000
 51
185.0988
  0
ARC
  8
0_00
  6
CONTINUOUS
 62
4
 10
743.2278
 20
710.8619
 40
1.0000
 50
95.0000
 51
180.0000
  0
ARC
  8
0_00
  6
CONTINUOUS
 62
4
 10
743.9526
 20
712.2302
 40
0.3000
 50
275.0000
 51
371.6000
  0
ARC
  8
0_00
  6
CONTINUOUS
 62
4
 10
744.2257
 20
715.8728
 40
0.7000
 50
90.0000
 51
191.6000
  0
ARC
  8
0_00
  6
CONTINUOUS
 62
4
 10
745.9213
 20
710.6487
 40
2.0000
 50
185.0988
 51
249.7122
  0
ARC
  8
0_00
  6
CONTINUOUS
 62
4
 10
745.9213
 20
710.6487
 40
3.7000
 50
183.4043
 51
208.8667
  0
ARC
  8
0_00
  6
CONTINUOUS
 62
4
 10
691.5000
 20
708.5727
 40
0.6000
 50
151.1333
 51
270.0000
  0
ARC
  8
0_00
  6
CONTINUOUS
 62
4
 10
688.5779
 20
711.2245
 40
0.3000
 50
168.4000
 51
265.0000
  0
ARC
  8
0_00
  6
CONTINUOUS
 62
4
 10
689.3779
 20
710.5020
 40
0.3500
 50
354.9012
 51
445.0000
  0
ARC
  8
0_00
  6
CONTINUOUS
 62
4
 10
690.4278
 20
710.8619
 40
1.0000
 50
0.0000
 51
85.0000
  0
ARC
  8
0_00
  6
CONTINUOUS
 62
4
 10
689.7030
 20
712.2302
 40
0.3000
 50
168.4000
 51
265.0000
  0
ARC
  8
0_00
  6
CONTINUOUS
 62
4
 10
689.4299
 20
715.8728
 40
0.7000
 50
348.4000
 51
450.0000
  0
ARC
  8
0_00
  6
CONTINUOUS
 62
4
 10
687.7344
 20
710.6487
 40
2.0000
 50
290.2878
 51
354.9012
  0
ARC
  8
0_00
  6
CONTINUOUS
 62
4
 10
687.7344
 20
710.6487
 40
3.7000
 50
331.1333
 51
356.5957
  0
ARC
  8
0_00
  6
CONTINUOUS
 62
4
 10
745.0277
 20
716.2966
 40
0.4000
 50
0.0000
 51
90.0000
  0
ARC
  8
0_00
  6
CONTINUOUS
 62
4
 10
745.0277
 20
718.0965
 40
0.4000
 50
270.0000
 51
359.9999
  0
ARC
  8
0_00
  6
CONTINUOUS
 62
4
 10
742.4278
 20
717.1966
 40
0.5000
 50
90.0000
 51
180.0000
  0
ARC
  8
0_00
  6
CONTINUOUS
 62
4
 10
742.1278
 20
716.0966
 40
0.2000
 50
180.0000
 51
270.0000
  0
ARC
  8
0_00
  6
CONTINUOUS
 62
4
 10
742.1278
 20
716.4966
 40
0.6000
 50
270.0000
 51
360.0000
  0
ARC
  8
0_00
  6
CONTINUOUS
 62
4
 10
744.3778
 20
710.4534
 40
0.3500
 50
95.0000
 51
190.8317
  0
ARC
  8
14_0E
  6
CONTINUOUS
 62
4
 10
745.9984
 20
710.7635
 40
2.0000
 50
190.8317
 51
253.4226
  0
ARC
  8
0_00
  6
CONTINUOUS
 62
4
 10
745.0277
 20
711.2631
 40
0.4000
 50
275.0000
 51
371.4000
  0
ARC
  8
0_00
  6
CONTINUOUS
 62
4
 10
745.1492
 20
713.6966
 40
0.2000
 50
90.0000
 51
191.4000
  0
ARC
  8
0_00
  6
CONTINUOUS
 62
4
 10
688.6273
 20
716.2966
 40
0.4000
 50
90.0000
 51
180.0000
  0
ARC
  8
0_00
  6
CONTINUOUS
 62
4
 10
688.6273
 20
718.0965
 40
0.4000
 50
183.0566
 51
270.0000
  0
ARC
  8
0_00
  6
CONTINUOUS
 62
4
 10
691.2273
 20
717.1966
 40
0.5000
 50
0.0000
 51
90.0000
  0
ARC
  8
0_00
  6
CONTINUOUS
 62
4
 10
691.5274
 20
716.0966
 40
0.2000
 50
270.0000
 51
360.0000
  0
ARC
  8
0_00
  6
CONTINUOUS
 62
4
 10
691.5274
 20
716.4966
 40
0.6000
 50
180.0000
 51
270.0000
  0
ARC
  8
0_00
  6
CONTINUOUS
 62
4
 10
689.2773
 20
710.4534
 40
0.3500
 50
349.1683
 51
445.0000
  0
ARC
  8
14_0E
  6
CONTINUOUS
 62
4
 10
687.6568
 20
710.7635
 40
2.0000
 50
286.5774
 51
349.1683
  0
ARC
  8
0_00
  6
CONTINUOUS
 62
4
 10
688.6273
 20
711.2631
 40
0.4000
 50
168.6000
 51
265.0000
  0
ARC
  8
0_00
  6
CONTINUOUS
 62
4
 10
688.5059
 20
713.6966
 40
0.2000
 50
348.6000
 51
450.0000
  0
ARC
  8
0_00
  6
CONTINUOUS
 62
2
 10
692.8278
 20
744.4948
 40
13.0000
 50
97.0479
 51
180.0001
  0
ARC
  8
0_00
  6
CONTINUOUS
 62
2
 10
716.8279
 20
550.3727
 40
208.6000
 50
82.9521
 51
97.0479
  0
ARC
  8
0_00
  6
CONTINUOUS
 62
2
 10
740.8278
 20
744.4948
 40
13.0000
 50
0.0000
 51
82.9521
  0
ARC
  8
0_00
  6
CONTINUOUS
 62
2
 10
716.8279
 20
715.0078
 40
12.4195
 50
252.4122
 51
287.5878
  0
ARC
  8
0_00
  6
CONTINUOUS
 62
2
 10
711.1987
 20
705.9108
 40
3.3226
 50
235.6160
 51
304.3840
  0
ARC
  8
0_00
  6
CONTINUOUS
 62
2
 10
722.4570
 20
705.9108
 40
3.3226
 50
235.6160
 51
304.3840
  0
ARC
  8
0_00
  6
CONTINUOUS
 62
2
 10
716.8279
 20
712.3914
 40
10.0765
 50
68.1346
 51
111.8654
  0
ARC
  8
0_00
  6
CONTINUOUS
 62
2
 10
722.4570
 20
718.4930
 40
3.7528
 50
60.0000
 51
120.0000
  0
ARC
  8
0_00
  6
CONTINUOUS
 62
2
 10
711.1987
 20
718.4930
 40
3.7528
 50
60.0000
 51
120.0000
  0
ARC
  8
0_00
  6
CONTINUOUS
 62
2
 10
488.4519
 20
715.0078
 40
12.4195
 50
252.4122
 51
287.5878
  0
ARC
  8
0_00
  6
CONTINUOUS
 62
2
 10
482.8228
 20
705.9108
 40
3.3226
 50
235.6160
 51
304.3840
  0
ARC
  8
0_00
  6
CONTINUOUS
 62
2
 10
494.0811
 20
705.9108
 40
3.3226
 50
235.6160
 51
304.3840
  0
ARC
  8
0_00
  6
CONTINUOUS
 62
2
 10
488.4519
 20
712.3963
 40
10.0765
 50
68.1346
 51
111.8654
  0
ARC
  8
0_00
  6
CONTINUOUS
 62
2
 10
494.0811
 20
718.4978
 40
3.7528
 50
60.0000
 51
120.0000
  0
ARC
  8
0_00
  6
CONTINUOUS
 62
2
 10
482.8228
 20
718.4978
 40
3.7528
 50
60.0000
 51
120.0000
  0
ARC
  8
0_00
  6
CONTINUOUS
 62
2
 10
518.4520
 20
752.4621
 40
2.9020
 50
210.5189
 51
329.4811
  0
ARC
  8
0_00
  6
CONTINUOUS
 62
2
 10
512.1283
 20
760.7964
 40
9.0102
 50
281.6774
 51
348.3226
  0
ARC
  8
0_00
  6
CONTINUOUS
 62
4
 10
477.9519
 20
711.9728
 40
2.0000
 50
90.0000
 51
180.0000
  0
ARC
  8
0_00
  6
CONTINUOUS
 62
4
 10
514.9520
 20
715.9728
 40
2.0000
 50
270.0000
 51
360.0000
  0
ARC
  8
0_00
  6
CONTINUOUS
 62
4
 10
477.9519
 20
711.9728
 40
2.0000
 50
180.0000
 51
270.0000
  0
ARC
  8
0_00
  6
CONTINUOUS
 62
4
 10
518.9520
 20
711.9728
 40
2.0000
 50
270.0000
 51
360.0000
  0
CIRCLE
  8
0_00
  6
CONTINUOUS
 62
2
 10
786.2185
 20
533.2363
 40
0.2000
  0
CIRCLE
  8
0_00
  6
CONTINUOUS
 62
2
 10
780.9563
 20
543.9713
 40
0.2000
  0
CIRCLE
  8
0_00
  6
CONTINUOUS
 62
2
 10
787.4814
 20
553.2329
 40
0.2000
  0
CIRCLE
  8
0_00
  6
CONTINUOUS
 62
2
 10
783.6926
 20
565.6518
 40
0.2000
  0
CIRCLE
  8
0_00
  6
CONTINUOUS
 62
2
 10
776.1150
 20
574.7028
 40
0.2000
  0
CIRCLE
  8
0_00
  6
CONTINUOUS
 62
2
 10
760.5388
 20
570.4930
 40
0.2000
  0
CIRCLE
  8
0_00
  6
CONTINUOUS
 62
2
 10
752.9612
 20
578.0706
 40
0.2000
  0
CIRCLE
  8
0_00
  6
CONTINUOUS
 62
2
 10
739.9108
 20
573.8609
 40
0.2000
  0
CIRCLE
  8
0_00
  6
CONTINUOUS
 62
2
 10
763.2751
 20
575.9658
 40
0.2000
  0
CIRCLE
  8
0_00
  6
CONTINUOUS
 62
2
 10
730.6492
 20
570.9140
 40
0.2000
  0
CIRCLE
  8
0_00
  6
CONTINUOUS
 62
2
 10
727.4919
 20
576.3868
 40
0.2000
  0
CIRCLE
  8
0_00
  6
CONTINUOUS
 62
2
 10
708.1268
 20
578.4917
 40
0.2000
  0
CIRCLE
  8
0_00
  6
CONTINUOUS
 62
2
 10
701.6016
 20
571.3350
 40
0.2000
  0
CIRCLE
  8
0_00
  6
CONTINUOUS
 62
2
 10
690.6562
 20
572.3875
 40
0.2000
  0
CIRCLE
  8
0_00
  6
CONTINUOUS
 62
2
 10
690.0247
 20
577.6497
 40
0.2000
  0
CIRCLE
  8
0_00
  6
CONTINUOUS
 62
2
 10
673.1856
 20
573.0189
 40
0.2000
  0
CIRCLE
  8
0_00
  6
CONTINUOUS
 62
2
 10
676.5534
 20
570.2825
 40
0.2000
  0
CIRCLE
  8
0_00
  6
CONTINUOUS
 62
2
 10
669.6072
 20
577.0182
 40
0.2000
  0
CIRCLE
  8
0_00
  6
CONTINUOUS
 62
2
 10
659.7142
 20
571.1245
 40
0.2000
  0
CIRCLE
  8
0_00
  6
CONTINUOUS
 62
2
 10
654.4519
 20
575.7553
 40
0.2000
  0
CIRCLE
  8
0_00
  6
CONTINUOUS
 62
2
 10
646.2428
 20
564.3889
 40
0.2000
  0
CIRCLE
  8
0_00
  6
CONTINUOUS
 62
2
 10
652.1365
 20
559.5476
 40
0.2000
  0
CIRCLE
  8
0_00
  6
CONTINUOUS
 62
2
 10
647.0848
 20
547.7601
 40
0.2000
  0
CIRCLE
  8
0_00
  6
CONTINUOUS
 62
2
 10
654.6624
 20
541.2350
 40
0.2000
  0
CIRCLE
  8
0_00
  6
CONTINUOUS
 62
2
 10
650.2422
 20
533.8678
 40
0.2000
  0
CIRCLE
  8
0_00
  6
CONTINUOUS
 62
2
 10
650.2422
 20
527.9741
 40
0.2000
  0
CIRCLE
  8
0_00
  6
CONTINUOUS
 62
2
 10
644.7694
 20
535.3412
 40
0.2000
  0
CIRCLE
  8
0_00
  6
CONTINUOUS
 62
2
 10
650.2422
 20
552.8119
 40
0.2000
  0
CIRCLE
  8
0_00
  6
CONTINUOUS
 62
2
 10
651.2946
 20
569.4406
 40
0.2000
  0
CIRCLE
  8
0_00
  6
CONTINUOUS
 62
2
 10
781.0695
 20
527.5864
 40
0.2000
  0
CIRCLE
  8
0_00
  6
CONTINUOUS
 62
2
 10
786.9442
 20
542.6927
 40
0.2000
  0
CIRCLE
  8
0_00
  6
CONTINUOUS
 62
2
 10
781.0695
 20
556.4004
 40
0.2000
  0
CIRCLE
  8
0_00
  6
CONTINUOUS
 62
2
 10
782.7480
 20
573.4650
 40
0.2000
  0
CIRCLE
  8
0_00
  6
CONTINUOUS
 62
2
 10
749.1783
 20
572.6257
 40
0.2000
  0
CIRCLE
  8
0_00
  6
CONTINUOUS
 62
2
 10
743.8630
 20
577.1017
 40
0.2000
  0
CIRCLE
  8
0_00
  6
CONTINUOUS
 62
2
 10
696.3060
 20
576.5422
 40
0.2000
  0
CIRCLE
  8
0_00
  6
CONTINUOUS
 62
2
 10
682.8781
 20
575.9827
 40
0.2000
  0
CIRCLE
  8
0_00
  6
CONTINUOUS
 62
2
 10
665.5338
 20
572.9055
 40
0.2000
  0
CIRCLE
  8
0_00
  6
CONTINUOUS
 62
2
 10
657.7008
 20
576.8220
 40
0.2000
  0
CIRCLE
  8
0_00
  6
CONTINUOUS
 62
2
 10
648.4691
 20
541.2940
 40
0.2000
  0
ARC
  8
0_00
  6
CONTINUOUS
 62
2
 10
627.3279
 20
598.4053
 40
8.0000
 50
91.8986
 51
180.0000
  0
ARC
  8
0_00
  6
CONTINUOUS
 62
2
 10
806.3279
 20
604.3391
 40
8.0000
 50
0.0000
 51
91.8986
  0
ARC
  8
0_00
  6
CONTINUOUS
 62
2
 10
716.7743
 20
728.4844
 40
8.5000
 50
314.9416
 51
585.0584
  0
ARC
  8
0_00
  6
CONTINUOUS
 62
2
 10
520.3519
 20
728.4727
 40
9.1000
 50
129.7151
 51
230.2849
  0
ARC
  8
0_00
  6
CONTINUOUS
 62
4
 10
967.6769
 20
718.1167
 40
0.4000
 50
194.0363
 51
270.0000
  0
ARC
  8
0_00
  6
CONTINUOUS
 62
4
 10
966.7279
 20
719.0266
 40
0.3000
 50
14.0362
 51
87.5372
  0
ARC
  8
0_00
  6
CONTINUOUS
 62
4
 10
939.6522
 20
718.1167
 40
0.4000
 50
270.0000
 51
345.9637
  0
ARC
  8
0_00
  6
CONTINUOUS
 62
4
 10
940.6013
 20
719.0266
 40
0.3000
 50
92.4628
 51
165.9637
  0
ARC
  8
0_00
  6
CONTINUOUS
 62
4
 10
967.6769
 20
718.1167
 40
0.4000
 50
194.0363
 51
270.0000
  0
ARC
  8
0_00
  6
CONTINUOUS
 62
4
 10
966.7279
 20
719.0266
 40
0.3000
 50
14.0362
 51
87.5372
  0
ARC
  8
0_00
  6
CONTINUOUS
 62
4
 10
978.9923
 20
718.3167
 40
0.6000
 50
270.0000
 51
388.8667
  0
ARC
  8
0_00
  6
CONTINUOUS
 62
4
 10
981.9146
 20
720.9684
 40
0.3000
 50
275.0000
 51
371.6000
  0
ARC
  8
0_00
  6
CONTINUOUS
 62
4
 10
981.1146
 20
720.2460
 40
0.3500
 50
95.0000
 51
185.0988
  0
ARC
  8
0_00
  6
CONTINUOUS
 62
4
 10
980.0646
 20
720.6058
 40
1.0000
 50
95.0000
 51
180.0000
  0
ARC
  8
0_00
  6
CONTINUOUS
 62
4
 10
980.7893
 20
721.9743
 40
0.3000
 50
275.0000
 51
371.6000
  0
ARC
  8
0_00
  6
CONTINUOUS
 62
4
 10
981.0624
 20
725.6167
 40
0.7000
 50
90.0000
 51
191.6000
  0
ARC
  8
0_00
  6
CONTINUOUS
 62
4
 10
982.7581
 20
720.3926
 40
2.0000
 50
185.0988
 51
249.7122
  0
ARC
  8
0_00
  6
CONTINUOUS
 62
4
 10
982.7581
 20
720.3926
 40
3.7000
 50
183.4043
 51
208.8667
  0
ARC
  8
0_00
  6
CONTINUOUS
 62
4
 10
984.1651
 20
717.2553
 40
0.5000
 50
179.9995
 51
296.3368
  0
ARC
  8
0_00
  6
CONTINUOUS
 62
4
 10
981.8652
 20
726.0633
 40
0.4000
 50
359.4403
 51
449.9995
  0
ARC
  8
0_00
  6
CONTINUOUS
 62
4
 10
978.9651
 20
725.8633
 40
0.2000
 50
179.9995
 51
269.9996
  0
ARC
  8
0_00
  6
CONTINUOUS
 62
4
 10
978.9651
 20
726.2633
 40
0.6000
 50
269.9996
 51
359.9996
  0
ARC
  8
0_00
  6
CONTINUOUS
 62
4
 10
981.2151
 20
720.2201
 40
0.3500
 50
94.9995
 51
190.8312
  0
ARC
  8
14_0E
  6
CONTINUOUS
 62
4
 10
982.8357
 20
720.5301
 40
2.0000
 50
190.8312
 51
253.4221
  0
ARC
  8
0_00
  6
CONTINUOUS
 62
4
 10
981.8652
 20
721.0298
 40
0.4000
 50
274.9996
 51
371.3995
  0
ARC
  8
0_00
  6
CONTINUOUS
 62
4
 10
981.9866
 20
723.4633
 40
0.2000
 50
89.9995
 51
191.3996
  0
ARC
  8
0_00
  6
CONTINUOUS
 62
4
 10
979.7652
 20
726.7633
 40
1.0000
 50
89.9995
 51
179.9995
  0
ARC
  8
0_00
  6
CONTINUOUS
 62
4
 10
982.3651
 20
726.4632
 40
1.3000
 50
359.9996
 51
449.9995
  0
ARC
  8
0_00
  6
CONTINUOUS
 62
4
 10
953.6646
 20
691.9728
 40
60.0000
 50
56.5252
 51
123.4747
  0
ARC
  8
0_00
  6
CONTINUOUS
 62
4
 10
978.2646
 20
729.1749
 40
15.4000
 50
292.7488
 51
416.5252
  0
ARC
  8
0_00
  6
CONTINUOUS
 62
4
 10
983.6745
 20
716.2728
 40
1.4095
 50
179.9994
 51
292.7488
  0
ARC
  8
0_00
  6
CONTINUOUS
 62
4
 10
978.2646
 20
729.1749
 40
13.8000
 50
296.3368
 51
416.5252
  0
ARC
  8
0_00
  6
CONTINUOUS
 62
4
 10
953.6646
 20
691.9728
 40
58.4000
 50
56.5252
 51
123.4747
  0
ARC
  8
0_00
  6
CONTINUOUS
 62
4
 10
939.6522
 20
718.1167
 40
0.4000
 50
270.0000
 51
345.9637
  0
ARC
  8
0_00
  6
CONTINUOUS
 62
4
 10
940.6013
 20
719.0266
 40
0.3000
 50
92.4628
 51
165.9637
  0
ARC
  8
0_00
  6
CONTINUOUS
 62
4
 10
928.3368
 20
718.3167
 40
0.6000
 50
151.1333
 51
270.0000
  0
ARC
  8
0_00
  6
CONTINUOUS
 62
4
 10
925.4146
 20
720.9684
 40
0.3000
 50
168.4000
 51
265.0000
  0
ARC
  8
0_00
  6
CONTINUOUS
 62
4
 10
926.2147
 20
720.2460
 40
0.3500
 50
354.9012
 51
445.0000
  0
ARC
  8
0_00
  6
CONTINUOUS
 62
4
 10
927.2646
 20
720.6058
 40
1.0000
 50
0.0000
 51
85.0000
  0
ARC
  8
0_00
  6
CONTINUOUS
 62
4
 10
926.5398
 20
721.9743
 40
0.3000
 50
168.4000
 51
265.0000
  0
ARC
  8
0_00
  6
CONTINUOUS
 62
4
 10
926.2667
 20
725.6167
 40
0.7000
 50
348.4000
 51
450.0000
  0
ARC
  8
0_00
  6
CONTINUOUS
 62
4
 10
924.5711
 20
720.3926
 40
2.0000
 50
290.2878
 51
354.9012
  0
ARC
  8
0_00
  6
CONTINUOUS
 62
4
 10
924.5711
 20
720.3926
 40
3.7000
 50
331.1333
 51
356.5957
  0
ARC
  8
0_00
  6
CONTINUOUS
 62
4
 10
923.1640
 20
717.2553
 40
0.5000
 50
243.6632
 51
360.0004
  0
ARC
  8
0_00
  6
CONTINUOUS
 62
4
 10
925.4640
 20
726.0633
 40
0.4000
 50
89.9999
 51
180.5597
  0
ARC
  8
0_00
  6
CONTINUOUS
 62
4
 10
928.3640
 20
725.8633
 40
0.2000
 50
270.0005
 51
360.0004
  0
ARC
  8
0_00
  6
CONTINUOUS
 62
4
 10
928.3640
 20
726.2633
 40
0.6000
 50
180.0005
 51
270.0005
  0
ARC
  8
0_00
  6
CONTINUOUS
 62
4
 10
926.1140
 20
720.2201
 40
0.3500
 50
349.1688
 51
445.0004
  0
ARC
  8
14_0E
  6
CONTINUOUS
 62
4
 10
924.4934
 20
720.5301
 40
2.0000
 50
286.5779
 51
349.1688
  0
ARC
  8
0_00
  6
CONTINUOUS
 62
4
 10
925.4641
 20
721.0298
 40
0.4000
 50
168.6004
 51
265.0005
  0
ARC
  8
0_00
  6
CONTINUOUS
 62
4
 10
925.3426
 20
723.4633
 40
0.2000
 50
348.6005
 51
450.0004
  0
ARC
  8
0_00
  6
CONTINUOUS
 62
4
 10
927.5640
 20
726.7633
 40
1.0000
 50
0.0004
 51
90.0004
  0
ARC
  8
0_00
  6
CONTINUOUS
 62
4
 10
924.9640
 20
726.4632
 40
1.3000
 50
90.0004
 51
180.0005
  0
ARC
  8
0_00
  6
CONTINUOUS
 62
4
 10
929.0645
 20
729.1749
 40
15.4000
 50
123.4747
 51
247.2512
  0
ARC
  8
0_00
  6
CONTINUOUS
 62
4
 10
923.6546
 20
716.2728
 40
1.4095
 50
247.2512
 51
360.0006
  0
ARC
  8
0_00
  6
CONTINUOUS
 62
4
 10
929.0645
 20
729.1749
 40
13.8000
 50
123.4747
 51
243.6632
  0
ARC
  8
0_00
  6
CONTINUOUS
 62
2
 10
953.6646
 20
722.1353
 40
10.0765
 50
68.1346
 51
111.8654
  0
ARC
  8
0_00
  6
CONTINUOUS
 62
2
 10
959.2938
 20
728.2369
 40
3.7528
 50
60.0000
 51
120.0000
  0
ARC
  8
0_00
  6
CONTINUOUS
 62
2
 10
948.0354
 20
728.2369
 40
3.7528
 50
60.0000
 51
120.0000
  0
ARC
  8
0_00
  6
CONTINUOUS
 62
2
 10
953.6111
 20
738.2283
 40
8.5000
 50
314.9416
 51
585.0584
  0
ARC
  8
0_00
  6
CONTINUOUS
 62
2
 10
953.6646
 20
724.7517
 40
12.4195
 50
252.4122
 51
287.5878
  0
ARC
  8
0_00
  6
CONTINUOUS
 62
2
 10
948.0354
 20
715.6548
 40
3.3226
 50
235.6160
 51
304.3840
  0
ARC
  8
0_00
  6
CONTINUOUS
 62
2
 10
959.2938
 20
715.6548
 40
3.3226
 50
235.6160
 51
304.3840
  0
CIRCLE
  8
0_00
  6
CONTINUOUS
 62
2
 10
1133.6646
 20
730.4728
 40
8.5000
  0
ARC
  8
0_00
  6
CONTINUOUS
 62
4
 10
275.4519
 20
264.1765
 40
0.5000
 50
90.0000
 51
180.0000
  0
ARC
  8
0_00
  6
CONTINUOUS
 62
4
 10
306.4519
 20
264.1765
 40
0.5000
 50
0.0000
 51
90.0000
  0
ARC
  8
0_00
  6
DASHED
 62
2
 10
513.0520
 20
250.3504
 40
0.9000
 50
0.0000
 51
180.0000
  0
ARC
  8
0_00
  6
DASHED
 62
2
 10
513.0520
 20
247.1504
 40
0.9000
 50
180.0000
 51
360.0000
  0
ARC
  8
0_00
  6
DASHED
 62
2
 10
513.9520
 20
244.8504
 40
2.0000
 50
270.0000
 51
360.0000
  0
ARC
  8
0_00
  6
DASHED
 62
2
 10
457.9520
 20
240.2504
 40
7.7000
 50
39.9831
 51
140.0169
  0
ARC
  8
11_0B
  6
DASHED
 62
2
 10
454.6431
 20
226.4932
 40
0.3000
 50
175.0000
 51
255.0000
  0
ARC
  8
11_0B
  6
DASHED
 62
2
 10
454.3163
 20
222.7575
 40
0.3000
 50
175.0000
 51
255.0000
  0
ARC
  8
11_0B
  6
DASHED
 62
2
 10
453.9895
 20
219.0217
 40
0.3000
 50
175.0000
 51
255.0000
  0
ARC
  8
11_0B
  6
DASHED
 62
2
 10
453.6627
 20
215.2860
 40
0.3000
 50
175.0000
 51
255.0000
  0
ARC
  8
11_0B
  6
DASHED
 62
2
 10
453.4988
 20
211.6926
 40
0.4500
 50
175.0000
 51
205.0000
  0
ARC
  8
11_0B
  6
DASHED
 62
2
 10
461.2608
 20
226.4932
 40
0.3000
 50
285.0000
 51
365.0000
  0
ARC
  8
11_0B
  6
DASHED
 62
2
 10
461.5876
 20
222.7575
 40
0.3000
 50
285.0000
 51
365.0000
  0
ARC
  8
11_0B
  6
DASHED
 62
2
 10
461.9144
 20
219.0217
 40
0.3000
 50
285.0000
 51
365.0000
  0
ARC
  8
11_0B
  6
DASHED
 62
2
 10
462.2413
 20
215.2860
 40
0.3000
 50
285.0000
 51
365.0000
  0
ARC
  8
11_0B
  6
DASHED
 62
2
 10
462.4050
 20
211.6926
 40
0.4500
 50
335.0000
 51
365.0000
  0
ARC
  8
11_0B
  6
DASHED
 62
2
 10
454.8276
 20
213.1116
 40
0.1500
 50
265.0000
 51
355.0000
  0
ARC
  8
11_0B
  6
DASHED
 62
2
 10
461.0764
 20
213.1116
 40
0.1500
 50
185.0000
 51
275.0000
  0
ARC
  8
11_0B
  6
DASHED
 62
2
 10
455.1544
 20
216.8473
 40
0.1500
 50
265.0000
 51
355.0000
  0
ARC
  8
11_0B
  6
DASHED
 62
2
 10
460.7495
 20
216.8473
 40
0.1500
 50
185.0000
 51
275.0000
  0
ARC
  8
11_0B
  6
DASHED
 62
2
 10
455.4812
 20
220.5831
 40
0.1500
 50
265.0000
 51
355.0000
  0
ARC
  8
11_0B
  6
DASHED
 62
2
 10
460.4227
 20
220.5831
 40
0.1500
 50
185.0000
 51
275.0000
  0
ARC
  8
11_0B
  6
DASHED
 62
2
 10
455.8081
 20
224.3188
 40
0.1500
 50
265.0000
 51
355.0000
  0
ARC
  8
11_0B
  6
DASHED
 62
2
 10
460.0958
 20
224.3188
 40
0.1500
 50
185.0000
 51
275.0000
  0
ARC
  8
11_0B
  6
DASHED
 62
2
 10
455.6866
 20
228.0938
 40
0.1500
 50
265.0000
 51
355.0000
  0
ARC
  8
11_0B
  6
DASHED
 62
2
 10
460.2173
 20
228.0938
 40
0.1500
 50
185.0000
 51
275.0000
  0
ARC
  8
11_0B
  6
DASHED
 62
2
 10
461.1174
 20
214.3637
 40
0.3000
 50
105.0000
 51
185.0000
  0
ARC
  8
11_0B
  6
DASHED
 62
2
 10
454.9469
 20
214.4760
 40
0.1500
 50
355.0000
 51
435.0000
  0
ARC
  8
11_0B
  6
DASHED
 62
2
 10
460.7905
 20
218.0994
 40
0.3000
 50
105.0000
 51
185.0000
  0
ARC
  8
11_0B
  6
DASHED
 62
2
 10
455.1134
 20
218.0994
 40
0.3000
 50
355.0000
 51
435.0000
  0
ARC
  8
11_0B
  6
DASHED
 62
2
 10
460.4637
 20
221.8351
 40
0.3000
 50
105.0000
 51
185.0000
  0
ARC
  8
11_0B
  6
DASHED
 62
2
 10
455.4402
 20
221.8351
 40
0.3000
 50
355.0000
 51
435.0000
  0
ARC
  8
11_0B
  6
DASHED
 62
2
 10
460.1369
 20
225.5709
 40
0.3000
 50
105.0000
 51
185.0000
  0
ARC
  8
11_0B
  6
DASHED
 62
2
 10
455.7670
 20
225.5709
 40
0.3000
 50
355.0000
 51
435.0000
  0
ARC
  8
11_0B
  6
DASHED
 62
2
 10
455.6996
 20
229.9642
 40
0.3000
 50
355.0000
 51
440.0000
  0
ARC
  8
11_0B
  6
DASHED
 62
2
 10
460.2042
 20
229.9642
 40
0.3000
 50
100.0000
 51
185.0000
  0
ARC
  8
11_0B
  6
DASHED
 62
2
 10
463.5727
 20
228.9262
 40
0.3000
 50
335.0000
 51
425.0000
  0
ARC
  8
11_0B
  6
DASHED
 62
2
 10
463.4367
 20
228.9896
 40
0.3000
 50
65.0000
 51
155.0000
  0
ARC
  8
11_0B
  6
DASHED
 62
2
 10
452.3312
 20
228.9262
 40
0.3000
 50
115.0000
 51
205.0000
  0
ARC
  8
11_0B
  6
DASHED
 62
2
 10
452.4671
 20
228.9896
 40
0.3000
 50
25.0000
 51
115.0000
  0
ARC
  8
0_00
  6
CONTINUOUS
 62
4
 10
629.8278
 20
197.1227
 40
3.5000
 50
180.0000
 51
270.0000
  0
ARC
  8
0_00
  6
CONTINUOUS
 62
4
 10
803.8279
 20
197.1227
 40
3.5000
 50
270.0000
 51
360.0000
  0
ARC
  8
0_00
  6
CONTINUOUS
 62
4
 10
629.8278
 20
257.0048
 40
3.5000
 50
88.1014
 51
180.0000
  0
ARC
  8
0_00
  6
CONTINUOUS
 62
4
 10
803.8279
 20
251.2369
 40
3.5000
 50
0.0000
 51
88.1014
  0
ARC
  8
0_00
  6
CONTINUOUS
 62
4
 10
462.4519
 20
406.0227
 40
2.0000
 50
0.0000
 51
90.0000
  0
ARC
  8
0_00
  6
CONTINUOUS
 62
4
 10
462.4519
 20
361.5227
 40
2.0000
 50
270.0000
 51
360.0000
  0
ARC
  8
0_00
  6
DASHED
 62
2
 10
441.9519
 20
402.7228
 40
1.0000
 50
90.0000
 51
180.0000
  0
ARC
  8
0_00
  6
DASHED
 62
2
 10
421.9520
 20
365.7228
 40
1.0000
 50
180.0000
 51
270.0000
  0
ARC
  8
0_00
  6
DASHED
 62
2
 10
421.9520
 20
366.9435
 40
1.0000
 50
180.0000
 51
251.5651
  0
ARC
  8
0_00
  6
DASHED
 62
2
 10
424.1142
 20
366.2227
 40
1.0000
 50
251.5651
 51
270.0000
  0
ARC
  8
0_00
  6
DASHED
 62
2
 10
421.9520
 20
365.3793
 40
1.0000
 50
180.0000
 51
246.5713
  0
ARC
  8
0_00
  6
DASHED
 62
2
 10
424.1593
 20
364.4227
 40
1.0000
 50
246.5713
 51
270.0000
  0
ARC
  8
0_00
  6
DASHED
 62
2
 10
444.4502
 20
364.5833
 40
5.1605
 50
219.1846
 51
237.6695
  0
ARC
  8
0_00
  6
DASHED
 62
2
 10
444.4502
 20
364.5833
 40
5.1605
 50
302.3305
 51
320.8154
  0
ARC
  8
0_00
  6
CONTINUOUS
 62
2
 10
444.4502
 20
364.5833
 40
5.1605
 50
237.6695
 51
302.3305
  0
CIRCLE
  8
0_00
  6
CONTINUOUS
 62
2
 10
681.8279
 20
246.6227
 40
3.2000
  0
CIRCLE
  8
0_00
  6
CONTINUOUS
 62
2
 10
681.8279
 20
246.6227
 40
1.6000
  0
CIRCLE
  8
0_00
  6
CONTINUOUS
 62
2
 10
751.8279
 20
246.6227
 40
3.2000
  0
CIRCLE
  8
0_00
  6
CONTINUOUS
 62
2
 10
751.8279
 20
246.6227
 40
1.6000
  0
ARC
  8
0_00
  6
CONTINUOUS
 62
4
 10
746.6279
 20
360.5227
 40
1.0000
 50
270.0000
 51
360.0000
  0
ARC
  8
0_00
  6
CONTINUOUS
 62
4
 10
740.8278
 20
399.7447
 40
6.8000
 50
0.0000
 51
82.9521
  0
ARC
  8
0_00
  6
CONTINUOUS
 62
4
 10
744.5278
 20
360.5227
 40
1.0000
 50
180.0000
 51
270.0000
  0
ARC
  8
0_00
  6
CONTINUOUS
 62
4
 10
716.8279
 20
205.6227
 40
202.4000
 50
82.9521
 51
97.0479
  0
ARC
  8
0_00
  6
CONTINUOUS
 62
4
 10
687.0278
 20
360.5227
 40
1.0000
 50
180.0000
 51
270.0000
  0
ARC
  8
0_00
  6
CONTINUOUS
 62
4
 10
692.8279
 20
399.7447
 40
6.8000
 50
97.0479
 51
180.0000
  0
ARC
  8
0_00
  6
CONTINUOUS
 62
4
 10
689.1279
 20
360.5227
 40
1.0000
 50
270.0000
 51
360.0000
  0
ARC
  8
0_00
  6
CONTINUOUS
 62
4
 10
693.8279
 20
258.6611
 40
0.5000
 50
180.0000
 51
211.5811
  0
ARC
  8
0_00
  6
CONTINUOUS
 62
4
 10
693.8279
 20
262.3577
 40
0.5000
 50
90.0000
 51
180.0000
  0
ARC
  8
0_00
  6
CONTINUOUS
 62
4
 10
739.8279
 20
257.0548
 40
0.5000
 50
335.2250
 51
360.0000
  0
ARC
  8
0_00
  6
CONTINUOUS
 62
4
 10
739.8279
 20
262.3577
 40
0.5000
 50
0.0000
 51
90.0000
  0
ARC
  8
0_00
  6
CONTINUOUS
 62
4
 10
693.8279
 20
258.6611
 40
0.5000
 50
180.0000
 51
268.0000
  0
ARC
  8
0_00
  6
CONTINUOUS
 62
4
 10
693.8279
 20
262.3577
 40
0.5000
 50
90.0000
 51
180.0000
  0
ARC
  8
0_00
  6
CONTINUOUS
 62
4
 10
739.8279
 20
257.0548
 40
0.5000
 50
268.0000
 51
360.0000
  0
ARC
  8
0_00
  6
CONTINUOUS
 62
4
 10
739.8279
 20
262.3577
 40
0.5000
 50
0.0000
 51
90.0000
  0
ARC
  8
0_00
  6
CONTINUOUS
 62
4
 10
692.8279
 20
258.6611
 40
0.5000
 50
180.0000
 51
268.0000
  0
ARC
  8
0_00
  6
CONTINUOUS
 62
4
 10
692.8279
 20
262.3577
 40
0.5000
 50
90.0000
 51
180.0000
  0
ARC
  8
0_00
  6
CONTINUOUS
 62
4
 10
692.8279
 20
258.6611
 40
0.5000
 50
180.0000
 51
207.1388
  0
ARC
  8
0_00
  6
CONTINUOUS
 62
4
 10
692.8279
 20
262.3577
 40
0.5000
 50
90.0000
 51
180.0000
  0
ARC
  8
0_00
  6
CONTINUOUS
 62
4
 10
978.2646
 20
384.4249
 40
16.2000
 50
291.9097
 51
416.5252
  0
ARC
  8
0_00
  6
CONTINUOUS
 62
4
 10
983.9365
 20
370.3228
 40
1.0000
 50
270.0000
 51
291.9097
  0
ARC
  8
0_00
  6
CONTINUOUS
 62
4
 10
953.6646
 20
347.2227
 40
60.8000
 50
56.5252
 51
123.4747
  0
ARC
  8
0_00
  6
CONTINUOUS
 62
4
 10
929.0645
 20
384.4249
 40
16.2000
 50
123.4747
 51
248.0903
  0
ARC
  8
0_00
  6
CONTINUOUS
 62
4
 10
923.3928
 20
370.3228
 40
1.0000
 50
248.0903
 51
270.0000
  0
CIRCLE
  8
0_00
  6
CONTINUOUS
 62
4
 10
1133.6646
 20
378.2227
 40
29.8000
  0
ARC
  8
11_0B
  6
DASHED
 62
2
 10
720.1366
 20
569.1155
 40
0.3000
 50
285.0000
 51
365.0000
  0
ARC
  8
11_0B
  6
DASHED
 62
2
 10
720.4635
 20
565.3797
 40
0.3000
 50
285.0000
 51
365.0000
  0
ARC
  8
11_0B
  6
DASHED
 62
2
 10
720.7903
 20
561.6440
 40
0.3000
 50
285.0000
 51
365.0000
  0
ARC
  8
11_0B
  6
DASHED
 62
2
 10
721.1172
 20
557.9084
 40
0.3000
 50
285.0000
 51
365.0000
  0
ARC
  8
11_0B
  6
DASHED
 62
2
 10
721.2810
 20
554.3149
 40
0.4500
 50
335.0000
 51
365.0000
  0
ARC
  8
11_0B
  6
DASHED
 62
2
 10
713.5190
 20
569.1155
 40
0.3000
 50
175.0000
 51
255.0000
  0
ARC
  8
11_0B
  6
DASHED
 62
2
 10
713.1922
 20
565.3797
 40
0.3000
 50
175.0000
 51
255.0000
  0
ARC
  8
11_0B
  6
DASHED
 62
2
 10
712.8653
 20
561.6440
 40
0.3000
 50
175.0000
 51
255.0000
  0
ARC
  8
11_0B
  6
DASHED
 62
2
 10
712.5385
 20
557.9084
 40
0.3000
 50
175.0000
 51
255.0000
  0
ARC
  8
11_0B
  6
DASHED
 62
2
 10
712.3748
 20
554.3149
 40
0.4500
 50
175.0000
 51
205.0000
  0
ARC
  8
11_0B
  6
DASHED
 62
2
 10
719.9523
 20
555.7339
 40
0.1500
 50
185.0000
 51
275.0000
  0
ARC
  8
11_0B
  6
DASHED
 62
2
 10
713.7035
 20
555.7339
 40
0.1500
 50
265.0000
 51
355.0000
  0
ARC
  8
11_0B
  6
DASHED
 62
2
 10
719.6254
 20
559.4697
 40
0.1500
 50
185.0000
 51
275.0000
  0
ARC
  8
11_0B
  6
DASHED
 62
2
 10
714.0303
 20
559.4697
 40
0.1500
 50
265.0000
 51
355.0000
  0
ARC
  8
11_0B
  6
DASHED
 62
2
 10
719.2986
 20
563.2054
 40
0.1500
 50
185.0000
 51
275.0000
  0
ARC
  8
11_0B
  6
DASHED
 62
2
 10
714.3571
 20
563.2054
 40
0.1500
 50
265.0000
 51
355.0000
  0
ARC
  8
11_0B
  6
DASHED
 62
2
 10
718.9717
 20
566.9411
 40
0.1500
 50
185.0000
 51
275.0000
  0
ARC
  8
11_0B
  6
DASHED
 62
2
 10
714.6839
 20
566.9411
 40
0.1500
 50
265.0000
 51
355.0000
  0
ARC
  8
11_0B
  6
DASHED
 62
2
 10
719.0932
 20
570.7161
 40
0.1500
 50
185.0000
 51
275.0000
  0
ARC
  8
11_0B
  6
DASHED
 62
2
 10
714.5625
 20
570.7161
 40
0.1500
 50
265.0000
 51
355.0000
  0
ARC
  8
11_0B
  6
DASHED
 62
2
 10
713.6624
 20
556.9860
 40
0.3000
 50
355.0000
 51
435.0000
  0
ARC
  8
11_0B
  6
DASHED
 62
2
 10
719.8329
 20
557.0983
 40
0.1500
 50
105.0000
 51
185.0000
  0
ARC
  8
11_0B
  6
DASHED
 62
2
 10
713.9893
 20
560.7217
 40
0.3000
 50
355.0000
 51
435.0000
  0
ARC
  8
11_0B
  6
DASHED
 62
2
 10
719.6665
 20
560.7217
 40
0.3000
 50
105.0000
 51
185.0000
  0
ARC
  8
11_0B
  6
DASHED
 62
2
 10
714.3161
 20
564.4574
 40
0.3000
 50
355.0000
 51
435.0000
  0
ARC
  8
11_0B
  6
DASHED
 62
2
 10
719.3396
 20
564.4574
 40
0.3000
 50
105.0000
 51
185.0000
  0
ARC
  8
11_0B
  6
DASHED
 62
2
 10
714.6430
 20
568.1932
 40
0.3000
 50
355.0000
 51
435.0000
  0
ARC
  8
11_0B
  6
DASHED
 62
2
 10
719.0128
 20
568.1932
 40
0.3000
 50
105.0000
 51
185.0000
  0
ARC
  8
11_0B
  6
DASHED
 62
2
 10
719.0801
 20
572.5865
 40
0.3000
 50
100.0000
 51
185.0000
  0
ARC
  8
11_0B
  6
DASHED
 62
2
 10
714.5755
 20
572.5865
 40
0.3000
 50
355.0000
 51
440.0000
  0
ARC
  8
11_0B
  6
DASHED
 62
2
 10
711.2071
 20
571.5485
 40
0.3000
 50
115.0000
 51
205.0000
  0
ARC
  8
11_0B
  6
DASHED
 62
2
 10
711.3430
 20
571.6119
 40
0.3000
 50
25.0000
 51
115.0000
  0
ARC
  8
11_0B
  6
DASHED
 62
2
 10
722.4486
 20
571.5485
 40
0.3000
 50
335.0000
 51
425.0000
  0
ARC
  8
11_0B
  6
DASHED
 62
2
 10
722.3127
 20
571.6119
 40
0.3000
 50
65.0000
 51
155.0000
  0
ARC
  8
0_00
  6
CONTINUOUS
 62
3
 10
1089.6760
 20
72.2363
 40
0.5362
 50
270.0000
 51
450.0000
  0
ARC
  8
0_00
  6
CONTINUOUS
 62
3
 10
1088.1842
 20
77.0626
 40
0.6532
 50
0.0000
 51
180.0000
  0
ARC
  8
0_00
  6
CONTINUOUS
 62
3
 10
1089.1886
 20
83.4001
 40
1.9500
 50
333.9999
 51
450.0000
  0
CIRCLE
  8
0_00
  6
CONTINUOUS
 62
3
 10
1090.0660
 20
87.3000
 40
1.5600
  0
ARC
  8
0_00
  6
CONTINUOUS
 62
3
 10
1088.2811
 20
77.0626
 40
0.4500
 50
0.0000
 51
180.0000
  0
ARC
  8
0_00
  6
CONTINUOUS
 62
3
 10
1088.2811
 20
77.0626
 40
0.1500
 50
0.0000
 51
180.0000
  0
ARC
  8
0_00
  6
CONTINUOUS
 62
3
 10
1089.6760
 20
72.1725
 40
0.3000
 50
270.0000
 51
450.0000
  0
CIRCLE
  8
0_00
  6
CONTINUOUS
 62
3
 10
1090.0660
 20
87.3000
 40
1.3244
  0
CIRCLE
  8
0_00
  6
CONTINUOUS
 62
3
 10
1090.0660
 20
87.3000
 40
1.0256
  0
CIRCLE
  8
0_00
  6
CONTINUOUS
 62
3
 10
1090.0660
 20
87.3000
 40
0.7027
  0
CIRCLE
  8
0_00
  6
CONTINUOUS
 62
3
 10
1090.0660
 20
87.3000
 40
0.3440
  0
CIRCLE
  8
0_00
  6
CONTINUOUS
 62
3
 10
1090.0660
 20
87.3000
 40
0.1699
  0
CIRCLE
  8
0_00
  6
CONTINUOUS
 62
4
 10
881.0410
 20
82.2001
 40
3.7500
  0
CIRCLE
  8
0_00
  6
CONTINUOUS
 62
4
 10
881.0410
 20
82.2001
 40
6.0000
  0
ARC
  8
0_00
  6
CONTINUOUS
 62
2
 10
716.8069
 20
728.5053
 40
3.1000
 50
135.0000
 51
148.5444
  0
ARC
  8
0_00
  6
CONTINUOUS
 62
2
 10
716.8069
 20
728.5053
 40
3.1000
 50
121.4556
 51
135.0000
  0
ARC
  8
0_00
  6
CONTINUOUS
 62
2
 10
716.8069
 20
728.5053
 40
3.1000
 50
45.0000
 51
58.6333
  0
ARC
  8
0_00
  6
CONTINUOUS
 62
2
 10
716.8069
 20
728.5053
 40
3.1000
 50
31.3667
 51
45.0000
  0
ARC
  8
0_00
  6
CONTINUOUS
 62
2
 10
716.8069
 20
728.5053
 40
7.0000
 50
305.0590
 51
595.3587
  0
ARC
  8
12_0C
  6
DASHED
 62
2
 10
538.0950
 20
724.0610
 40
0.4000
 50
265.0000
 51
345.0000
  0
ARC
  8
12_0C
  6
DASHED
 62
2
 10
543.0759
 20
723.6253
 40
0.4000
 50
265.0000
 51
345.0000
  0
ARC
  8
12_0C
  6
DASHED
 62
2
 10
548.0569
 20
723.1894
 40
0.4000
 50
265.0000
 51
345.0000
  0
ARC
  8
12_0C
  6
DASHED
 62
2
 10
553.0378
 20
722.7536
 40
0.4000
 50
265.0000
 51
345.0000
  0
ARC
  8
12_0C
  6
DASHED
 62
2
 10
557.8291
 20
722.5353
 40
0.6000
 50
265.0000
 51
295.0000
  0
ARC
  8
12_0C
  6
DASHED
 62
2
 10
538.0950
 20
732.8845
 40
0.4000
 50
15.0000
 51
95.0000
  0
ARC
  8
12_0C
  6
DASHED
 62
2
 10
543.0759
 20
733.3203
 40
0.4000
 50
15.0000
 51
95.0000
  0
ARC
  8
12_0C
  6
DASHED
 62
2
 10
548.0569
 20
733.7561
 40
0.4000
 50
15.0000
 51
95.0000
  0
ARC
  8
12_0C
  6
DASHED
 62
2
 10
553.0378
 20
734.1918
 40
0.4000
 50
15.0000
 51
95.0000
  0
ARC
  8
12_0C
  6
DASHED
 62
2
 10
557.8291
 20
734.4103
 40
0.6000
 50
65.0000
 51
95.0000
  0
ARC
  8
12_0C
  6
DASHED
 62
2
 10
555.9371
 20
724.3069
 40
0.2000
 50
355.0000
 51
445.0000
  0
ARC
  8
12_0C
  6
DASHED
 62
2
 10
555.9371
 20
732.6386
 40
0.2000
 50
275.0000
 51
365.0000
  0
ARC
  8
12_0C
  6
DASHED
 62
2
 10
550.9560
 20
724.7427
 40
0.2000
 50
355.0000
 51
445.0000
  0
ARC
  8
12_0C
  6
DASHED
 62
2
 10
550.9560
 20
732.2028
 40
0.2000
 50
275.0000
 51
365.0000
  0
ARC
  8
12_0C
  6
DASHED
 62
2
 10
545.9751
 20
725.1785
 40
0.2000
 50
355.0000
 51
445.0000
  0
ARC
  8
12_0C
  6
DASHED
 62
2
 10
545.9751
 20
731.7670
 40
0.2000
 50
275.0000
 51
365.0000
  0
ARC
  8
12_0C
  6
DASHED
 62
2
 10
540.9941
 20
725.6142
 40
0.2000
 50
355.0000
 51
445.0000
  0
ARC
  8
12_0C
  6
DASHED
 62
2
 10
540.9941
 20
731.3313
 40
0.2000
 50
275.0000
 51
365.0000
  0
ARC
  8
12_0C
  6
DASHED
 62
2
 10
535.9609
 20
725.4522
 40
0.2000
 50
355.0000
 51
445.0000
  0
ARC
  8
12_0C
  6
DASHED
 62
2
 10
535.9609
 20
731.4932
 40
0.2000
 50
275.0000
 51
365.0000
  0
ARC
  8
12_0C
  6
DASHED
 62
2
 10
554.2676
 20
732.6933
 40
0.4000
 50
195.0000
 51
275.0000
  0
ARC
  8
12_0C
  6
DASHED
 62
2
 10
554.1179
 20
724.4661
 40
0.2000
 50
85.0000
 51
165.0000
  0
ARC
  8
12_0C
  6
DASHED
 62
2
 10
549.2867
 20
732.2575
 40
0.4000
 50
195.0000
 51
275.0000
  0
ARC
  8
12_0C
  6
DASHED
 62
2
 10
549.2867
 20
724.6880
 40
0.4000
 50
85.0000
 51
165.0000
  0
ARC
  8
12_0C
  6
DASHED
 62
2
 10
544.3057
 20
731.8218
 40
0.4000
 50
195.0000
 51
275.0000
  0
ARC
  8
12_0C
  6
DASHED
 62
2
 10
544.3057
 20
725.1238
 40
0.4000
 50
85.0000
 51
165.0000
  0
ARC
  8
12_0C
  6
DASHED
 62
2
 10
539.3247
 20
731.3860
 40
0.4000
 50
195.0000
 51
275.0000
  0
ARC
  8
12_0C
  6
DASHED
 62
2
 10
539.3247
 20
725.5595
 40
0.4000
 50
85.0000
 51
165.0000
  0
ARC
  8
12_0C
  6
DASHED
 62
2
 10
533.4669
 20
725.4697
 40
0.4000
 50
85.0000
 51
170.0000
  0
ARC
  8
12_0C
  6
DASHED
 62
2
 10
533.4669
 20
731.4757
 40
0.4000
 50
190.0000
 51
275.0000
  0
ARC
  8
12_0C
  6
DASHED
 62
2
 10
534.8509
 20
735.9671
 40
0.4000
 50
65.0000
 51
155.0000
  0
ARC
  8
12_0C
  6
DASHED
 62
2
 10
534.7664
 20
735.7858
 40
0.4000
 50
155.0000
 51
245.0000
  0
ARC
  8
12_0C
  6
DASHED
 62
2
 10
534.8509
 20
720.9784
 40
0.4000
 50
205.0000
 51
295.0000
  0
ARC
  8
12_0C
  6
DASHED
 62
2
 10
534.7664
 20
721.1597
 40
0.4000
 50
115.0000
 51
205.0000
  0
ARC
  8
0_00
  6
CONTINUOUS
 62
2
 10
953.6437
 20
738.2493
 40
3.1000
 50
135.0000
 51
148.5444
  0
ARC
  8
0_00
  6
CONTINUOUS
 62
2
 10
953.6437
 20
738.2493
 40
3.1000
 50
121.4556
 51
135.0000
  0
ARC
  8
0_00
  6
CONTINUOUS
 62
2
 10
953.6437
 20
738.2493
 40
3.1000
 50
45.0000
 51
58.6333
  0
ARC
  8
0_00
  6
CONTINUOUS
 62
2
 10
953.6437
 20
738.2493
 40
3.1000
 50
31.3667
 51
45.0000
  0
ARC
  8
0_00
  6
CONTINUOUS
 62
2
 10
953.6437
 20
738.2493
 40
7.0000
 50
305.0590
 51
595.3587
  0
ARC
  8
0_00
  6
CONTINUOUS
 62
2
 10
1133.6646
 20
730.4728
 40
2.4500
 50
45.0000
 51
58.5444
  0
ARC
  8
0_00
  6
CONTINUOUS
 62
2
 10
1133.6646
 20
730.4728
 40
2.4500
 50
121.3667
 51
135.0000
  0
ARC
  8
0_00
  6
CONTINUOUS
 62
2
 10
1133.6646
 20
730.4728
 40
2.4500
 50
211.4556
 51
225.0000
  0
ARC
  8
0_00
  6
CONTINUOUS
 62
2
 10
1133.6646
 20
730.4728
 40
2.4500
 50
135.0000
 51
148.6333
  0
ARC
  8
0_00
  6
CONTINUOUS
 62
2
 10
1133.6646
 20
730.4728
 40
2.4500
 50
31.4556
 51
45.0000
  0
ARC
  8
0_00
  6
CONTINUOUS
 62
2
 10
1133.6646
 20
730.4728
 40
2.4500
 50
315.0000
 51
328.6334
  0
ARC
  8
0_00
  6
CONTINUOUS
 62
2
 10
1133.6646
 20
730.4728
 40
2.4500
 50
225.0000
 51
238.5444
  0
ARC
  8
0_00
  6
CONTINUOUS
 62
2
 10
1133.6646
 20
730.4728
 40
2.4500
 50
301.3667
 51
315.0000
  0
CIRCLE
  8
0_00
  6
CONTINUOUS
 62
2
 10
1133.6646
 20
730.4728
 40
5.9000
  0
ARC
  8
0_00
  6
CONTINUOUS
 62
2
 10
1155.6646
 20
728.4977
 40
2.0000
 50
180.0000
 51
270.0000
  0
ARC
  8
0_00
  6
CONTINUOUS
 62
2
 10
1156.1646
 20
724.4977
 40
2.0000
 50
0.0000
 51
90.0000
  0
ARC
  8
0_00
  6
CONTINUOUS
 62
2
 10
1148.6646
 20
735.7727
 40
5.0000
 50
0.0000
 51
90.0000
  0
ARC
  8
0_00
  6
CONTINUOUS
 62
2
 10
1111.6645
 20
728.4977
 40
2.0000
 50
270.0000
 51
360.0000
  0
ARC
  8
0_00
  6
CONTINUOUS
 62
2
 10
1111.1646
 20
724.4977
 40
2.0000
 50
90.0000
 51
180.0000
  0
ARC
  8
0_00
  6
CONTINUOUS
 62
2
 10
1118.6646
 20
735.7727
 40
5.0000
 50
90.0000
 51
180.0000
  0
ARC
  8
0_00
  6
CONTINUOUS
 62
4
 10
1107.4995
 20
730.4974
 40
0.3000
 50
142.2891
 51
270.0034
  0
ARC
  8
0_00
  6
CONTINUOUS
 62
4
 10
1112.0594
 20
729.6977
 40
0.5000
 50
0.0034
 51
90.0034
  0
ARC
  8
0_00
  6
CONTINUOUS
 62
4
 10
1106.3024
 20
714.2973
 40
0.3000
 50
187.5171
 51
348.4034
  0
ARC
  8
0_00
  6
CONTINUOUS
 62
4
 10
1133.6598
 20
722.9728
 40
27.5000
 50
136.4727
 51
163.7221
  0
ARC
  8
0_00
  6
CONTINUOUS
 62
4
 10
1113.8659
 20
741.7743
 40
0.2000
 50
45.0034
 51
136.4727
  0
ARC
  8
0_00
  6
CONTINUOUS
 62
4
 10
1133.6598
 20
722.9728
 40
27.8000
 50
167.0600
 51
174.5814
  0
ARC
  8
0_00
  6
CONTINUOUS
 62
4
 10
1133.6598
 20
722.9728
 40
27.8000
 50
177.6802
 51
182.0108
  0
ARC
  8
0_00
  6
CONTINUOUS
 62
4
 10
1133.6598
 20
722.9728
 40
27.8000
 50
186.1442
 51
194.0955
  0
ARC
  8
0_00
  6
CONTINUOUS
 62
4
 10
1103.7871
 20
715.4718
 40
3.0000
 50
348.4034
 51
374.0955
  0
ARC
  8
0_00
  6
CONTINUOUS
 62
4
 10
1133.6598
 20
722.9728
 40
26.5000
 50
133.9223
 51
136.0845
  0
ARC
  8
0_00
  6
CONTINUOUS
 62
4
 10
1114.8560
 20
742.7641
 40
0.2000
 50
133.5347
 51
225.0034
  0
ARC
  8
0_00
  6
CONTINUOUS
 62
4
 10
1111.5595
 20
729.1898
 40
0.2000
 50
0.0034
 51
92.2013
  0
ARC
  8
0_00
  6
CONTINUOUS
 62
4
 10
1112.1595
 20
728.3977
 40
0.4000
 50
180.0034
 51
360.0034
  0
ARC
  8
0_00
  6
CONTINUOUS
 62
4
 10
1105.9883
 20
724.2980
 40
0.2000
 50
270.0034
 51
348.3034
  0
ARC
  8
0_00
  6
CONTINUOUS
 62
4
 10
1106.2160
 20
725.3979
 40
0.2000
 50
348.3034
 51
450.0034
  0
ARC
  8
0_00
  6
CONTINUOUS
 62
4
 10
1106.9697
 20
721.7010
 40
0.2000
 50
344.8643
 51
445.0034
  0
ARC
  8
13_0D
  6
CONTINUOUS
 62
4
 10
1104.2669
 20
722.4321
 40
3.0000
 50
305.7479
 51
344.8643
  0
ARC
  8
0_00
  6
CONTINUOUS
 62
4
 10
1133.6602
 20
722.9728
 40
27.5000
 50
46.4522
 51
133.5347
  0
ARC
  8
0_00
  6
CONTINUOUS
 62
4
 10
1152.4688
 20
742.7597
 40
0.2000
 50
314.9966
 51
406.4522
  0
ARC
  8
0_00
  6
CONTINUOUS
 62
4
 10
1133.6646
 20
722.9728
 40
29.0000
 50
342.4092
 51
557.4880
  0
ARC
  8
0_00
  6
CONTINUOUS
 62
4
 10
1159.8297
 20
730.4974
 40
0.3000
 50
269.9966
 51
397.7109
  0
ARC
  8
0_00
  6
CONTINUOUS
 62
4
 10
1155.2698
 20
729.6977
 40
0.5000
 50
89.9966
 51
179.9966
  0
ARC
  8
0_00
  6
CONTINUOUS
 62
4
 10
1161.0268
 20
714.2973
 40
0.3000
 50
191.5966
 51
352.4829
  0
ARC
  8
0_00
  6
CONTINUOUS
 62
4
 10
1133.6695
 20
722.9728
 40
27.5000
 50
16.2778
 51
43.5273
  0
ARC
  8
0_00
  6
CONTINUOUS
 62
4
 10
1153.4631
 20
741.7743
 40
0.2000
 50
43.5273
 51
134.9966
  0
ARC
  8
0_00
  6
CONTINUOUS
 62
4
 10
1133.6695
 20
722.9728
 40
27.8000
 50
5.4186
 51
12.9400
  0
ARC
  8
0_00
  6
CONTINUOUS
 62
4
 10
1133.6695
 20
722.9728
 40
27.8000
 50
357.9892
 51
362.3198
  0
ARC
  8
0_00
  6
CONTINUOUS
 62
4
 10
1133.6695
 20
722.9728
 40
27.8000
 50
345.9045
 51
353.8558
  0
ARC
  8
0_00
  6
CONTINUOUS
 62
4
 10
1163.5420
 20
715.4718
 40
3.0000
 50
165.9045
 51
191.5966
  0
ARC
  8
0_00
  6
CONTINUOUS
 62
4
 10
1133.6695
 20
722.9728
 40
26.5000
 50
43.9155
 51
46.0777
  0
ARC
  8
0_00
  6
CONTINUOUS
 62
4
 10
1155.7698
 20
729.1898
 40
0.2000
 50
87.7987
 51
179.9966
  0
ARC
  8
0_00
  6
CONTINUOUS
 62
4
 10
1155.1697
 20
728.3977
 40
0.4000
 50
179.9966
 51
359.9966
  0
ARC
  8
0_00
  6
CONTINUOUS
 62
4
 10
1161.3409
 20
724.2980
 40
0.2000
 50
191.6966
 51
269.9966
  0
ARC
  8
0_00
  6
CONTINUOUS
 62
4
 10
1161.1132
 20
725.3979
 40
0.2000
 50
89.9966
 51
191.6966
  0
ARC
  8
0_00
  6
CONTINUOUS
 62
4
 10
1160.3595
 20
721.7010
 40
0.2000
 50
94.9966
 51
195.1357
  0
ARC
  8
13_0D
  6
CONTINUOUS
 62
4
 10
1163.0623
 20
722.4321
 40
3.0000
 50
195.1357
 51
234.2521
  0
ARC
  8
0_00
  6
CONTINUOUS
 62
4
 10
1160.6646
 20
719.6727
 40
0.6000
 50
270.0000
 51
450.0000
  0
ARC
  8
0_00
  6
CONTINUOUS
 62
4
 10
1133.6646
 20
722.9728
 40
29.0000
 50
201.7076
 51
269.4103
  0
ARC
  8
0_00
  6
CONTINUOUS
 62
4
 10
1133.6646
 20
722.9728
 40
29.0000
 50
270.5897
 51
338.2924
  0
ARC
  8
0_00
  6
CONTINUOUS
 62
4
 10
1108.8647
 20
718.4728
 40
0.5000
 50
180.0000
 51
270.0000
  0
ARC
  8
0_00
  6
CONTINUOUS
 62
4
 10
1158.4645
 20
718.4728
 40
0.5000
 50
270.0000
 51
360.0000
  0
ARC
  8
0_00
  6
CONTINUOUS
 62
4
 10
1160.9647
 20
722.4533
 40
0.5000
 50
275.0000
 51
371.6000
  0
ARC
  8
0_00
  6
CONTINUOUS
 62
4
 10
1159.9645
 20
721.9643
 40
1.0000
 50
95.0000
 51
180.0000
  0
ARC
  8
0_00
  6
CONTINUOUS
 62
4
 10
1156.1974
 20
723.2979
 40
5.0000
 50
11.6000
 51
45.0000
  0
ARC
  8
0_00
  6
CONTINUOUS
 62
4
 10
1156.1974
 20
723.2979
 40
4.1000
 50
11.6000
 51
45.0000
  0
ARC
  8
0_00
  6
CONTINUOUS
 62
4
 10
1106.6646
 20
719.6727
 40
0.6000
 50
90.0000
 51
270.0000
  0
ARC
  8
0_00
  6
CONTINUOUS
 62
4
 10
1106.3646
 20
722.4533
 40
0.5000
 50
168.4000
 51
265.0000
  0
ARC
  8
0_00
  6
CONTINUOUS
 62
4
 10
1109.2146
 20
728.5227
 40
0.4500
 50
0.0000
 51
180.0000
  0
ARC
  8
0_00
  6
CONTINUOUS
 62
4
 10
1107.3647
 20
721.9643
 40
1.0000
 50
0.0000
 51
85.0000
  0
ARC
  8
0_00
  6
CONTINUOUS
 62
4
 10
1111.1319
 20
723.2979
 40
5.0000
 50
135.0000
 51
168.4000
  0
ARC
  8
0_00
  6
CONTINUOUS
 62
4
 10
1111.1319
 20
723.2979
 40
4.1000
 50
135.0000
 51
168.4000
  0
ARC
  8
0_00
  6
CONTINUOUS
 62
4
 10
1108.6646
 20
728.0432
 40
1.0000
 50
315.0000
 51
360.0000
  0
ARC
  8
0_00
  6
CONTINUOUS
 62
4
 10
1158.1146
 20
728.5227
 40
0.4500
 50
0.0000
 51
180.0000
  0
ARC
  8
0_00
  6
CONTINUOUS
 62
4
 10
1158.6646
 20
728.0432
 40
1.0000
 50
180.0000
 51
225.0000
  0
ARC
  8
15_0F
  6
CONTINUOUS
 62
4
 10
1133.6646
 20
722.9728
 40
27.9000
 50
202.3023
 51
255.4075
  0
ARC
  8
15_0F
  6
CONTINUOUS
 62
4
 10
1133.6646
 20
722.9728
 40
27.9000
 50
284.5926
 51
337.6978
  0
ARC
  8
15_0F
  6
CONTINUOUS
 62
4
 10
1107.1859
 20
712.4315
 40
0.5000
 50
150.0000
 51
201.7076
  0
ARC
  8
15_0F
  6
CONTINUOUS
 62
4
 10
1160.1435
 20
712.4315
 40
0.5000
 50
338.2924
 51
390.0000
  0
ARC
  8
0_00
  6
CONTINUOUS
 62
2
 10
1115.6646
 20
715.6122
 40
5.1605
 50
39.1846
 51
140.8154
  0
ARC
  8
0_00
  6
CONTINUOUS
 62
2
 10
1151.6646
 20
715.6122
 40
5.1605
 50
39.1846
 51
140.8154
  0
TEXT
  8
0_00
 62
7
 10
97.0000
 20
608.5728
 40
7.50
 41
1.00
 50
90.0000
  1
　　　　１５０、２００、２５０、３００
  0
TEXT
  8
0_00
 62
7
 10
85.0000
 20
597.7728
 40
7.50
 41
1.00
 50
90.0000
  1
Ｈ（トップレール手すり高さ寸法）＝　　　　　
  0
TEXT
  8
0_00
 62
7
 10
450.3305
 20
649.1367
 40
7.50
 41
1.00
 50
0.0000
  1
エンドキャップ厚
  0
TEXT
  8
0_00
 62
7
 10
352.3082
 20
776.6544
 40
7.50
 41
1.00
 50
0.0000
  1
六角ボルト、ナット、ばね座金
  0
TEXT
  8
0_00
 62
7
 10
386.7866
 20
763.7904
 40
7.50
 41
1.00
 50
0.0000
  1
Ｍ８×２０
  0
TEXT
  8
0_00
 62
7
 10
578.8155
 20
668.0802
 40
7.50
 41
1.00
 50
0.0000
  1
ナイロンアンカーφ８
  0
TEXT
  8
0_00
 62
7
 10
566.5103
 20
694.4754
 40
7.50
 41
1.00
 50
0.0000
  1
タッピンねじ・トラス
  0
TEXT
  8
0_00
 62
7
 10
573.7103
 20
682.4754
 40
7.50
 41
1.00
 50
0.0000
  1
φ６×５０（１種）
  0
TEXT
  8
0_00
 62
7
 10
575.2787
 20
654.3967
 40
7.50
 41
1.00
 50
0.0000
  1
（下穴φ８、コーキング処理）
  0
TEXT
  8
0_00
 62
7
 10
799.9223
 20
642.1781
 40
7.50
 41
1.00
 50
0.0000
  1
エンドキャップＢ
  0
TEXT
  8
0_00
 62
7
 10
816.2852
 20
618.3924
 40
7.50
 41
1.00
 50
0.0000
  1
ブラケット
  0
TEXT
  8
0_00
 62
7
 10
757.4311
 20
772.8517
 40
7.50
 41
1.00
 50
0.0000
  1
壁支持金具３
  0
TEXT
  8
0_00
 62
7
 10
459.9341
 20
681.2698
 40
7.50
 41
1.00
 50
0.0000
  1
シーリングワッシャー　
  0
TEXT
  8
15_0F
 62
7
 10
694.5947
 20
821.6647
 40
7.50
 41
1.00
 50
0.0000
  1
［ＫＯＡ型］
  0
TEXT
  8
0_00
 62
2
 10
808.0278
 20
811.6693
 40
12.00
 41
1.00
 50
0.0000
  1
屋外側
  0
TEXT
  8
0_00
 62
2
 10
596.8279
 20
811.6693
 40
12.00
 41
1.00
 50
0.0000
  1
建物側
  0
TEXT
  8
0_00
 62
7
 10
768.2117
 20
752.6169
 40
7.50
 41
1.00
 50
0.0000
  1
コーキング処理
  0
TEXT
  8
0_00
 62
7
 10
828.3508
 20
584.8437
 40
7.50
 41
1.00
 50
0.0000
  1
コーキング処理
  0
TEXT
  8
15_0F
 62
7
 10
931.4315
 20
821.6647
 40
7.50
 41
1.00
 50
0.0000
  1
［ＤＯＡ型］
  0
TEXT
  8
15_0F
 62
7
 10
1111.4315
 20
821.6647
 40
7.50
 41
1.00
 50
0.0000
  1
［ＭＯＡ型］
  0
TEXT
  8
0_00
 62
7
 10
983.1477
 20
763.3351
 40
7.50
 41
1.00
 50
0.0000
  1
壁支持金具３
  0
TEXT
  8
0_00
 62
7
 10
1017.5022
 20
695.1811
 40
7.50
 41
1.00
 50
0.0000
  1
タッピンねじ・トラス
  0
TEXT
  8
0_00
 62
7
 10
1012.0321
 20
681.8961
 40
7.50
 41
1.00
 50
0.0000
  1
φ４×１２Ｄ＝８（２種）
  0
TEXT
  8
0_00
 62
7
 10
1160.1929
 20
757.4054
 40
7.50
 41
1.00
 50
0.0000
  1
Ｍ型壁支持金具
  0
TEXT
  8
15_0F
 62
7
 10
824.1611
 20
70.2000
 40
7.50
 41
1.00
 50
0.0000
  1
１
  0
TEXT
  8
15_0F
 62
7
 10
852.6611
 20
70.2000
 40
7.50
 41
1.00
 50
0.0000
  1
３
  0
TEXT
  8
15_0F
 62
7
 10
704.3110
 20
74.7000
 40
7.50
 41
1.00
 50
0.0000
  1
納まり図
  0
TEXT
  8
15_0F
 62
7
 10
508.1110
 20
41.7000
 40
7.50
 41
1.00
 50
0.0000
  1
ＲＣ造
  0
TEXT
  8
15_0F
 62
7
 10
497.3110
 20
71.7000
 40
7.50
 41
1.00
 50
0.0000
  1
低・中・高層
  0
TEXT
  8
15_0F
 62
7
 10
576.0610
 20
71.7000
 40
7.50
 41
1.00
 50
0.0000
  1
手すり付笠木
  0
TEXT
  8
15_0F
 62
7
 10
551.6610
 20
42.4500
 40
6.00
 41
1.00
 50
0.0000
  1
ＫＯＡ、ＤＯＡ、ＭＯＡ型
  0
TEXT
  8
15_0F
 62
7
 10
639.5110
 20
44.7000
 40
7.50
 41
1.00
 50
0.0000
  1
トップレール手すり［壁付・エンド部］納まり図
  0
TEXT
  8
15_0F
 62
7
 10
201.0905
 20
100.2001
 40
7.50
 41
1.00
 50
0.0000
  1
1）Ｈ、ＬＷ、ＬＥＴ、ＬＥＫは発注寸法とする。
  0
TEXT
  8
15_0F
 62
7
 10
200.5372
 20
84.4527
 40
7.50
 41
1.00
 50
0.0000
  1
　　（躯体寸法発注の場合、ＬＷ、ＬＥＴ、ＬＥＫは標準寸法とする。）
  0
TEXT
  8
15_0F
 62
7
 10
200.5036
 20
68.8701
 40
7.50
 41
1.00
 50
0.0000
  1
２）［　］内寸法は標準寸法とする。
  0
TEXT
  8
0_00
 62
7
 10
97.0000
 20
263.8228
 40
7.50
 41
1.00
 50
90.0000
  1
　　　　１５０、２００、２５０、３００
  0
TEXT
  8
15_0F
 62
7
 10
694.5947
 20
451.9147
 40
7.50
 41
1.00
 50
0.0000
  1
［ＫＯＡ型］
  0
TEXT
  8
0_00
 62
2
 10
616.8279
 20
441.9192
 40
12.00
 41
1.00
 50
0.0000
  1
屋外側
  0
TEXT
  8
0_00
 62
2
 10
788.0279
 20
441.9192
 40
12.00
 41
1.00
 50
0.0000
  1
建物側
  0
TEXT
  8
15_0F
 62
7
 10
931.4315
 20
451.9147
 40
7.50
 41
1.00
 50
0.0000
  1
［ＤＯＡ型］
  0
TEXT
  8
15_0F
 62
7
 10
1111.4315
 20
451.9147
 40
7.50
 41
1.00
 50
0.0000
  1
［ＭＯＡ型］
  0
TEXT
  8
0_00
 62
7
 10
85.0000
 20
253.0227
 40
7.50
 41
1.00
 50
90.0000
  1
Ｈ（トップレール手すり高さ寸法）＝　　　　　
  0
TEXT
  8
0_00
 62
7
 10
317.5161
 20
764.3569
 40
7.50
 41
1.00
 50
0.0000
  1
Ａ
  0
TEXT
  8
0_00
 62
7
 10
317.5161
 20
513.9222
 40
7.50
 41
1.00
 50
0.0000
  1
Ａ
  0
TEXT
  8
0_00
 62
7
 10
473.3666
 20
450.5718
 40
7.50
 41
1.00
 50
0.0000
  1
エンドキャップ厚
  0
TEXT
  8
0_00
 62
7
 10
799.5459
 20
277.8818
 40
7.50
 41
1.00
 50
0.0000
  1
エンドキャップＡ
  0
TEXT
  8
0_00
 62
7
 10
592.9444
 20
412.5431
 40
7.50
 41
1.00
 50
0.0000
  1
Ｋ型笠木エンドキャップ
  0
TEXT
  8
0_00
 62
7
 10
831.1647
 20
412.0612
 40
7.50
 41
1.00
 50
0.0000
  1
Ｄ型笠木エンドキャップ
  0
TEXT
  8
0_00
 62
7
 10
1019.4793
 20
414.3000
 40
7.50
 41
1.00
 50
0.0000
  1
Ｍ型笠木エンドキャップ
  0
TEXT
  8
0_00
 62
7
 10
465.1377
 20
338.5128
 40
7.50
 41
1.00
 50
0.0000
  1
タッピンねじ・トラス
  0
TEXT
  8
0_00
 62
7
 10
459.6677
 20
325.2278
 40
7.50
 41
1.00
 50
0.0000
  1
φ４×１２Ｄ＝８（２種）
  0
TEXT
  8
14_0E
 62
7
 10
201.4905
 20
55.7001
 40
7.50
 41
1.00
 50
0.0000
  1
３）※注１Ａ寸法は、ＲＣ造の場合：５０≦Ａ≦６０、
  0
TEXT
  8
14_0E
 62
7
 10
201.1697
 20
41.5293
 40
7.50
 41
1.00
 50
0.0000
  1
　　　　　　　　　　鉄骨造の場合：４４≦Ａ≦６０とする。
  0
TEXT
  8
0_00
 62
7
 10
744.8365
 20
512.8731
 40
7.50
 41
1.00
 50
0.0000
  1
タッピンねじ・トラスφ５×５０（１種）
  0
TEXT
  8
0_00
 62
7
 10
751.8631
 20
494.3964
 40
7.50
 41
1.00
 50
0.0000
  1
ナイロンアンカーφ６（下穴φ６、コーキング処理）
  0
TEXT
  8
0_00
 62
7
 10
70.2905
 20
40.2001
 40
7.50
 41
1.00
 50
0.0000
  1
適用製品
  0
TEXT
  8
0_00
 62
7
 10
130.2905
 20
40.2001
 40
7.50
 41
1.00
 50
0.0000
  1
適用日付
  0
TEXT
  8
0_00
 62
7
 10
178.5905
 20
100.2001
 40
7.50
 41
1.00
 50
0.0000
  1
記事
  0
TEXT
  8
0_00
 62
7
 10
472.5611
 20
85.2001
 40
7.50
 41
1.00
 50
0.0000
  1
階層仕様
  0
TEXT
  8
0_00
 62
7
 10
472.5611
 20
55.2000
 40
7.50
 41
1.00
 50
0.0000
  1
適用躯体
  0
TEXT
  8
0_00
 62
7
 10
630.0610
 20
85.2001
 40
7.50
 41
1.00
 50
0.0000
  1
名　称
  0
TEXT
  8
0_00
 62
7
 10
630.0610
 20
55.2000
 40
7.50
 41
1.00
 50
0.0000
  1
図　名
  0
TEXT
  8
0_00
 62
7
 10
814.9368
 20
100.2458
 40
7.50
 41
1.00
 50
0.0000
  1
Ｎｏ．
  0
TEXT
  8
0_00
 62
7
 10
1123.5610
 20
100.2001
 40
7.50
 41
1.00
 50
0.0000
  1
適　　　　　　　　用
  0
TEXT
  8
0_00
 62
7
 10
1078.4111
 20
100.2001
 40
7.50
 41
1.00
 50
0.0000
  1
個数
  0
TEXT
  8
0_00
 62
7
 10
1023.2110
 20
100.2001
 40
7.50
 41
1.00
 50
0.0000
  1
材　　質
  0
TEXT
  8
0_00
 62
7
 10
926.1610
 20
100.2001
 40
7.50
 41
1.00
 50
0.0000
  1
部　　　品　　　名
  0
TEXT
  8
0_00
 62
7
 10
895.9360
 20
100.2001
 40
7.50
 41
1.00
 50
0.0000
  1
品番
  0
TEXT
  8
0_00
 62
7
 10
850.8611
 20
100.2001
 40
7.50
 41
1.00
 50
0.0000
  1
図　　番
  0
TEXT
  8
0_00
 62
7
 10
816.6610
 20
85.2001
 40
7.50
 41
1.00
 50
0.0000
  1
尺度
  0
TEXT
  8
0_00
 62
7
 10
816.6610
 20
55.2000
 40
7.50
 41
1.00
 50
0.0000
  1
日付
  0
TEXT
  8
0_00
 62
7
 10
928.3942
 20
85.2001
 40
7.50
 41
1.00
 50
0.0000
  1
承認
  0
TEXT
  8
0_00
 62
7
 10
970.5611
 20
85.2001
 40
7.50
 41
1.00
 50
0.0000
  1
検図
  0
TEXT
  8
0_00
 62
7
 10
1006.8610
 20
85.2001
 40
7.50
 41
1.00
 50
0.0000
  1
設計
  0
TEXT
  8
0_00
 62
7
 10
1044.2110
 20
85.2001
 40
7.50
 41
1.00
 50
0.0000
  1
製図
  0
TEXT
  8
0_00
 62
7
 10
1074.5110
 20
55.2000
 40
7.50
 41
1.00
 50
0.0000
  1
図番
  0
TEXT
  8
0_00
 62
2
 10
1103.9219
 20
74.2350
 40
12.00
 41
1.00
 50
0.0000
  1
文化シヤッター株式会社
  0
TEXT
  8
0_00
 62
7
 10
200.7905
 20
862.9501
 40
7.50
 41
1.00
 50
180.0000
  1
図番
  0
TEXT
  8
0_00
 62
7
 10
799.0510
 20
854.0169
 40
6.00
 41
1.00
 50
0.0000
  1
ＮＯ
  0
TEXT
  8
0_00
 62
7
 10
825.2111
 20
853.9501
 40
7.50
 41
1.00
 50
0.0000
  1
個　数
  0
TEXT
  8
0_00
 62
7
 10
870.3611
 20
853.9501
 40
7.50
 41
1.00
 50
0.0000
  1
日　　付
  0
TEXT
  8
0_00
 62
7
 10
984.2111
 20
853.9501
 40
7.50
 41
1.00
 50
0.0000
  1
訂　　　正　　　記　　　事
  0
TEXT
  8
0_00
 62
7
 10
838.4111
 20
70.2000
 40
6.75
 41
0.75
 50
0.0000
  1
:
  0
TEXT
  8
0_00
 62
7
 10
1137.8712
 20
26.7000
 40
6.00
 41
1.00
 50
0.0000
  1
ＪＩＳ　Ａ－３
  0
TEXT
  8
0_00
 62
7
 10
1179.4986
 20
26.6983
 40
6.00
 41
1.00
 50
0.0000
  1
（２９７×４２０）
  0
TEXT
  8
0_00
 62
7
 10
1153.1111
 20
853.9501
 40
7.50
 41
1.00
 50
0.0000
  1
担　当
  0
TEXT
  8
0_00
 62
7
 10
1189.1111
 20
853.9501
 40
7.50
 41
1.00
 50
0.0000
  1
承　認
  0
TEXT
  8
0_00
 62
7
 10
551.3111
 20
85.2001
 40
7.50
 41
1.00
 50
0.0000
  1
機種名
  0
TEXT
  8
0_00
 62
7
 10
551.3111
 20
55.2000
 40
7.50
 41
1.00
 50
0.0000
  1
型　式
  0
TEXT
  8
0_00
 62
7
 10
319.5519
 20
823.0000
 40
7.50
 41
1.00
 50
0.0000
  1
１６０≦ＬＷ（壁付スパン寸法）［２００］≦４５５
  0
TEXT
  8
0_00
 62
7
 10
450.6519
 20
803.0000
 40
6.75
 41
0.75
 50
0.0000
  1
27.5
  0
TEXT
  8
0_00
 62
7
 10
529.9520
 20
803.0000
 40
6.75
 41
0.75
 50
0.0000
  1
5
  0
TEXT
  8
0_00
 62
7
 10
617.0000
 20
763.3187
 40
6.75
 41
0.75
 50
90.0000
  1
23.5
  0
TEXT
  8
0_00
 62
7
 10
117.0000
 20
721.2727
 40
6.75
 41
0.75
 50
90.0000
  1
47
  0
TEXT
  8
0_00
 62
7
 10
709.6279
 20
793.0000
 40
6.75
 41
0.75
 50
0.0000
  1
60
  0
TEXT
  8
0_00
 62
7
 10
471.4520
 20
513.0000
 40
7.50
 41
1.00
 50
0.0000
  1
※注１　Ａ
  0
TEXT
  8
0_00
 62
7
 10
485.3519
 20
638.0000
 40
6.75
 41
0.75
 50
0.0000
  1
1.5
  0
TEXT
  8
0_00
 62
7
 10
540.3668
 20
638.0000
 40
6.75
 41
0.75
 50
0.0000
  1
3.5
  0
TEXT
  8
0_00
 62
7
 10
857.0001
 20
726.2180
 40
6.75
 41
0.75
 50
90.0000
  1
37
  0
TEXT
  8
0_00
 62
7
 10
876.9999
 20
760.9728
 40
6.75
 41
0.75
 50
90.0000
  1
13.5
  0
TEXT
  8
0_00
 62
7
 10
946.4646
 20
793.0000
 40
6.75
 41
0.75
 50
0.0000
  1
80
  0
TEXT
  8
0_00
 62
7
 10
1056.9999
 20
760.9728
 40
6.75
 41
0.75
 50
90.0000
  1
21.5
  0
TEXT
  8
0_00
 62
7
 10
1122.8646
 20
793.0000
 40
6.75
 41
0.75
 50
0.0000
  1
φ58
  0
TEXT
  8
0_00
 62
7
 10
117.0000
 20
376.5227
 40
6.75
 41
0.75
 50
90.0000
  1
47
  0
TEXT
  8
0_00
 62
7
 10
466.4519
 20
168.2500
 40
7.50
 41
1.00
 50
0.0000
  1
※注１　Ａ
  0
TEXT
  8
0_00
 62
7
 10
138.7677
 20
511.3727
 40
7.50
 41
1.00
 50
0.0000
  1
外観姿図
  0
TEXT
  8
0_00
 62
7
 10
138.7677
 20
166.6227
 40
7.50
 41
1.00
 50
0.0000
  1
外観姿図
  0
TEXT
  8
0_00
 62
7
 10
576.5366
 20
511.3727
 40
7.50
 41
1.00
 50
0.0000
  1
Ａ－Ａ矢視図
  0
TEXT
  8
0_00
 62
7
 10
287.7020
 20
458.0000
 40
7.50
 41
1.00
 50
0.0000
  1
８０≦ＬＥＴ（手すりエンド寸法）［１２０］≦２５０
  0
TEXT
  8
0_00
 62
7
 10
473.4520
 20
438.0000
 40
6.75
 41
0.75
 50
0.0000
  1
3.5
  0
TEXT
  8
0_00
 62
7
 10
310.9520
 20
143.0000
 40
7.50
 41
1.00
 50
0.0000
  1
１１０≦ＬＥＫ（笠木エンド寸法）［２００］≦４５５
  0
POINT
  8
0_00
 62
2
 10
517.4520
 20
593.5004
  0
POINT
  8
0_00
 62
2
 10
454.9520
 20
589.6004
  0
POINT
  8
0_00
 62
2
 10
457.9520
 20
584.1004
  0
POINT
  8
0_00
 62
2
 10
716.8279
 20
587.4728
  0
POINT
  8
0_00
 62
5
 10
716.8279
 20
581.9728
  0
POINT
  8
0_00
 62
5
 10
716.8069
 20
728.5053
  0
POINT
  8
0_00
 62
2
 10
512.9519
 20
728.4727
  0
POINT
  8
0_00
 62
5
 10
520.9520
 20
709.9727
  0
POINT
  8
0_00
 62
2
 10
514.9520
 20
728.4727
  0
POINT
  8
0_00
 62
5
 10
953.6437
 20
738.2493
  0
POINT
  8
0_00
 62
5
 10
1133.6646
 20
751.9728
  0
POINT
  8
0_00
 62
5
 10
1133.6646
 20
751.9728
  0
POINT
  8
0_00
 62
2
 10
1129.2416
 20
751.6335
  0
POINT
  8
0_00
 62
2
 10
1106.6321
 20
712.4728
  0
POINT
  8
0_00
 62
2
 10
454.9520
 20
244.8504
  0
POINT
  8
0_00
 62
2
 10
457.9520
 20
239.3504
  0
POINT
  8
0_00
 62
2
 10
716.8279
 20
581.9728
  0
POINT
  8
0_00
 62
2
 10
24.0905
 20
14.9991
  0
POINT
  8
0_00
 62
2
 10
24.0905
 20
14.9991
  0
POINT
  8
0_00
 62
2
 10
84.6905
 20
59.7001
  0
POINT
  8
0_00
 62
2
 10
84.6905
 20
74.7001
  0
POINT
  8
0_00
 62
2
 10
84.6905
 20
89.7001
  0
POINT
  8
0_00
 62
2
 10
84.6905
 20
104.7001
  0
POINT
  8
0_00
 62
2
 10
518.9110
 20
76.2000
  0
POINT
  8
0_00
 62
2
 10
518.9110
 20
46.2000
  0
POINT
  8
0_00
 62
2
 10
718.7110
 20
79.2000
  0
POINT
  8
0_00
 62
2
 10
718.7110
 20
49.2000
  0
POINT
  8
0_00
 62
2
 10
1097.7610
 20
52.2000
  0
POINT
  8
0_00
 62
2
 10
1014.0610
 20
59.7001
  0
POINT
  8
0_00
 62
2
 10
144.6905
 20
59.7001
  0
POINT
  8
0_00
 62
2
 10
144.6905
 20
74.7001
  0
POINT
  8
0_00
 62
2
 10
144.6905
 20
89.7001
  0
POINT
  8
0_00
 62
2
 10
144.6905
 20
104.7001
  0
POINT
  8
0_00
 62
2
 10
856.2610
 20
74.7000
  0
POINT
  8
0_00
 62
2
 10
827.7610
 20
74.7000
  0
POINT
  8
0_00
 62
2
 10
204.6905
 20
104.7001
  0
POINT
  8
0_00
 62
2
 10
204.6905
 20
89.7001
  0
POINT
  8
0_00
 62
2
 10
204.6905
 20
74.7001
  0
POINT
  8
0_00
 62
2
 10
204.6905
 20
59.7001
  0
POINT
  8
0_00
 62
2
 10
204.6905
 20
44.7001
  0
POINT
  8
0_00
 62
2
 10
1051.4110
 20
59.7001
  0
POINT
  8
0_00
 62
2
 10
84.6905
 20
44.7001
  0
POINT
  8
0_00
 62
2
 10
144.6905
 20
44.7001
  0
POINT
  8
0_00
 62
2
 10
174.6905
 20
858.4501
  0
POINT
  8
0_00
 62
2
 10
862.6360
 20
49.2000
  0
POINT
  8
0_00
 62
2
 10
597.6610
 20
76.2000
  0
POINT
  8
0_00
 62
2
 10
597.6610
 20
46.2000
  0
POINT
  8
0_00
 62
6
 10
515.9520
 20
800.0000
  0
POINT
  8
0_00
 62
6
 10
517.4520
 20
635.0000
  0
POINT
  8
0_00
 62
5
 10
716.7743
 20
728.4844
  0
POINT
  8
0_00
 62
5
 10
953.6111
 20
738.2283
  0
POINT
  8
0_00
 62
2
 10
1133.6646
 20
730.4728
  0
POINT
  8
0_00
 62
2
 10
1115.6646
 20
718.4728
  0
POINT
  8
0_00
 62
2
 10
1151.6646
 20
718.4728
  0
ENDSEC
  0
EOF
