999
  
  0
SECTION
  2
HEADER
  9
$EXTMIN
 10
0
 20
0
  9
$EXTMAX
 10
1260
 20
888
  9
$LTSCALE
 40
3.00
  9
$PDMODE
 70
33
  9
$PDSIZE
 40
1.80
  0
ENDSEC
  0
SECTION
  2
TABLES
  0
TABLE
  2
LTYPE
 70
9
  0
LTYPE
  2
CONTINUOUS
 70
64
  3
実線
 72
65
 73
0
 40
0.00
  0
LTYPE
  2
DASHED
 70
64
  3
__  __  __  __  __  __  __ 
 72
65
 73
2
 40
1.00
 49
0.50
 49
-0.50
  0
LTYPE
  2
HIDDEN1
 70
64
  3
____    ____    ____    ___
 72
65
 73
2
 40
2.20
 49
1.20
 49
-1.00
  0
LTYPE
  2
HIDDEN2
 70
64
  3
______  ______  ______  ___
 72
65
 73
2
 40
4.50
 49
3.50
 49
-1.00
  0
LTYPE
  2
CENTER1
 70
64
  3
_______ _ _______ _ _______
 72
65
 73
4
 40
20.00
 49
17.00
 49
-1.00
 49
1.00
 49
-1.00
  0
LTYPE
  2
CENTER2
 70
64
  3
___________  __  __________
 72
65
 73
4
 40
40.00
 49
34.00
 49
-2.00
 49
2.00
 49
-2.00
  0
LTYPE
  2
PHANTOM1
 70
64
  3
______ _ _ ______ _ _ _____
 72
65
 73
6
 40
20.00
 49
15.00
 49
-1.00
 49
1.00
 49
-1.00
 49
1.00
 49
-1.00
  0
LTYPE
  2
PHANTOM2
 70
64
  3
__________  _  _  _________
 72
65
 73
6
 40
40.00
 49
30.00
 49
-2.00
 49
2.00
 49
-2.00
 49
2.00
 49
-2.00
  0
LTYPE
  2
DOT
 70
64
  3
 .  .  .  .  .  .  .  .  . 
 72
65
 73
2
 40
1.00
 49
0.00
 49
-1.00
  0
ENDTAB
  0
TABLE
  2
STYLE
 70
1
  0
STYLE
  2
STANDARD
 70
64
 40
0.0
 41
1.0
 42
0.0
 50
0.0
 71
0
  3
ROMANS
  4
BIGFONT
  0
ENDTAB
  0
TABLE
  2
LAYER
 70
9
  0
LAYER
  2
0_00
 70
64
 62
7
  6
CONTINUOUS
  0
LAYER
  2
2_02
 70
64
 62
7
  6
CONTINUOUS
  0
LAYER
  2
3_03
 70
64
 62
7
  6
CONTINUOUS
  0
LAYER
  2
6_06
 70
64
 62
7
  6
CONTINUOUS
  0
LAYER
  2
11_0B
 70
64
 62
7
  6
CONTINUOUS
  0
LAYER
  2
12_0C
 70
64
 62
7
  6
CONTINUOUS
  0
LAYER
  2
13_0D
 70
64
 62
7
  6
CONTINUOUS
  0
LAYER
  2
14_0E
 70
64
 62
7
  6
CONTINUOUS
  0
LAYER
  2
15_0F
 70
64
 62
7
  6
CONTINUOUS
  0
ENDTAB
  0
ENDSEC
  0
SECTION
  2
ENTITIES
  0
LINE
  8
0_00
  6
CENTER1
 62
6
 10
321.2032
 20
753.0111
 11
321.2032
 21
216.7884
  0
LINE
  8
0_00
  6
CENTER1
 62
6
 10
553.9356
 20
320.0623
 11
1145.7427
 21
320.0623
  0
LINE
  8
0_00
  6
CENTER1
 62
6
 10
660.0549
 20
425.8169
 11
660.0549
 21
214.9646
  0
LINE
  8
0_00
  6
CENTER1
 62
6
 10
1020.0549
 20
389.5876
 11
1020.0549
 21
250.1805
  0
LINE
  8
0_00
  6
CONTINUOUS
 62
4
 10
1136.2301
 20
342.5623
 11
1040.0550
 21
342.5623
  0
LINE
  8
0_00
  6
CONTINUOUS
 62
4
 10
1136.2301
 20
297.5623
 11
1040.0550
 21
297.5623
  0
LINE
  8
0_00
  6
CONTINUOUS
 62
4
 10
1136.2301
 20
332.7623
 11
1040.0550
 21
332.7623
  0
LINE
  8
0_00
  6
CONTINUOUS
 62
4
 10
1136.2301
 20
307.3623
 11
1040.0550
 21
307.3623
  0
LINE
  8
0_00
  6
CONTINUOUS
 62
4
 10
1136.2301
 20
332.3623
 11
1118.5523
 21
332.3623
  0
LINE
  8
0_00
  6
CONTINUOUS
 62
4
 10
1105.5574
 20
332.3623
 11
1040.0550
 21
332.3623
  0
LINE
  8
0_00
  6
CONTINUOUS
 62
4
 10
1000.0550
 20
332.3623
 11
934.5524
 21
332.3623
  0
LINE
  8
0_00
  6
CONTINUOUS
 62
4
 10
1136.2301
 20
307.7623
 11
1118.5523
 21
307.7623
  0
LINE
  8
0_00
  6
CONTINUOUS
 62
4
 10
1105.5574
 20
307.7623
 11
1040.0550
 21
307.7623
  0
LINE
  8
0_00
  6
CONTINUOUS
 62
4
 10
1000.0550
 20
307.7623
 11
934.5524
 21
307.7623
  0
LINE
  8
0_00
  6
CENTER1
 62
6
 10
928.0550
 20
346.7581
 11
928.0550
 21
293.1417
  0
LINE
  8
0_00
  6
CENTER1
 62
6
 10
1112.0549
 20
346.7581
 11
1112.0549
 21
293.1417
  0
LINE
  8
0_00
  6
CONTINUOUS
 62
2
 10
1038.0549
 20
322.0623
 11
1036.8749
 21
322.0623
  0
LINE
  8
12_0C
  6
CONTINUOUS
 62
2
 10
1038.0549
 20
321.5123
 11
1032.0549
 21
321.5123
  0
LINE
  8
12_0C
  6
CONTINUOUS
 62
2
 10
1032.0549
 20
321.5123
 11
1032.0549
 21
318.6124
  0
LINE
  8
12_0C
  6
CONTINUOUS
 62
2
 10
1036.8749
 20
322.0623
 11
1032.0549
 21
321.5123
  0
LINE
  8
0_00
  6
CONTINUOUS
 62
2
 10
1038.0549
 20
318.0623
 11
1036.8749
 21
318.0623
  0
LINE
  8
12_0C
  6
CONTINUOUS
 62
2
 10
1038.0549
 20
318.6124
 11
1032.0549
 21
318.6124
  0
LINE
  8
12_0C
  6
CONTINUOUS
 62
2
 10
1036.8749
 20
318.0623
 11
1032.0549
 21
318.6124
  0
LINE
  8
0_00
  6
CONTINUOUS
 62
2
 10
1002.0549
 20
322.0623
 11
1003.2350
 21
322.0623
  0
LINE
  8
12_0C
  6
CONTINUOUS
 62
2
 10
1002.0549
 20
321.5123
 11
1008.0549
 21
321.5123
  0
LINE
  8
12_0C
  6
CONTINUOUS
 62
2
 10
1008.0549
 20
321.5123
 11
1008.0549
 21
318.6124
  0
LINE
  8
12_0C
  6
CONTINUOUS
 62
2
 10
1003.2350
 20
322.0623
 11
1008.0549
 21
321.5123
  0
LINE
  8
0_00
  6
CONTINUOUS
 62
2
 10
1002.0549
 20
318.0623
 11
1003.2350
 21
318.0623
  0
LINE
  8
12_0C
  6
CONTINUOUS
 62
2
 10
1002.0549
 20
318.6124
 11
1008.0549
 21
318.6124
  0
LINE
  8
12_0C
  6
CONTINUOUS
 62
2
 10
1003.2350
 20
318.0623
 11
1008.0549
 21
318.6124
  0
LINE
  8
14_0E
  6
CENTER1
 62
6
 10
1077.8302
 20
338.0623
 11
1062.8134
 21
338.0623
  0
LINE
  8
14_0E
  6
CENTER1
 62
6
 10
1077.8302
 20
302.0623
 11
1062.8134
 21
302.0623
  0
LINE
  8
14_0E
  6
CENTER1
 62
6
 10
1070.0549
 20
345.2593
 11
1070.0549
 21
332.3623
  0
LINE
  8
14_0E
  6
CENTER1
 62
6
 10
1070.0549
 20
307.7623
 11
1070.0549
 21
293.0655
  0
LINE
  8
14_0E
  6
CENTER1
 62
6
 10
962.2797
 20
338.0623
 11
977.2964
 21
338.0623
  0
LINE
  8
14_0E
  6
CENTER1
 62
6
 10
962.2797
 20
302.0623
 11
977.2964
 21
302.0623
  0
LINE
  8
14_0E
  6
CENTER1
 62
6
 10
970.0549
 20
345.2593
 11
970.0549
 21
332.3623
  0
LINE
  8
14_0E
  6
CENTER1
 62
6
 10
970.0549
 20
307.7623
 11
970.0549
 21
293.0655
  0
LINE
  8
0_00
  6
CONTINUOUS
 62
4
 10
1002.0549
 20
317.5623
 11
1002.0549
 21
322.5623
  0
LINE
  8
0_00
  6
CONTINUOUS
 62
4
 10
1019.7549
 20
295.0623
 11
1002.5549
 21
295.0623
  0
LINE
  8
0_00
  6
CONTINUOUS
 62
4
 10
1001.2549
 20
305.3521
 11
1001.2549
 21
316.7623
  0
LINE
  8
0_00
  6
CONTINUOUS
 62
4
 10
1001.2549
 20
316.7623
 11
1002.0549
 21
317.5623
  0
LINE
  8
0_00
  6
CONTINUOUS
 62
4
 10
1001.8549
 20
297.0623
 11
1010.5550
 21
297.0623
  0
LINE
  8
0_00
  6
CONTINUOUS
 62
4
 10
1029.5549
 20
297.0623
 11
1038.2549
 21
297.0623
  0
LINE
  8
0_00
  6
CONTINUOUS
 62
4
 10
1038.8550
 20
305.3521
 11
1038.8550
 21
316.7623
  0
LINE
  8
0_00
  6
CONTINUOUS
 62
4
 10
1038.8550
 20
316.7623
 11
1038.0549
 21
317.5623
  0
LINE
  8
0_00
  6
CONTINUOUS
 62
4
 10
1038.0549
 20
322.5623
 11
1038.0549
 21
317.5623
  0
LINE
  8
0_00
  6
CONTINUOUS
 62
4
 10
1000.0550
 20
297.5623
 11
1000.0550
 21
319.7623
  0
LINE
  8
0_00
  6
CONTINUOUS
 62
4
 10
1000.0550
 20
320.3623
 11
1000.0550
 21
342.5623
  0
LINE
  8
0_00
  6
CONTINUOUS
 62
4
 10
1040.0550
 20
297.5623
 11
1040.0550
 21
319.7623
  0
LINE
  8
0_00
  6
CONTINUOUS
 62
4
 10
1040.0550
 20
320.3623
 11
1040.0550
 21
342.5623
  0
LINE
  8
0_00
  6
CONTINUOUS
 62
4
 10
1005.4049
 20
300.8268
 11
1005.4049
 21
299.7257
  0
LINE
  8
0_00
  6
CONTINUOUS
 62
4
 10
1002.7549
 20
300.0667
 11
1002.7549
 21
300.5623
  0
LINE
  8
0_00
  6
CONTINUOUS
 62
4
 10
1004.3549
 20
300.0667
 11
1004.3549
 21
300.5623
  0
LINE
  8
0_00
  6
CONTINUOUS
 62
4
 10
1001.4049
 20
301.3406
 11
1001.4049
 21
302.7840
  0
LINE
  8
0_00
  6
CONTINUOUS
 62
4
 10
1002.0827
 20
301.2123
 11
1001.8549
 21
301.0808
  0
LINE
  8
0_00
  6
CONTINUOUS
 62
4
 10
1005.4049
 20
303.2978
 11
1005.4049
 21
304.3990
  0
LINE
  8
0_00
  6
CONTINUOUS
 62
4
 10
1002.7549
 20
304.0579
 11
1002.7549
 21
303.5623
  0
LINE
  8
0_00
  6
CONTINUOUS
 62
4
 10
1004.3549
 20
304.0579
 11
1004.3549
 21
303.5623
  0
LINE
  8
0_00
  6
CONTINUOUS
 62
4
 10
1002.0827
 20
302.9123
 11
1001.8549
 21
303.0438
  0
LINE
  8
0_00
  6
CONTINUOUS
 62
4
 10
1034.7049
 20
300.8268
 11
1034.7049
 21
299.7257
  0
LINE
  8
0_00
  6
CONTINUOUS
 62
4
 10
1037.3550
 20
300.0667
 11
1037.3550
 21
300.5623
  0
LINE
  8
0_00
  6
CONTINUOUS
 62
4
 10
1035.7549
 20
300.0667
 11
1035.7549
 21
300.5623
  0
LINE
  8
0_00
  6
CONTINUOUS
 62
4
 10
1038.7050
 20
301.3406
 11
1038.7050
 21
302.7840
  0
LINE
  8
0_00
  6
CONTINUOUS
 62
4
 10
1038.0271
 20
301.2123
 11
1038.2549
 21
301.0808
  0
LINE
  8
0_00
  6
CONTINUOUS
 62
4
 10
1034.7049
 20
303.2978
 11
1034.7049
 21
304.3990
  0
LINE
  8
0_00
  6
CONTINUOUS
 62
4
 10
1037.3550
 20
304.0579
 11
1037.3550
 21
303.5623
  0
LINE
  8
0_00
  6
CONTINUOUS
 62
4
 10
1035.7549
 20
304.0579
 11
1035.7549
 21
303.5623
  0
LINE
  8
0_00
  6
CONTINUOUS
 62
4
 10
1038.0271
 20
302.9123
 11
1038.2549
 21
303.0438
  0
LINE
  8
0_00
  6
CONTINUOUS
 62
4
 10
1001.3549
 20
298.7198
 11
1001.3549
 21
297.5623
  0
LINE
  8
0_00
  6
CONTINUOUS
 62
4
 10
1038.7549
 20
298.7198
 11
1038.7549
 21
297.5623
  0
LINE
  8
0_00
  6
CONTINUOUS
 62
4
 10
1016.7549
 20
296.3623
 11
1011.3549
 21
296.3623
  0
LINE
  8
0_00
  6
CONTINUOUS
 62
4
 10
1010.5550
 20
297.0623
 11
1011.3549
 21
296.3623
  0
LINE
  8
0_00
  6
CONTINUOUS
 62
4
 10
1016.7549
 20
296.3623
 11
1017.5550
 21
297.0623
  0
LINE
  8
0_00
  6
CONTINUOUS
 62
4
 10
1023.3549
 20
296.3623
 11
1028.7548
 21
296.3623
  0
LINE
  8
0_00
  6
CONTINUOUS
 62
4
 10
1029.5549
 20
297.0623
 11
1028.7548
 21
296.3623
  0
LINE
  8
0_00
  6
CONTINUOUS
 62
4
 10
1023.3549
 20
296.3623
 11
1022.5550
 21
297.0623
  0
LINE
  8
0_00
  6
CONTINUOUS
 62
4
 10
1022.5550
 20
297.0623
 11
1017.5550
 21
297.0623
  0
LINE
  8
0_00
  6
CONTINUOUS
 62
4
 10
1020.3549
 20
295.0623
 11
1020.0549
 21
295.3624
  0
LINE
  8
0_00
  6
CONTINUOUS
 62
4
 10
1019.7549
 20
295.0623
 11
1020.0549
 21
295.3624
  0
LINE
  8
0_00
  6
CONTINUOUS
 62
4
 10
1040.0550
 20
320.3623
 11
1039.7549
 21
320.0623
  0
LINE
  8
0_00
  6
CONTINUOUS
 62
4
 10
1040.0550
 20
319.7623
 11
1039.7549
 21
320.0623
  0
LINE
  8
0_00
  6
CONTINUOUS
 62
4
 10
1000.0550
 20
320.3623
 11
1000.3549
 21
320.0623
  0
LINE
  8
0_00
  6
CONTINUOUS
 62
4
 10
1000.0550
 20
319.7623
 11
1000.3549
 21
320.0623
  0
LINE
  8
0_00
  6
CONTINUOUS
 62
4
 10
1037.5549
 20
295.0623
 11
1020.3549
 21
295.0623
  0
LINE
  8
0_00
  6
CONTINUOUS
 62
4
 10
1019.7549
 20
345.0623
 11
1002.5549
 21
345.0623
  0
LINE
  8
0_00
  6
CONTINUOUS
 62
4
 10
1001.2549
 20
334.7726
 11
1001.2549
 21
323.3623
  0
LINE
  8
0_00
  6
CONTINUOUS
 62
4
 10
1001.2549
 20
323.3623
 11
1002.0549
 21
322.5623
  0
LINE
  8
0_00
  6
CONTINUOUS
 62
4
 10
1001.8549
 20
343.0623
 11
1010.5550
 21
343.0623
  0
LINE
  8
0_00
  6
CONTINUOUS
 62
4
 10
1029.5549
 20
343.0623
 11
1038.2549
 21
343.0623
  0
LINE
  8
0_00
  6
CONTINUOUS
 62
4
 10
1038.8550
 20
334.7726
 11
1038.8550
 21
323.3623
  0
LINE
  8
0_00
  6
CONTINUOUS
 62
4
 10
1038.8550
 20
323.3623
 11
1038.0549
 21
322.5623
  0
LINE
  8
0_00
  6
CONTINUOUS
 62
4
 10
1005.4049
 20
339.2979
 11
1005.4049
 21
340.3990
  0
LINE
  8
0_00
  6
CONTINUOUS
 62
4
 10
1002.7549
 20
340.0580
 11
1002.7549
 21
339.5623
  0
LINE
  8
0_00
  6
CONTINUOUS
 62
4
 10
1004.3549
 20
340.0580
 11
1004.3549
 21
339.5623
  0
LINE
  8
0_00
  6
CONTINUOUS
 62
4
 10
1001.4049
 20
338.7840
 11
1001.4049
 21
337.3406
  0
LINE
  8
0_00
  6
CONTINUOUS
 62
4
 10
1002.0827
 20
338.9123
 11
1001.8549
 21
339.0438
  0
LINE
  8
0_00
  6
CONTINUOUS
 62
4
 10
1005.4049
 20
336.8268
 11
1005.4049
 21
335.7257
  0
LINE
  8
0_00
  6
CONTINUOUS
 62
4
 10
1002.7549
 20
336.0667
 11
1002.7549
 21
336.5623
  0
LINE
  8
0_00
  6
CONTINUOUS
 62
4
 10
1004.3549
 20
336.0667
 11
1004.3549
 21
336.5623
  0
LINE
  8
0_00
  6
CONTINUOUS
 62
4
 10
1002.0827
 20
337.2123
 11
1001.8549
 21
337.0808
  0
LINE
  8
0_00
  6
CONTINUOUS
 62
4
 10
1034.7049
 20
339.2979
 11
1034.7049
 21
340.3990
  0
LINE
  8
0_00
  6
CONTINUOUS
 62
4
 10
1037.3550
 20
340.0580
 11
1037.3550
 21
339.5623
  0
LINE
  8
0_00
  6
CONTINUOUS
 62
4
 10
1035.7549
 20
340.0580
 11
1035.7549
 21
339.5623
  0
LINE
  8
0_00
  6
CONTINUOUS
 62
4
 10
1038.7050
 20
338.7840
 11
1038.7050
 21
337.3406
  0
LINE
  8
0_00
  6
CONTINUOUS
 62
4
 10
1038.0271
 20
338.9123
 11
1038.2549
 21
339.0438
  0
LINE
  8
0_00
  6
CONTINUOUS
 62
4
 10
1034.7049
 20
336.8268
 11
1034.7049
 21
335.7257
  0
LINE
  8
0_00
  6
CONTINUOUS
 62
4
 10
1037.3550
 20
336.0667
 11
1037.3550
 21
336.5623
  0
LINE
  8
0_00
  6
CONTINUOUS
 62
4
 10
1035.7549
 20
336.0667
 11
1035.7549
 21
336.5623
  0
LINE
  8
0_00
  6
CONTINUOUS
 62
4
 10
1038.0271
 20
337.2123
 11
1038.2549
 21
337.0808
  0
LINE
  8
0_00
  6
CONTINUOUS
 62
4
 10
1001.3549
 20
341.4049
 11
1001.3549
 21
342.5623
  0
LINE
  8
0_00
  6
CONTINUOUS
 62
4
 10
1038.7549
 20
341.4049
 11
1038.7549
 21
342.5623
  0
LINE
  8
0_00
  6
CONTINUOUS
 62
4
 10
1016.7549
 20
343.7623
 11
1011.3549
 21
343.7623
  0
LINE
  8
0_00
  6
CONTINUOUS
 62
4
 10
1010.5550
 20
343.0623
 11
1011.3549
 21
343.7623
  0
LINE
  8
0_00
  6
CONTINUOUS
 62
4
 10
1016.7549
 20
343.7623
 11
1017.5550
 21
343.0623
  0
LINE
  8
0_00
  6
CONTINUOUS
 62
4
 10
1023.3549
 20
343.7623
 11
1028.7548
 21
343.7623
  0
LINE
  8
0_00
  6
CONTINUOUS
 62
4
 10
1029.5549
 20
343.0623
 11
1028.7548
 21
343.7623
  0
LINE
  8
0_00
  6
CONTINUOUS
 62
4
 10
1023.3549
 20
343.7623
 11
1022.5550
 21
343.0623
  0
LINE
  8
0_00
  6
CONTINUOUS
 62
4
 10
1022.5550
 20
343.0623
 11
1017.5550
 21
343.0623
  0
LINE
  8
0_00
  6
CONTINUOUS
 62
4
 10
1020.3549
 20
345.0623
 11
1020.0549
 21
344.7623
  0
LINE
  8
0_00
  6
CONTINUOUS
 62
4
 10
1019.7549
 20
345.0623
 11
1020.0549
 21
344.7623
  0
LINE
  8
0_00
  6
CONTINUOUS
 62
4
 10
1037.5549
 20
345.0623
 11
1020.3549
 21
345.0623
  0
LINE
  8
0_00
  6
CONTINUOUS
 62
4
 10
1011.0549
 20
316.0623
 11
1011.0549
 21
324.0623
  0
LINE
  8
0_00
  6
CONTINUOUS
 62
4
 10
1031.6118
 20
297.4623
 11
1020.3549
 21
297.4623
  0
LINE
  8
0_00
  6
CONTINUOUS
 62
4
 10
1019.7549
 20
297.4623
 11
1008.4980
 21
297.4623
  0
LINE
  8
0_00
  6
CONTINUOUS
 62
4
 10
1016.2549
 20
298.7123
 11
1014.3811
 21
298.7123
  0
LINE
  8
0_00
  6
CONTINUOUS
 62
4
 10
1015.1549
 20
315.0623
 11
1012.1111
 21
315.0623
  0
LINE
  8
0_00
  6
CONTINUOUS
 62
4
 10
1020.3549
 20
297.4623
 11
1020.0549
 21
297.7623
  0
LINE
  8
0_00
  6
CONTINUOUS
 62
4
 10
1019.7549
 20
297.4623
 11
1020.0549
 21
297.7623
  0
LINE
  8
0_00
  6
CONTINUOUS
 62
4
 10
1011.0549
 20
316.0623
 11
1005.9049
 21
308.0623
  0
LINE
  8
0_00
  6
CONTINUOUS
 62
4
 10
1015.1549
 20
316.2623
 11
1012.7549
 21
316.2623
  0
LINE
  8
0_00
  6
CONTINUOUS
 62
4
 10
1012.2549
 20
316.7623
 11
1012.2549
 21
323.3623
  0
LINE
  8
0_00
  6
CONTINUOUS
 62
4
 10
1029.0549
 20
316.0623
 11
1029.0549
 21
324.0623
  0
LINE
  8
0_00
  6
CONTINUOUS
 62
4
 10
1025.7288
 20
298.7123
 11
1023.8549
 21
298.7123
  0
LINE
  8
0_00
  6
CONTINUOUS
 62
4
 10
1024.9549
 20
315.0623
 11
1027.9988
 21
315.0623
  0
LINE
  8
0_00
  6
CONTINUOUS
 62
4
 10
1034.2050
 20
302.3623
 11
1034.2050
 21
308.0623
  0
LINE
  8
0_00
  6
CONTINUOUS
 62
4
 10
1034.2050
 20
301.7623
 11
1034.2050
 21
300.0555
  0
LINE
  8
0_00
  6
CONTINUOUS
 62
4
 10
1032.2049
 20
306.0623
 11
1032.2049
 21
304.7284
  0
LINE
  8
0_00
  6
CONTINUOUS
 62
4
 10
1033.9049
 20
302.0623
 11
1034.2050
 21
302.3623
  0
LINE
  8
0_00
  6
CONTINUOUS
 62
4
 10
1033.9049
 20
302.0623
 11
1034.2050
 21
301.7623
  0
LINE
  8
0_00
  6
CONTINUOUS
 62
4
 10
1029.0549
 20
316.0623
 11
1034.2050
 21
308.0623
  0
LINE
  8
0_00
  6
CONTINUOUS
 62
4
 10
1024.9549
 20
316.2623
 11
1027.3550
 21
316.2623
  0
LINE
  8
0_00
  6
CONTINUOUS
 62
4
 10
1027.8549
 20
316.7623
 11
1027.8549
 21
323.3623
  0
LINE
  8
0_00
  6
CONTINUOUS
 62
4
 10
1033.0049
 20
307.7095
 11
1033.0049
 21
306.8623
  0
LINE
  8
0_00
  6
CONTINUOUS
 62
4
 10
1033.0049
 20
306.8623
 11
1032.2049
 21
306.0623
  0
LINE
  8
0_00
  6
CONTINUOUS
 62
4
 10
1007.1049
 20
307.7095
 11
1011.6907
 21
314.8330
  0
LINE
  8
0_00
  6
CONTINUOUS
 62
4
 10
1033.0049
 20
307.7095
 11
1028.4192
 21
314.8330
  0
LINE
  8
0_00
  6
CONTINUOUS
 62
4
 10
1027.0904
 20
301.7227
 11
1026.4530
 21
301.8935
  0
LINE
  8
0_00
  6
CONTINUOUS
 62
4
 10
1028.8945
 20
303.5269
 11
1028.7238
 21
304.1642
  0
LINE
  8
0_00
  6
CONTINUOUS
 62
4
 10
1030.7924
 20
298.7642
 11
1031.8530
 21
299.8249
  0
LINE
  8
0_00
  6
CONTINUOUS
 62
4
 10
1028.3175
 20
298.7642
 11
1027.2568
 21
299.8249
  0
LINE
  8
0_00
  6
CONTINUOUS
 62
4
 10
1031.8530
 20
302.2998
 11
1030.7924
 21
303.3604
  0
LINE
  8
0_00
  6
CONTINUOUS
 62
4
 10
1030.4117
 20
299.1450
 11
1030.7924
 21
298.7642
  0
LINE
  8
0_00
  6
CONTINUOUS
 62
4
 10
1031.4723
 20
300.2057
 11
1031.8530
 21
299.8249
  0
LINE
  8
0_00
  6
CONTINUOUS
 62
4
 10
1028.6982
 20
299.1450
 11
1028.3175
 21
298.7642
  0
LINE
  8
0_00
  6
CONTINUOUS
 62
4
 10
1027.6376
 20
300.2057
 11
1027.2568
 21
299.8249
  0
LINE
  8
0_00
  6
CONTINUOUS
 62
4
 10
1031.4723
 20
301.9190
 11
1031.8530
 21
302.2998
  0
LINE
  8
0_00
  6
CONTINUOUS
 62
4
 10
1030.4117
 20
302.9797
 11
1030.7924
 21
303.3604
  0
LINE
  8
0_00
  6
CONTINUOUS
 62
4
 10
1005.9049
 20
302.3623
 11
1005.9049
 21
308.0623
  0
LINE
  8
0_00
  6
CONTINUOUS
 62
4
 10
1005.9049
 20
301.7623
 11
1005.9049
 21
300.0555
  0
LINE
  8
0_00
  6
CONTINUOUS
 62
4
 10
1007.9049
 20
306.0623
 11
1007.9049
 21
304.7284
  0
LINE
  8
0_00
  6
CONTINUOUS
 62
4
 10
1006.2050
 20
302.0623
 11
1005.9049
 21
302.3623
  0
LINE
  8
0_00
  6
CONTINUOUS
 62
4
 10
1006.2050
 20
302.0623
 11
1005.9049
 21
301.7623
  0
LINE
  8
0_00
  6
CONTINUOUS
 62
4
 10
1007.1049
 20
307.7095
 11
1007.1049
 21
306.8623
  0
LINE
  8
0_00
  6
CONTINUOUS
 62
4
 10
1007.1049
 20
306.8623
 11
1007.9049
 21
306.0623
  0
LINE
  8
0_00
  6
CONTINUOUS
 62
4
 10
1013.6569
 20
301.8935
 11
1013.0194
 21
301.7227
  0
LINE
  8
0_00
  6
CONTINUOUS
 62
4
 10
1011.3862
 20
304.1642
 11
1011.2153
 21
303.5269
  0
LINE
  8
0_00
  6
CONTINUOUS
 62
4
 10
1009.3175
 20
298.7642
 11
1008.2568
 21
299.8249
  0
LINE
  8
0_00
  6
CONTINUOUS
 62
4
 10
1011.7923
 20
298.7642
 11
1012.8530
 21
299.8249
  0
LINE
  8
0_00
  6
CONTINUOUS
 62
4
 10
1008.2568
 20
302.2998
 11
1009.3175
 21
303.3604
  0
LINE
  8
0_00
  6
CONTINUOUS
 62
4
 10
1009.6982
 20
299.1450
 11
1009.3175
 21
298.7642
  0
LINE
  8
0_00
  6
CONTINUOUS
 62
4
 10
1008.6376
 20
300.2057
 11
1008.2568
 21
299.8249
  0
LINE
  8
0_00
  6
CONTINUOUS
 62
4
 10
1011.4116
 20
299.1450
 11
1011.7923
 21
298.7642
  0
LINE
  8
0_00
  6
CONTINUOUS
 62
4
 10
1012.4723
 20
300.2057
 11
1012.8530
 21
299.8249
  0
LINE
  8
0_00
  6
CONTINUOUS
 62
4
 10
1008.6376
 20
301.9190
 11
1008.2568
 21
302.2998
  0
LINE
  8
0_00
  6
CONTINUOUS
 62
4
 10
1009.6982
 20
302.9797
 11
1009.3175
 21
303.3604
  0
LINE
  8
0_00
  6
CONTINUOUS
 62
4
 10
1008.4980
 20
297.4623
 11
1005.9049
 21
300.0555
  0
LINE
  8
0_00
  6
CONTINUOUS
 62
4
 10
1031.6118
 20
297.4623
 11
1034.2050
 21
300.0555
  0
LINE
  8
0_00
  6
CONTINUOUS
 62
4
 10
1023.0549
 20
299.4623
 11
1017.0549
 21
299.4623
  0
LINE
  8
0_00
  6
CONTINUOUS
 62
4
 10
1017.0549
 20
299.4623
 11
1016.2549
 21
298.7123
  0
LINE
  8
0_00
  6
CONTINUOUS
 62
4
 10
1023.0549
 20
299.4623
 11
1023.8549
 21
298.7123
  0
LINE
  8
0_00
  6
CONTINUOUS
 62
4
 10
1031.6118
 20
342.6623
 11
1020.3549
 21
342.6623
  0
LINE
  8
0_00
  6
CONTINUOUS
 62
4
 10
1019.7549
 20
342.6623
 11
1008.4980
 21
342.6623
  0
LINE
  8
0_00
  6
CONTINUOUS
 62
4
 10
1016.2549
 20
341.4123
 11
1014.3811
 21
341.4123
  0
LINE
  8
0_00
  6
CONTINUOUS
 62
4
 10
1015.1549
 20
325.0623
 11
1012.1111
 21
325.0623
  0
LINE
  8
0_00
  6
CONTINUOUS
 62
4
 10
1020.3549
 20
342.6623
 11
1020.0549
 21
342.3623
  0
LINE
  8
0_00
  6
CONTINUOUS
 62
4
 10
1019.7549
 20
342.6623
 11
1020.0549
 21
342.3623
  0
LINE
  8
0_00
  6
CONTINUOUS
 62
4
 10
1011.0549
 20
324.0623
 11
1005.9049
 21
332.0623
  0
LINE
  8
0_00
  6
CONTINUOUS
 62
4
 10
1015.1549
 20
323.8623
 11
1012.7549
 21
323.8623
  0
LINE
  8
0_00
  6
CONTINUOUS
 62
4
 10
1025.7288
 20
341.4123
 11
1023.8549
 21
341.4123
  0
LINE
  8
0_00
  6
CONTINUOUS
 62
4
 10
1024.9549
 20
325.0623
 11
1027.9988
 21
325.0623
  0
LINE
  8
0_00
  6
CONTINUOUS
 62
4
 10
1034.2050
 20
337.7623
 11
1034.2050
 21
332.0623
  0
LINE
  8
0_00
  6
CONTINUOUS
 62
4
 10
1034.2050
 20
338.3624
 11
1034.2050
 21
340.0692
  0
LINE
  8
0_00
  6
CONTINUOUS
 62
4
 10
1032.2049
 20
334.0623
 11
1032.2049
 21
335.3963
  0
LINE
  8
0_00
  6
CONTINUOUS
 62
4
 10
1033.9049
 20
338.0623
 11
1034.2050
 21
337.7623
  0
LINE
  8
0_00
  6
CONTINUOUS
 62
4
 10
1033.9049
 20
338.0623
 11
1034.2050
 21
338.3624
  0
LINE
  8
0_00
  6
CONTINUOUS
 62
4
 10
1029.0549
 20
324.0623
 11
1034.2050
 21
332.0623
  0
LINE
  8
0_00
  6
CONTINUOUS
 62
4
 10
1024.9549
 20
323.8623
 11
1027.3550
 21
323.8623
  0
LINE
  8
0_00
  6
CONTINUOUS
 62
4
 10
1033.0049
 20
332.4152
 11
1033.0049
 21
333.2623
  0
LINE
  8
0_00
  6
CONTINUOUS
 62
4
 10
1033.0049
 20
333.2623
 11
1032.2049
 21
334.0623
  0
LINE
  8
0_00
  6
CONTINUOUS
 62
4
 10
1007.1049
 20
332.4152
 11
1011.6907
 21
325.2917
  0
LINE
  8
0_00
  6
CONTINUOUS
 62
4
 10
1033.0049
 20
332.4152
 11
1028.4192
 21
325.2917
  0
LINE
  8
0_00
  6
CONTINUOUS
 62
4
 10
1027.0904
 20
338.4020
 11
1026.4530
 21
338.2312
  0
LINE
  8
0_00
  6
CONTINUOUS
 62
4
 10
1028.8945
 20
336.5978
 11
1028.7238
 21
335.9605
  0
LINE
  8
0_00
  6
CONTINUOUS
 62
4
 10
1030.7924
 20
341.3604
 11
1031.8530
 21
340.2998
  0
LINE
  8
0_00
  6
CONTINUOUS
 62
4
 10
1028.3175
 20
341.3604
 11
1027.2568
 21
340.2998
  0
LINE
  8
0_00
  6
CONTINUOUS
 62
4
 10
1031.8530
 20
337.8249
 11
1030.7924
 21
336.7642
  0
LINE
  8
0_00
  6
CONTINUOUS
 62
4
 10
1030.4117
 20
340.9797
 11
1030.7924
 21
341.3604
  0
LINE
  8
0_00
  6
CONTINUOUS
 62
4
 10
1031.4723
 20
339.9190
 11
1031.8530
 21
340.2998
  0
LINE
  8
0_00
  6
CONTINUOUS
 62
4
 10
1028.6982
 20
340.9797
 11
1028.3175
 21
341.3604
  0
LINE
  8
0_00
  6
CONTINUOUS
 62
4
 10
1027.6376
 20
339.9190
 11
1027.2568
 21
340.2998
  0
LINE
  8
0_00
  6
CONTINUOUS
 62
4
 10
1031.4723
 20
338.2057
 11
1031.8530
 21
337.8249
  0
LINE
  8
0_00
  6
CONTINUOUS
 62
4
 10
1030.4117
 20
337.1450
 11
1030.7924
 21
336.7642
  0
LINE
  8
0_00
  6
CONTINUOUS
 62
4
 10
1005.9049
 20
337.7623
 11
1005.9049
 21
332.0623
  0
LINE
  8
0_00
  6
CONTINUOUS
 62
4
 10
1005.9049
 20
338.3624
 11
1005.9049
 21
340.0692
  0
LINE
  8
0_00
  6
CONTINUOUS
 62
4
 10
1007.9049
 20
334.0623
 11
1007.9049
 21
335.3963
  0
LINE
  8
0_00
  6
CONTINUOUS
 62
4
 10
1006.2050
 20
338.0623
 11
1005.9049
 21
337.7623
  0
LINE
  8
0_00
  6
CONTINUOUS
 62
4
 10
1006.2050
 20
338.0623
 11
1005.9049
 21
338.3624
  0
LINE
  8
0_00
  6
CONTINUOUS
 62
4
 10
1007.1049
 20
332.4152
 11
1007.1049
 21
333.2623
  0
LINE
  8
0_00
  6
CONTINUOUS
 62
4
 10
1007.1049
 20
333.2623
 11
1007.9049
 21
334.0623
  0
LINE
  8
0_00
  6
CONTINUOUS
 62
4
 10
1013.6569
 20
338.2312
 11
1013.0194
 21
338.4020
  0
LINE
  8
0_00
  6
CONTINUOUS
 62
4
 10
1011.3862
 20
335.9605
 11
1011.2153
 21
336.5978
  0
LINE
  8
0_00
  6
CONTINUOUS
 62
4
 10
1009.3175
 20
341.3604
 11
1008.2568
 21
340.2998
  0
LINE
  8
0_00
  6
CONTINUOUS
 62
4
 10
1011.7923
 20
341.3604
 11
1012.8530
 21
340.2998
  0
LINE
  8
0_00
  6
CONTINUOUS
 62
4
 10
1008.2568
 20
337.8249
 11
1009.3175
 21
336.7642
  0
LINE
  8
0_00
  6
CONTINUOUS
 62
4
 10
1009.6982
 20
340.9797
 11
1009.3175
 21
341.3604
  0
LINE
  8
0_00
  6
CONTINUOUS
 62
4
 10
1008.6376
 20
339.9190
 11
1008.2568
 21
340.2998
  0
LINE
  8
0_00
  6
CONTINUOUS
 62
4
 10
1011.4116
 20
340.9797
 11
1011.7923
 21
341.3604
  0
LINE
  8
0_00
  6
CONTINUOUS
 62
4
 10
1012.4723
 20
339.9190
 11
1012.8530
 21
340.2998
  0
LINE
  8
0_00
  6
CONTINUOUS
 62
4
 10
1008.6376
 20
338.2057
 11
1008.2568
 21
337.8249
  0
LINE
  8
0_00
  6
CONTINUOUS
 62
4
 10
1009.6982
 20
337.1450
 11
1009.3175
 21
336.7642
  0
LINE
  8
0_00
  6
CONTINUOUS
 62
4
 10
1008.4980
 20
342.6623
 11
1005.9049
 21
340.0692
  0
LINE
  8
0_00
  6
CONTINUOUS
 62
4
 10
1031.6118
 20
342.6623
 11
1034.2050
 21
340.0692
  0
LINE
  8
0_00
  6
CONTINUOUS
 62
4
 10
1023.0549
 20
340.6623
 11
1017.0549
 21
340.6623
  0
LINE
  8
0_00
  6
CONTINUOUS
 62
4
 10
1017.0549
 20
340.6623
 11
1016.2549
 21
341.4123
  0
LINE
  8
0_00
  6
CONTINUOUS
 62
4
 10
1023.0549
 20
340.6623
 11
1023.8549
 21
341.4123
  0
LINE
  8
14_0E
  6
CONTINUOUS
 62
2
 10
1017.5692
 20
340.6631
 11
1017.5564
 21
299.6631
  0
LINE
  8
14_0E
  6
DASHED
 62
2
 10
1017.5564
 20
299.6631
 11
1017.5550
 21
295.0623
  0
LINE
  8
0_00
  6
CONTINUOUS
 62
4
 10
1000.0550
 20
342.5623
 11
844.9933
 21
342.5623
  0
LINE
  8
0_00
  6
CONTINUOUS
 62
4
 10
1000.0550
 20
297.5623
 11
858.5389
 21
297.5623
  0
LINE
  8
0_00
  6
CONTINUOUS
 62
4
 10
1000.0550
 20
332.7623
 11
842.3674
 21
332.7623
  0
LINE
  8
0_00
  6
CONTINUOUS
 62
4
 10
1000.0550
 20
307.3623
 11
861.1647
 21
307.3623
  0
LINE
  8
0_00
  6
CONTINUOUS
 62
4
 10
921.5575
 20
332.3623
 11
842.2602
 21
332.3623
  0
LINE
  8
0_00
  6
CONTINUOUS
 62
4
 10
921.5575
 20
307.7623
 11
861.2718
 21
307.7623
  0
LINE
  8
0_00
  6
CONTINUOUS
 62
4
 10
321.4032
 20
461.3546
 11
333.5032
 21
461.3546
  0
LINE
  8
0_00
  6
CONTINUOUS
 62
4
 10
333.5032
 20
461.3546
 11
333.9032
 21
462.8546
  0
LINE
  8
0_00
  6
CONTINUOUS
 62
4
 10
333.9032
 20
462.8546
 11
339.0032
 21
462.8546
  0
LINE
  8
0_00
  6
CONTINUOUS
 62
4
 10
339.4032
 20
462.8546
 11
341.7032
 21
462.8546
  0
LINE
  8
0_00
  6
CONTINUOUS
 62
4
 10
343.7032
 20
460.8546
 11
343.7032
 21
429.3546
  0
LINE
  8
0_00
  6
CONTINUOUS
 62
4
 10
342.2032
 20
427.8546
 11
341.5032
 21
427.8546
  0
LINE
  8
0_00
  6
CONTINUOUS
 62
4
 10
341.2032
 20
428.1546
 11
341.2032
 21
429.0546
  0
LINE
  8
0_00
  6
CONTINUOUS
 62
4
 10
341.5032
 20
429.3546
 11
342.2004
 21
429.3546
  0
LINE
  8
0_00
  6
CONTINUOUS
 62
4
 10
341.9060
 20
461.3546
 11
335.4397
 21
461.3546
  0
LINE
  8
0_00
  6
CONTINUOUS
 62
4
 10
334.9566
 20
460.9834
 11
334.6556
 21
459.8546
  0
LINE
  8
0_00
  6
CONTINUOUS
 62
4
 10
326.2032
 20
459.5546
 11
321.2032
 21
459.5546
  0
LINE
  8
0_00
  6
CONTINUOUS
 62
4
 10
334.6556
 20
459.8546
 11
326.2032
 21
459.5546
  0
LINE
  8
0_00
  6
CONTINUOUS
 62
4
 10
321.2032
 20
461.1546
 11
321.4032
 21
461.3546
  0
LINE
  8
0_00
  6
CONTINUOUS
 62
4
 10
339.0032
 20
462.8546
 11
339.2032
 21
462.6546
  0
LINE
  8
0_00
  6
CONTINUOUS
 62
4
 10
339.2032
 20
462.6546
 11
339.4032
 21
462.8546
  0
LINE
  8
0_00
  6
CONTINUOUS
 62
4
 10
321.0032
 20
461.3546
 11
308.9032
 21
461.3546
  0
LINE
  8
0_00
  6
CONTINUOUS
 62
4
 10
308.9032
 20
461.3546
 11
308.5032
 21
462.8546
  0
LINE
  8
0_00
  6
CONTINUOUS
 62
4
 10
308.5032
 20
462.8546
 11
303.4032
 21
462.8546
  0
LINE
  8
0_00
  6
CONTINUOUS
 62
4
 10
303.0032
 20
462.8546
 11
300.7032
 21
462.8546
  0
LINE
  8
0_00
  6
CONTINUOUS
 62
4
 10
300.5004
 20
461.3546
 11
306.9666
 21
461.3546
  0
LINE
  8
0_00
  6
CONTINUOUS
 62
4
 10
307.4497
 20
460.9834
 11
307.7508
 21
459.8546
  0
LINE
  8
0_00
  6
CONTINUOUS
 62
4
 10
316.2032
 20
459.5546
 11
321.2032
 21
459.5546
  0
LINE
  8
0_00
  6
CONTINUOUS
 62
4
 10
307.7508
 20
459.8546
 11
316.2032
 21
459.5546
  0
LINE
  8
0_00
  6
CONTINUOUS
 62
4
 10
321.2032
 20
461.1546
 11
321.0032
 21
461.3546
  0
LINE
  8
0_00
  6
CONTINUOUS
 62
4
 10
303.4032
 20
462.8546
 11
303.2032
 21
462.6546
  0
LINE
  8
0_00
  6
CONTINUOUS
 62
4
 10
342.5003
 20
429.6574
 11
342.2060
 21
461.0574
  0
LINE
  8
0_00
  6
CONTINUOUS
 62
4
 10
298.7032
 20
460.8546
 11
298.7032
 21
429.3546
  0
LINE
  8
0_00
  6
CONTINUOUS
 62
4
 10
300.2032
 20
427.8546
 11
300.9032
 21
427.8546
  0
LINE
  8
0_00
  6
CONTINUOUS
 62
4
 10
301.2032
 20
428.1546
 11
301.2032
 21
429.0546
  0
LINE
  8
0_00
  6
CONTINUOUS
 62
4
 10
300.9032
 20
429.3546
 11
300.2060
 21
429.3546
  0
LINE
  8
0_00
  6
CONTINUOUS
 62
4
 10
299.9060
 20
429.6574
 11
300.2004
 21
461.0574
  0
LINE
  8
0_00
  6
CONTINUOUS
 62
4
 10
303.2032
 20
462.6546
 11
303.0032
 21
462.8546
  0
LINE
  8
0_00
  6
CONTINUOUS
 62
4
 10
308.7032
 20
462.1046
 11
333.7032
 21
462.1046
  0
LINE
  8
12_0C
  6
CONTINUOUS
 62
2
 10
317.7032
 20
458.5846
 11
317.7032
 21
459.5546
  0
LINE
  8
12_0C
  6
CONTINUOUS
 62
2
 10
324.7032
 20
458.5846
 11
324.7032
 21
459.5546
  0
LINE
  8
12_0C
  6
DASHED
 62
2
 10
323.2032
 20
459.5546
 11
323.2032
 21
479.7346
  0
LINE
  8
12_0C
  6
DASHED
 62
2
 10
322.7032
 20
459.5546
 11
322.7032
 21
484.1164
  0
LINE
  8
12_0C
  6
DASHED
 62
2
 10
319.2032
 20
459.5546
 11
319.2032
 21
479.7346
  0
LINE
  8
12_0C
  6
DASHED
 62
2
 10
319.7032
 20
459.5546
 11
319.7032
 21
484.1164
  0
LINE
  8
12_0C
  6
DASHED
 62
2
 10
323.2032
 20
479.7346
 11
322.6532
 21
484.5546
  0
LINE
  8
12_0C
  6
DASHED
 62
2
 10
319.2032
 20
479.7346
 11
319.7532
 21
484.5546
  0
LINE
  8
12_0C
  6
DASHED
 62
2
 10
322.6532
 20
484.5546
 11
319.7532
 21
484.5546
  0
LINE
  8
0_00
  6
CONTINUOUS
 62
2
 10
324.7032
 20
459.5546
 11
317.7032
 21
459.5546
  0
LINE
  8
0_00
  6
CONTINUOUS
 62
4
 10
341.2032
 20
461.3546
 11
341.2032
 21
432.9546
  0
LINE
  8
0_00
  6
CONTINUOUS
 62
4
 10
335.7032
 20
461.3546
 11
335.7032
 21
432.9546
  0
LINE
  8
0_00
  6
CONTINUOUS
 62
4
 10
341.2032
 20
432.9546
 11
335.7032
 21
432.9546
  0
LINE
  8
0_00
  6
CONTINUOUS
 62
4
 10
307.7032
 20
459.1546
 11
317.7032
 21
459.1546
  0
LINE
  8
0_00
  6
CONTINUOUS
 62
4
 10
324.7032
 20
459.1546
 11
334.7032
 21
459.1546
  0
LINE
  8
0_00
  6
CONTINUOUS
 62
4
 10
301.2032
 20
461.3546
 11
301.2032
 21
432.9546
  0
LINE
  8
0_00
  6
CONTINUOUS
 62
4
 10
306.7032
 20
461.3546
 11
306.7032
 21
432.9546
  0
LINE
  8
0_00
  6
CONTINUOUS
 62
4
 10
301.2032
 20
432.9546
 11
341.2032
 21
432.9546
  0
LINE
  8
0_00
  6
CENTER1
 62
6
 10
339.2032
 20
466.9272
 11
339.2032
 21
448.9818
  0
LINE
  8
0_00
  6
CENTER1
 62
6
 10
303.2032
 20
466.9272
 11
303.2032
 21
448.9818
  0
LINE
  8
12_0C
  6
CONTINUOUS
 62
2
 10
307.2032
 20
462.8546
 11
299.2032
 21
462.8546
  0
LINE
  8
12_0C
  6
CONTINUOUS
 62
2
 10
307.2032
 20
463.2546
 11
299.2032
 21
463.2546
  0
LINE
  8
12_0C
  6
CONTINUOUS
 62
2
 10
299.2032
 20
462.8546
 11
299.2032
 21
463.2546
  0
LINE
  8
12_0C
  6
CONTINUOUS
 62
2
 10
307.2032
 20
462.8546
 11
307.2032
 21
463.2546
  0
LINE
  8
0_00
  6
DASHED
 62
2
 10
305.2032
 20
462.8546
 11
305.2032
 21
455.6746
  0
LINE
  8
12_0C
  6
DASHED
 62
2
 10
304.6532
 20
462.8546
 11
304.6532
 21
450.8546
  0
LINE
  8
12_0C
  6
DASHED
 62
2
 10
304.6532
 20
450.8546
 11
301.7532
 21
450.8546
  0
LINE
  8
12_0C
  6
DASHED
 62
2
 10
305.2032
 20
455.6746
 11
304.6532
 21
450.8546
  0
LINE
  8
0_00
  6
DASHED
 62
2
 10
301.2032
 20
462.8546
 11
301.2032
 21
455.6746
  0
LINE
  8
12_0C
  6
DASHED
 62
2
 10
301.7532
 20
462.8546
 11
301.7532
 21
450.8546
  0
LINE
  8
12_0C
  6
DASHED
 62
2
 10
301.2032
 20
455.6746
 11
301.7532
 21
450.8546
  0
LINE
  8
0_00
  6
CENTER1
 62
6
 10
313.2870
 20
453.6546
 11
328.6363
 21
453.6546
  0
LINE
  8
0_00
  6
CENTER1
 62
6
 10
328.6363
 20
440.6546
 11
313.2870
 21
440.6546
  0
LINE
  8
0_00
  6
CENTER1
 62
6
 10
288.7686
 20
434.8546
 11
360.3062
 21
434.8546
  0
LINE
  8
0_00
  6
CONTINUOUS
 62
2
 10
261.2032
 20
578.2413
 11
381.2032
 21
578.2413
  0
LINE
  8
0_00
  6
CONTINUOUS
 62
2
 10
381.2032
 20
573.7413
 11
261.2032
 21
573.7413
  0
LINE
  8
0_00
  6
CONTINUOUS
 62
4
 10
346.2032
 20
688.6279
 11
346.2032
 21
578.2413
  0
LINE
  8
0_00
  6
CONTINUOUS
 62
4
 10
346.2032
 20
573.7413
 11
346.2032
 21
355.9546
  0
LINE
  8
0_00
  6
CONTINUOUS
 62
4
 10
333.7032
 20
462.1046
 11
333.7032
 21
573.7413
  0
LINE
  8
0_00
  6
CONTINUOUS
 62
4
 10
333.7032
 20
578.2413
 11
333.7032
 21
689.8779
  0
LINE
  8
0_00
  6
CONTINUOUS
 62
4
 10
308.7032
 20
689.8779
 11
308.7032
 21
578.2413
  0
LINE
  8
0_00
  6
CONTINUOUS
 62
4
 10
308.7032
 20
573.7413
 11
308.7032
 21
462.1046
  0
LINE
  8
0_00
  6
CONTINUOUS
 62
4
 10
296.2032
 20
688.6279
 11
296.2032
 21
578.2413
  0
LINE
  8
0_00
  6
CONTINUOUS
 62
4
 10
296.2032
 20
573.7413
 11
296.2032
 21
355.9546
  0
LINE
  8
0_00
  6
CONTINUOUS
 62
2
 10
872.4581
 20
445.0623
 11
840.1602
 21
324.5252
  0
LINE
  8
0_00
  6
CONTINUOUS
 62
2
 10
867.7993
 20
445.0623
 11
834.6488
 21
321.3432
  0
LINE
  8
0_00
  6
CONTINUOUS
 62
2
 10
858.5370
 20
314.9424
 11
826.4153
 21
195.0623
  0
LINE
  8
0_00
  6
CONTINUOUS
 62
2
 10
831.0741
 20
195.0623
 11
864.0484
 21
318.1244
  0
LINE
  8
0_00
  6
CONTINUOUS
 62
2
 10
840.1602
 20
324.5252
 11
864.0484
 21
318.1244
  0
LINE
  8
0_00
  6
CONTINUOUS
 62
2
 10
858.5370
 20
314.9424
 11
834.6488
 21
321.3432
  0
LINE
  8
3_03
  6
CONTINUOUS
 62
4
 10
231.2032
 20
268.8546
 11
231.2032
 21
327.7529
  0
LINE
  8
3_03
  6
CONTINUOUS
 62
4
 10
234.2032
 20
330.7546
 11
408.3031
 21
324.9513
  0
LINE
  8
3_03
  6
CONTINUOUS
 62
4
 10
411.2032
 20
321.9529
 11
411.2032
 21
267.8546
  0
LINE
  8
3_03
  6
CONTINUOUS
 62
4
 10
237.9032
 20
266.0485
 11
234.2032
 21
265.8546
  0
LINE
  8
3_03
  6
CONTINUOUS
 62
4
 10
408.2032
 20
264.8546
 11
404.5031
 21
265.0485
  0
LINE
  8
3_03
  6
CONTINUOUS
 62
4
 10
237.9031
 20
267.6507
 11
234.1692
 21
267.4550
  0
LINE
  8
3_03
  6
CONTINUOUS
 62
4
 10
232.8032
 20
268.8546
 11
232.8032
 21
327.6495
  0
LINE
  8
3_03
  6
CONTINUOUS
 62
4
 10
234.3531
 20
329.1487
 11
408.2498
 21
323.3522
  0
LINE
  8
3_03
  6
CONTINUOUS
 62
4
 10
409.6032
 20
321.8562
 11
409.6032
 21
267.8546
  0
LINE
  8
3_03
  6
CONTINUOUS
 62
4
 10
408.2372
 20
266.4550
 11
404.5032
 21
266.6507
  0
LINE
  8
6_06
  6
CONTINUOUS
 62
2
 10
252.9032
 20
326.5812
 11
252.9032
 21
328.5304
  0
LINE
  8
6_06
  6
CONTINUOUS
 62
2
 10
247.9032
 20
326.7478
 11
247.9032
 21
328.6970
  0
LINE
  8
6_06
  6
CONTINUOUS
 62
2
 10
389.5032
 20
322.0278
 11
389.5032
 21
323.9770
  0
LINE
  8
6_06
  6
CONTINUOUS
 62
2
 10
394.5032
 20
321.8611
 11
394.5032
 21
323.8104
  0
LINE
  8
3_03
  6
CONTINUOUS
 62
4
 10
234.7032
 20
267.5546
 11
234.2032
 21
267.5546
  0
LINE
  8
3_03
  6
CONTINUOUS
 62
4
 10
407.7032
 20
266.5546
 11
408.2032
 21
266.5546
  0
LINE
  8
3_03
  6
CONTINUOUS
 62
4
 10
234.7032
 20
267.5546
 11
240.6397
 21
307.4282
  0
LINE
  8
3_03
  6
CONTINUOUS
 62
4
 10
237.4032
 20
307.8546
 11
232.7032
 21
269.0546
  0
LINE
  8
3_03
  6
CONTINUOUS
 62
4
 10
409.7032
 20
268.0546
 11
405.0032
 21
307.8546
  0
LINE
  8
3_03
  6
CONTINUOUS
 62
4
 10
401.7654
 20
307.4265
 11
407.7032
 21
266.5546
  0
LINE
  8
3_03
  6
CONTINUOUS
 62
4
 10
241.1342
 20
307.8546
 11
401.2706
 21
307.8546
  0
LINE
  8
3_03
  6
CONTINUOUS
 62
4
 10
373.2032
 20
311.3546
 11
373.5032
 21
311.3546
  0
LINE
  8
3_03
  6
CONTINUOUS
 62
4
 10
268.9032
 20
313.8546
 11
268.9032
 21
311.3546
  0
LINE
  8
3_03
  6
CONTINUOUS
 62
4
 10
373.5032
 20
311.3546
 11
373.5032
 21
313.8546
  0
LINE
  8
3_03
  6
CONTINUOUS
 62
4
 10
237.4032
 20
307.8546
 11
242.2541
 21
323.6572
  0
LINE
  8
3_03
  6
CONTINUOUS
 62
4
 10
244.2327
 20
325.0692
 11
246.4032
 21
324.9968
  0
LINE
  8
3_03
  6
CONTINUOUS
 62
4
 10
246.7132
 20
326.9876
 11
246.9032
 21
326.9813
  0
LINE
  8
3_03
  6
CONTINUOUS
 62
4
 10
253.6132
 20
326.7576
 11
253.4032
 21
326.7646
  0
LINE
  8
3_03
  6
CONTINUOUS
 62
4
 10
400.1744
 20
320.6401
 11
405.0032
 21
307.8546
  0
LINE
  8
3_03
  6
CONTINUOUS
 62
4
 10
388.8132
 20
322.2509
 11
389.0032
 21
322.2446
  0
LINE
  8
3_03
  6
CONTINUOUS
 62
4
 10
395.5032
 20
322.0280
 11
398.3700
 21
321.9324
  0
LINE
  8
3_03
  6
CONTINUOUS
 62
4
 10
246.9032
 20
326.7812
 11
253.4032
 21
326.5645
  0
LINE
  8
3_03
  6
CONTINUOUS
 62
4
 10
389.0032
 20
322.0445
 11
395.5032
 21
321.8278
  0
LINE
  8
3_03
  6
CONTINUOUS
 62
4
 10
266.4032
 20
311.1546
 11
241.3940
 21
311.1546
  0
LINE
  8
3_03
  6
CONTINUOUS
 62
4
 10
376.0032
 20
311.1546
 11
400.6819
 21
311.1546
  0
LINE
  8
3_03
  6
CONTINUOUS
 62
4
 10
375.5032
 20
311.6546
 11
375.5032
 21
313.8546
  0
LINE
  8
3_03
  6
CONTINUOUS
 62
4
 10
266.9032
 20
313.8546
 11
266.9032
 21
311.6546
  0
LINE
  8
3_03
  6
CONTINUOUS
 62
4
 10
246.4032
 20
324.9968
 11
246.4032
 21
326.6878
  0
LINE
  8
3_03
  6
CONTINUOUS
 62
4
 10
253.9032
 20
326.4578
 11
253.9032
 21
325.0637
  0
LINE
  8
3_03
  6
CONTINUOUS
 62
4
 10
246.9032
 20
326.7812
 11
246.9032
 21
326.9813
  0
LINE
  8
3_03
  6
CONTINUOUS
 62
4
 10
253.4032
 20
326.7646
 11
253.4032
 21
326.5645
  0
LINE
  8
3_03
  6
CONTINUOUS
 62
4
 10
388.5032
 20
321.9511
 11
388.5032
 21
320.5437
  0
LINE
  8
3_03
  6
CONTINUOUS
 62
4
 10
389.0032
 20
322.2446
 11
389.0032
 21
322.0445
  0
LINE
  8
3_03
  6
CONTINUOUS
 62
4
 10
395.5032
 20
322.0280
 11
395.5032
 21
321.8278
  0
LINE
  8
3_03
  6
CONTINUOUS
 62
4
 10
244.0878
 20
322.1338
 11
240.9160
 21
311.8014
  0
LINE
  8
3_03
  6
CONTINUOUS
 62
4
 10
245.0771
 20
322.8398
 11
248.6032
 21
322.7223
  0
LINE
  8
3_03
  6
CONTINUOUS
 62
4
 10
248.6032
 20
324.2065
 11
248.6032
 21
322.7223
  0
LINE
  8
3_03
  6
CONTINUOUS
 62
4
 10
253.3865
 20
324.5639
 11
249.1198
 21
324.7062
  0
LINE
  8
3_03
  6
CONTINUOUS
 62
4
 10
401.1496
 20
311.8313
 11
398.3991
 21
319.1141
  0
LINE
  8
3_03
  6
CONTINUOUS
 62
4
 10
397.4969
 20
319.7603
 11
388.9865
 21
320.0439
  0
LINE
  8
6_06
  6
CONTINUOUS
 62
2
 10
247.9032
 20
327.9899
 11
248.5875
 21
328.6743
  0
LINE
  8
6_06
  6
CONTINUOUS
 62
2
 10
247.9032
 20
327.2828
 11
249.2718
 21
328.6514
  0
LINE
  8
6_06
  6
CONTINUOUS
 62
2
 10
248.0697
 20
326.7423
 11
249.9561
 21
328.6287
  0
LINE
  8
6_06
  6
CONTINUOUS
 62
2
 10
248.7540
 20
326.7195
 11
250.6404
 21
328.6058
  0
LINE
  8
6_06
  6
CONTINUOUS
 62
2
 10
249.4383
 20
326.6966
 11
251.3247
 21
328.5830
  0
LINE
  8
6_06
  6
CONTINUOUS
 62
2
 10
250.1226
 20
326.6739
 11
252.0089
 21
328.5602
  0
LINE
  8
6_06
  6
CONTINUOUS
 62
2
 10
250.8069
 20
326.6510
 11
252.6932
 21
328.5374
  0
LINE
  8
6_06
  6
CONTINUOUS
 62
2
 10
251.4912
 20
326.6283
 11
252.9032
 21
328.0402
  0
LINE
  8
6_06
  6
CONTINUOUS
 62
2
 10
252.1755
 20
326.6054
 11
252.9032
 21
327.3331
  0
LINE
  8
6_06
  6
CONTINUOUS
 62
2
 10
252.8598
 20
326.5826
 11
252.9032
 21
326.6260
  0
LINE
  8
6_06
  6
CONTINUOUS
 62
2
 10
389.5032
 20
323.2700
 11
390.1875
 21
323.9542
  0
LINE
  8
6_06
  6
CONTINUOUS
 62
2
 10
389.5032
 20
322.5628
 11
390.8718
 21
323.9314
  0
LINE
  8
6_06
  6
CONTINUOUS
 62
2
 10
389.6697
 20
322.0223
 11
391.5561
 21
323.9087
  0
LINE
  8
6_06
  6
CONTINUOUS
 62
2
 10
390.3540
 20
321.9994
 11
392.2403
 21
323.8858
  0
LINE
  8
6_06
  6
CONTINUOUS
 62
2
 10
391.0383
 20
321.9766
 11
392.9247
 21
323.8630
  0
LINE
  8
6_06
  6
CONTINUOUS
 62
2
 10
391.7226
 20
321.9539
 11
393.6090
 21
323.8402
  0
LINE
  8
6_06
  6
CONTINUOUS
 62
2
 10
392.4069
 20
321.9310
 11
394.2932
 21
323.8174
  0
LINE
  8
6_06
  6
CONTINUOUS
 62
2
 10
393.0912
 20
321.9082
 11
394.5032
 21
323.3202
  0
LINE
  8
6_06
  6
CONTINUOUS
 62
2
 10
393.7755
 20
321.8854
 11
394.5032
 21
322.6131
  0
LINE
  8
6_06
  6
CONTINUOUS
 62
2
 10
394.4598
 20
321.8626
 11
394.5032
 21
321.9060
  0
LINE
  8
0_00
  6
CONTINUOUS
 62
4
 10
246.2032
 20
221.8221
 11
246.2032
 21
297.8546
  0
LINE
  8
0_00
  6
DASHED
 62
2
 10
296.2032
 20
334.8546
 11
346.2032
 21
334.8546
  0
LINE
  8
0_00
  6
CONTINUOUS
 62
4
 10
265.4982
 20
341.3731
 11
264.3139
 21
330.7484
  0
LINE
  8
0_00
  6
CONTINUOUS
 62
4
 10
264.3139
 20
330.7484
 11
265.2026
 21
329.7213
  0
LINE
  8
0_00
  6
CONTINUOUS
 62
4
 10
376.8936
 20
337.7908
 11
378.0932
 21
326.9485
  0
LINE
  8
0_00
  6
CONTINUOUS
 62
4
 10
378.0932
 20
326.9485
 11
377.2037
 21
325.9879
  0
LINE
  8
0_00
  6
CONTINUOUS
 62
4
 10
350.3230
 20
355.9546
 11
292.0662
 21
355.9546
  0
LINE
  8
0_00
  6
CONTINUOUS
 62
4
 10
267.4859
 20
343.1527
 11
298.2032
 21
342.1288
  0
LINE
  8
0_00
  6
CONTINUOUS
 62
4
 10
344.2032
 20
340.5954
 11
374.9724
 21
339.5698
  0
LINE
  8
0_00
  6
CONTINUOUS
 62
4
 10
317.2365
 20
329.9879
 11
325.2365
 21
329.7213
  0
LINE
  8
0_00
  6
CONTINUOUS
 62
4
 10
316.2032
 20
328.9885
 11
316.2032
 21
328.0213
  0
LINE
  8
0_00
  6
CONTINUOUS
 62
4
 10
326.2032
 20
328.7219
 11
326.2032
 21
327.6880
  0
LINE
  8
0_00
  6
CONTINUOUS
 62
4
 10
264.3139
 20
330.7484
 11
316.2036
 21
329.0188
  0
LINE
  8
0_00
  6
CONTINUOUS
 62
4
 10
326.2032
 20
328.6855
 11
378.0934
 21
326.9558
  0
LINE
  8
0_00
  6
CONTINUOUS
 62
4
 10
291.0769
 20
355.1009
 11
289.9865
 21
347.7262
  0
LINE
  8
0_00
  6
CONTINUOUS
 62
4
 10
351.3149
 20
355.0816
 11
352.5592
 21
345.3601
  0
LINE
  8
0_00
  6
DASHED
 62
2
 10
346.2032
 20
334.8546
 11
346.2032
 21
355.9546
  0
LINE
  8
0_00
  6
DASHED
 62
2
 10
296.2032
 20
334.8546
 11
296.2032
 21
355.9546
  0
LINE
  8
0_00
  6
CONTINUOUS
 62
4
 10
269.2032
 20
307.8546
 11
269.2032
 21
325.9546
  0
LINE
  8
0_00
  6
CONTINUOUS
 62
4
 10
269.2032
 20
307.8546
 11
269.2032
 21
308.8546
  0
LINE
  8
0_00
  6
CONTINUOUS
 62
4
 10
373.2032
 20
307.8546
 11
373.2032
 21
323.2546
  0
LINE
  8
0_00
  6
CONTINUOUS
 62
4
 10
373.2032
 20
307.8546
 11
269.2032
 21
307.8546
  0
LINE
  8
0_00
  6
CONTINUOUS
 62
4
 10
373.2032
 20
312.3546
 11
269.2032
 21
312.3546
  0
LINE
  8
0_00
  6
CONTINUOUS
 62
4
 10
269.2032
 20
315.9546
 11
373.2032
 21
315.9546
  0
LINE
  8
3_03
  6
CONTINUOUS
 62
4
 10
268.9032
 20
311.3546
 11
269.2032
 21
311.3546
  0
LINE
  8
0_00
  6
PHANTOM1
 62
2
 10
401.2032
 20
302.3127
 11
401.2032
 21
221.8221
  0
LINE
  8
0_00
  6
PHANTOM1
 62
2
 10
241.2032
 20
302.3127
 11
241.2032
 21
221.8221
  0
LINE
  8
0_00
  6
DASHED
 62
2
 10
343.8032
 20
434.8546
 11
298.6032
 21
434.8546
  0
LINE
  8
0_00
  6
DASHED
 62
2
 10
343.8032
 20
334.8546
 11
343.8032
 21
484.8546
  0
LINE
  8
0_00
  6
DASHED
 62
2
 10
298.6032
 20
334.8546
 11
298.6032
 21
484.8546
  0
LINE
  8
0_00
  6
CONTINUOUS
 62
4
 10
269.2032
 20
297.8546
 11
373.2032
 21
297.8546
  0
LINE
  8
0_00
  6
CONTINUOUS
 62
4
 10
396.2032
 20
297.8546
 11
396.2032
 21
221.8221
  0
LINE
  8
0_00
  6
CONTINUOUS
 62
4
 10
381.2032
 20
289.8546
 11
381.2032
 21
221.8221
  0
LINE
  8
0_00
  6
CONTINUOUS
 62
4
 10
261.2032
 20
289.8546
 11
261.2032
 21
221.8221
  0
LINE
  8
0_00
  6
CONTINUOUS
 62
4
 10
261.2032
 20
289.8546
 11
373.2032
 21
289.8546
  0
LINE
  8
0_00
  6
CONTINUOUS
 62
4
 10
373.2032
 20
289.8546
 11
373.2032
 21
221.8221
  0
LINE
  8
0_00
  6
CONTINUOUS
 62
2
 10
269.2032
 20
297.8546
 11
269.2032
 21
289.8546
  0
LINE
  8
0_00
  6
CONTINUOUS
 62
2
 10
266.7577
 20
297.4717
 11
269.2032
 21
295.0262
  0
LINE
  8
0_00
  6
CONTINUOUS
 62
2
 10
264.8405
 20
296.5604
 11
269.2032
 21
292.1978
  0
LINE
  8
0_00
  6
CONTINUOUS
 62
2
 10
263.3089
 20
295.2636
 11
268.7179
 21
289.8546
  0
LINE
  8
0_00
  6
CONTINUOUS
 62
2
 10
262.1375
 20
293.6065
 11
265.8895
 21
289.8546
  0
LINE
  8
0_00
  6
CONTINUOUS
 62
2
 10
261.3815
 20
291.5342
 11
263.0610
 21
289.8546
  0
LINE
  8
0_00
  6
CONTINUOUS
 62
2
 10
269.2032
 20
293.8546
 11
373.2032
 21
293.8546
  0
LINE
  8
0_00
  6
CONTINUOUS
 62
2
 10
377.2032
 20
289.8546
 11
377.2032
 21
221.8221
  0
LINE
  8
0_00
  6
CONTINUOUS
 62
4
 10
396.2032
 20
297.8546
 11
386.2032
 21
307.8546
  0
LINE
  8
3_03
  6
CONTINUOUS
 62
4
 10
256.2032
 20
307.8546
 11
246.2032
 21
297.8546
  0
LINE
  8
0_00
  6
CONTINUOUS
 62
2
 10
289.9757
 20
289.8546
 11
261.2032
 21
261.0821
  0
LINE
  8
0_00
  6
CONTINUOUS
 62
2
 10
294.2184
 20
289.8546
 11
261.2032
 21
256.8394
  0
LINE
  8
0_00
  6
CONTINUOUS
 62
2
 10
298.4610
 20
289.8546
 11
261.2032
 21
252.5968
  0
LINE
  8
0_00
  6
CONTINUOUS
 62
2
 10
369.1717
 20
289.8546
 11
301.1392
 21
221.8221
  0
LINE
  8
0_00
  6
CONTINUOUS
 62
2
 10
373.2032
 20
289.6435
 11
305.3818
 21
221.8221
  0
LINE
  8
0_00
  6
CONTINUOUS
 62
2
 10
373.2032
 20
285.4008
 11
309.6244
 21
221.8221
  0
LINE
  8
0_00
  6
CENTER1
 62
6
 10
281.0748
 20
350.4546
 11
362.6209
 21
350.4546
  0
LINE
  8
0_00
  6
DASHED
 62
2
 10
298.6032
 20
484.8546
 11
343.8032
 21
484.8546
  0
LINE
  8
0_00
  6
CONTINUOUS
 62
4
 10
1003.0550
 20
263.0623
 11
1037.0550
 21
263.0623
  0
LINE
  8
0_00
  6
CONTINUOUS
 62
4
 10
1003.0959
 20
264.5623
 11
1037.0139
 21
264.5623
  0
LINE
  8
0_00
  6
CONTINUOUS
 62
4
 10
1010.0549
 20
266.5623
 11
1030.0550
 21
266.5623
  0
LINE
  8
0_00
  6
CONTINUOUS
 62
4
 10
1037.0550
 20
272.5623
 11
1037.0550
 21
277.5623
  0
LINE
  8
0_00
  6
CONTINUOUS
 62
4
 10
1003.0550
 20
277.5623
 11
1003.0550
 21
272.5623
  0
LINE
  8
0_00
  6
CONTINUOUS
 62
4
 10
1037.0550
 20
272.5623
 11
1036.0549
 21
272.5623
  0
LINE
  8
0_00
  6
CONTINUOUS
 62
4
 10
1037.0550
 20
277.5623
 11
1036.0549
 21
277.5623
  0
LINE
  8
0_00
  6
CONTINUOUS
 62
4
 10
1003.0550
 20
277.5623
 11
1004.0549
 21
277.5623
  0
LINE
  8
0_00
  6
CONTINUOUS
 62
4
 10
1003.0550
 20
272.5623
 11
1004.0549
 21
272.5623
  0
LINE
  8
0_00
  6
CONTINUOUS
 62
4
 10
1030.0550
 20
283.5623
 11
1010.0549
 21
283.5623
  0
LINE
  8
0_00
  6
CENTER1
 62
6
 10
999.4221
 20
275.0623
 11
1040.6979
 21
275.0623
  0
LINE
  8
0_00
  6
CONTINUOUS
 62
4
 10
1030.0550
 20
267.1123
 11
1010.0549
 21
267.1123
  0
LINE
  8
0_00
  6
CONTINUOUS
 62
4
 10
1030.0550
 20
283.0123
 11
1010.0549
 21
283.0123
  0
LINE
  8
0_00
  6
CONTINUOUS
 62
4
 10
1004.6049
 20
277.5623
 11
1004.6049
 21
272.5623
  0
LINE
  8
0_00
  6
CONTINUOUS
 62
4
 10
1035.5049
 20
277.5623
 11
1035.5049
 21
272.5623
  0
LINE
  8
0_00
  6
CONTINUOUS
 62
4
 10
1045.5139
 20
367.0623
 11
1045.5139
 21
343.0623
  0
LINE
  8
0_00
  6
CONTINUOUS
 62
4
 10
1045.5139
 20
297.0623
 11
1045.5139
 21
273.0623
  0
LINE
  8
0_00
  6
CONTINUOUS
 62
4
 10
1003.0550
 20
377.0623
 11
1037.0139
 21
377.0623
  0
LINE
  8
0_00
  6
CONTINUOUS
 62
4
 10
1003.0959
 20
375.5623
 11
1037.0139
 21
375.5623
  0
LINE
  8
0_00
  6
CONTINUOUS
 62
4
 10
1010.0549
 20
373.5623
 11
1030.0550
 21
373.5623
  0
LINE
  8
0_00
  6
CONTINUOUS
 62
4
 10
1037.0550
 20
367.5623
 11
1037.0550
 21
362.5623
  0
LINE
  8
0_00
  6
CONTINUOUS
 62
4
 10
1003.0550
 20
362.5623
 11
1003.0550
 21
367.5623
  0
LINE
  8
0_00
  6
CONTINUOUS
 62
4
 10
1037.0550
 20
367.5623
 11
1036.0549
 21
367.5623
  0
LINE
  8
0_00
  6
CONTINUOUS
 62
4
 10
1037.0550
 20
362.5623
 11
1036.0549
 21
362.5623
  0
LINE
  8
0_00
  6
CONTINUOUS
 62
4
 10
1003.0550
 20
362.5623
 11
1004.0549
 21
362.5623
  0
LINE
  8
0_00
  6
CONTINUOUS
 62
4
 10
1003.0550
 20
367.5623
 11
1004.0549
 21
367.5623
  0
LINE
  8
0_00
  6
CONTINUOUS
 62
4
 10
1030.0550
 20
356.5623
 11
1010.0549
 21
356.5623
  0
LINE
  8
0_00
  6
CENTER1
 62
6
 10
999.4221
 20
365.0623
 11
1040.6979
 21
365.0623
  0
LINE
  8
0_00
  6
CONTINUOUS
 62
4
 10
1030.0550
 20
357.1123
 11
1010.0549
 21
357.1123
  0
LINE
  8
0_00
  6
CONTINUOUS
 62
4
 10
1030.0550
 20
373.0123
 11
1010.0549
 21
373.0123
  0
LINE
  8
0_00
  6
CONTINUOUS
 62
4
 10
1004.6049
 20
367.5623
 11
1004.6049
 21
362.5623
  0
LINE
  8
0_00
  6
CONTINUOUS
 62
4
 10
1035.5049
 20
367.5623
 11
1035.5049
 21
362.5623
  0
LINE
  8
0_00
  6
CONTINUOUS
 62
4
 10
994.5959
 20
367.0623
 11
994.5959
 21
343.0623
  0
LINE
  8
0_00
  6
CONTINUOUS
 62
4
 10
994.5959
 20
297.0623
 11
994.5959
 21
273.0623
  0
LINE
  8
0_00
  6
CONTINUOUS
 62
4
 10
1024.0137
 20
288.0623
 11
1036.5139
 21
288.0623
  0
LINE
  8
0_00
  6
CONTINUOUS
 62
4
 10
1037.0550
 20
289.8123
 11
1003.0550
 21
289.8123
  0
LINE
  8
0_00
  6
CONTINUOUS
 62
4
 10
1003.5958
 20
288.0623
 11
1016.0962
 21
288.0623
  0
LINE
  8
0_00
  6
CONTINUOUS
 62
4
 10
1024.0137
 20
352.0623
 11
1036.5139
 21
352.0623
  0
LINE
  8
0_00
  6
CONTINUOUS
 62
4
 10
1003.5958
 20
352.0623
 11
1016.0962
 21
352.0623
  0
LINE
  8
12_0C
  6
CONTINUOUS
 62
2
 10
1024.0550
 20
288.5123
 11
1016.0550
 21
288.5123
  0
LINE
  8
12_0C
  6
CONTINUOUS
 62
2
 10
1024.0550
 20
288.1123
 11
1016.0550
 21
288.1123
  0
LINE
  8
12_0C
  6
CONTINUOUS
 62
2
 10
1016.0550
 20
288.5123
 11
1016.0550
 21
288.1123
  0
LINE
  8
12_0C
  6
CONTINUOUS
 62
2
 10
1024.0550
 20
288.5123
 11
1024.0550
 21
288.1123
  0
LINE
  8
0_00
  6
CONTINUOUS
 62
2
 10
1022.0549
 20
288.5123
 11
1022.0549
 21
289.3867
  0
LINE
  8
12_0C
  6
CONTINUOUS
 62
2
 10
1021.5049
 20
288.5123
 11
1021.5049
 21
289.4787
  0
LINE
  8
12_0C
  6
CONTINUOUS
 62
2
 10
1018.6049
 20
288.5123
 11
1018.6049
 21
289.4787
  0
LINE
  8
0_00
  6
CONTINUOUS
 62
2
 10
1018.0550
 20
288.5123
 11
1018.0550
 21
289.3867
  0
LINE
  8
0_00
  6
CONTINUOUS
 62
4
 10
1003.0550
 20
294.0623
 11
1014.7701
 21
294.0623
  0
LINE
  8
0_00
  6
CONTINUOUS
 62
4
 10
1025.3398
 20
294.0623
 11
1037.0550
 21
294.0623
  0
LINE
  8
0_00
  6
CONTINUOUS
 62
4
 10
1003.0550
 20
346.0623
 11
1015.4737
 21
346.0623
  0
LINE
  8
0_00
  6
CONTINUOUS
 62
4
 10
1024.6738
 20
346.0623
 11
1037.0550
 21
346.0623
  0
LINE
  8
12_0C
  6
CONTINUOUS
 62
2
 10
1016.0550
 20
351.6124
 11
1016.0550
 21
352.0123
  0
LINE
  8
12_0C
  6
CONTINUOUS
 62
2
 10
1024.0550
 20
351.6124
 11
1024.0550
 21
352.0123
  0
LINE
  8
12_0C
  6
CONTINUOUS
 62
2
 10
1024.0550
 20
351.6124
 11
1023.3429
 21
351.6124
  0
LINE
  8
12_0C
  6
CONTINUOUS
 62
2
 10
1016.8045
 20
351.6124
 11
1016.0550
 21
351.6124
  0
LINE
  8
12_0C
  6
CONTINUOUS
 62
2
 10
1024.0550
 20
352.0123
 11
1023.1604
 21
352.0123
  0
LINE
  8
12_0C
  6
CONTINUOUS
 62
2
 10
1016.9871
 20
352.0123
 11
1016.0550
 21
352.0123
  0
LINE
  8
0_00
  6
CONTINUOUS
 62
4
 10
1047.0549
 20
273.0623
 11
1047.0549
 21
297.5623
  0
LINE
  8
0_00
  6
CONTINUOUS
 62
4
 10
1047.0549
 20
342.5623
 11
1047.0549
 21
367.0623
  0
LINE
  8
0_00
  6
CONTINUOUS
 62
4
 10
1044.0549
 20
343.3123
 11
1044.0549
 21
342.5623
  0
LINE
  8
0_00
  6
CONTINUOUS
 62
4
 10
1044.0549
 20
297.5623
 11
1044.0549
 21
296.8123
  0
LINE
  8
0_00
  6
CONTINUOUS
 62
4
 10
993.0549
 20
273.0623
 11
993.0549
 21
297.5623
  0
LINE
  8
0_00
  6
CONTINUOUS
 62
4
 10
993.0549
 20
342.5623
 11
993.0549
 21
367.0623
  0
LINE
  8
0_00
  6
CONTINUOUS
 62
4
 10
996.0549
 20
296.8123
 11
996.0549
 21
297.5623
  0
LINE
  8
0_00
  6
CONTINUOUS
 62
4
 10
996.0549
 20
342.5623
 11
996.0549
 21
343.3123
  0
LINE
  8
0_00
  6
CONTINUOUS
 62
4
 10
1037.0550
 20
350.3123
 11
1023.5738
 21
350.3123
  0
LINE
  8
0_00
  6
CONTINUOUS
 62
4
 10
1016.5737
 20
350.3123
 11
1003.0550
 21
350.3123
  0
LINE
  8
0_00
  6
CONTINUOUS
 62
4
 10
605.0549
 20
268.0623
 11
605.0549
 21
372.0623
  0
LINE
  8
0_00
  6
CONTINUOUS
 62
4
 10
605.0549
 20
268.0623
 11
715.0550
 21
268.0623
  0
LINE
  8
0_00
  6
CONTINUOUS
 62
4
 10
605.0549
 20
372.0623
 11
715.0550
 21
372.0623
  0
LINE
  8
0_00
  6
CONTINUOUS
 62
4
 10
625.0550
 20
372.0623
 11
625.0550
 21
268.0623
  0
LINE
  8
0_00
  6
CONTINUOUS
 62
4
 10
695.0549
 20
372.0623
 11
695.0549
 21
268.0623
  0
LINE
  8
0_00
  6
CONTINUOUS
 62
4
 10
673.4639
 20
372.0623
 11
673.4639
 21
268.0623
  0
LINE
  8
0_00
  6
CONTINUOUS
 62
4
 10
646.6459
 20
372.0623
 11
646.6459
 21
268.0623
  0
LINE
  8
0_00
  6
CONTINUOUS
 62
4
 10
649.0662
 20
372.0623
 11
649.0662
 21
268.0623
  0
LINE
  8
0_00
  6
CONTINUOUS
 62
4
 10
671.0437
 20
372.0623
 11
671.0437
 21
268.0623
  0
LINE
  8
0_00
  6
CONTINUOUS
 62
4
 10
715.0550
 20
372.0623
 11
715.0550
 21
268.0623
  0
LINE
  8
0_00
  6
CONTINUOUS
 62
2
 10
690.0549
 20
393.3623
 11
630.0549
 21
393.3623
  0
LINE
  8
0_00
  6
CONTINUOUS
 62
2
 10
690.0549
 20
388.3624
 11
630.0549
 21
388.3624
  0
LINE
  8
0_00
  6
CONTINUOUS
 62
2
 10
690.0549
 20
251.7623
 11
630.0549
 21
251.7623
  0
LINE
  8
0_00
  6
CONTINUOUS
 62
2
 10
690.0549
 20
246.7623
 11
630.0549
 21
246.7623
  0
LINE
  8
0_00
  6
CONTINUOUS
 62
4
 10
630.0549
 20
403.8623
 11
690.0549
 21
403.8623
  0
LINE
  8
0_00
  6
CONTINUOUS
 62
4
 10
630.0549
 20
398.5623
 11
690.0549
 21
398.5623
  0
LINE
  8
0_00
  6
CONTINUOUS
 62
4
 10
630.0549
 20
394.8623
 11
690.0549
 21
394.8623
  0
LINE
  8
0_00
  6
CONTINUOUS
 62
4
 10
630.0549
 20
387.3623
 11
690.0549
 21
387.3623
  0
LINE
  8
0_00
  6
CONTINUOUS
 62
4
 10
630.0549
 20
374.3623
 11
690.0549
 21
374.3623
  0
LINE
  8
0_00
  6
CONTINUOUS
 62
4
 10
630.0549
 20
372.3623
 11
690.0549
 21
372.3623
  0
LINE
  8
0_00
  6
CONTINUOUS
 62
4
 10
630.0549
 20
265.7623
 11
690.0549
 21
265.7623
  0
LINE
  8
0_00
  6
CONTINUOUS
 62
4
 10
630.0549
 20
267.7623
 11
690.0549
 21
267.7623
  0
LINE
  8
0_00
  6
CONTINUOUS
 62
4
 10
630.0549
 20
252.7623
 11
690.0549
 21
252.7623
  0
LINE
  8
0_00
  6
CONTINUOUS
 62
4
 10
630.0549
 20
241.5623
 11
690.0549
 21
241.5623
  0
LINE
  8
0_00
  6
CONTINUOUS
 62
4
 10
630.0549
 20
236.2623
 11
690.0549
 21
236.2623
  0
LINE
  8
0_00
  6
CONTINUOUS
 62
4
 10
690.0549
 20
408.4623
 11
690.0549
 21
372.0623
  0
LINE
  8
0_00
  6
CONTINUOUS
 62
4
 10
690.0549
 20
268.0623
 11
690.0549
 21
231.6623
  0
LINE
  8
0_00
  6
CONTINUOUS
 62
4
 10
630.0549
 20
408.4623
 11
630.0549
 21
372.0623
  0
LINE
  8
0_00
  6
CONTINUOUS
 62
4
 10
630.0549
 20
268.0623
 11
630.0549
 21
231.6623
  0
LINE
  8
0_00
  6
CONTINUOUS
 62
4
 10
836.2222
 20
231.6623
 11
564.4721
 21
231.6623
  0
LINE
  8
0_00
  6
CONTINUOUS
 62
4
 10
835.7934
 20
230.0623
 11
564.4721
 21
230.0623
  0
LINE
  8
0_00
  6
CONTINUOUS
 62
4
 10
1136.2301
 20
230.0623
 11
840.4523
 21
230.0623
  0
LINE
  8
0_00
  6
CONTINUOUS
 62
4
 10
863.0798
 20
410.0624
 11
1136.2301
 21
410.0624
  0
LINE
  8
0_00
  6
CONTINUOUS
 62
4
 10
564.4721
 20
410.0624
 11
858.4211
 21
410.0624
  0
LINE
  8
0_00
  6
CONTINUOUS
 62
4
 10
564.4721
 20
408.4623
 11
857.9924
 21
408.4623
  0
LINE
  8
0_00
  6
CONTINUOUS
 62
2
 10
678.9405
 20
350.7067
 11
680.0400
 21
349.6455
  0
LINE
  8
0_00
  6
CONTINUOUS
 62
2
 10
680.0400
 20
349.6455
 11
680.5549
 21
349.4576
  0
LINE
  8
0_00
  6
CONTINUOUS
 62
2
 10
680.5549
 20
349.4576
 11
681.0420
 21
349.6350
  0
LINE
  8
0_00
  6
CONTINUOUS
 62
2
 10
681.0420
 20
349.6350
 11
682.1763
 21
350.7032
  0
LINE
  8
0_00
  6
CONTINUOUS
 62
2
 10
677.9106
 20
349.6768
 11
678.9718
 21
348.5773
  0
LINE
  8
0_00
  6
CONTINUOUS
 62
2
 10
678.9718
 20
348.5773
 11
679.1597
 21
348.0623
  0
LINE
  8
0_00
  6
CONTINUOUS
 62
2
 10
679.1597
 20
348.0623
 11
678.9822
 21
347.5752
  0
LINE
  8
0_00
  6
CONTINUOUS
 62
2
 10
678.9822
 20
347.5752
 11
677.9140
 21
346.4409
  0
LINE
  8
0_00
  6
CONTINUOUS
 62
2
 10
683.1993
 20
346.4479
 11
682.1380
 21
347.5474
  0
LINE
  8
0_00
  6
CONTINUOUS
 62
2
 10
682.1380
 20
347.5474
 11
681.9502
 21
348.0623
  0
LINE
  8
0_00
  6
CONTINUOUS
 62
2
 10
681.9502
 20
348.0623
 11
682.1276
 21
348.5494
  0
LINE
  8
0_00
  6
CONTINUOUS
 62
2
 10
682.1276
 20
348.5494
 11
683.1958
 21
349.6838
  0
LINE
  8
0_00
  6
CONTINUOUS
 62
2
 10
682.1694
 20
345.4180
 11
681.0699
 21
346.4792
  0
LINE
  8
0_00
  6
CONTINUOUS
 62
2
 10
681.0699
 20
346.4792
 11
680.5549
 21
346.6671
  0
LINE
  8
0_00
  6
CONTINUOUS
 62
2
 10
680.5549
 20
346.6671
 11
680.0678
 21
346.4896
  0
LINE
  8
0_00
  6
CONTINUOUS
 62
2
 10
680.0678
 20
346.4896
 11
678.9336
 21
345.4214
  0
LINE
  8
0_00
  6
CONTINUOUS
 62
2
 10
637.9405
 20
350.7067
 11
639.0400
 21
349.6455
  0
LINE
  8
0_00
  6
CONTINUOUS
 62
2
 10
639.0400
 20
349.6455
 11
639.5549
 21
349.4576
  0
LINE
  8
0_00
  6
CONTINUOUS
 62
2
 10
639.5549
 20
349.4576
 11
640.0420
 21
349.6350
  0
LINE
  8
0_00
  6
CONTINUOUS
 62
2
 10
640.0420
 20
349.6350
 11
641.1763
 21
350.7032
  0
LINE
  8
0_00
  6
CONTINUOUS
 62
2
 10
636.9106
 20
349.6768
 11
637.9718
 21
348.5773
  0
LINE
  8
0_00
  6
CONTINUOUS
 62
2
 10
637.9718
 20
348.5773
 11
638.1596
 21
348.0623
  0
LINE
  8
0_00
  6
CONTINUOUS
 62
2
 10
638.1596
 20
348.0623
 11
637.9822
 21
347.5752
  0
LINE
  8
0_00
  6
CONTINUOUS
 62
2
 10
637.9822
 20
347.5752
 11
636.9140
 21
346.4409
  0
LINE
  8
0_00
  6
CONTINUOUS
 62
2
 10
642.1993
 20
346.4479
 11
641.1380
 21
347.5474
  0
LINE
  8
0_00
  6
CONTINUOUS
 62
2
 10
641.1380
 20
347.5474
 11
640.9502
 21
348.0623
  0
LINE
  8
0_00
  6
CONTINUOUS
 62
2
 10
640.9502
 20
348.0623
 11
641.1276
 21
348.5494
  0
LINE
  8
0_00
  6
CONTINUOUS
 62
2
 10
641.1276
 20
348.5494
 11
642.1958
 21
349.6838
  0
LINE
  8
0_00
  6
CONTINUOUS
 62
2
 10
641.1694
 20
345.4180
 11
640.0698
 21
346.4792
  0
LINE
  8
0_00
  6
CONTINUOUS
 62
2
 10
640.0698
 20
346.4792
 11
639.5549
 21
346.6671
  0
LINE
  8
0_00
  6
CONTINUOUS
 62
2
 10
639.5549
 20
346.6671
 11
639.0678
 21
346.4896
  0
LINE
  8
0_00
  6
CONTINUOUS
 62
2
 10
639.0678
 20
346.4896
 11
637.9335
 21
345.4214
  0
LINE
  8
0_00
  6
CENTER1
 62
6
 10
680.5549
 20
360.8848
 11
680.5549
 21
278.6143
  0
LINE
  8
0_00
  6
CENTER1
 62
6
 10
639.5549
 20
360.8848
 11
639.5549
 21
278.6143
  0
LINE
  8
0_00
  6
CENTER1
 62
6
 10
627.2915
 20
348.0623
 11
692.2896
 21
348.0623
  0
LINE
  8
0_00
  6
CONTINUOUS
 62
2
 10
678.9405
 20
289.4180
 11
680.0400
 21
290.4792
  0
LINE
  8
0_00
  6
CONTINUOUS
 62
2
 10
680.0400
 20
290.4792
 11
680.5549
 21
290.6671
  0
LINE
  8
0_00
  6
CONTINUOUS
 62
2
 10
680.5549
 20
290.6671
 11
681.0420
 21
290.4896
  0
LINE
  8
0_00
  6
CONTINUOUS
 62
2
 10
681.0420
 20
290.4896
 11
682.1763
 21
289.4214
  0
LINE
  8
0_00
  6
CONTINUOUS
 62
2
 10
677.9106
 20
290.4479
 11
678.9718
 21
291.5474
  0
LINE
  8
0_00
  6
CONTINUOUS
 62
2
 10
678.9718
 20
291.5474
 11
679.1597
 21
292.0623
  0
LINE
  8
0_00
  6
CONTINUOUS
 62
2
 10
679.1597
 20
292.0623
 11
678.9822
 21
292.5494
  0
LINE
  8
0_00
  6
CONTINUOUS
 62
2
 10
678.9822
 20
292.5494
 11
677.9140
 21
293.6837
  0
LINE
  8
0_00
  6
CONTINUOUS
 62
2
 10
683.1993
 20
293.6768
 11
682.1380
 21
292.5773
  0
LINE
  8
0_00
  6
CONTINUOUS
 62
2
 10
682.1380
 20
292.5773
 11
681.9502
 21
292.0623
  0
LINE
  8
0_00
  6
CONTINUOUS
 62
2
 10
681.9502
 20
292.0623
 11
682.1276
 21
291.5752
  0
LINE
  8
0_00
  6
CONTINUOUS
 62
2
 10
682.1276
 20
291.5752
 11
683.1958
 21
290.4409
  0
LINE
  8
0_00
  6
CONTINUOUS
 62
2
 10
682.1694
 20
294.7067
 11
681.0699
 21
293.6455
  0
LINE
  8
0_00
  6
CONTINUOUS
 62
2
 10
681.0699
 20
293.6455
 11
680.5549
 21
293.4576
  0
LINE
  8
0_00
  6
CONTINUOUS
 62
2
 10
680.5549
 20
293.4576
 11
680.0678
 21
293.6350
  0
LINE
  8
0_00
  6
CONTINUOUS
 62
2
 10
680.0678
 20
293.6350
 11
678.9336
 21
294.7032
  0
LINE
  8
0_00
  6
CONTINUOUS
 62
2
 10
637.9405
 20
289.4180
 11
639.0400
 21
290.4792
  0
LINE
  8
0_00
  6
CONTINUOUS
 62
2
 10
639.0400
 20
290.4792
 11
639.5549
 21
290.6671
  0
LINE
  8
0_00
  6
CONTINUOUS
 62
2
 10
639.5549
 20
290.6671
 11
640.0420
 21
290.4896
  0
LINE
  8
0_00
  6
CONTINUOUS
 62
2
 10
640.0420
 20
290.4896
 11
641.1763
 21
289.4214
  0
LINE
  8
0_00
  6
CONTINUOUS
 62
2
 10
636.9106
 20
290.4479
 11
637.9718
 21
291.5474
  0
LINE
  8
0_00
  6
CONTINUOUS
 62
2
 10
637.9718
 20
291.5474
 11
638.1596
 21
292.0623
  0
LINE
  8
0_00
  6
CONTINUOUS
 62
2
 10
638.1596
 20
292.0623
 11
637.9822
 21
292.5494
  0
LINE
  8
0_00
  6
CONTINUOUS
 62
2
 10
637.9822
 20
292.5494
 11
636.9140
 21
293.6837
  0
LINE
  8
0_00
  6
CONTINUOUS
 62
2
 10
642.1993
 20
293.6768
 11
641.1380
 21
292.5773
  0
LINE
  8
0_00
  6
CONTINUOUS
 62
2
 10
641.1380
 20
292.5773
 11
640.9502
 21
292.0623
  0
LINE
  8
0_00
  6
CONTINUOUS
 62
2
 10
640.9502
 20
292.0623
 11
641.1276
 21
291.5752
  0
LINE
  8
0_00
  6
CONTINUOUS
 62
2
 10
641.1276
 20
291.5752
 11
642.1958
 21
290.4409
  0
LINE
  8
0_00
  6
CONTINUOUS
 62
2
 10
641.1694
 20
294.7067
 11
640.0698
 21
293.6455
  0
LINE
  8
0_00
  6
CONTINUOUS
 62
2
 10
640.0698
 20
293.6455
 11
639.5549
 21
293.4576
  0
LINE
  8
0_00
  6
CONTINUOUS
 62
2
 10
639.5549
 20
293.4576
 11
639.0678
 21
293.6350
  0
LINE
  8
0_00
  6
CONTINUOUS
 62
2
 10
639.0678
 20
293.6350
 11
637.9335
 21
294.7032
  0
LINE
  8
0_00
  6
CENTER1
 62
6
 10
627.2915
 20
292.0623
 11
692.2896
 21
292.0623
  0
LINE
  8
0_00
  6
CENTER1
 62
6
 10
349.2032
 20
323.2053
 11
349.2032
 21
258.1366
  0
LINE
  8
0_00
  6
CENTER1
 62
6
 10
293.2032
 20
323.2053
 11
293.2032
 21
258.1366
  0
LINE
  8
13_0D
  6
DASHED
 62
2
 10
296.2032
 20
315.9546
 11
296.2032
 21
271.1507
  0
LINE
  8
13_0D
  6
DASHED
 62
2
 10
295.6617
 20
315.9546
 11
295.6617
 21
270.2129
  0
LINE
  8
13_0D
  6
DASHED
 62
2
 10
290.2032
 20
315.9546
 11
290.2032
 21
271.1507
  0
LINE
  8
13_0D
  6
DASHED
 62
2
 10
290.7447
 20
315.9546
 11
290.7447
 21
270.2129
  0
LINE
  8
13_0D
  6
DASHED
 62
2
 10
293.2032
 20
265.9546
 11
290.2032
 21
271.1507
  0
LINE
  8
13_0D
  6
DASHED
 62
2
 10
293.2032
 20
265.9546
 11
296.2032
 21
271.1507
  0
LINE
  8
11_0B
  6
DASHED
 62
2
 10
289.2032
 20
307.8546
 11
289.2032
 21
295.9216
  0
LINE
  8
11_0B
  6
DASHED
 62
2
 10
288.5714
 20
292.7859
 11
288.3929
 21
290.7464
  0
LINE
  8
11_0B
  6
DASHED
 62
2
 10
288.1356
 20
287.8049
 11
287.9572
 21
285.7655
  0
LINE
  8
11_0B
  6
DASHED
 62
2
 10
287.6998
 20
282.8239
 11
287.5214
 21
280.7845
  0
LINE
  8
11_0B
  6
DASHED
 62
2
 10
287.2641
 20
277.8430
 11
287.0856
 21
275.8035
  0
LINE
  8
11_0B
  6
DASHED
 62
2
 10
286.8282
 20
272.8620
 11
286.6680
 21
271.0298
  0
LINE
  8
11_0B
  6
DASHED
 62
2
 10
297.2032
 20
307.8546
 11
297.2032
 21
295.9216
  0
LINE
  8
11_0B
  6
DASHED
 62
2
 10
297.8350
 20
292.7859
 11
298.0134
 21
290.7464
  0
LINE
  8
11_0B
  6
DASHED
 62
2
 10
298.2708
 20
287.8049
 11
298.4492
 21
285.7655
  0
LINE
  8
11_0B
  6
DASHED
 62
2
 10
298.7065
 20
282.8239
 11
298.8850
 21
280.7845
  0
LINE
  8
11_0B
  6
DASHED
 62
2
 10
299.1423
 20
277.8430
 11
299.3207
 21
275.8035
  0
LINE
  8
11_0B
  6
DASHED
 62
2
 10
299.5781
 20
272.8620
 11
299.7384
 21
271.0298
  0
LINE
  8
11_0B
  6
DASHED
 62
2
 10
292.7032
 20
299.8546
 11
293.7032
 21
299.8546
  0
LINE
  8
11_0B
  6
DASHED
 62
2
 10
293.7032
 20
299.8546
 11
296.4922
 21
267.9764
  0
LINE
  8
11_0B
  6
DASHED
 62
2
 10
289.9142
 20
267.9764
 11
292.7032
 21
299.8546
  0
LINE
  8
11_0B
  6
DASHED
 62
2
 10
287.9218
 20
268.1507
 11
289.9142
 21
267.9764
  0
LINE
  8
11_0B
  6
DASHED
 62
2
 10
296.4922
 20
267.9764
 11
298.4846
 21
268.1507
  0
LINE
  8
11_0B
  6
DASHED
 62
2
 10
298.4846
 20
268.1507
 11
299.6844
 21
270.7239
  0
LINE
  8
11_0B
  6
DASHED
 62
2
 10
287.9218
 20
268.1507
 11
286.7219
 21
270.7239
  0
LINE
  8
11_0B
  6
DASHED
 62
2
 10
286.6539
 20
270.8696
 11
290.1406
 21
270.5646
  0
LINE
  8
11_0B
  6
DASHED
 62
2
 10
296.2657
 20
270.5646
 11
299.7524
 21
270.8696
  0
LINE
  8
11_0B
  6
DASHED
 62
2
 10
286.8282
 20
272.8620
 11
289.0199
 21
272.6702
  0
LINE
  8
11_0B
  6
DASHED
 62
2
 10
297.3865
 20
272.6702
 11
299.5781
 21
272.8620
  0
LINE
  8
11_0B
  6
DASHED
 62
2
 10
287.2641
 20
277.8430
 11
289.4556
 21
277.6512
  0
LINE
  8
11_0B
  6
DASHED
 62
2
 10
296.9507
 20
277.6512
 11
299.1423
 21
277.8430
  0
LINE
  8
11_0B
  6
DASHED
 62
2
 10
287.6998
 20
282.8239
 11
289.8915
 21
282.6322
  0
LINE
  8
11_0B
  6
DASHED
 62
2
 10
296.5149
 20
282.6322
 11
298.7065
 21
282.8239
  0
LINE
  8
11_0B
  6
DASHED
 62
2
 10
288.1356
 20
287.8049
 11
290.3272
 21
287.6132
  0
LINE
  8
11_0B
  6
DASHED
 62
2
 10
296.0791
 20
287.6132
 11
298.2708
 21
287.8049
  0
LINE
  8
11_0B
  6
DASHED
 62
2
 10
288.5714
 20
292.7859
 11
290.1653
 21
292.6464
  0
LINE
  8
11_0B
  6
DASHED
 62
2
 10
296.2411
 20
292.6464
 11
297.8350
 21
292.7859
  0
LINE
  8
11_0B
  6
DASHED
 62
2
 10
290.1292
 20
289.9390
 11
289.9287
 21
287.6480
  0
LINE
  8
11_0B
  6
DASHED
 62
2
 10
289.6934
 20
284.9581
 11
289.4930
 21
282.6671
  0
LINE
  8
11_0B
  6
DASHED
 62
2
 10
289.2576
 20
279.9771
 11
289.0572
 21
277.6861
  0
LINE
  8
11_0B
  6
DASHED
 62
2
 10
288.8218
 20
274.9961
 11
288.6214
 21
272.7051
  0
LINE
  8
11_0B
  6
DASHED
 62
2
 10
297.7850
 20
272.7051
 11
297.5845
 21
274.9961
  0
LINE
  8
11_0B
  6
DASHED
 62
2
 10
297.3491
 20
277.6861
 11
297.1487
 21
279.9771
  0
LINE
  8
11_0B
  6
DASHED
 62
2
 10
296.9134
 20
282.6671
 11
296.7130
 21
284.9581
  0
LINE
  8
11_0B
  6
DASHED
 62
2
 10
296.4776
 20
287.6480
 11
296.2772
 21
289.9390
  0
LINE
  8
11_0B
  6
DASHED
 62
2
 10
297.3202
 20
274.9253
 11
299.0258
 21
275.3823
  0
LINE
  8
11_0B
  6
DASHED
 62
2
 10
289.2482
 20
274.8819
 11
287.3806
 21
275.3823
  0
LINE
  8
11_0B
  6
DASHED
 62
2
 10
296.8844
 20
279.9063
 11
298.5900
 21
280.3633
  0
LINE
  8
11_0B
  6
DASHED
 62
2
 10
289.5219
 20
279.9063
 11
287.8163
 21
280.3633
  0
LINE
  8
11_0B
  6
DASHED
 62
2
 10
296.4486
 20
284.8873
 11
298.1543
 21
285.3443
  0
LINE
  8
11_0B
  6
DASHED
 62
2
 10
289.9577
 20
284.8873
 11
288.2521
 21
285.3443
  0
LINE
  8
11_0B
  6
DASHED
 62
2
 10
296.0129
 20
289.8682
 11
297.7184
 21
290.3253
  0
LINE
  8
11_0B
  6
DASHED
 62
2
 10
290.3935
 20
289.8682
 11
288.6879
 21
290.3253
  0
LINE
  8
11_0B
  6
DASHED
 62
2
 10
289.9660
 20
292.6639
 11
290.2351
 21
295.7396
  0
LINE
  8
11_0B
  6
DASHED
 62
2
 10
296.4403
 20
292.6639
 11
296.1712
 21
295.7396
  0
LINE
  8
11_0B
  6
DASHED
 62
2
 10
290.6884
 20
289.4470
 11
290.5439
 21
287.7950
  0
LINE
  8
11_0B
  6
DASHED
 62
2
 10
290.2527
 20
284.4660
 11
290.1081
 21
282.8140
  0
LINE
  8
11_0B
  6
DASHED
 62
2
 10
289.8169
 20
279.4850
 11
289.6723
 21
277.8330
  0
LINE
  8
11_0B
  6
DASHED
 62
2
 10
289.3957
 20
274.6713
 11
289.2365
 21
272.8521
  0
LINE
  8
11_0B
  6
DASHED
 62
2
 10
297.1698
 20
272.8521
 11
297.0253
 21
274.5041
  0
LINE
  8
11_0B
  6
DASHED
 62
2
 10
296.7340
 20
277.8330
 11
296.5895
 21
279.4850
  0
LINE
  8
11_0B
  6
DASHED
 62
2
 10
296.2982
 20
282.8140
 11
296.1537
 21
284.4660
  0
LINE
  8
11_0B
  6
DASHED
 62
2
 10
295.8625
 20
287.7950
 11
295.7179
 21
289.4470
  0
LINE
  8
11_0B
  6
DASHED
 62
2
 10
290.2696
 20
295.7335
 11
289.2032
 21
295.9216
  0
LINE
  8
11_0B
  6
DASHED
 62
2
 10
296.1367
 20
295.7335
 11
297.2032
 21
295.9216
  0
LINE
  8
11_0B
  6
DASHED
 62
2
 10
298.2708
 20
287.8049
 11
301.0600
 21
293.7866
  0
LINE
  8
11_0B
  6
DASHED
 62
2
 10
300.1537
 20
294.2092
 11
297.1205
 21
287.7043
  0
LINE
  8
11_0B
  6
DASHED
 62
2
 10
288.1356
 20
287.8049
 11
285.3463
 21
293.7866
  0
LINE
  8
11_0B
  6
DASHED
 62
2
 10
286.2526
 20
294.2092
 11
289.2859
 21
287.7043
  0
LINE
  8
11_0B
  6
DASHED
 62
2
 10
300.8665
 20
294.3181
 11
300.6853
 21
294.4026
  0
LINE
  8
11_0B
  6
DASHED
 62
2
 10
285.5398
 20
294.3181
 11
285.7210
 21
294.4026
  0
LINE
  8
11_0B
  6
DASHED
 62
2
 10
290.5986
 20
295.3047
 11
290.3820
 21
292.8283
  0
LINE
  8
11_0B
  6
DASHED
 62
2
 10
295.8077
 20
295.3047
 11
296.2772
 21
289.9390
  0
LINE
  8
13_0D
  6
CONTINUOUS
 62
2
 10
293.2032
 20
315.9546
 11
300.2032
 21
315.9546
  0
LINE
  8
13_0D
  6
CONTINUOUS
 62
2
 10
300.2032
 20
315.9546
 11
300.2032
 21
316.3693
  0
LINE
  8
13_0D
  6
CONTINUOUS
 62
2
 10
300.2032
 20
316.3693
 11
293.2032
 21
316.3693
  0
LINE
  8
13_0D
  6
CONTINUOUS
 62
2
 10
293.2032
 20
315.9546
 11
286.2032
 21
315.9546
  0
LINE
  8
13_0D
  6
CONTINUOUS
 62
2
 10
286.2032
 20
315.9546
 11
286.2032
 21
316.3693
  0
LINE
  8
13_0D
  6
CONTINUOUS
 62
2
 10
286.2032
 20
316.3693
 11
293.2032
 21
316.3693
  0
LINE
  8
13_0D
  6
DASHED
 62
2
 10
352.2032
 20
315.9546
 11
352.2032
 21
271.1507
  0
LINE
  8
13_0D
  6
DASHED
 62
2
 10
351.6617
 20
315.9546
 11
351.6617
 21
270.2129
  0
LINE
  8
13_0D
  6
DASHED
 62
2
 10
346.2032
 20
315.9546
 11
346.2032
 21
271.1507
  0
LINE
  8
13_0D
  6
DASHED
 62
2
 10
346.7447
 20
315.9546
 11
346.7447
 21
270.2129
  0
LINE
  8
13_0D
  6
DASHED
 62
2
 10
349.2032
 20
265.9546
 11
346.2032
 21
271.1507
  0
LINE
  8
13_0D
  6
DASHED
 62
2
 10
349.2032
 20
265.9546
 11
352.2032
 21
271.1507
  0
LINE
  8
11_0B
  6
DASHED
 62
2
 10
345.2032
 20
307.8546
 11
345.2032
 21
295.9216
  0
LINE
  8
11_0B
  6
DASHED
 62
2
 10
344.5714
 20
292.7859
 11
344.3930
 21
290.7464
  0
LINE
  8
11_0B
  6
DASHED
 62
2
 10
344.1356
 20
287.8049
 11
343.9571
 21
285.7655
  0
LINE
  8
11_0B
  6
DASHED
 62
2
 10
343.6998
 20
282.8239
 11
343.5214
 21
280.7845
  0
LINE
  8
11_0B
  6
DASHED
 62
2
 10
343.2640
 20
277.8430
 11
343.0856
 21
275.8035
  0
LINE
  8
11_0B
  6
DASHED
 62
2
 10
342.8283
 20
272.8620
 11
342.6679
 21
271.0298
  0
LINE
  8
11_0B
  6
DASHED
 62
2
 10
353.2032
 20
307.8546
 11
353.2032
 21
295.9216
  0
LINE
  8
11_0B
  6
DASHED
 62
2
 10
353.8350
 20
292.7859
 11
354.0134
 21
290.7464
  0
LINE
  8
11_0B
  6
DASHED
 62
2
 10
354.2707
 20
287.8049
 11
354.4492
 21
285.7655
  0
LINE
  8
11_0B
  6
DASHED
 62
2
 10
354.7066
 20
282.8239
 11
354.8849
 21
280.7845
  0
LINE
  8
11_0B
  6
DASHED
 62
2
 10
355.1423
 20
277.8430
 11
355.3207
 21
275.8035
  0
LINE
  8
11_0B
  6
DASHED
 62
2
 10
355.5781
 20
272.8620
 11
355.7384
 21
271.0298
  0
LINE
  8
11_0B
  6
DASHED
 62
2
 10
348.7032
 20
299.8546
 11
349.7032
 21
299.8546
  0
LINE
  8
11_0B
  6
DASHED
 62
2
 10
349.7032
 20
299.8546
 11
352.4921
 21
267.9764
  0
LINE
  8
11_0B
  6
DASHED
 62
2
 10
345.9142
 20
267.9764
 11
348.7032
 21
299.8546
  0
LINE
  8
11_0B
  6
DASHED
 62
2
 10
343.9218
 20
268.1507
 11
345.9142
 21
267.9764
  0
LINE
  8
11_0B
  6
DASHED
 62
2
 10
352.4921
 20
267.9764
 11
354.4846
 21
268.1507
  0
LINE
  8
11_0B
  6
DASHED
 62
2
 10
354.4846
 20
268.1507
 11
355.6845
 21
270.7239
  0
LINE
  8
11_0B
  6
DASHED
 62
2
 10
343.9218
 20
268.1507
 11
342.7219
 21
270.7239
  0
LINE
  8
11_0B
  6
DASHED
 62
2
 10
342.6539
 20
270.8696
 11
346.1406
 21
270.5646
  0
LINE
  8
11_0B
  6
DASHED
 62
2
 10
352.2657
 20
270.5646
 11
355.7524
 21
270.8696
  0
LINE
  8
11_0B
  6
DASHED
 62
2
 10
342.8283
 20
272.8620
 11
345.0199
 21
272.6702
  0
LINE
  8
11_0B
  6
DASHED
 62
2
 10
353.3865
 20
272.6702
 11
355.5781
 21
272.8620
  0
LINE
  8
11_0B
  6
DASHED
 62
2
 10
343.2640
 20
277.8430
 11
345.4557
 21
277.6512
  0
LINE
  8
11_0B
  6
DASHED
 62
2
 10
352.9507
 20
277.6512
 11
355.1423
 21
277.8430
  0
LINE
  8
11_0B
  6
DASHED
 62
2
 10
343.6998
 20
282.8239
 11
345.8914
 21
282.6322
  0
LINE
  8
11_0B
  6
DASHED
 62
2
 10
352.5149
 20
282.6322
 11
354.7066
 21
282.8239
  0
LINE
  8
11_0B
  6
DASHED
 62
2
 10
344.1356
 20
287.8049
 11
346.3272
 21
287.6132
  0
LINE
  8
11_0B
  6
DASHED
 62
2
 10
352.0791
 20
287.6132
 11
354.2707
 21
287.8049
  0
LINE
  8
11_0B
  6
DASHED
 62
2
 10
344.5714
 20
292.7859
 11
346.1653
 21
292.6464
  0
LINE
  8
11_0B
  6
DASHED
 62
2
 10
352.2410
 20
292.6464
 11
353.8350
 21
292.7859
  0
LINE
  8
11_0B
  6
DASHED
 62
2
 10
346.1292
 20
289.9390
 11
345.9287
 21
287.6480
  0
LINE
  8
11_0B
  6
DASHED
 62
2
 10
345.6934
 20
284.9581
 11
345.4930
 21
282.6671
  0
LINE
  8
11_0B
  6
DASHED
 62
2
 10
345.2577
 20
279.9771
 11
345.0572
 21
277.6861
  0
LINE
  8
11_0B
  6
DASHED
 62
2
 10
344.8218
 20
274.9961
 11
344.6214
 21
272.7051
  0
LINE
  8
11_0B
  6
DASHED
 62
2
 10
353.7849
 20
272.7051
 11
353.5845
 21
274.9961
  0
LINE
  8
11_0B
  6
DASHED
 62
2
 10
353.3492
 20
277.6861
 11
353.1487
 21
279.9771
  0
LINE
  8
11_0B
  6
DASHED
 62
2
 10
352.9134
 20
282.6671
 11
352.7130
 21
284.9581
  0
LINE
  8
11_0B
  6
DASHED
 62
2
 10
352.4776
 20
287.6480
 11
352.2772
 21
289.9390
  0
LINE
  8
11_0B
  6
DASHED
 62
2
 10
353.3202
 20
274.9253
 11
355.0258
 21
275.3823
  0
LINE
  8
11_0B
  6
DASHED
 62
2
 10
345.2482
 20
274.8819
 11
343.3805
 21
275.3823
  0
LINE
  8
11_0B
  6
DASHED
 62
2
 10
352.8844
 20
279.9063
 11
354.5900
 21
280.3633
  0
LINE
  8
11_0B
  6
DASHED
 62
2
 10
345.5219
 20
279.9063
 11
343.8164
 21
280.3633
  0
LINE
  8
11_0B
  6
DASHED
 62
2
 10
352.4486
 20
284.8873
 11
354.1542
 21
285.3443
  0
LINE
  8
11_0B
  6
DASHED
 62
2
 10
345.9577
 20
284.8873
 11
344.2521
 21
285.3443
  0
LINE
  8
11_0B
  6
DASHED
 62
2
 10
352.0129
 20
289.8682
 11
353.7185
 21
290.3253
  0
LINE
  8
11_0B
  6
DASHED
 62
2
 10
346.3935
 20
289.8682
 11
344.6879
 21
290.3253
  0
LINE
  8
11_0B
  6
DASHED
 62
2
 10
345.9660
 20
292.6639
 11
346.2351
 21
295.7396
  0
LINE
  8
11_0B
  6
DASHED
 62
2
 10
352.4403
 20
292.6639
 11
352.1712
 21
295.7396
  0
LINE
  8
11_0B
  6
DASHED
 62
2
 10
346.6884
 20
289.4470
 11
346.5439
 21
287.7950
  0
LINE
  8
11_0B
  6
DASHED
 62
2
 10
346.2526
 20
284.4660
 11
346.1081
 21
282.8140
  0
LINE
  8
11_0B
  6
DASHED
 62
2
 10
345.8169
 20
279.4850
 11
345.6723
 21
277.8330
  0
LINE
  8
11_0B
  6
DASHED
 62
2
 10
345.3957
 20
274.6713
 11
345.2365
 21
272.8521
  0
LINE
  8
11_0B
  6
DASHED
 62
2
 10
353.1698
 20
272.8521
 11
353.0253
 21
274.5041
  0
LINE
  8
11_0B
  6
DASHED
 62
2
 10
352.7340
 20
277.8330
 11
352.5895
 21
279.4850
  0
LINE
  8
11_0B
  6
DASHED
 62
2
 10
352.2982
 20
282.8140
 11
352.1537
 21
284.4660
  0
LINE
  8
11_0B
  6
DASHED
 62
2
 10
351.8625
 20
287.7950
 11
351.7179
 21
289.4470
  0
LINE
  8
11_0B
  6
DASHED
 62
2
 10
346.2696
 20
295.7335
 11
345.2032
 21
295.9216
  0
LINE
  8
11_0B
  6
DASHED
 62
2
 10
352.1368
 20
295.7335
 11
353.2032
 21
295.9216
  0
LINE
  8
11_0B
  6
DASHED
 62
2
 10
354.2707
 20
287.8049
 11
357.0600
 21
293.7866
  0
LINE
  8
11_0B
  6
DASHED
 62
2
 10
356.1537
 20
294.2092
 11
353.1204
 21
287.7043
  0
LINE
  8
11_0B
  6
DASHED
 62
2
 10
344.1356
 20
287.8049
 11
341.3463
 21
293.7866
  0
LINE
  8
11_0B
  6
DASHED
 62
2
 10
342.2526
 20
294.2092
 11
345.2859
 21
287.7043
  0
LINE
  8
11_0B
  6
DASHED
 62
2
 10
356.8666
 20
294.3181
 11
356.6853
 21
294.4026
  0
LINE
  8
11_0B
  6
DASHED
 62
2
 10
341.5398
 20
294.3181
 11
341.7210
 21
294.4026
  0
LINE
  8
11_0B
  6
DASHED
 62
2
 10
346.5986
 20
295.3047
 11
346.3820
 21
292.8283
  0
LINE
  8
11_0B
  6
DASHED
 62
2
 10
351.8077
 20
295.3047
 11
352.2772
 21
289.9390
  0
LINE
  8
13_0D
  6
CONTINUOUS
 62
2
 10
349.2032
 20
315.9546
 11
356.2032
 21
315.9546
  0
LINE
  8
13_0D
  6
CONTINUOUS
 62
2
 10
356.2032
 20
315.9546
 11
356.2032
 21
316.3693
  0
LINE
  8
13_0D
  6
CONTINUOUS
 62
2
 10
356.2032
 20
316.3693
 11
349.2032
 21
316.3693
  0
LINE
  8
13_0D
  6
CONTINUOUS
 62
2
 10
349.2032
 20
315.9546
 11
342.2032
 21
315.9546
  0
LINE
  8
13_0D
  6
CONTINUOUS
 62
2
 10
342.2032
 20
315.9546
 11
342.2032
 21
316.3693
  0
LINE
  8
13_0D
  6
CONTINUOUS
 62
2
 10
342.2032
 20
316.3693
 11
349.2032
 21
316.3693
  0
LINE
  8
0_00
  6
CONTINUOUS
 62
6
 10
333.7032
 20
596.2181
 11
366.1572
 21
628.6722
  0
LINE
  8
0_00
  6
CONTINUOUS
 62
6
 10
333.7032
 20
596.2181
 11
339.9932
 21
600.3029
  0
LINE
  8
0_00
  6
CONTINUOUS
 62
6
 10
333.7032
 20
596.2181
 11
337.7880
 21
602.5081
  0
LINE
  8
0_00
  6
CONTINUOUS
 62
6
 10
366.1572
 20
628.6722
 11
455.5096
 21
628.6722
  0
LINE
  8
0_00
  6
CONTINUOUS
 62
6
 10
346.2032
 20
514.2360
 11
366.1572
 21
534.1900
  0
LINE
  8
0_00
  6
CONTINUOUS
 62
6
 10
346.2032
 20
514.2360
 11
352.4932
 21
518.3207
  0
LINE
  8
0_00
  6
CONTINUOUS
 62
6
 10
346.2032
 20
514.2360
 11
350.2880
 21
520.5260
  0
LINE
  8
0_00
  6
CONTINUOUS
 62
6
 10
366.1572
 20
534.1900
 11
389.5573
 21
534.1900
  0
LINE
  8
0_00
  6
CONTINUOUS
 62
6
 10
289.2811
 20
278.9324
 11
197.6532
 21
187.3044
  0
LINE
  8
0_00
  6
CONTINUOUS
 62
6
 10
289.2811
 20
278.9324
 11
282.9911
 21
274.8476
  0
LINE
  8
0_00
  6
CONTINUOUS
 62
6
 10
289.2811
 20
278.9324
 11
285.1964
 21
272.6423
  0
LINE
  8
0_00
  6
CONTINUOUS
 62
6
 10
222.3640
 20
212.0153
 11
160.8698
 21
212.0153
  0
LINE
  8
0_00
  6
CONTINUOUS
 62
6
 10
248.0327
 20
237.6840
 11
151.0638
 21
237.6840
  0
LINE
  8
0_00
  6
CONTINUOUS
 62
6
 10
197.6532
 20
187.3044
 11
116.2150
 21
187.3044
  0
LINE
  8
0_00
  6
CONTINUOUS
 62
6
 10
388.9837
 20
325.5629
 11
405.6428
 21
342.2220
  0
LINE
  8
0_00
  6
CONTINUOUS
 62
6
 10
388.9837
 20
325.5629
 11
395.2738
 21
329.6477
  0
LINE
  8
0_00
  6
CONTINUOUS
 62
6
 10
388.9837
 20
325.5629
 11
393.0685
 21
331.8530
  0
LINE
  8
0_00
  6
CONTINUOUS
 62
6
 10
405.6428
 20
342.2220
 11
429.0428
 21
342.2220
  0
LINE
  8
0_00
  6
CONTINUOUS
 62
6
 10
408.0401
 20
282.1380
 11
444.9378
 21
245.2403
  0
LINE
  8
0_00
  6
CONTINUOUS
 62
6
 10
408.0401
 20
282.1380
 11
412.1249
 21
275.8480
  0
LINE
  8
0_00
  6
CONTINUOUS
 62
6
 10
408.0401
 20
282.1380
 11
414.3300
 21
278.0532
  0
LINE
  8
0_00
  6
CONTINUOUS
 62
6
 10
444.9378
 20
245.2403
 11
489.9378
 21
245.2403
  0
LINE
  8
0_00
  6
CONTINUOUS
 62
6
 10
711.1328
 20
292.0469
 11
734.8702
 21
268.3095
  0
LINE
  8
0_00
  6
CONTINUOUS
 62
6
 10
711.1328
 20
292.0469
 11
715.2176
 21
285.7569
  0
LINE
  8
0_00
  6
CONTINUOUS
 62
6
 10
711.1328
 20
292.0469
 11
717.4229
 21
287.9621
  0
LINE
  8
0_00
  6
CONTINUOUS
 62
6
 10
734.8702
 20
268.3095
 11
765.4702
 21
268.3095
  0
LINE
  8
0_00
  6
CONTINUOUS
 62
6
 10
682.8679
 20
236.2623
 11
718.4335
 21
200.6967
  0
LINE
  8
0_00
  6
CONTINUOUS
 62
6
 10
682.8679
 20
236.2623
 11
686.9526
 21
229.9723
  0
LINE
  8
0_00
  6
CONTINUOUS
 62
6
 10
682.8679
 20
236.2623
 11
689.1579
 21
232.1776
  0
LINE
  8
0_00
  6
CONTINUOUS
 62
6
 10
718.4335
 20
200.6967
 11
763.4335
 21
200.6967
  0
LINE
  8
0_00
  6
CONTINUOUS
 62
6
 10
997.0854
 20
267.0519
 11
971.5841
 21
241.5506
  0
LINE
  8
0_00
  6
CONTINUOUS
 62
6
 10
997.0854
 20
267.0519
 11
990.7954
 21
262.9671
  0
LINE
  8
0_00
  6
CONTINUOUS
 62
6
 10
997.0854
 20
267.0519
 11
993.0006
 21
260.7619
  0
LINE
  8
0_00
  6
CONTINUOUS
 62
6
 10
971.5841
 20
241.5506
 11
919.3842
 21
241.5506
  0
LINE
  8
0_00
  6
CONTINUOUS
 62
6
 10
1030.0550
 20
272.5623
 11
1061.0666
 21
241.5506
  0
LINE
  8
0_00
  6
CONTINUOUS
 62
6
 10
1030.0550
 20
272.5623
 11
1034.1397
 21
266.2723
  0
LINE
  8
0_00
  6
CONTINUOUS
 62
6
 10
1030.0550
 20
272.5623
 11
1036.3450
 21
268.4775
  0
LINE
  8
0_00
  6
CONTINUOUS
 62
6
 10
1061.0666
 20
241.5506
 11
1120.4667
 21
241.5506
  0
LINE
  8
0_00
  6
CONTINUOUS
 62
4
 10
854.4018
 20
395.0624
 11
690.0549
 21
395.0624
  0
LINE
  8
0_00
  6
CONTINUOUS
 62
4
 10
630.0549
 20
395.0624
 11
564.4721
 21
395.0624
  0
LINE
  8
0_00
  6
CONTINUOUS
 62
4
 10
564.4721
 20
245.0623
 11
630.0549
 21
245.0623
  0
LINE
  8
0_00
  6
CONTINUOUS
 62
4
 10
690.0549
 20
245.0623
 11
839.8128
 21
245.0623
  0
LINE
  8
0_00
  6
CONTINUOUS
 62
4
 10
851.7223
 20
385.0623
 11
690.0549
 21
385.0623
  0
LINE
  8
0_00
  6
CONTINUOUS
 62
4
 10
630.0549
 20
385.0623
 11
564.4721
 21
385.0623
  0
LINE
  8
0_00
  6
CONTINUOUS
 62
4
 10
842.4922
 20
255.0623
 11
690.0549
 21
255.0623
  0
LINE
  8
0_00
  6
CONTINUOUS
 62
4
 10
630.0549
 20
255.0623
 11
564.4721
 21
255.0623
  0
LINE
  8
15_0F
  6
CONTINUOUS
 62
6
 10
351.2032
 20
742.3909
 11
351.2032
 21
784.5000
  0
LINE
  8
15_0F
  6
CONTINUOUS
 62
6
 10
291.2032
 20
742.3909
 11
291.2032
 21
784.5000
  0
LINE
  8
15_0F
  6
CONTINUOUS
 62
6
 10
291.2032
 20
780.0000
 11
351.2032
 21
780.0000
  0
LINE
  8
15_0F
  6
CONTINUOUS
 62
6
 10
291.2032
 20
780.0000
 11
298.5393
 21
778.4407
  0
LINE
  8
15_0F
  6
CONTINUOUS
 62
6
 10
291.2032
 20
780.0000
 11
298.5393
 21
781.5593
  0
LINE
  8
15_0F
  6
CONTINUOUS
 62
6
 10
351.2032
 20
780.0000
 11
343.8671
 21
781.5593
  0
LINE
  8
15_0F
  6
CONTINUOUS
 62
6
 10
351.2032
 20
780.0000
 11
343.8671
 21
778.4407
  0
LINE
  8
0_00
  6
CONTINUOUS
 62
4
 10
190.0032
 20
795.0000
 11
221.2032
 21
795.0000
  0
LINE
  8
0_00
  6
CONTINUOUS
 62
4
 10
221.2032
 20
795.0000
 11
221.2032
 21
809.4001
  0
LINE
  8
0_00
  6
CONTINUOUS
 62
4
 10
190.0032
 20
809.4001
 11
221.2032
 21
809.4001
  0
LINE
  8
0_00
  6
CONTINUOUS
 62
4
 10
190.0032
 20
795.0000
 11
190.0032
 21
809.4001
  0
LINE
  8
0_00
  6
CONTINUOUS
 62
4
 10
421.2032
 20
795.0000
 11
452.4032
 21
795.0000
  0
LINE
  8
0_00
  6
CONTINUOUS
 62
4
 10
452.4032
 20
795.0000
 11
452.4032
 21
809.4001
  0
LINE
  8
0_00
  6
CONTINUOUS
 62
4
 10
421.2032
 20
809.4001
 11
452.4032
 21
809.4001
  0
LINE
  8
0_00
  6
CONTINUOUS
 62
4
 10
421.2032
 20
795.0000
 11
421.2032
 21
809.4001
  0
LINE
  8
0_00
  6
CONTINUOUS
 62
4
 10
918.0549
 20
323.2725
 11
918.0549
 21
321.2498
  0
LINE
  8
0_00
  6
CONTINUOUS
 62
4
 10
918.2595
 20
324.8253
 11
919.7367
 21
330.3388
  0
LINE
  8
0_00
  6
CONTINUOUS
 62
4
 10
922.6344
 20
332.5623
 11
933.4753
 21
332.5623
  0
LINE
  8
0_00
  6
CONTINUOUS
 62
4
 10
936.3732
 20
330.3388
 11
937.8505
 21
324.8253
  0
LINE
  8
0_00
  6
CONTINUOUS
 62
4
 10
922.6344
 20
331.8623
 11
933.4753
 21
331.8623
  0
LINE
  8
0_00
  6
CONTINUOUS
 62
4
 10
935.6971
 20
330.1576
 11
937.1743
 21
324.6442
  0
LINE
  8
0_00
  6
CONTINUOUS
 62
4
 10
920.4128
 20
330.1576
 11
918.9355
 21
324.6442
  0
LINE
  8
0_00
  6
CONTINUOUS
 62
4
 10
918.7549
 20
321.1714
 11
918.7549
 21
323.2725
  0
LINE
  8
0_00
  6
CONTINUOUS
 62
4
 10
918.0549
 20
316.8522
 11
918.0549
 21
318.8749
  0
LINE
  8
0_00
  6
CONTINUOUS
 62
4
 10
918.2595
 20
315.2993
 11
919.7367
 21
309.7859
  0
LINE
  8
0_00
  6
CONTINUOUS
 62
4
 10
922.6344
 20
307.5623
 11
933.4753
 21
307.5623
  0
LINE
  8
0_00
  6
CONTINUOUS
 62
4
 10
936.3732
 20
309.7859
 11
937.8505
 21
315.2993
  0
LINE
  8
0_00
  6
CONTINUOUS
 62
4
 10
922.6344
 20
308.2623
 11
933.4753
 21
308.2623
  0
LINE
  8
0_00
  6
CONTINUOUS
 62
4
 10
935.6971
 20
309.9670
 11
937.1743
 21
315.4805
  0
LINE
  8
0_00
  6
CONTINUOUS
 62
4
 10
920.4128
 20
309.9670
 11
918.9355
 21
315.4805
  0
LINE
  8
0_00
  6
CONTINUOUS
 62
4
 10
918.7549
 20
318.9533
 11
918.7549
 21
316.8522
  0
LINE
  8
0_00
  6
CONTINUOUS
 62
4
 10
938.0549
 20
321.2498
 11
938.0549
 21
323.2725
  0
LINE
  8
0_00
  6
CONTINUOUS
 62
4
 10
933.7549
 20
321.5623
 11
933.7549
 21
322.0580
  0
LINE
  8
0_00
  6
CONTINUOUS
 62
4
 10
935.3549
 20
321.5623
 11
935.3549
 21
322.0580
  0
LINE
  8
0_00
  6
CONTINUOUS
 62
4
 10
932.7549
 20
321.2460
 11
932.7549
 21
321.4623
  0
LINE
  8
0_00
  6
CONTINUOUS
 62
4
 10
936.2673
 20
321.0510
 11
936.6256
 21
321.2578
  0
LINE
  8
0_00
  6
CONTINUOUS
 62
4
 10
938.0549
 20
318.8749
 11
938.0549
 21
316.8522
  0
LINE
  8
0_00
  6
CONTINUOUS
 62
4
 10
937.3549
 20
322.9606
 11
937.3549
 21
323.2725
  0
LINE
  8
0_00
  6
CONTINUOUS
 62
4
 10
937.3549
 20
317.1641
 11
937.3549
 21
316.8522
  0
LINE
  8
0_00
  6
CONTINUOUS
 62
4
 10
933.7549
 20
318.5623
 11
933.7549
 21
318.0667
  0
LINE
  8
0_00
  6
CONTINUOUS
 62
4
 10
935.3549
 20
318.5623
 11
935.3549
 21
318.0667
  0
LINE
  8
0_00
  6
CONTINUOUS
 62
4
 10
932.7549
 20
318.8787
 11
932.7549
 21
318.6623
  0
LINE
  8
0_00
  6
CONTINUOUS
 62
4
 10
936.2673
 20
319.0736
 11
936.6256
 21
318.8668
  0
LINE
  8
0_00
  6
CONTINUOUS
 62
4
 10
1102.0549
 20
323.2725
 11
1102.0549
 21
321.2498
  0
LINE
  8
0_00
  6
CONTINUOUS
 62
4
 10
1102.2594
 20
324.8253
 11
1103.7367
 21
330.3388
  0
LINE
  8
0_00
  6
CONTINUOUS
 62
4
 10
1106.6345
 20
332.5623
 11
1117.4753
 21
332.5623
  0
LINE
  8
0_00
  6
CONTINUOUS
 62
4
 10
1120.3732
 20
330.3388
 11
1121.8505
 21
324.8253
  0
LINE
  8
0_00
  6
CONTINUOUS
 62
4
 10
1106.6345
 20
331.8623
 11
1117.4753
 21
331.8623
  0
LINE
  8
0_00
  6
CONTINUOUS
 62
4
 10
1119.6970
 20
330.1576
 11
1121.1743
 21
324.6442
  0
LINE
  8
0_00
  6
CONTINUOUS
 62
4
 10
1104.4129
 20
330.1576
 11
1102.9355
 21
324.6442
  0
LINE
  8
0_00
  6
CONTINUOUS
 62
4
 10
1102.7549
 20
321.1714
 11
1102.7549
 21
323.2725
  0
LINE
  8
0_00
  6
CONTINUOUS
 62
4
 10
1102.0549
 20
316.8522
 11
1102.0549
 21
318.8749
  0
LINE
  8
0_00
  6
CONTINUOUS
 62
4
 10
1102.2594
 20
315.2993
 11
1103.7367
 21
309.7859
  0
LINE
  8
0_00
  6
CONTINUOUS
 62
4
 10
1106.6345
 20
307.5623
 11
1117.4753
 21
307.5623
  0
LINE
  8
0_00
  6
CONTINUOUS
 62
4
 10
1120.3732
 20
309.7859
 11
1121.8505
 21
315.2993
  0
LINE
  8
0_00
  6
CONTINUOUS
 62
4
 10
1106.6345
 20
308.2623
 11
1117.4753
 21
308.2623
  0
LINE
  8
0_00
  6
CONTINUOUS
 62
4
 10
1119.6970
 20
309.9670
 11
1121.1743
 21
315.4805
  0
LINE
  8
0_00
  6
CONTINUOUS
 62
4
 10
1104.4129
 20
309.9670
 11
1102.9355
 21
315.4805
  0
LINE
  8
0_00
  6
CONTINUOUS
 62
4
 10
1102.7549
 20
318.9533
 11
1102.7549
 21
316.8522
  0
LINE
  8
0_00
  6
CONTINUOUS
 62
4
 10
1122.0549
 20
321.2498
 11
1122.0549
 21
323.2725
  0
LINE
  8
0_00
  6
CONTINUOUS
 62
4
 10
1117.7549
 20
321.5623
 11
1117.7549
 21
322.0580
  0
LINE
  8
0_00
  6
CONTINUOUS
 62
4
 10
1119.3549
 20
321.5623
 11
1119.3549
 21
322.0580
  0
LINE
  8
0_00
  6
CONTINUOUS
 62
4
 10
1116.7549
 20
321.2460
 11
1116.7549
 21
321.4623
  0
LINE
  8
0_00
  6
CONTINUOUS
 62
4
 10
1120.2674
 20
321.0510
 11
1120.6256
 21
321.2578
  0
LINE
  8
0_00
  6
CONTINUOUS
 62
4
 10
1122.0549
 20
318.8749
 11
1122.0549
 21
316.8522
  0
LINE
  8
0_00
  6
CONTINUOUS
 62
4
 10
1121.3550
 20
322.9606
 11
1121.3550
 21
323.2725
  0
LINE
  8
0_00
  6
CONTINUOUS
 62
4
 10
1121.3550
 20
317.1641
 11
1121.3550
 21
316.8522
  0
LINE
  8
0_00
  6
CONTINUOUS
 62
4
 10
1117.7549
 20
318.5623
 11
1117.7549
 21
318.0667
  0
LINE
  8
0_00
  6
CONTINUOUS
 62
4
 10
1119.3549
 20
318.5623
 11
1119.3549
 21
318.0667
  0
LINE
  8
0_00
  6
CONTINUOUS
 62
4
 10
1116.7549
 20
318.8787
 11
1116.7549
 21
318.6623
  0
LINE
  8
0_00
  6
CONTINUOUS
 62
4
 10
1120.2674
 20
319.0736
 11
1120.6256
 21
318.8668
  0
LINE
  8
3_03
  6
CONTINUOUS
 62
2
 10
1070.0549
 20
302.7278
 11
1070.3860
 21
302.8549
  0
LINE
  8
3_03
  6
CONTINUOUS
 62
2
 10
1070.0549
 20
302.7278
 11
1069.7242
 21
302.8548
  0
LINE
  8
3_03
  6
CONTINUOUS
 62
2
 10
1070.3860
 20
302.8549
 11
1071.2363
 21
303.6761
  0
LINE
  8
3_03
  6
CONTINUOUS
 62
2
 10
1069.7238
 20
302.8549
 11
1069.7246
 21
302.8556
  0
LINE
  8
3_03
  6
CONTINUOUS
 62
2
 10
1069.7246
 20
302.8556
 11
1068.8742
 21
303.6767
  0
LINE
  8
3_03
  6
CONTINUOUS
 62
2
 10
1070.7205
 20
302.0623
 11
1070.8476
 21
302.3934
  0
LINE
  8
3_03
  6
CONTINUOUS
 62
2
 10
1070.7205
 20
302.0623
 11
1070.8474
 21
301.7317
  0
LINE
  8
3_03
  6
CONTINUOUS
 62
2
 10
1070.8476
 20
302.3934
 11
1071.6692
 21
303.2442
  0
LINE
  8
3_03
  6
CONTINUOUS
 62
2
 10
1070.8476
 20
301.7313
 11
1070.8481
 21
301.7320
  0
LINE
  8
3_03
  6
CONTINUOUS
 62
2
 10
1070.8481
 20
301.7320
 11
1071.6692
 21
300.8817
  0
LINE
  8
3_03
  6
CONTINUOUS
 62
2
 10
1069.3894
 20
302.0623
 11
1069.2623
 21
301.7313
  0
LINE
  8
3_03
  6
CONTINUOUS
 62
2
 10
1069.3894
 20
302.0623
 11
1069.2624
 21
302.3930
  0
LINE
  8
3_03
  6
CONTINUOUS
 62
2
 10
1069.2623
 20
301.7313
 11
1068.4412
 21
300.8809
  0
LINE
  8
3_03
  6
CONTINUOUS
 62
2
 10
1069.2623
 20
302.3934
 11
1069.2618
 21
302.3927
  0
LINE
  8
3_03
  6
CONTINUOUS
 62
2
 10
1069.2618
 20
302.3927
 11
1068.4406
 21
303.2430
  0
LINE
  8
3_03
  6
CONTINUOUS
 62
2
 10
1070.0549
 20
301.3968
 11
1069.7238
 21
301.2697
  0
LINE
  8
3_03
  6
CONTINUOUS
 62
2
 10
1070.0549
 20
301.3968
 11
1070.3856
 21
301.2699
  0
LINE
  8
3_03
  6
CONTINUOUS
 62
2
 10
1069.7238
 20
301.2697
 11
1068.8735
 21
300.4485
  0
LINE
  8
3_03
  6
CONTINUOUS
 62
2
 10
1070.3860
 20
301.2697
 11
1070.3852
 21
301.2691
  0
LINE
  8
3_03
  6
CONTINUOUS
 62
2
 10
1070.3852
 20
301.2691
 11
1071.2361
 21
300.4475
  0
LINE
  8
3_03
  6
CONTINUOUS
 62
2
 10
1070.0549
 20
338.7278
 11
1070.3860
 21
338.8549
  0
LINE
  8
3_03
  6
CONTINUOUS
 62
2
 10
1070.0549
 20
338.7278
 11
1069.7242
 21
338.8548
  0
LINE
  8
3_03
  6
CONTINUOUS
 62
2
 10
1070.3860
 20
338.8549
 11
1071.2363
 21
339.6761
  0
LINE
  8
3_03
  6
CONTINUOUS
 62
2
 10
1069.7238
 20
338.8549
 11
1069.7246
 21
338.8556
  0
LINE
  8
3_03
  6
CONTINUOUS
 62
2
 10
1069.7246
 20
338.8556
 11
1068.8742
 21
339.6767
  0
LINE
  8
3_03
  6
CONTINUOUS
 62
2
 10
1070.7205
 20
338.0623
 11
1070.8476
 21
338.3934
  0
LINE
  8
3_03
  6
CONTINUOUS
 62
2
 10
1070.7205
 20
338.0623
 11
1070.8474
 21
337.7317
  0
LINE
  8
3_03
  6
CONTINUOUS
 62
2
 10
1070.8476
 20
338.3934
 11
1071.6692
 21
339.2442
  0
LINE
  8
3_03
  6
CONTINUOUS
 62
2
 10
1070.8476
 20
337.7313
 11
1070.8481
 21
337.7320
  0
LINE
  8
3_03
  6
CONTINUOUS
 62
2
 10
1070.8481
 20
337.7320
 11
1071.6692
 21
336.8817
  0
LINE
  8
3_03
  6
CONTINUOUS
 62
2
 10
1069.3894
 20
338.0623
 11
1069.2623
 21
337.7313
  0
LINE
  8
3_03
  6
CONTINUOUS
 62
2
 10
1069.3894
 20
338.0623
 11
1069.2624
 21
338.3930
  0
LINE
  8
3_03
  6
CONTINUOUS
 62
2
 10
1069.2623
 20
337.7313
 11
1068.4412
 21
336.8809
  0
LINE
  8
3_03
  6
CONTINUOUS
 62
2
 10
1069.2623
 20
338.3934
 11
1069.2618
 21
338.3927
  0
LINE
  8
3_03
  6
CONTINUOUS
 62
2
 10
1069.2618
 20
338.3927
 11
1068.4406
 21
339.2430
  0
LINE
  8
3_03
  6
CONTINUOUS
 62
2
 10
1070.0549
 20
337.3968
 11
1069.7238
 21
337.2697
  0
LINE
  8
3_03
  6
CONTINUOUS
 62
2
 10
1070.0549
 20
337.3968
 11
1070.3856
 21
337.2699
  0
LINE
  8
3_03
  6
CONTINUOUS
 62
2
 10
1069.7238
 20
337.2697
 11
1068.8735
 21
336.4485
  0
LINE
  8
3_03
  6
CONTINUOUS
 62
2
 10
1070.3860
 20
337.2697
 11
1070.3852
 21
337.2691
  0
LINE
  8
3_03
  6
CONTINUOUS
 62
2
 10
1070.3852
 20
337.2691
 11
1071.2361
 21
336.4475
  0
LINE
  8
3_03
  6
CONTINUOUS
 62
2
 10
970.0549
 20
302.7278
 11
969.7239
 21
302.8549
  0
LINE
  8
3_03
  6
CONTINUOUS
 62
2
 10
970.0549
 20
302.7278
 11
970.3857
 21
302.8548
  0
LINE
  8
3_03
  6
CONTINUOUS
 62
2
 10
969.7239
 20
302.8549
 11
968.8735
 21
303.6761
  0
LINE
  8
3_03
  6
CONTINUOUS
 62
2
 10
970.3860
 20
302.8549
 11
970.3853
 21
302.8556
  0
LINE
  8
3_03
  6
CONTINUOUS
 62
2
 10
970.3853
 20
302.8556
 11
971.2355
 21
303.6767
  0
LINE
  8
3_03
  6
CONTINUOUS
 62
2
 10
969.3894
 20
302.0623
 11
969.2623
 21
302.3934
  0
LINE
  8
3_03
  6
CONTINUOUS
 62
2
 10
969.3894
 20
302.0623
 11
969.2625
 21
301.7317
  0
LINE
  8
3_03
  6
CONTINUOUS
 62
2
 10
969.2623
 20
302.3934
 11
968.4407
 21
303.2442
  0
LINE
  8
3_03
  6
CONTINUOUS
 62
2
 10
969.2623
 20
301.7313
 11
969.2617
 21
301.7320
  0
LINE
  8
3_03
  6
CONTINUOUS
 62
2
 10
969.2617
 20
301.7320
 11
968.4406
 21
300.8817
  0
LINE
  8
3_03
  6
CONTINUOUS
 62
2
 10
970.7205
 20
302.0623
 11
970.8475
 21
301.7313
  0
LINE
  8
3_03
  6
CONTINUOUS
 62
2
 10
970.7205
 20
302.0623
 11
970.8474
 21
302.3930
  0
LINE
  8
3_03
  6
CONTINUOUS
 62
2
 10
970.8475
 20
301.7313
 11
971.6687
 21
300.8809
  0
LINE
  8
3_03
  6
CONTINUOUS
 62
2
 10
970.8475
 20
302.3934
 11
970.8482
 21
302.3927
  0
LINE
  8
3_03
  6
CONTINUOUS
 62
2
 10
970.8482
 20
302.3927
 11
971.6692
 21
303.2430
  0
LINE
  8
3_03
  6
CONTINUOUS
 62
2
 10
970.0549
 20
301.3968
 11
970.3860
 21
301.2697
  0
LINE
  8
3_03
  6
CONTINUOUS
 62
2
 10
970.0549
 20
301.3968
 11
969.7243
 21
301.2699
  0
LINE
  8
3_03
  6
CONTINUOUS
 62
2
 10
970.3860
 20
301.2697
 11
971.2363
 21
300.4485
  0
LINE
  8
3_03
  6
CONTINUOUS
 62
2
 10
969.7239
 20
301.2697
 11
969.7245
 21
301.2691
  0
LINE
  8
3_03
  6
CONTINUOUS
 62
2
 10
969.7245
 20
301.2691
 11
968.8738
 21
300.4475
  0
LINE
  8
3_03
  6
CONTINUOUS
 62
2
 10
970.0549
 20
338.7278
 11
969.7239
 21
338.8549
  0
LINE
  8
3_03
  6
CONTINUOUS
 62
2
 10
970.0549
 20
338.7278
 11
970.3857
 21
338.8548
  0
LINE
  8
3_03
  6
CONTINUOUS
 62
2
 10
969.7239
 20
338.8549
 11
968.8735
 21
339.6761
  0
LINE
  8
3_03
  6
CONTINUOUS
 62
2
 10
970.3860
 20
338.8549
 11
970.3853
 21
338.8556
  0
LINE
  8
3_03
  6
CONTINUOUS
 62
2
 10
970.3853
 20
338.8556
 11
971.2355
 21
339.6767
  0
LINE
  8
3_03
  6
CONTINUOUS
 62
2
 10
969.3894
 20
338.0623
 11
969.2623
 21
338.3934
  0
LINE
  8
3_03
  6
CONTINUOUS
 62
2
 10
969.3894
 20
338.0623
 11
969.2625
 21
337.7317
  0
LINE
  8
3_03
  6
CONTINUOUS
 62
2
 10
969.2623
 20
338.3934
 11
968.4407
 21
339.2442
  0
LINE
  8
3_03
  6
CONTINUOUS
 62
2
 10
969.2623
 20
337.7313
 11
969.2617
 21
337.7320
  0
LINE
  8
3_03
  6
CONTINUOUS
 62
2
 10
969.2617
 20
337.7320
 11
968.4406
 21
336.8817
  0
LINE
  8
3_03
  6
CONTINUOUS
 62
2
 10
970.7205
 20
338.0623
 11
970.8475
 21
337.7313
  0
LINE
  8
3_03
  6
CONTINUOUS
 62
2
 10
970.7205
 20
338.0623
 11
970.8474
 21
338.3930
  0
LINE
  8
3_03
  6
CONTINUOUS
 62
2
 10
970.8475
 20
337.7313
 11
971.6687
 21
336.8809
  0
LINE
  8
3_03
  6
CONTINUOUS
 62
2
 10
970.8475
 20
338.3934
 11
970.8482
 21
338.3927
  0
LINE
  8
3_03
  6
CONTINUOUS
 62
2
 10
970.8482
 20
338.3927
 11
971.6692
 21
339.2430
  0
LINE
  8
3_03
  6
CONTINUOUS
 62
2
 10
970.0549
 20
337.3968
 11
970.3860
 21
337.2697
  0
LINE
  8
3_03
  6
CONTINUOUS
 62
2
 10
970.0549
 20
337.3968
 11
969.7243
 21
337.2699
  0
LINE
  8
3_03
  6
CONTINUOUS
 62
2
 10
970.3860
 20
337.2697
 11
971.2363
 21
336.4485
  0
LINE
  8
3_03
  6
CONTINUOUS
 62
2
 10
969.7239
 20
337.2697
 11
969.7245
 21
337.2691
  0
LINE
  8
3_03
  6
CONTINUOUS
 62
2
 10
969.7245
 20
337.2691
 11
968.8738
 21
336.4475
  0
LINE
  8
0_00
  6
DASHED
 62
2
 10
1022.5737
 20
350.0623
 11
1017.5738
 21
350.0623
  0
LINE
  8
0_00
  6
DASHED
 62
2
 10
1022.5550
 20
295.0623
 11
1022.5564
 21
299.6616
  0
LINE
  8
0_00
  6
CONTINUOUS
 62
2
 10
1022.5564
 20
299.6616
 11
1022.5692
 21
340.6616
  0
LINE
  8
0_00
  6
DASHED
 62
2
 10
1022.5692
 20
340.6616
 11
1022.5722
 21
350.0623
  0
LINE
  8
0_00
  6
DASHED
 62
2
 10
1022.5550
 20
296.6624
 11
1017.5550
 21
296.6624
  0
LINE
  8
0_00
  6
DASHED
 62
2
 10
1022.1629
 20
340.6585
 11
1022.1699
 21
350.0623
  0
LINE
  8
0_00
  6
CONTINUOUS
 62
2
 10
1022.1549
 20
330.0623
 11
1022.1629
 21
340.6585
  0
LINE
  8
0_00
  6
DASHED
 62
2
 10
1017.9629
 20
340.6620
 11
1017.9700
 21
350.0622
  0
LINE
  8
0_00
  6
CONTINUOUS
 62
2
 10
1017.9549
 20
330.0623
 11
1017.9629
 21
340.6620
  0
LINE
  8
0_00
  6
CONTINUOUS
 62
2
 10
1014.1549
 20
295.0623
 11
1025.9550
 21
295.0623
  0
LINE
  8
0_00
  6
CONTINUOUS
 62
2
 10
1025.9550
 20
294.7146
 11
1025.9550
 21
295.0623
  0
LINE
  8
0_00
  6
CONTINUOUS
 62
2
 10
1014.1549
 20
294.7146
 11
1014.1549
 21
295.0623
  0
LINE
  8
0_00
  6
CONTINUOUS
 62
2
 10
1014.1549
 20
294.7146
 11
1025.9550
 21
294.7146
  0
LINE
  8
0_00
  6
CONTINUOUS
 62
2
 10
1015.4737
 20
346.3623
 11
1024.6738
 21
346.3623
  0
LINE
  8
0_00
  6
CONTINUOUS
 62
2
 10
1024.6738
 20
346.3623
 11
1024.6738
 21
345.0623
  0
LINE
  8
0_00
  6
CONTINUOUS
 62
2
 10
1015.4737
 20
346.3623
 11
1015.4737
 21
345.0623
  0
LINE
  8
0_00
  6
CONTINUOUS
 62
2
 10
1015.4737
 20
345.0623
 11
1024.6738
 21
345.0623
  0
LINE
  8
0_00
  6
CONTINUOUS
 62
2
 10
1020.2479
 20
346.3623
 11
1019.8995
 21
345.0623
  0
LINE
  8
0_00
  6
CONTINUOUS
 62
2
 10
1015.4550
 20
346.3623
 11
1024.6925
 21
346.3623
  0
LINE
  8
0_00
  6
CONTINUOUS
 62
2
 10
1016.1737
 20
346.3623
 11
1023.9738
 21
346.3623
  0
LINE
  8
0_00
  6
CONTINUOUS
 62
2
 10
1024.6925
 20
346.7774
 11
1023.9738
 21
346.3623
  0
LINE
  8
0_00
  6
CONTINUOUS
 62
2
 10
1015.4550
 20
346.7774
 11
1016.1737
 21
346.3623
  0
LINE
  8
0_00
  6
CONTINUOUS
 62
2
 10
1024.6925
 20
346.7774
 11
1024.6925
 21
349.1473
  0
LINE
  8
0_00
  6
CONTINUOUS
 62
2
 10
1015.4550
 20
346.7774
 11
1015.4550
 21
349.1473
  0
LINE
  8
0_00
  6
CONTINUOUS
 62
2
 10
1024.6925
 20
349.1473
 11
1023.9738
 21
349.5623
  0
LINE
  8
0_00
  6
CONTINUOUS
 62
2
 10
1015.4550
 20
349.1473
 11
1016.1737
 21
349.5623
  0
LINE
  8
0_00
  6
CONTINUOUS
 62
2
 10
1016.1737
 20
349.5623
 11
1023.9738
 21
349.5623
  0
LINE
  8
0_00
  6
CONTINUOUS
 62
2
 10
1022.3831
 20
346.7774
 11
1022.3831
 21
349.1473
  0
LINE
  8
0_00
  6
CONTINUOUS
 62
2
 10
1017.7643
 20
346.7774
 11
1017.7643
 21
349.1473
  0
LINE
  8
0_00
  6
CONTINUOUS
 62
2
 10
1023.5738
 20
350.3624
 11
1023.5738
 21
349.5623
  0
LINE
  8
0_00
  6
CONTINUOUS
 62
2
 10
1016.5737
 20
350.3624
 11
1016.5737
 21
349.5623
  0
LINE
  8
0_00
  6
CONTINUOUS
 62
2
 10
1022.5550
 20
330.0623
 11
1017.5550
 21
330.0623
  0
LINE
  8
0_00
  6
CONTINUOUS
 62
2
 10
1022.5550
 20
329.3695
 11
1022.1549
 21
330.0623
  0
LINE
  8
0_00
  6
CONTINUOUS
 62
2
 10
1017.9549
 20
330.0623
 11
1017.5550
 21
329.3695
  0
LINE
  8
14_0E
  6
DASHED
 62
2
 10
1017.5721
 20
350.0625
 11
1017.5692
 21
340.6631
  0
LINE
  8
12_0C
  6
CONTINUOUS
 62
2
 10
335.2032
 20
462.8546
 11
343.2032
 21
462.8546
  0
LINE
  8
12_0C
  6
CONTINUOUS
 62
2
 10
335.2032
 20
463.2546
 11
343.2032
 21
463.2546
  0
LINE
  8
12_0C
  6
CONTINUOUS
 62
2
 10
343.2032
 20
462.8546
 11
343.2032
 21
463.2546
  0
LINE
  8
12_0C
  6
CONTINUOUS
 62
2
 10
335.2032
 20
462.8546
 11
335.2032
 21
463.2546
  0
LINE
  8
0_00
  6
DASHED
 62
2
 10
337.2032
 20
462.8546
 11
337.2032
 21
455.6746
  0
LINE
  8
12_0C
  6
DASHED
 62
2
 10
337.7532
 20
462.8546
 11
337.7532
 21
450.8546
  0
LINE
  8
12_0C
  6
DASHED
 62
2
 10
337.7532
 20
450.8546
 11
340.6532
 21
450.8546
  0
LINE
  8
12_0C
  6
DASHED
 62
2
 10
337.2032
 20
455.6746
 11
337.7532
 21
450.8546
  0
LINE
  8
0_00
  6
DASHED
 62
2
 10
341.2032
 20
462.8546
 11
341.2032
 21
455.6746
  0
LINE
  8
12_0C
  6
DASHED
 62
2
 10
340.6532
 20
462.8546
 11
340.6532
 21
450.8546
  0
LINE
  8
12_0C
  6
DASHED
 62
2
 10
341.2032
 20
455.6746
 11
340.6532
 21
450.8546
  0
LINE
  8
3_03
  6
CONTINUOUS
 62
2
 10
321.2032
 20
454.3201
 11
320.8721
 21
454.4472
  0
LINE
  8
3_03
  6
CONTINUOUS
 62
2
 10
321.2032
 20
454.3201
 11
321.5339
 21
454.4470
  0
LINE
  8
3_03
  6
CONTINUOUS
 62
2
 10
320.8721
 20
454.4472
 11
320.0218
 21
455.2684
  0
LINE
  8
3_03
  6
CONTINUOUS
 62
2
 10
321.5342
 20
454.4472
 11
321.5335
 21
454.4479
  0
LINE
  8
3_03
  6
CONTINUOUS
 62
2
 10
321.5335
 20
454.4479
 11
322.3838
 21
455.2690
  0
LINE
  8
3_03
  6
CONTINUOUS
 62
2
 10
320.5377
 20
453.6546
 11
320.4106
 21
453.9857
  0
LINE
  8
3_03
  6
CONTINUOUS
 62
2
 10
320.5377
 20
453.6546
 11
320.4107
 21
453.3240
  0
LINE
  8
3_03
  6
CONTINUOUS
 62
2
 10
320.4106
 20
453.9857
 11
319.5889
 21
454.8365
  0
LINE
  8
3_03
  6
CONTINUOUS
 62
2
 10
320.4106
 20
453.3236
 11
320.4099
 21
453.3242
  0
LINE
  8
3_03
  6
CONTINUOUS
 62
2
 10
320.4099
 20
453.3242
 11
319.5888
 21
452.4740
  0
LINE
  8
3_03
  6
CONTINUOUS
 62
2
 10
321.8687
 20
453.6546
 11
321.9958
 21
453.3236
  0
LINE
  8
3_03
  6
CONTINUOUS
 62
2
 10
321.8687
 20
453.6546
 11
321.9957
 21
453.9853
  0
LINE
  8
3_03
  6
CONTINUOUS
 62
2
 10
321.9958
 20
453.3236
 11
322.8170
 21
452.4732
  0
LINE
  8
3_03
  6
CONTINUOUS
 62
2
 10
321.9958
 20
453.9857
 11
321.9964
 21
453.9850
  0
LINE
  8
3_03
  6
CONTINUOUS
 62
2
 10
321.9964
 20
453.9850
 11
322.8175
 21
454.8353
  0
LINE
  8
3_03
  6
CONTINUOUS
 62
2
 10
321.2032
 20
452.9891
 11
321.5342
 21
452.8620
  0
LINE
  8
3_03
  6
CONTINUOUS
 62
2
 10
321.2032
 20
452.9891
 11
320.8725
 21
452.8622
  0
LINE
  8
3_03
  6
CONTINUOUS
 62
2
 10
321.5342
 20
452.8620
 11
322.3846
 21
452.0408
  0
LINE
  8
3_03
  6
CONTINUOUS
 62
2
 10
320.8721
 20
452.8620
 11
320.8728
 21
452.8614
  0
LINE
  8
3_03
  6
CONTINUOUS
 62
2
 10
320.8728
 20
452.8614
 11
320.0221
 21
452.0398
  0
LINE
  8
3_03
  6
CONTINUOUS
 62
2
 10
321.2032
 20
441.3201
 11
320.8721
 21
441.4472
  0
LINE
  8
3_03
  6
CONTINUOUS
 62
2
 10
321.2032
 20
441.3201
 11
321.5339
 21
441.4471
  0
LINE
  8
3_03
  6
CONTINUOUS
 62
2
 10
320.8721
 20
441.4472
 11
320.0218
 21
442.2684
  0
LINE
  8
3_03
  6
CONTINUOUS
 62
2
 10
321.5342
 20
441.4472
 11
321.5335
 21
441.4478
  0
LINE
  8
3_03
  6
CONTINUOUS
 62
2
 10
321.5335
 20
441.4478
 11
322.3838
 21
442.2690
  0
LINE
  8
3_03
  6
CONTINUOUS
 62
2
 10
320.5377
 20
440.6546
 11
320.4106
 21
440.9856
  0
LINE
  8
3_03
  6
CONTINUOUS
 62
2
 10
320.5377
 20
440.6546
 11
320.4107
 21
440.3239
  0
LINE
  8
3_03
  6
CONTINUOUS
 62
2
 10
320.4106
 20
440.9856
 11
319.5889
 21
441.8365
  0
LINE
  8
3_03
  6
CONTINUOUS
 62
2
 10
320.4106
 20
440.3236
 11
320.4099
 21
440.3242
  0
LINE
  8
3_03
  6
CONTINUOUS
 62
2
 10
320.4099
 20
440.3242
 11
319.5888
 21
439.4740
  0
LINE
  8
3_03
  6
CONTINUOUS
 62
2
 10
321.8687
 20
440.6546
 11
321.9958
 21
440.3236
  0
LINE
  8
3_03
  6
CONTINUOUS
 62
2
 10
321.8687
 20
440.6546
 11
321.9957
 21
440.9853
  0
LINE
  8
3_03
  6
CONTINUOUS
 62
2
 10
321.9958
 20
440.3236
 11
322.8170
 21
439.4732
  0
LINE
  8
3_03
  6
CONTINUOUS
 62
2
 10
321.9958
 20
440.9856
 11
321.9964
 21
440.9850
  0
LINE
  8
3_03
  6
CONTINUOUS
 62
2
 10
321.9964
 20
440.9850
 11
322.8175
 21
441.8353
  0
LINE
  8
3_03
  6
CONTINUOUS
 62
2
 10
321.2032
 20
439.9891
 11
321.5342
 21
439.8620
  0
LINE
  8
3_03
  6
CONTINUOUS
 62
2
 10
321.2032
 20
439.9891
 11
320.8725
 21
439.8621
  0
LINE
  8
3_03
  6
CONTINUOUS
 62
2
 10
321.5342
 20
439.8620
 11
322.3846
 21
439.0408
  0
LINE
  8
3_03
  6
CONTINUOUS
 62
2
 10
320.8721
 20
439.8620
 11
320.8728
 21
439.8614
  0
LINE
  8
3_03
  6
CONTINUOUS
 62
2
 10
320.8728
 20
439.8614
 11
320.0221
 21
439.0398
  0
LINE
  8
0_00
  6
DASHED
 62
2
 10
351.2032
 20
437.3734
 11
351.2032
 21
432.3734
  0
LINE
  8
0_00
  6
DASHED
 62
2
 10
296.2032
 20
437.3546
 11
351.2032
 21
437.3719
  0
LINE
  8
0_00
  6
DASHED
 62
2
 10
297.8032
 20
437.3546
 11
297.8032
 21
432.3546
  0
LINE
  8
0_00
  6
DASHED
 62
2
 10
331.2032
 20
436.9546
 11
351.2032
 21
436.9696
  0
LINE
  8
0_00
  6
DASHED
 62
2
 10
331.2032
 20
432.7546
 11
351.2030
 21
432.7696
  0
LINE
  8
0_00
  6
CONTINUOUS
 62
2
 10
296.2032
 20
428.9546
 11
296.2032
 21
440.7546
  0
LINE
  8
0_00
  6
CONTINUOUS
 62
2
 10
295.8554
 20
440.7546
 11
296.2032
 21
440.7546
  0
LINE
  8
0_00
  6
CONTINUOUS
 62
2
 10
295.8554
 20
428.9546
 11
296.2032
 21
428.9546
  0
LINE
  8
0_00
  6
CONTINUOUS
 62
2
 10
295.8554
 20
428.9546
 11
295.8554
 21
440.7546
  0
LINE
  8
0_00
  6
CONTINUOUS
 62
2
 10
347.5032
 20
430.2734
 11
347.5032
 21
439.4734
  0
LINE
  8
0_00
  6
CONTINUOUS
 62
2
 10
347.5032
 20
439.4734
 11
346.2032
 21
439.4734
  0
LINE
  8
0_00
  6
CONTINUOUS
 62
2
 10
347.5032
 20
430.2734
 11
346.2032
 21
430.2734
  0
LINE
  8
0_00
  6
CONTINUOUS
 62
2
 10
346.2032
 20
430.2734
 11
346.2032
 21
439.4734
  0
LINE
  8
0_00
  6
CONTINUOUS
 62
2
 10
347.5032
 20
435.0476
 11
346.2032
 21
434.6992
  0
LINE
  8
0_00
  6
CONTINUOUS
 62
2
 10
347.5032
 20
430.2546
 11
347.5032
 21
439.4922
  0
LINE
  8
0_00
  6
CONTINUOUS
 62
2
 10
347.5032
 20
430.9734
 11
347.5032
 21
438.7734
  0
LINE
  8
0_00
  6
CONTINUOUS
 62
2
 10
347.9182
 20
439.4922
 11
347.5032
 21
438.7734
  0
LINE
  8
0_00
  6
CONTINUOUS
 62
2
 10
347.9182
 20
430.2546
 11
347.5032
 21
430.9734
  0
LINE
  8
0_00
  6
CONTINUOUS
 62
2
 10
347.9182
 20
439.4922
 11
350.2882
 21
439.4922
  0
LINE
  8
0_00
  6
CONTINUOUS
 62
2
 10
347.9182
 20
430.2546
 11
350.2882
 21
430.2546
  0
LINE
  8
0_00
  6
CONTINUOUS
 62
2
 10
350.2882
 20
439.4922
 11
350.7032
 21
438.7734
  0
LINE
  8
0_00
  6
CONTINUOUS
 62
2
 10
350.2882
 20
430.2546
 11
350.7032
 21
430.9734
  0
LINE
  8
0_00
  6
CONTINUOUS
 62
2
 10
350.7032
 20
430.9734
 11
350.7032
 21
438.7734
  0
LINE
  8
0_00
  6
CONTINUOUS
 62
2
 10
347.9182
 20
437.1828
 11
350.2882
 21
437.1828
  0
LINE
  8
0_00
  6
CONTINUOUS
 62
2
 10
347.9182
 20
432.5640
 11
350.2882
 21
432.5640
  0
LINE
  8
0_00
  6
CONTINUOUS
 62
2
 10
351.5032
 20
438.3734
 11
350.7032
 21
438.3734
  0
LINE
  8
0_00
  6
CONTINUOUS
 62
2
 10
351.5032
 20
431.3734
 11
350.7032
 21
431.3734
  0
LINE
  8
0_00
  6
DASHED
 62
2
 10
331.2032
 20
437.3546
 11
331.2032
 21
432.3546
  0
LINE
  8
0_00
  6
DASHED
 62
2
 10
330.5104
 20
437.3546
 11
331.2032
 21
436.9546
  0
LINE
  8
0_00
  6
DASHED
 62
2
 10
331.2032
 20
432.7546
 11
330.5104
 21
432.3546
  0
LINE
  8
14_0E
  6
DASHED
 62
2
 10
351.2033
 20
432.3718
 11
296.2032
 21
432.3546
  0
LINE
  8
12_0C
  6
CONTINUOUS
 62
2
 10
289.6529
 20
354.4546
 11
289.6529
 21
346.4546
  0
LINE
  8
12_0C
  6
CONTINUOUS
 62
2
 10
289.2529
 20
354.4546
 11
289.2529
 21
346.4546
  0
LINE
  8
12_0C
  6
CONTINUOUS
 62
2
 10
289.6529
 20
346.4546
 11
289.2529
 21
346.4546
  0
LINE
  8
12_0C
  6
CONTINUOUS
 62
2
 10
289.6529
 20
354.4546
 11
289.2529
 21
354.4546
  0
LINE
  8
0_00
  6
DASHED
 62
2
 10
290.6856
 20
352.4546
 11
300.8329
 21
352.4546
  0
LINE
  8
0_00
  6
CONTINUOUS
 62
2
 10
289.6529
 20
352.4546
 11
290.6856
 21
352.4546
  0
LINE
  8
12_0C
  6
DASHED
 62
2
 10
290.6043
 20
351.9046
 11
305.6529
 21
351.9046
  0
LINE
  8
12_0C
  6
CONTINUOUS
 62
2
 10
289.6529
 20
351.9046
 11
290.6043
 21
351.9046
  0
LINE
  8
12_0C
  6
DASHED
 62
2
 10
290.1755
 20
349.0046
 11
305.6529
 21
349.0046
  0
LINE
  8
12_0C
  6
CONTINUOUS
 62
2
 10
289.6529
 20
349.0046
 11
290.1755
 21
349.0046
  0
LINE
  8
0_00
  6
DASHED
 62
2
 10
290.0942
 20
348.4546
 11
300.8329
 21
348.4546
  0
LINE
  8
0_00
  6
CONTINUOUS
 62
2
 10
289.6529
 20
348.4546
 11
290.0942
 21
348.4546
  0
LINE
  8
12_0C
  6
DASHED
 62
2
 10
300.8329
 20
352.4546
 11
305.6529
 21
351.9046
  0
LINE
  8
12_0C
  6
DASHED
 62
2
 10
305.6529
 20
351.9046
 11
305.6529
 21
349.0046
  0
LINE
  8
12_0C
  6
DASHED
 62
2
 10
305.6529
 20
349.0046
 11
300.8329
 21
348.4546
  0
LINE
  8
12_0C
  6
CONTINUOUS
 62
2
 10
352.7535
 20
354.4546
 11
352.7535
 21
346.4546
  0
LINE
  8
12_0C
  6
CONTINUOUS
 62
2
 10
353.1535
 20
354.4546
 11
353.1535
 21
346.4546
  0
LINE
  8
12_0C
  6
CONTINUOUS
 62
2
 10
352.7535
 20
346.4546
 11
353.1535
 21
346.4546
  0
LINE
  8
12_0C
  6
CONTINUOUS
 62
2
 10
352.7535
 20
354.4546
 11
353.1535
 21
354.4546
  0
LINE
  8
0_00
  6
DASHED
 62
2
 10
351.7207
 20
352.4546
 11
341.5735
 21
352.4546
  0
LINE
  8
0_00
  6
CONTINUOUS
 62
2
 10
352.7535
 20
352.4546
 11
351.7207
 21
352.4546
  0
LINE
  8
12_0C
  6
DASHED
 62
2
 10
351.8020
 20
351.9046
 11
336.7535
 21
351.9046
  0
LINE
  8
12_0C
  6
CONTINUOUS
 62
2
 10
352.7535
 20
351.9046
 11
351.8020
 21
351.9046
  0
LINE
  8
12_0C
  6
DASHED
 62
2
 10
352.2308
 20
349.0046
 11
336.7535
 21
349.0046
  0
LINE
  8
12_0C
  6
CONTINUOUS
 62
2
 10
352.7535
 20
349.0046
 11
352.2308
 21
349.0046
  0
LINE
  8
0_00
  6
DASHED
 62
2
 10
352.3122
 20
348.4546
 11
341.5735
 21
348.4546
  0
LINE
  8
0_00
  6
CONTINUOUS
 62
2
 10
352.7535
 20
348.4546
 11
352.3122
 21
348.4546
  0
LINE
  8
12_0C
  6
DASHED
 62
2
 10
341.5735
 20
352.4546
 11
336.7535
 21
351.9046
  0
LINE
  8
12_0C
  6
DASHED
 62
2
 10
336.7535
 20
351.9046
 11
336.7535
 21
349.0046
  0
LINE
  8
12_0C
  6
DASHED
 62
2
 10
336.7535
 20
349.0046
 11
341.5735
 21
348.4546
  0
LINE
  8
0_00
  6
CONTINUOUS
 62
2
 10
269.2032
 20
297.8546
 11
261.2032
 21
289.8546
  0
LINE
  8
0_00
  6
CONTINUOUS
 62
2
 10
265.4279
 20
296.9078
 11
262.1500
 21
293.6298
  0
LINE
  8
0_00
  6
CONTINUOUS
 62
2
 10
269.2032
 20
295.0262
 11
264.0316
 21
289.8546
  0
LINE
  8
0_00
  6
CONTINUOUS
 62
2
 10
269.2032
 20
292.1978
 11
266.8600
 21
289.8546
  0
LINE
  8
0_00
  6
CONTINUOUS
 62
2
 10
269.2032
 20
297.8546
 11
261.2032
 21
289.8546
  0
LINE
  8
0_00
  6
CONTINUOUS
 62
2
 10
265.4279
 20
296.9078
 11
262.1500
 21
293.6298
  0
LINE
  8
0_00
  6
CONTINUOUS
 62
2
 10
269.2032
 20
295.0262
 11
264.0316
 21
289.8546
  0
LINE
  8
0_00
  6
CONTINUOUS
 62
2
 10
269.2032
 20
292.1978
 11
266.8600
 21
289.8546
  0
LINE
  8
0_00
  6
CONTINUOUS
 62
4
 10
698.3050
 20
277.3123
 11
698.3050
 21
288.8123
  0
LINE
  8
0_00
  6
CONTINUOUS
 62
4
 10
706.8049
 20
277.3123
 11
706.8049
 21
288.8123
  0
LINE
  8
0_00
  6
CONTINUOUS
 62
4
 10
698.3050
 20
362.8123
 11
698.3050
 21
351.3123
  0
LINE
  8
0_00
  6
CONTINUOUS
 62
4
 10
706.8049
 20
362.8123
 11
706.8049
 21
351.3123
  0
LINE
  8
0_00
  6
CONTINUOUS
 62
4
 10
613.3049
 20
277.3123
 11
613.3049
 21
288.8123
  0
LINE
  8
0_00
  6
CONTINUOUS
 62
4
 10
621.8049
 20
277.3123
 11
621.8049
 21
288.8123
  0
LINE
  8
0_00
  6
CONTINUOUS
 62
4
 10
613.3049
 20
362.8123
 11
613.3049
 21
351.3123
  0
LINE
  8
0_00
  6
CONTINUOUS
 62
4
 10
621.8049
 20
362.8123
 11
621.8049
 21
351.3123
  0
LINE
  8
0_00
  6
CONTINUOUS
 62
2
 10
685.0549
 20
388.3624
 11
690.0549
 21
393.3623
  0
LINE
  8
0_00
  6
CONTINUOUS
 62
2
 10
682.2265
 20
388.3624
 11
687.2265
 21
393.3623
  0
LINE
  8
0_00
  6
CONTINUOUS
 62
2
 10
679.3981
 20
388.3624
 11
684.3981
 21
393.3623
  0
LINE
  8
0_00
  6
CONTINUOUS
 62
2
 10
676.5696
 20
388.3624
 11
681.5697
 21
393.3623
  0
LINE
  8
0_00
  6
CONTINUOUS
 62
2
 10
673.7412
 20
388.3624
 11
678.7412
 21
393.3623
  0
LINE
  8
0_00
  6
CONTINUOUS
 62
2
 10
670.9128
 20
388.3624
 11
675.9127
 21
393.3623
  0
LINE
  8
0_00
  6
CONTINUOUS
 62
2
 10
668.0843
 20
388.3624
 11
673.0844
 21
393.3623
  0
LINE
  8
0_00
  6
CONTINUOUS
 62
2
 10
665.2560
 20
388.3624
 11
670.2559
 21
393.3623
  0
LINE
  8
0_00
  6
CONTINUOUS
 62
2
 10
662.4275
 20
388.3624
 11
667.4275
 21
393.3623
  0
LINE
  8
0_00
  6
CONTINUOUS
 62
2
 10
659.5991
 20
388.3624
 11
664.5991
 21
393.3623
  0
LINE
  8
0_00
  6
CONTINUOUS
 62
2
 10
656.7706
 20
388.3624
 11
661.7706
 21
393.3623
  0
LINE
  8
0_00
  6
CONTINUOUS
 62
2
 10
653.9422
 20
388.3624
 11
658.9422
 21
393.3623
  0
LINE
  8
0_00
  6
CONTINUOUS
 62
2
 10
651.1138
 20
388.3624
 11
656.1138
 21
393.3623
  0
LINE
  8
0_00
  6
CONTINUOUS
 62
2
 10
648.2854
 20
388.3624
 11
653.2854
 21
393.3623
  0
LINE
  8
0_00
  6
CONTINUOUS
 62
2
 10
645.4569
 20
388.3624
 11
650.4570
 21
393.3623
  0
LINE
  8
0_00
  6
CONTINUOUS
 62
2
 10
642.6286
 20
388.3624
 11
647.6285
 21
393.3623
  0
LINE
  8
0_00
  6
CONTINUOUS
 62
2
 10
639.8001
 20
388.3624
 11
644.8001
 21
393.3623
  0
LINE
  8
0_00
  6
CONTINUOUS
 62
2
 10
636.9717
 20
388.3624
 11
641.9717
 21
393.3623
  0
LINE
  8
0_00
  6
CONTINUOUS
 62
2
 10
634.1433
 20
388.3624
 11
639.1432
 21
393.3623
  0
LINE
  8
0_00
  6
CONTINUOUS
 62
2
 10
631.3148
 20
388.3624
 11
636.3148
 21
393.3623
  0
LINE
  8
0_00
  6
CONTINUOUS
 62
2
 10
630.0549
 20
389.9309
 11
633.4864
 21
393.3623
  0
LINE
  8
0_00
  6
CONTINUOUS
 62
2
 10
630.0549
 20
392.7593
 11
630.6580
 21
393.3623
  0
LINE
  8
0_00
  6
CONTINUOUS
 62
2
 10
687.8834
 20
388.3624
 11
690.0549
 21
390.5339
  0
LINE
  8
15_0F
  6
CONTINUOUS
 62
6
 10
226.3715
 20
307.8546
 11
95.5000
 21
307.8546
  0
LINE
  8
15_0F
  6
CONTINUOUS
 62
6
 10
264.4780
 20
327.8546
 11
95.5000
 21
327.8546
  0
LINE
  8
15_0F
  6
CONTINUOUS
 62
6
 10
100.0000
 20
307.8546
 11
100.0000
 21
327.8546
  0
LINE
  8
15_0F
  6
CONTINUOUS
 62
6
 10
277.8228
 20
734.6279
 11
95.5000
 21
734.6279
  0
LINE
  8
15_0F
  6
CONTINUOUS
 62
6
 10
100.0000
 20
327.8546
 11
100.0000
 21
734.6279
  0
LINE
  8
15_0F
  6
CONTINUOUS
 62
6
 10
100.0000
 20
327.8546
 11
101.5593
 21
335.1907
  0
LINE
  8
15_0F
  6
CONTINUOUS
 62
6
 10
100.0000
 20
327.8546
 11
98.4407
 21
335.1907
  0
LINE
  8
15_0F
  6
CONTINUOUS
 62
6
 10
100.0000
 20
734.6279
 11
98.4407
 21
727.2919
  0
LINE
  8
15_0F
  6
CONTINUOUS
 62
6
 10
100.0000
 20
734.6279
 11
101.5593
 21
727.2919
  0
LINE
  8
15_0F
  6
CONTINUOUS
 62
6
 10
100.0000
 20
287.0215
 11
100.0000
 21
307.8546
  0
LINE
  8
15_0F
  6
CONTINUOUS
 62
6
 10
100.0000
 20
307.8546
 11
98.4407
 21
300.5185
  0
LINE
  8
15_0F
  6
CONTINUOUS
 62
6
 10
100.0000
 20
307.8546
 11
101.5593
 21
300.5185
  0
LINE
  8
15_0F
  6
CONTINUOUS
 62
6
 10
281.5254
 20
427.8546
 11
115.5000
 21
427.8546
  0
LINE
  8
15_0F
  6
CONTINUOUS
 62
6
 10
120.0000
 20
734.6279
 11
120.0000
 21
427.8546
  0
LINE
  8
15_0F
  6
CONTINUOUS
 62
6
 10
120.0000
 20
734.6279
 11
118.4407
 21
727.2919
  0
LINE
  8
15_0F
  6
CONTINUOUS
 62
6
 10
120.0000
 20
734.6279
 11
121.5593
 21
727.2919
  0
LINE
  8
15_0F
  6
CONTINUOUS
 62
6
 10
120.0000
 20
427.8546
 11
121.5593
 21
435.1907
  0
LINE
  8
15_0F
  6
CONTINUOUS
 62
6
 10
120.0000
 20
427.8546
 11
118.4407
 21
435.1907
  0
LINE
  8
15_0F
  6
CONTINUOUS
 62
6
 10
259.9780
 20
327.8546
 11
115.5000
 21
327.8546
  0
LINE
  8
15_0F
  6
CONTINUOUS
 62
6
 10
120.0000
 20
427.8546
 11
120.0000
 21
327.8546
  0
LINE
  8
15_0F
  6
CONTINUOUS
 62
6
 10
120.0000
 20
427.8546
 11
118.4407
 21
420.5185
  0
LINE
  8
15_0F
  6
CONTINUOUS
 62
6
 10
120.0000
 20
427.8546
 11
121.5593
 21
420.5185
  0
LINE
  8
15_0F
  6
CONTINUOUS
 62
6
 10
120.0000
 20
327.8546
 11
121.5593
 21
335.1907
  0
LINE
  8
15_0F
  6
CONTINUOUS
 62
6
 10
120.0000
 20
327.8546
 11
118.4407
 21
335.1907
  0
LINE
  8
15_0F
  6
CONTINUOUS
 62
6
 10
277.0254
 20
427.8546
 11
135.5000
 21
427.8546
  0
LINE
  8
15_0F
  6
CONTINUOUS
 62
6
 10
259.9780
 20
327.8546
 11
155.5000
 21
327.8546
  0
LINE
  8
15_0F
  6
CONTINUOUS
 62
6
 10
226.3715
 20
330.8546
 11
155.5000
 21
330.8546
  0
LINE
  8
15_0F
  6
CONTINUOUS
 62
6
 10
226.3715
 20
265.8546
 11
155.5000
 21
265.8546
  0
LINE
  8
15_0F
  6
CONTINUOUS
 62
6
 10
160.0000
 20
330.8546
 11
160.0000
 21
265.8546
  0
LINE
  8
15_0F
  6
CONTINUOUS
 62
6
 10
160.0000
 20
330.8546
 11
158.4407
 21
323.5185
  0
LINE
  8
15_0F
  6
CONTINUOUS
 62
6
 10
160.0000
 20
330.8546
 11
161.5593
 21
323.5185
  0
LINE
  8
15_0F
  6
CONTINUOUS
 62
6
 10
160.0000
 20
265.8546
 11
161.5593
 21
273.1907
  0
LINE
  8
15_0F
  6
CONTINUOUS
 62
6
 10
160.0000
 20
265.8546
 11
158.4407
 21
273.1907
  0
LINE
  8
15_0F
  6
CONTINUOUS
 62
6
 10
417.8764
 20
264.8546
 11
464.5000
 21
264.8546
  0
LINE
  8
15_0F
  6
CONTINUOUS
 62
6
 10
417.8764
 20
324.8546
 11
464.5000
 21
324.8546
  0
LINE
  8
15_0F
  6
CONTINUOUS
 62
6
 10
460.0000
 20
324.8546
 11
460.0000
 21
264.8546
  0
LINE
  8
15_0F
  6
CONTINUOUS
 62
6
 10
460.0000
 20
324.8546
 11
458.4407
 21
317.5185
  0
LINE
  8
15_0F
  6
CONTINUOUS
 62
6
 10
460.0000
 20
324.8546
 11
461.5593
 21
317.5185
  0
LINE
  8
15_0F
  6
CONTINUOUS
 62
6
 10
460.0000
 20
264.8546
 11
461.5593
 21
272.1907
  0
LINE
  8
15_0F
  6
CONTINUOUS
 62
6
 10
460.0000
 20
264.8546
 11
458.4407
 21
272.1907
  0
LINE
  8
15_0F
  6
CONTINUOUS
 62
6
 10
1000.0550
 20
359.1977
 11
1000.0550
 21
464.5000
  0
LINE
  8
15_0F
  6
CONTINUOUS
 62
6
 10
928.0550
 20
356.7593
 11
928.0550
 21
464.5000
  0
LINE
  8
15_0F
  6
CONTINUOUS
 62
6
 10
928.0550
 20
460.0000
 11
1000.0550
 21
460.0000
  0
LINE
  8
15_0F
  6
CONTINUOUS
 62
6
 10
928.0550
 20
460.0000
 11
935.3910
 21
458.4407
  0
LINE
  8
15_0F
  6
CONTINUOUS
 62
6
 10
928.0550
 20
460.0000
 11
935.3910
 21
461.5593
  0
LINE
  8
15_0F
  6
CONTINUOUS
 62
6
 10
1000.0550
 20
460.0000
 11
992.7188
 21
461.5593
  0
LINE
  8
15_0F
  6
CONTINUOUS
 62
6
 10
1000.0550
 20
460.0000
 11
992.7188
 21
458.4407
  0
LINE
  8
15_0F
  6
CONTINUOUS
 62
6
 10
1040.0550
 20
359.1977
 11
1040.0550
 21
464.5000
  0
LINE
  8
15_0F
  6
CONTINUOUS
 62
6
 10
1000.0550
 20
460.0000
 11
1040.0550
 21
460.0000
  0
LINE
  8
15_0F
  6
CONTINUOUS
 62
6
 10
1000.0550
 20
460.0000
 11
1007.3910
 21
458.4407
  0
LINE
  8
15_0F
  6
CONTINUOUS
 62
6
 10
1000.0550
 20
460.0000
 11
1007.3910
 21
461.5593
  0
LINE
  8
15_0F
  6
CONTINUOUS
 62
6
 10
1040.0550
 20
460.0000
 11
1032.7188
 21
461.5593
  0
LINE
  8
15_0F
  6
CONTINUOUS
 62
6
 10
1040.0550
 20
460.0000
 11
1032.7188
 21
458.4407
  0
LINE
  8
15_0F
  6
CONTINUOUS
 62
6
 10
1112.0549
 20
356.7593
 11
1112.0549
 21
464.5000
  0
LINE
  8
15_0F
  6
CONTINUOUS
 62
6
 10
1040.0550
 20
460.0000
 11
1112.0549
 21
460.0000
  0
LINE
  8
15_0F
  6
CONTINUOUS
 62
6
 10
1040.0550
 20
460.0000
 11
1047.3910
 21
458.4407
  0
LINE
  8
15_0F
  6
CONTINUOUS
 62
6
 10
1040.0550
 20
460.0000
 11
1047.3910
 21
461.5593
  0
LINE
  8
15_0F
  6
CONTINUOUS
 62
6
 10
1112.0549
 20
460.0000
 11
1104.7188
 21
461.5593
  0
LINE
  8
15_0F
  6
CONTINUOUS
 62
6
 10
1112.0549
 20
460.0000
 11
1104.7188
 21
458.4407
  0
LINE
  8
15_0F
  6
CONTINUOUS
 62
6
 10
660.0549
 20
480.0000
 11
1020.0549
 21
480.0000
  0
LINE
  8
15_0F
  6
CONTINUOUS
 62
6
 10
660.0549
 20
480.0000
 11
667.3911
 21
478.4407
  0
LINE
  8
15_0F
  6
CONTINUOUS
 62
6
 10
660.0549
 20
480.0000
 11
667.3911
 21
481.5593
  0
LINE
  8
15_0F
  6
CONTINUOUS
 62
6
 10
1020.0549
 20
480.0000
 11
1012.7188
 21
481.5593
  0
LINE
  8
15_0F
  6
CONTINUOUS
 62
6
 10
1020.0549
 20
480.0000
 11
1012.7188
 21
478.4407
  0
LINE
  8
15_0F
  6
CONTINUOUS
 62
6
 10
1020.0549
 20
401.9534
 11
1020.0549
 21
453.5233
  0
LINE
  8
15_0F
  6
CONTINUOUS
 62
6
 10
1020.0549
 20
475.3357
 11
1020.0549
 21
484.5000
  0
LINE
  8
15_0F
  6
CONTINUOUS
 62
6
 10
660.0549
 20
438.5572
 11
660.0549
 21
429.0763
  0
LINE
  8
15_0F
  6
CONTINUOUS
 62
6
 10
660.0549
 20
475.0464
 11
660.0549
 21
484.5000
  0
LINE
  8
15_0F
  6
CONTINUOUS
 62
6
 10
1047.0549
 20
256.6116
 11
1047.0549
 21
175.5000
  0
LINE
  8
15_0F
  6
CONTINUOUS
 62
6
 10
993.0549
 20
256.6116
 11
993.0549
 21
175.5000
  0
LINE
  8
15_0F
  6
CONTINUOUS
 62
6
 10
993.0549
 20
180.0000
 11
1047.0549
 21
180.0000
  0
LINE
  8
15_0F
  6
CONTINUOUS
 62
6
 10
993.0549
 20
180.0000
 11
1000.3910
 21
178.4407
  0
LINE
  8
15_0F
  6
CONTINUOUS
 62
6
 10
993.0549
 20
180.0000
 11
1000.3910
 21
181.5593
  0
LINE
  8
15_0F
  6
CONTINUOUS
 62
6
 10
1047.0549
 20
180.0000
 11
1039.7188
 21
181.5593
  0
LINE
  8
15_0F
  6
CONTINUOUS
 62
6
 10
1047.0549
 20
180.0000
 11
1039.7188
 21
178.4407
  0
LINE
  8
15_0F
  6
CONTINUOUS
 62
6
 10
715.0550
 20
384.5005
 11
715.0550
 21
464.5000
  0
LINE
  8
15_0F
  6
CONTINUOUS
 62
6
 10
605.0549
 20
384.5005
 11
605.0549
 21
464.5000
  0
LINE
  8
15_0F
  6
CONTINUOUS
 62
6
 10
605.0549
 20
460.0000
 11
715.0550
 21
460.0000
  0
LINE
  8
15_0F
  6
CONTINUOUS
 62
6
 10
605.0549
 20
460.0000
 11
612.3911
 21
458.4407
  0
LINE
  8
15_0F
  6
CONTINUOUS
 62
6
 10
605.0549
 20
460.0000
 11
612.3911
 21
461.5593
  0
LINE
  8
15_0F
  6
CONTINUOUS
 62
6
 10
715.0550
 20
460.0000
 11
707.7188
 21
461.5593
  0
LINE
  8
15_0F
  6
CONTINUOUS
 62
6
 10
715.0550
 20
460.0000
 11
707.7188
 21
458.4407
  0
LINE
  8
15_0F
  6
CONTINUOUS
 62
6
 10
639.5549
 20
369.1339
 11
639.5549
 21
444.5000
  0
LINE
  8
15_0F
  6
CONTINUOUS
 62
6
 10
680.5549
 20
369.1339
 11
680.5549
 21
444.5000
  0
LINE
  8
15_0F
  6
CONTINUOUS
 62
6
 10
639.5549
 20
440.0000
 11
680.5549
 21
440.0000
  0
LINE
  8
15_0F
  6
CONTINUOUS
 62
6
 10
639.5549
 20
440.0000
 11
646.8910
 21
438.4407
  0
LINE
  8
15_0F
  6
CONTINUOUS
 62
6
 10
639.5549
 20
440.0000
 11
646.8910
 21
441.5593
  0
LINE
  8
15_0F
  6
CONTINUOUS
 62
6
 10
680.5549
 20
440.0000
 11
673.2188
 21
441.5593
  0
LINE
  8
15_0F
  6
CONTINUOUS
 62
6
 10
680.5549
 20
440.0000
 11
673.2188
 21
438.4407
  0
LINE
  8
15_0F
  6
CONTINUOUS
 62
6
 10
630.0549
 20
217.7206
 11
630.0549
 21
175.5000
  0
LINE
  8
15_0F
  6
CONTINUOUS
 62
6
 10
690.0549
 20
217.7206
 11
690.0549
 21
175.5000
  0
LINE
  8
15_0F
  6
CONTINUOUS
 62
6
 10
630.0549
 20
180.0000
 11
690.0549
 21
180.0000
  0
LINE
  8
15_0F
  6
CONTINUOUS
 62
6
 10
630.0549
 20
180.0000
 11
637.3911
 21
178.4407
  0
LINE
  8
15_0F
  6
CONTINUOUS
 62
6
 10
630.0549
 20
180.0000
 11
637.3911
 21
181.5593
  0
LINE
  8
15_0F
  6
CONTINUOUS
 62
6
 10
690.0549
 20
180.0000
 11
682.7188
 21
181.5593
  0
LINE
  8
15_0F
  6
CONTINUOUS
 62
6
 10
690.0549
 20
180.0000
 11
682.7188
 21
178.4407
  0
LINE
  8
15_0F
  6
CONTINUOUS
 62
6
 10
1054.6350
 20
263.0623
 11
1204.5000
 21
263.0623
  0
LINE
  8
15_0F
  6
CONTINUOUS
 62
6
 10
1054.6350
 20
377.0623
 11
1204.5000
 21
377.0623
  0
LINE
  8
15_0F
  6
CONTINUOUS
 62
6
 10
1200.0000
 20
377.0623
 11
1200.0000
 21
263.0623
  0
LINE
  8
15_0F
  6
CONTINUOUS
 62
6
 10
1200.0000
 20
377.0623
 11
1198.4407
 21
369.7262
  0
LINE
  8
15_0F
  6
CONTINUOUS
 62
6
 10
1200.0000
 20
377.0623
 11
1201.5593
 21
369.7262
  0
LINE
  8
15_0F
  6
CONTINUOUS
 62
6
 10
1200.0000
 20
263.0623
 11
1201.5593
 21
270.3984
  0
LINE
  8
15_0F
  6
CONTINUOUS
 62
6
 10
1200.0000
 20
263.0623
 11
1198.4407
 21
270.3984
  0
LINE
  8
15_0F
  6
CONTINUOUS
 62
6
 10
1054.6350
 20
365.0623
 11
1184.5000
 21
365.0623
  0
LINE
  8
15_0F
  6
CONTINUOUS
 62
6
 10
1054.6350
 20
275.0623
 11
1184.5000
 21
275.0623
  0
LINE
  8
15_0F
  6
CONTINUOUS
 62
6
 10
1180.0000
 20
365.0623
 11
1180.0000
 21
275.0623
  0
LINE
  8
15_0F
  6
CONTINUOUS
 62
6
 10
1180.0000
 20
365.0623
 11
1178.4407
 21
357.7262
  0
LINE
  8
15_0F
  6
CONTINUOUS
 62
6
 10
1180.0000
 20
365.0623
 11
1181.5594
 21
357.7262
  0
LINE
  8
15_0F
  6
CONTINUOUS
 62
6
 10
1180.0000
 20
275.0623
 11
1181.5594
 21
282.3984
  0
LINE
  8
15_0F
  6
CONTINUOUS
 62
6
 10
1180.0000
 20
275.0623
 11
1178.4407
 21
282.3984
  0
LINE
  8
15_0F
  6
CONTINUOUS
 62
6
 10
1052.8765
 20
295.0623
 11
1164.5000
 21
295.0623
  0
LINE
  8
15_0F
  6
CONTINUOUS
 62
6
 10
1052.8765
 20
345.0623
 11
1164.5000
 21
345.0623
  0
LINE
  8
15_0F
  6
CONTINUOUS
 62
6
 10
1160.0000
 20
345.0623
 11
1160.0000
 21
295.0623
  0
LINE
  8
15_0F
  6
CONTINUOUS
 62
6
 10
1160.0000
 20
345.0623
 11
1158.4406
 21
337.7262
  0
LINE
  8
15_0F
  6
CONTINUOUS
 62
6
 10
1160.0000
 20
345.0623
 11
1161.5593
 21
337.7262
  0
LINE
  8
15_0F
  6
CONTINUOUS
 62
6
 10
1160.0000
 20
295.0623
 11
1161.5593
 21
302.3984
  0
LINE
  8
15_0F
  6
CONTINUOUS
 62
6
 10
1160.0000
 20
295.0623
 11
1158.4406
 21
302.3984
  0
LINE
  8
15_0F
  6
CONTINUOUS
 62
6
 10
918.0549
 20
349.2110
 11
918.0549
 21
444.5000
  0
LINE
  8
15_0F
  6
CONTINUOUS
 62
6
 10
938.0549
 20
349.2110
 11
938.0549
 21
444.5000
  0
LINE
  8
15_0F
  6
CONTINUOUS
 62
6
 10
918.0549
 20
440.0000
 11
938.0549
 21
440.0000
  0
LINE
  8
15_0F
  6
CONTINUOUS
 62
6
 10
970.4550
 20
440.0000
 11
938.0549
 21
440.0000
  0
LINE
  8
15_0F
  6
CONTINUOUS
 62
6
 10
938.0549
 20
440.0000
 11
945.3909
 21
438.4407
  0
LINE
  8
15_0F
  6
CONTINUOUS
 62
6
 10
938.0549
 20
440.0000
 11
945.3909
 21
441.5593
  0
LINE
  8
15_0F
  6
CONTINUOUS
 62
6
 10
903.0549
 20
440.0000
 11
918.0549
 21
440.0000
  0
LINE
  8
15_0F
  6
CONTINUOUS
 62
6
 10
918.0549
 20
440.0000
 11
910.7188
 21
441.5593
  0
LINE
  8
15_0F
  6
CONTINUOUS
 62
6
 10
918.0549
 20
440.0000
 11
910.7188
 21
438.4407
  0
LINE
  8
15_0F
  6
CONTINUOUS
 62
6
 10
833.1833
 20
342.5623
 11
775.5000
 21
342.5623
  0
LINE
  8
15_0F
  6
CONTINUOUS
 62
6
 10
833.1833
 20
297.5623
 11
775.5000
 21
297.5623
  0
LINE
  8
15_0F
  6
CONTINUOUS
 62
6
 10
780.0000
 20
342.5623
 11
780.0000
 21
297.5623
  0
LINE
  8
15_0F
  6
CONTINUOUS
 62
6
 10
780.0000
 20
342.5623
 11
778.4407
 21
335.2262
  0
LINE
  8
15_0F
  6
CONTINUOUS
 62
6
 10
780.0000
 20
342.5623
 11
781.5593
 21
335.2262
  0
LINE
  8
15_0F
  6
CONTINUOUS
 62
6
 10
780.0000
 20
297.5623
 11
781.5593
 21
304.8984
  0
LINE
  8
15_0F
  6
CONTINUOUS
 62
6
 10
780.0000
 20
297.5623
 11
778.4407
 21
304.8984
  0
LINE
  8
15_0F
  6
CONTINUOUS
 62
6
 10
877.8762
 20
307.5623
 11
795.5000
 21
307.5623
  0
LINE
  8
15_0F
  6
CONTINUOUS
 62
6
 10
877.8762
 20
332.5623
 11
795.5000
 21
332.5623
  0
LINE
  8
15_0F
  6
CONTINUOUS
 62
6
 10
800.0000
 20
332.5623
 11
800.0000
 21
307.5623
  0
LINE
  8
15_0F
  6
CONTINUOUS
 62
6
 10
800.0000
 20
364.9623
 11
800.0000
 21
332.5623
  0
LINE
  8
15_0F
  6
CONTINUOUS
 62
6
 10
800.0000
 20
332.5623
 11
801.5593
 21
339.8984
  0
LINE
  8
15_0F
  6
CONTINUOUS
 62
6
 10
800.0000
 20
332.5623
 11
798.4406
 21
339.8984
  0
LINE
  8
15_0F
  6
CONTINUOUS
 62
6
 10
800.0000
 20
292.5623
 11
800.0000
 21
307.5623
  0
LINE
  8
15_0F
  6
CONTINUOUS
 62
6
 10
800.0000
 20
307.5623
 11
798.4406
 21
300.2262
  0
LINE
  8
15_0F
  6
CONTINUOUS
 62
6
 10
800.0000
 20
307.5623
 11
801.5593
 21
300.2262
  0
LINE
  8
15_0F
  6
CONTINUOUS
 62
6
 10
592.0029
 20
372.0623
 11
515.5000
 21
372.0623
  0
LINE
  8
15_0F
  6
CONTINUOUS
 62
6
 10
592.0029
 20
268.0623
 11
515.5000
 21
268.0623
  0
LINE
  8
15_0F
  6
CONTINUOUS
 62
6
 10
520.0000
 20
372.0623
 11
520.0000
 21
268.0623
  0
LINE
  8
15_0F
  6
CONTINUOUS
 62
6
 10
520.0000
 20
372.0623
 11
518.4407
 21
364.7262
  0
LINE
  8
15_0F
  6
CONTINUOUS
 62
6
 10
520.0000
 20
372.0623
 11
521.5593
 21
364.7262
  0
LINE
  8
15_0F
  6
CONTINUOUS
 62
6
 10
520.0000
 20
268.0623
 11
521.5593
 21
275.3985
  0
LINE
  8
15_0F
  6
CONTINUOUS
 62
6
 10
520.0000
 20
268.0623
 11
518.4407
 21
275.3985
  0
LINE
  8
15_0F
  6
CONTINUOUS
 62
6
 10
609.9427
 20
348.0623
 11
535.5000
 21
348.0623
  0
LINE
  8
15_0F
  6
CONTINUOUS
 62
6
 10
609.9427
 20
292.0623
 11
535.5000
 21
292.0623
  0
LINE
  8
15_0F
  6
CONTINUOUS
 62
6
 10
540.0000
 20
348.0623
 11
540.0000
 21
292.0623
  0
LINE
  8
15_0F
  6
CONTINUOUS
 62
6
 10
540.0000
 20
348.0623
 11
538.4407
 21
340.7262
  0
LINE
  8
15_0F
  6
CONTINUOUS
 62
6
 10
540.0000
 20
348.0623
 11
541.5593
 21
340.7262
  0
LINE
  8
15_0F
  6
CONTINUOUS
 62
6
 10
540.0000
 20
292.0623
 11
541.5593
 21
299.3985
  0
LINE
  8
15_0F
  6
CONTINUOUS
 62
6
 10
540.0000
 20
292.0623
 11
538.4407
 21
299.3985
  0
LINE
  8
0_00
  6
CONTINUOUS
 62
6
 10
191.4553
 20
359.6407
 11
243.6553
 21
359.6407
  0
LINE
  8
0_00
  6
CONTINUOUS
 62
2
 10
269.2032
 20
295.8546
 11
373.2032
 21
295.8546
  0
LINE
  8
0_00
  6
CONTINUOUS
 62
2
 10
269.2032
 20
291.8546
 11
373.2032
 21
291.8546
  0
LINE
  8
0_00
  6
CONTINUOUS
 62
2
 10
379.2032
 20
289.8546
 11
379.2032
 21
221.8221
  0
LINE
  8
0_00
  6
CONTINUOUS
 62
2
 10
375.2032
 20
289.8546
 11
375.2032
 21
221.8221
  0
LINE
  8
0_00
  6
CONTINUOUS
 62
4
 10
751.7816
 20
703.6943
 11
1105.5815
 21
703.6943
  0
LINE
  8
0_00
  6
CONTINUOUS
 62
4
 10
751.7816
 20
698.9943
 11
1105.5815
 21
698.9943
  0
LINE
  8
0_00
  6
CONTINUOUS
 62
4
 10
741.1815
 20
563.6943
 11
1116.1816
 21
563.6943
  0
LINE
  8
3_03
  6
CONTINUOUS
 62
4
 10
751.7315
 20
703.7641
 11
748.7453
 21
703.7641
  0
LINE
  8
3_03
  6
CONTINUOUS
 62
4
 10
745.6816
 20
698.9643
 11
751.7315
 21
698.9643
  0
LINE
  8
3_03
  6
CONTINUOUS
 62
4
 10
751.7816
 20
699.0142
 11
751.7816
 21
703.7142
  0
LINE
  8
3_03
  6
CONTINUOUS
 62
4
 10
745.6316
 20
702.9666
 11
745.6316
 21
699.0142
  0
LINE
  8
0_00
  6
CENTER1
 62
6
 10
748.6816
 20
706.9047
 11
748.6816
 21
607.4795
  0
LINE
  8
0_00
  6
CENTER1
 62
6
 10
877.0149
 20
706.9047
 11
877.0149
 21
607.4795
  0
LINE
  8
0_00
  6
CENTER1
 62
6
 10
980.3482
 20
706.9047
 11
980.3482
 21
607.4795
  0
LINE
  8
0_00
  6
CONTINUOUS
 62
4
 10
978.3483
 20
698.9943
 11
978.3483
 21
618.1978
  0
LINE
  8
0_00
  6
CONTINUOUS
 62
4
 10
982.3482
 20
698.9943
 11
982.3482
 21
618.1978
  0
LINE
  8
0_00
  6
CONTINUOUS
 62
4
 10
875.0149
 20
698.9943
 11
875.0149
 21
618.1978
  0
LINE
  8
0_00
  6
CONTINUOUS
 62
4
 10
879.0149
 20
698.9943
 11
879.0149
 21
618.1978
  0
LINE
  8
0_00
  6
CONTINUOUS
 62
2
 10
896.7982
 20
717.4691
 11
896.7982
 21
598.6539
  0
LINE
  8
0_00
  6
CONTINUOUS
 62
2
 10
922.3315
 20
648.1070
 11
1001.1063
 21
648.1070
  0
LINE
  8
0_00
  6
CONTINUOUS
 62
4
 10
879.0149
 20
627.1942
 11
978.3483
 21
627.1942
  0
LINE
  8
0_00
  6
CONTINUOUS
 62
4
 10
879.0149
 20
623.6943
 11
978.3483
 21
623.6943
  0
LINE
  8
0_00
  6
CONTINUOUS
 62
4
 10
762.7316
 20
698.9943
 11
762.7316
 21
627.1942
  0
LINE
  8
0_00
  6
CONTINUOUS
 62
4
 10
760.7316
 20
627.1942
 11
760.7316
 21
698.9943
  0
LINE
  8
0_00
  6
CONTINUOUS
 62
2
 10
922.3315
 20
648.1070
 11
922.3315
 21
614.1288
  0
LINE
  8
0_00
  6
CONTINUOUS
 62
2
 10
849.7483
 20
614.1288
 11
922.3315
 21
614.1288
  0
LINE
  8
0_00
  6
CONTINUOUS
 62
4
 10
879.4269
 20
616.9235
 11
874.6029
 21
616.9235
  0
LINE
  8
0_00
  6
CONTINUOUS
 62
4
 10
879.4222
 20
618.1978
 11
874.6076
 21
618.1978
  0
LINE
  8
0_00
  6
CONTINUOUS
 62
4
 10
874.3238
 20
615.6943
 11
874.5079
 21
618.1054
  0
LINE
  8
0_00
  6
CONTINUOUS
 62
4
 10
879.7061
 20
615.6943
 11
879.5220
 21
618.1054
  0
LINE
  8
0_00
  6
CONTINUOUS
 62
4
 10
982.7602
 20
616.9235
 11
977.9363
 21
616.9235
  0
LINE
  8
0_00
  6
CONTINUOUS
 62
4
 10
982.7556
 20
618.1978
 11
977.9409
 21
618.1978
  0
LINE
  8
0_00
  6
CONTINUOUS
 62
4
 10
977.6570
 20
615.6943
 11
977.8412
 21
618.1054
  0
LINE
  8
0_00
  6
CONTINUOUS
 62
4
 10
983.0393
 20
615.6943
 11
982.8553
 21
618.1054
  0
LINE
  8
3_03
  6
CONTINUOUS
 62
4
 10
739.6815
 20
609.5045
 11
739.6815
 21
615.3943
  0
LINE
  8
3_03
  6
CONTINUOUS
 62
4
 10
1117.6816
 20
609.5045
 11
1117.6816
 21
615.3943
  0
LINE
  8
0_00
  6
CONTINUOUS
 62
2
 10
825.3483
 20
615.9643
 11
825.3483
 21
608.9344
  0
LINE
  8
0_00
  6
CONTINUOUS
 62
2
 10
827.0983
 20
615.8343
 11
827.0983
 21
608.9344
  0
LINE
  8
0_00
  6
CONTINUOUS
 62
2
 10
823.5982
 20
615.8343
 11
823.5982
 21
608.9344
  0
LINE
  8
0_00
  6
CONTINUOUS
 62
2
 10
825.3483
 20
615.9643
 11
823.5982
 21
615.8343
  0
LINE
  8
0_00
  6
CONTINUOUS
 62
2
 10
825.3483
 20
615.9643
 11
827.0983
 21
615.8343
  0
LINE
  8
0_00
  6
CONTINUOUS
 62
4
 10
739.9816
 20
615.6943
 11
823.5982
 21
615.6943
  0
LINE
  8
0_00
  6
CONTINUOUS
 62
4
 10
827.0983
 20
615.6943
 11
1117.3815
 21
615.6943
  0
LINE
  8
0_00
  6
CONTINUOUS
 62
2
 10
823.5982
 20
608.9344
 11
827.0983
 21
608.9344
  0
LINE
  8
0_00
  6
CONTINUOUS
 62
4
 10
739.9816
 20
609.2045
 11
823.5982
 21
609.2045
  0
LINE
  8
0_00
  6
CONTINUOUS
 62
4
 10
827.0983
 20
609.2045
 11
1117.3815
 21
609.2045
  0
LINE
  8
0_00
  6
CONTINUOUS
 62
2
 10
1032.0149
 20
615.9643
 11
1032.0149
 21
608.9344
  0
LINE
  8
0_00
  6
CONTINUOUS
 62
2
 10
1030.2649
 20
615.8343
 11
1030.2649
 21
608.9344
  0
LINE
  8
0_00
  6
CONTINUOUS
 62
2
 10
1033.7650
 20
615.8343
 11
1033.7650
 21
608.9344
  0
LINE
  8
0_00
  6
CONTINUOUS
 62
2
 10
1032.0149
 20
615.9643
 11
1033.7650
 21
615.8343
  0
LINE
  8
0_00
  6
CONTINUOUS
 62
2
 10
1032.0149
 20
615.9643
 11
1030.2649
 21
615.8343
  0
LINE
  8
0_00
  6
CONTINUOUS
 62
2
 10
1033.7650
 20
608.9344
 11
1030.2649
 21
608.9344
  0
LINE
  8
0_00
  6
CONTINUOUS
 62
4
 10
741.1815
 20
609.2045
 11
741.1815
 21
563.6943
  0
LINE
  8
0_00
  6
CONTINUOUS
 62
4
 10
1116.1816
 20
609.2045
 11
1116.1816
 21
563.6943
  0
LINE
  8
3_03
  6
CONTINUOUS
 62
2
 10
877.0149
 20
617.7311
 11
876.9818
 21
617.7438
  0
LINE
  8
3_03
  6
CONTINUOUS
 62
2
 10
877.0149
 20
617.7311
 11
877.0480
 21
617.7438
  0
LINE
  8
3_03
  6
CONTINUOUS
 62
2
 10
876.9818
 20
617.7438
 11
876.8968
 21
617.8259
  0
LINE
  8
3_03
  6
CONTINUOUS
 62
2
 10
877.0481
 20
617.7438
 11
877.0480
 21
617.7439
  0
LINE
  8
3_03
  6
CONTINUOUS
 62
2
 10
877.0480
 20
617.7439
 11
877.1330
 21
617.8260
  0
LINE
  8
3_03
  6
CONTINUOUS
 62
2
 10
876.9484
 20
617.6646
 11
876.9357
 21
617.6977
  0
LINE
  8
3_03
  6
CONTINUOUS
 62
2
 10
876.9484
 20
617.6646
 11
876.9357
 21
617.6315
  0
LINE
  8
3_03
  6
CONTINUOUS
 62
2
 10
876.9357
 20
617.6977
 11
876.8535
 21
617.7828
  0
LINE
  8
3_03
  6
CONTINUOUS
 62
2
 10
876.9357
 20
617.6315
 11
876.9356
 21
617.6315
  0
LINE
  8
3_03
  6
CONTINUOUS
 62
2
 10
876.9356
 20
617.6315
 11
876.8535
 21
617.5465
  0
LINE
  8
3_03
  6
CONTINUOUS
 62
2
 10
877.0815
 20
617.6646
 11
877.0941
 21
617.6315
  0
LINE
  8
3_03
  6
CONTINUOUS
 62
2
 10
877.0815
 20
617.6646
 11
877.0941
 21
617.6976
  0
LINE
  8
3_03
  6
CONTINUOUS
 62
2
 10
877.0941
 20
617.6315
 11
877.1763
 21
617.5464
  0
LINE
  8
3_03
  6
CONTINUOUS
 62
2
 10
877.0941
 20
617.6977
 11
877.0942
 21
617.6976
  0
LINE
  8
3_03
  6
CONTINUOUS
 62
2
 10
877.0942
 20
617.6976
 11
877.1764
 21
617.7827
  0
LINE
  8
3_03
  6
CONTINUOUS
 62
2
 10
877.0149
 20
617.5980
 11
877.0481
 21
617.5853
  0
LINE
  8
3_03
  6
CONTINUOUS
 62
2
 10
877.0149
 20
617.5980
 11
876.9818
 21
617.5853
  0
LINE
  8
3_03
  6
CONTINUOUS
 62
2
 10
877.0481
 20
617.5853
 11
877.1331
 21
617.5031
  0
LINE
  8
3_03
  6
CONTINUOUS
 62
2
 10
876.9818
 20
617.5853
 11
876.9818
 21
617.5853
  0
LINE
  8
3_03
  6
CONTINUOUS
 62
2
 10
876.9818
 20
617.5853
 11
876.8968
 21
617.5031
  0
LINE
  8
3_03
  6
CONTINUOUS
 62
2
 10
980.3482
 20
617.7311
 11
980.3152
 21
617.7438
  0
LINE
  8
3_03
  6
CONTINUOUS
 62
2
 10
980.3482
 20
617.7311
 11
980.3813
 21
617.7438
  0
LINE
  8
3_03
  6
CONTINUOUS
 62
2
 10
980.3152
 20
617.7438
 11
980.2301
 21
617.8259
  0
LINE
  8
3_03
  6
CONTINUOUS
 62
2
 10
980.3813
 20
617.7438
 11
980.3813
 21
617.7439
  0
LINE
  8
3_03
  6
CONTINUOUS
 62
2
 10
980.3813
 20
617.7439
 11
980.4663
 21
617.8260
  0
LINE
  8
3_03
  6
CONTINUOUS
 62
2
 10
980.2817
 20
617.6646
 11
980.2690
 21
617.6977
  0
LINE
  8
3_03
  6
CONTINUOUS
 62
2
 10
980.2817
 20
617.6646
 11
980.2690
 21
617.6315
  0
LINE
  8
3_03
  6
CONTINUOUS
 62
2
 10
980.2690
 20
617.6977
 11
980.1868
 21
617.7828
  0
LINE
  8
3_03
  6
CONTINUOUS
 62
2
 10
980.2690
 20
617.6315
 11
980.2690
 21
617.6315
  0
LINE
  8
3_03
  6
CONTINUOUS
 62
2
 10
980.2690
 20
617.6315
 11
980.1867
 21
617.5465
  0
LINE
  8
3_03
  6
CONTINUOUS
 62
2
 10
980.4148
 20
617.6646
 11
980.4275
 21
617.6315
  0
LINE
  8
3_03
  6
CONTINUOUS
 62
2
 10
980.4148
 20
617.6646
 11
980.4275
 21
617.6976
  0
LINE
  8
3_03
  6
CONTINUOUS
 62
2
 10
980.4275
 20
617.6315
 11
980.5096
 21
617.5464
  0
LINE
  8
3_03
  6
CONTINUOUS
 62
2
 10
980.4275
 20
617.6977
 11
980.4275
 21
617.6976
  0
LINE
  8
3_03
  6
CONTINUOUS
 62
2
 10
980.4275
 20
617.6976
 11
980.5096
 21
617.7827
  0
LINE
  8
3_03
  6
CONTINUOUS
 62
2
 10
980.3482
 20
617.5980
 11
980.3813
 21
617.5853
  0
LINE
  8
3_03
  6
CONTINUOUS
 62
2
 10
980.3482
 20
617.5980
 11
980.3152
 21
617.5853
  0
LINE
  8
3_03
  6
CONTINUOUS
 62
2
 10
980.3813
 20
617.5853
 11
980.4663
 21
617.5031
  0
LINE
  8
3_03
  6
CONTINUOUS
 62
2
 10
980.3152
 20
617.5853
 11
980.3152
 21
617.5853
  0
LINE
  8
3_03
  6
CONTINUOUS
 62
2
 10
980.3152
 20
617.5853
 11
980.2301
 21
617.5031
  0
LINE
  8
0_00
  6
CONTINUOUS
 62
2
 10
876.8873
 20
624.4033
 11
876.9742
 21
624.3194
  0
LINE
  8
0_00
  6
CONTINUOUS
 62
2
 10
876.9742
 20
624.3194
 11
877.0149
 21
624.3046
  0
LINE
  8
0_00
  6
CONTINUOUS
 62
2
 10
877.0149
 20
624.3046
 11
877.0534
 21
624.3186
  0
LINE
  8
0_00
  6
CONTINUOUS
 62
2
 10
877.0534
 20
624.3186
 11
877.1431
 21
624.4030
  0
LINE
  8
0_00
  6
CONTINUOUS
 62
2
 10
876.8059
 20
624.3219
 11
876.8898
 21
624.2350
  0
LINE
  8
0_00
  6
CONTINUOUS
 62
2
 10
876.8898
 20
624.2350
 11
876.9046
 21
624.1942
  0
LINE
  8
0_00
  6
CONTINUOUS
 62
2
 10
876.9046
 20
624.1942
 11
876.8906
 21
624.1558
  0
LINE
  8
0_00
  6
CONTINUOUS
 62
2
 10
876.8906
 20
624.1558
 11
876.8062
 21
624.0662
  0
LINE
  8
0_00
  6
CONTINUOUS
 62
2
 10
877.2239
 20
624.0667
 11
877.1400
 21
624.1536
  0
LINE
  8
0_00
  6
CONTINUOUS
 62
2
 10
877.1400
 20
624.1536
 11
877.1252
 21
624.1942
  0
LINE
  8
0_00
  6
CONTINUOUS
 62
2
 10
877.1252
 20
624.1942
 11
877.1392
 21
624.2328
  0
LINE
  8
0_00
  6
CONTINUOUS
 62
2
 10
877.1392
 20
624.2328
 11
877.2236
 21
624.3224
  0
LINE
  8
0_00
  6
CONTINUOUS
 62
2
 10
877.1425
 20
623.9853
 11
877.0556
 21
624.0692
  0
LINE
  8
0_00
  6
CONTINUOUS
 62
2
 10
877.0556
 20
624.0692
 11
877.0149
 21
624.0840
  0
LINE
  8
0_00
  6
CONTINUOUS
 62
2
 10
877.0149
 20
624.0840
 11
876.9764
 21
624.0700
  0
LINE
  8
0_00
  6
CONTINUOUS
 62
2
 10
876.9764
 20
624.0700
 11
876.8868
 21
623.9856
  0
LINE
  8
0_00
  6
CONTINUOUS
 62
2
 10
980.2207
 20
624.4033
 11
980.3075
 21
624.3194
  0
LINE
  8
0_00
  6
CONTINUOUS
 62
2
 10
980.3075
 20
624.3194
 11
980.3482
 21
624.3046
  0
LINE
  8
0_00
  6
CONTINUOUS
 62
2
 10
980.3482
 20
624.3046
 11
980.3867
 21
624.3186
  0
LINE
  8
0_00
  6
CONTINUOUS
 62
2
 10
980.3867
 20
624.3186
 11
980.4764
 21
624.4030
  0
LINE
  8
0_00
  6
CONTINUOUS
 62
2
 10
980.1393
 20
624.3219
 11
980.2231
 21
624.2350
  0
LINE
  8
0_00
  6
CONTINUOUS
 62
2
 10
980.2231
 20
624.2350
 11
980.2380
 21
624.1942
  0
LINE
  8
0_00
  6
CONTINUOUS
 62
2
 10
980.2380
 20
624.1942
 11
980.2239
 21
624.1558
  0
LINE
  8
0_00
  6
CONTINUOUS
 62
2
 10
980.2239
 20
624.1558
 11
980.1395
 21
624.0662
  0
LINE
  8
0_00
  6
CONTINUOUS
 62
2
 10
980.5573
 20
624.0667
 11
980.4734
 21
624.1536
  0
LINE
  8
0_00
  6
CONTINUOUS
 62
2
 10
980.4734
 20
624.1536
 11
980.4586
 21
624.1942
  0
LINE
  8
0_00
  6
CONTINUOUS
 62
2
 10
980.4586
 20
624.1942
 11
980.4726
 21
624.2328
  0
LINE
  8
0_00
  6
CONTINUOUS
 62
2
 10
980.4726
 20
624.2328
 11
980.5570
 21
624.3224
  0
LINE
  8
0_00
  6
CONTINUOUS
 62
2
 10
980.4758
 20
623.9853
 11
980.3889
 21
624.0692
  0
LINE
  8
0_00
  6
CONTINUOUS
 62
2
 10
980.3889
 20
624.0692
 11
980.3482
 21
624.0840
  0
LINE
  8
0_00
  6
CONTINUOUS
 62
2
 10
980.3482
 20
624.0840
 11
980.3098
 21
624.0700
  0
LINE
  8
0_00
  6
CONTINUOUS
 62
2
 10
980.3098
 20
624.0700
 11
980.2201
 21
623.9856
  0
LINE
  8
0_00
  6
CONTINUOUS
 62
4
 10
771.6816
 20
698.9943
 11
771.6816
 21
618.1978
  0
LINE
  8
0_00
  6
CONTINUOUS
 62
4
 10
775.6816
 20
698.9943
 11
775.6816
 21
618.1978
  0
LINE
  8
0_00
  6
CONTINUOUS
 62
4
 10
776.0935
 20
616.9235
 11
771.2696
 21
616.9235
  0
LINE
  8
0_00
  6
CONTINUOUS
 62
4
 10
776.0889
 20
618.1978
 11
771.2742
 21
618.1978
  0
LINE
  8
0_00
  6
CONTINUOUS
 62
4
 10
770.9905
 20
615.6943
 11
771.1745
 21
618.1054
  0
LINE
  8
0_00
  6
CONTINUOUS
 62
4
 10
776.3727
 20
615.6943
 11
776.1886
 21
618.1054
  0
LINE
  8
3_03
  6
CONTINUOUS
 62
2
 10
773.6816
 20
617.7311
 11
773.6484
 21
617.7438
  0
LINE
  8
3_03
  6
CONTINUOUS
 62
2
 10
773.6816
 20
617.7311
 11
773.7147
 21
617.7438
  0
LINE
  8
3_03
  6
CONTINUOUS
 62
2
 10
773.6484
 20
617.7438
 11
773.5634
 21
617.8259
  0
LINE
  8
3_03
  6
CONTINUOUS
 62
2
 10
773.7147
 20
617.7438
 11
773.7146
 21
617.7439
  0
LINE
  8
3_03
  6
CONTINUOUS
 62
2
 10
773.7146
 20
617.7439
 11
773.7996
 21
617.8260
  0
LINE
  8
3_03
  6
CONTINUOUS
 62
2
 10
773.6150
 20
617.6646
 11
773.6023
 21
617.6977
  0
LINE
  8
3_03
  6
CONTINUOUS
 62
2
 10
773.6150
 20
617.6646
 11
773.6023
 21
617.6315
  0
LINE
  8
3_03
  6
CONTINUOUS
 62
2
 10
773.6023
 20
617.6977
 11
773.5201
 21
617.7828
  0
LINE
  8
3_03
  6
CONTINUOUS
 62
2
 10
773.6023
 20
617.6315
 11
773.6022
 21
617.6315
  0
LINE
  8
3_03
  6
CONTINUOUS
 62
2
 10
773.6022
 20
617.6315
 11
773.5201
 21
617.5465
  0
LINE
  8
3_03
  6
CONTINUOUS
 62
2
 10
773.7480
 20
617.6646
 11
773.7609
 21
617.6315
  0
LINE
  8
3_03
  6
CONTINUOUS
 62
2
 10
773.7480
 20
617.6646
 11
773.7608
 21
617.6976
  0
LINE
  8
3_03
  6
CONTINUOUS
 62
2
 10
773.7609
 20
617.6315
 11
773.8430
 21
617.5464
  0
LINE
  8
3_03
  6
CONTINUOUS
 62
2
 10
773.7609
 20
617.6977
 11
773.7609
 21
617.6976
  0
LINE
  8
3_03
  6
CONTINUOUS
 62
2
 10
773.7609
 20
617.6976
 11
773.8430
 21
617.7827
  0
LINE
  8
3_03
  6
CONTINUOUS
 62
2
 10
773.6816
 20
617.5980
 11
773.7147
 21
617.5853
  0
LINE
  8
3_03
  6
CONTINUOUS
 62
2
 10
773.6816
 20
617.5980
 11
773.6485
 21
617.5853
  0
LINE
  8
3_03
  6
CONTINUOUS
 62
2
 10
773.7147
 20
617.5853
 11
773.7997
 21
617.5031
  0
LINE
  8
3_03
  6
CONTINUOUS
 62
2
 10
773.6484
 20
617.5853
 11
773.6485
 21
617.5853
  0
LINE
  8
3_03
  6
CONTINUOUS
 62
2
 10
773.6485
 20
617.5853
 11
773.5635
 21
617.5031
  0
LINE
  8
0_00
  6
CONTINUOUS
 62
2
 10
773.5540
 20
624.4033
 11
773.6409
 21
624.3194
  0
LINE
  8
0_00
  6
CONTINUOUS
 62
2
 10
773.6409
 20
624.3194
 11
773.6816
 21
624.3046
  0
LINE
  8
0_00
  6
CONTINUOUS
 62
2
 10
773.6816
 20
624.3046
 11
773.7201
 21
624.3186
  0
LINE
  8
0_00
  6
CONTINUOUS
 62
2
 10
773.7201
 20
624.3186
 11
773.8097
 21
624.4030
  0
LINE
  8
0_00
  6
CONTINUOUS
 62
2
 10
773.4726
 20
624.3219
 11
773.5565
 21
624.2350
  0
LINE
  8
0_00
  6
CONTINUOUS
 62
2
 10
773.5565
 20
624.2350
 11
773.5713
 21
624.1942
  0
LINE
  8
0_00
  6
CONTINUOUS
 62
2
 10
773.5713
 20
624.1942
 11
773.5573
 21
624.1558
  0
LINE
  8
0_00
  6
CONTINUOUS
 62
2
 10
773.5573
 20
624.1558
 11
773.4729
 21
624.0662
  0
LINE
  8
0_00
  6
CONTINUOUS
 62
2
 10
773.8905
 20
624.0667
 11
773.8067
 21
624.1536
  0
LINE
  8
0_00
  6
CONTINUOUS
 62
2
 10
773.8067
 20
624.1536
 11
773.7919
 21
624.1942
  0
LINE
  8
0_00
  6
CONTINUOUS
 62
2
 10
773.7919
 20
624.1942
 11
773.8058
 21
624.2328
  0
LINE
  8
0_00
  6
CONTINUOUS
 62
2
 10
773.8058
 20
624.2328
 11
773.8902
 21
624.3224
  0
LINE
  8
0_00
  6
CONTINUOUS
 62
2
 10
773.8092
 20
623.9853
 11
773.7223
 21
624.0692
  0
LINE
  8
0_00
  6
CONTINUOUS
 62
2
 10
773.7223
 20
624.0692
 11
773.6816
 21
624.0840
  0
LINE
  8
0_00
  6
CONTINUOUS
 62
2
 10
773.6816
 20
624.0840
 11
773.6430
 21
624.0700
  0
LINE
  8
0_00
  6
CONTINUOUS
 62
2
 10
773.6430
 20
624.0700
 11
773.5534
 21
623.9856
  0
LINE
  8
0_00
  6
CONTINUOUS
 62
4
 10
751.7816
 20
627.1942
 11
771.6816
 21
627.1942
  0
LINE
  8
0_00
  6
CONTINUOUS
 62
4
 10
775.6816
 20
627.1942
 11
875.0149
 21
627.1942
  0
LINE
  8
0_00
  6
CONTINUOUS
 62
4
 10
751.7816
 20
623.6943
 11
771.6816
 21
623.6943
  0
LINE
  8
0_00
  6
CONTINUOUS
 62
4
 10
775.6816
 20
623.6943
 11
875.0149
 21
623.6943
  0
LINE
  8
0_00
  6
CENTER1
 62
6
 10
773.6816
 20
706.9047
 11
773.6816
 21
607.4795
  0
LINE
  8
0_00
  6
CONTINUOUS
 62
4
 10
743.1111
 20
616.7396
 11
742.9946
 21
615.6943
  0
LINE
  8
0_00
  6
CONTINUOUS
 62
4
 10
751.5936
 20
618.1978
 11
745.7679
 21
618.1978
  0
LINE
  8
0_00
  6
CONTINUOUS
 62
4
 10
743.3099
 20
616.9176
 11
746.3816
 21
616.8152
  0
LINE
  8
0_00
  6
CONTINUOUS
 62
4
 10
745.6690
 20
618.1124
 11
745.5599
 21
617.3749
  0
LINE
  8
0_00
  6
CONTINUOUS
 62
4
 10
751.6927
 20
618.1105
 11
751.8172
 21
617.1383
  0
LINE
  8
0_00
  6
CONTINUOUS
 62
4
 10
754.2506
 20
616.3814
 11
754.3266
 21
615.6943
  0
LINE
  8
0_00
  6
CONTINUOUS
 62
4
 10
750.9816
 20
616.6619
 11
754.0585
 21
616.5593
  0
LINE
  8
0_00
  6
CONTINUOUS
 62
4
 10
746.1816
 20
618.1978
 11
746.1816
 21
698.9643
  0
LINE
  8
0_00
  6
CONTINUOUS
 62
2
 10
746.1816
 20
625.4978
 11
746.1816
 21
626.6777
  0
LINE
  8
0_00
  6
CONTINUOUS
 62
2
 10
746.1468
 20
626.6777
 11
746.1816
 21
626.6777
  0
LINE
  8
0_00
  6
CONTINUOUS
 62
2
 10
746.1468
 20
625.4978
 11
746.1816
 21
625.4978
  0
LINE
  8
0_00
  6
CONTINUOUS
 62
2
 10
746.1468
 20
625.4978
 11
746.1468
 21
626.6777
  0
LINE
  8
12_0C
  6
CONTINUOUS
 62
2
 10
745.5266
 20
618.0478
 11
745.5266
 21
617.2478
  0
LINE
  8
12_0C
  6
CONTINUOUS
 62
2
 10
745.4866
 20
618.0478
 11
745.4866
 21
617.2478
  0
LINE
  8
12_0C
  6
CONTINUOUS
 62
2
 10
745.5266
 20
617.2478
 11
745.4866
 21
617.2478
  0
LINE
  8
12_0C
  6
CONTINUOUS
 62
2
 10
745.5266
 20
618.0478
 11
745.4866
 21
618.0478
  0
LINE
  8
0_00
  6
CONTINUOUS
 62
2
 10
745.5266
 20
617.8478
 11
745.6298
 21
617.8478
  0
LINE
  8
12_0C
  6
CONTINUOUS
 62
2
 10
745.5266
 20
617.7928
 11
745.6217
 21
617.7928
  0
LINE
  8
12_0C
  6
CONTINUOUS
 62
2
 10
745.5266
 20
617.5028
 11
745.5788
 21
617.5028
  0
LINE
  8
0_00
  6
CONTINUOUS
 62
2
 10
745.5266
 20
617.4478
 11
745.5707
 21
617.4478
  0
LINE
  8
12_0C
  6
CONTINUOUS
 62
2
 10
751.8366
 20
618.0478
 11
751.8366
 21
617.2478
  0
LINE
  8
12_0C
  6
CONTINUOUS
 62
2
 10
751.8766
 20
618.0478
 11
751.8766
 21
617.2478
  0
LINE
  8
12_0C
  6
CONTINUOUS
 62
2
 10
751.8366
 20
617.2478
 11
751.8766
 21
617.2478
  0
LINE
  8
12_0C
  6
CONTINUOUS
 62
2
 10
751.8366
 20
618.0478
 11
751.8766
 21
618.0478
  0
LINE
  8
0_00
  6
CONTINUOUS
 62
2
 10
751.8366
 20
617.8478
 11
751.7333
 21
617.8478
  0
LINE
  8
12_0C
  6
CONTINUOUS
 62
2
 10
751.8366
 20
617.7928
 11
751.7414
 21
617.7928
  0
LINE
  8
12_0C
  6
CONTINUOUS
 62
2
 10
751.8366
 20
617.5028
 11
751.7843
 21
617.5028
  0
LINE
  8
0_00
  6
CONTINUOUS
 62
2
 10
751.8366
 20
617.4478
 11
751.7925
 21
617.4478
  0
LINE
  8
2_02
  6
CONTINUOUS
 62
4
 10
746.3816
 20
626.9943
 11
746.3816
 21
623.8442
  0
LINE
  8
2_02
  6
CONTINUOUS
 62
4
 10
751.7816
 20
627.2443
 11
751.7816
 21
623.8442
  0
LINE
  8
2_02
  6
CONTINUOUS
 62
4
 10
746.5816
 20
623.6443
 11
751.5815
 21
623.6443
  0
LINE
  8
0_00
  6
CONTINUOUS
 62
4
 10
751.7816
 20
624.4996
 11
751.7816
 21
624.3655
  0
LINE
  8
0_00
  6
CONTINUOUS
 62
4
 10
751.7816
 20
627.1942
 11
751.7816
 21
623.6943
  0
LINE
  8
0_00
  6
CONTINUOUS
 62
4
 10
751.1816
 20
698.9943
 11
751.1816
 21
627.2443
  0
LINE
  8
0_00
  6
CONTINUOUS
 62
4
 10
751.1816
 20
623.6443
 11
751.1816
 21
618.1978
  0
LINE
  8
0_00
  6
CONTINUOUS
 62
4
 10
749.9316
 20
627.2443
 11
749.9316
 21
698.9643
  0
LINE
  8
0_00
  6
CONTINUOUS
 62
4
 10
747.4316
 20
627.2443
 11
747.4316
 21
698.9643
  0
LINE
  8
2_02
  6
CONTINUOUS
 62
4
 10
746.6316
 20
627.2443
 11
751.7816
 21
627.2443
  0
LINE
  8
0_00
  6
CONTINUOUS
 62
4
 10
1105.6317
 20
703.7641
 11
1108.6179
 21
703.7641
  0
LINE
  8
0_00
  6
CONTINUOUS
 62
4
 10
1111.6816
 20
698.9643
 11
1105.6317
 21
698.9643
  0
LINE
  8
0_00
  6
CONTINUOUS
 62
4
 10
1105.5815
 20
699.0142
 11
1105.5815
 21
703.7142
  0
LINE
  8
0_00
  6
CONTINUOUS
 62
4
 10
1111.7315
 20
702.9666
 11
1111.7315
 21
699.0142
  0
LINE
  8
0_00
  6
CONTINUOUS
 62
4
 10
1094.6316
 20
698.9943
 11
1094.6316
 21
627.1942
  0
LINE
  8
0_00
  6
CONTINUOUS
 62
4
 10
1096.6316
 20
627.1942
 11
1096.6316
 21
698.9943
  0
LINE
  8
0_00
  6
CONTINUOUS
 62
4
 10
1085.6817
 20
698.9943
 11
1085.6817
 21
618.1978
  0
LINE
  8
0_00
  6
CONTINUOUS
 62
4
 10
1081.6816
 20
698.9943
 11
1081.6816
 21
618.1978
  0
LINE
  8
0_00
  6
CONTINUOUS
 62
4
 10
1081.2697
 20
616.9235
 11
1086.0935
 21
616.9235
  0
LINE
  8
0_00
  6
CONTINUOUS
 62
4
 10
1081.2741
 20
618.1978
 11
1086.0889
 21
618.1978
  0
LINE
  8
0_00
  6
CONTINUOUS
 62
4
 10
1086.3726
 20
615.6943
 11
1086.1886
 21
618.1054
  0
LINE
  8
0_00
  6
CONTINUOUS
 62
4
 10
1080.9905
 20
615.6943
 11
1081.1745
 21
618.1054
  0
LINE
  8
0_00
  6
CONTINUOUS
 62
2
 10
1083.6817
 20
617.7311
 11
1083.7148
 21
617.7438
  0
LINE
  8
0_00
  6
CONTINUOUS
 62
2
 10
1083.6817
 20
617.7311
 11
1083.6484
 21
617.7438
  0
LINE
  8
0_00
  6
CONTINUOUS
 62
2
 10
1083.7148
 20
617.7438
 11
1083.7997
 21
617.8259
  0
LINE
  8
0_00
  6
CONTINUOUS
 62
2
 10
1083.6484
 20
617.7438
 11
1083.6486
 21
617.7439
  0
LINE
  8
0_00
  6
CONTINUOUS
 62
2
 10
1083.6486
 20
617.7439
 11
1083.5635
 21
617.8260
  0
LINE
  8
0_00
  6
CONTINUOUS
 62
2
 10
1083.7482
 20
617.6646
 11
1083.7609
 21
617.6977
  0
LINE
  8
0_00
  6
CONTINUOUS
 62
2
 10
1083.7482
 20
617.6646
 11
1083.7609
 21
617.6315
  0
LINE
  8
0_00
  6
CONTINUOUS
 62
2
 10
1083.7609
 20
617.6977
 11
1083.8430
 21
617.7828
  0
LINE
  8
0_00
  6
CONTINUOUS
 62
2
 10
1083.7609
 20
617.6315
 11
1083.7609
 21
617.6315
  0
LINE
  8
0_00
  6
CONTINUOUS
 62
2
 10
1083.7609
 20
617.6315
 11
1083.8430
 21
617.5465
  0
LINE
  8
0_00
  6
CONTINUOUS
 62
2
 10
1083.6151
 20
617.6646
 11
1083.6023
 21
617.6315
  0
LINE
  8
0_00
  6
CONTINUOUS
 62
2
 10
1083.6151
 20
617.6646
 11
1083.6023
 21
617.6976
  0
LINE
  8
0_00
  6
CONTINUOUS
 62
2
 10
1083.6023
 20
617.6315
 11
1083.5203
 21
617.5464
  0
LINE
  8
0_00
  6
CONTINUOUS
 62
2
 10
1083.6023
 20
617.6977
 11
1083.6023
 21
617.6976
  0
LINE
  8
0_00
  6
CONTINUOUS
 62
2
 10
1083.6023
 20
617.6976
 11
1083.5201
 21
617.7827
  0
LINE
  8
0_00
  6
CONTINUOUS
 62
2
 10
1083.6817
 20
617.5980
 11
1083.6484
 21
617.5853
  0
LINE
  8
0_00
  6
CONTINUOUS
 62
2
 10
1083.6817
 20
617.5980
 11
1083.7147
 21
617.5853
  0
LINE
  8
0_00
  6
CONTINUOUS
 62
2
 10
1083.6484
 20
617.5853
 11
1083.5635
 21
617.5031
  0
LINE
  8
0_00
  6
CONTINUOUS
 62
2
 10
1083.7148
 20
617.5853
 11
1083.7147
 21
617.5853
  0
LINE
  8
0_00
  6
CONTINUOUS
 62
2
 10
1083.7147
 20
617.5853
 11
1083.7997
 21
617.5031
  0
LINE
  8
0_00
  6
CONTINUOUS
 62
2
 10
1083.8092
 20
624.4033
 11
1083.7223
 21
624.3194
  0
LINE
  8
0_00
  6
CONTINUOUS
 62
2
 10
1083.7223
 20
624.3194
 11
1083.6817
 21
624.3046
  0
LINE
  8
0_00
  6
CONTINUOUS
 62
2
 10
1083.6817
 20
624.3046
 11
1083.6431
 21
624.3186
  0
LINE
  8
0_00
  6
CONTINUOUS
 62
2
 10
1083.6431
 20
624.3186
 11
1083.5534
 21
624.4030
  0
LINE
  8
0_00
  6
CONTINUOUS
 62
2
 10
1083.8906
 20
624.3219
 11
1083.8066
 21
624.2350
  0
LINE
  8
0_00
  6
CONTINUOUS
 62
2
 10
1083.8066
 20
624.2350
 11
1083.7918
 21
624.1942
  0
LINE
  8
0_00
  6
CONTINUOUS
 62
2
 10
1083.7918
 20
624.1942
 11
1083.8059
 21
624.1558
  0
LINE
  8
0_00
  6
CONTINUOUS
 62
2
 10
1083.8059
 20
624.1558
 11
1083.8903
 21
624.0662
  0
LINE
  8
0_00
  6
CONTINUOUS
 62
2
 10
1083.4726
 20
624.0667
 11
1083.5564
 21
624.1536
  0
LINE
  8
0_00
  6
CONTINUOUS
 62
2
 10
1083.5564
 20
624.1536
 11
1083.5713
 21
624.1942
  0
LINE
  8
0_00
  6
CONTINUOUS
 62
2
 10
1083.5713
 20
624.1942
 11
1083.5573
 21
624.2328
  0
LINE
  8
0_00
  6
CONTINUOUS
 62
2
 10
1083.5573
 20
624.2328
 11
1083.4730
 21
624.3224
  0
LINE
  8
0_00
  6
CONTINUOUS
 62
2
 10
1083.5539
 20
623.9853
 11
1083.6409
 21
624.0692
  0
LINE
  8
0_00
  6
CONTINUOUS
 62
2
 10
1083.6409
 20
624.0692
 11
1083.6817
 21
624.0840
  0
LINE
  8
0_00
  6
CONTINUOUS
 62
2
 10
1083.6817
 20
624.0840
 11
1083.7202
 21
624.0700
  0
LINE
  8
0_00
  6
CONTINUOUS
 62
2
 10
1083.7202
 20
624.0700
 11
1083.8097
 21
623.9856
  0
LINE
  8
0_00
  6
CONTINUOUS
 62
4
 10
1105.5815
 20
627.1942
 11
1085.6817
 21
627.1942
  0
LINE
  8
0_00
  6
CONTINUOUS
 62
4
 10
1105.5815
 20
623.6943
 11
1085.6817
 21
623.6943
  0
LINE
  8
0_00
  6
CONTINUOUS
 62
4
 10
1105.7695
 20
618.1978
 11
1111.5952
 21
618.1978
  0
LINE
  8
0_00
  6
CONTINUOUS
 62
4
 10
1111.6942
 20
618.1124
 11
1111.8032
 21
617.3749
  0
LINE
  8
0_00
  6
CONTINUOUS
 62
4
 10
1105.6705
 20
618.1105
 11
1105.5459
 21
617.1383
  0
LINE
  8
0_00
  6
CONTINUOUS
 62
4
 10
1103.1126
 20
616.3814
 11
1103.0365
 21
615.6943
  0
LINE
  8
0_00
  6
CONTINUOUS
 62
4
 10
1106.3816
 20
616.6619
 11
1103.3047
 21
616.5593
  0
LINE
  8
0_00
  6
CONTINUOUS
 62
4
 10
1111.1817
 20
618.1978
 11
1111.1817
 21
698.9643
  0
LINE
  8
0_00
  6
CONTINUOUS
 62
2
 10
1111.1817
 20
625.4978
 11
1111.1817
 21
626.6777
  0
LINE
  8
0_00
  6
CONTINUOUS
 62
2
 10
1111.2163
 20
626.6777
 11
1111.1817
 21
626.6777
  0
LINE
  8
0_00
  6
CONTINUOUS
 62
2
 10
1111.2163
 20
625.4978
 11
1111.1817
 21
625.4978
  0
LINE
  8
0_00
  6
CONTINUOUS
 62
2
 10
1111.2163
 20
625.4978
 11
1111.2163
 21
626.6777
  0
LINE
  8
0_00
  6
CONTINUOUS
 62
2
 10
1111.8366
 20
618.0478
 11
1111.8366
 21
617.2478
  0
LINE
  8
0_00
  6
CONTINUOUS
 62
2
 10
1111.8766
 20
618.0478
 11
1111.8766
 21
617.2478
  0
LINE
  8
0_00
  6
CONTINUOUS
 62
2
 10
1111.8366
 20
617.2478
 11
1111.8766
 21
617.2478
  0
LINE
  8
0_00
  6
CONTINUOUS
 62
2
 10
1111.8366
 20
618.0478
 11
1111.8766
 21
618.0478
  0
LINE
  8
0_00
  6
CONTINUOUS
 62
2
 10
1111.8366
 20
617.8478
 11
1111.7334
 21
617.8478
  0
LINE
  8
0_00
  6
CONTINUOUS
 62
2
 10
1111.8366
 20
617.7928
 11
1111.7414
 21
617.7928
  0
LINE
  8
0_00
  6
CONTINUOUS
 62
2
 10
1111.8366
 20
617.5028
 11
1111.7844
 21
617.5028
  0
LINE
  8
0_00
  6
CONTINUOUS
 62
2
 10
1111.8366
 20
617.4478
 11
1111.7925
 21
617.4478
  0
LINE
  8
0_00
  6
CONTINUOUS
 62
2
 10
1105.5266
 20
618.0478
 11
1105.5266
 21
617.2478
  0
LINE
  8
0_00
  6
CONTINUOUS
 62
2
 10
1105.4865
 20
618.0478
 11
1105.4865
 21
617.2478
  0
LINE
  8
0_00
  6
CONTINUOUS
 62
2
 10
1105.5266
 20
617.2478
 11
1105.4865
 21
617.2478
  0
LINE
  8
0_00
  6
CONTINUOUS
 62
2
 10
1105.5266
 20
618.0478
 11
1105.4865
 21
618.0478
  0
LINE
  8
0_00
  6
CONTINUOUS
 62
2
 10
1105.5266
 20
617.8478
 11
1105.6299
 21
617.8478
  0
LINE
  8
0_00
  6
CONTINUOUS
 62
2
 10
1105.5266
 20
617.7928
 11
1105.6217
 21
617.7928
  0
LINE
  8
0_00
  6
CONTINUOUS
 62
2
 10
1105.5266
 20
617.5028
 11
1105.5788
 21
617.5028
  0
LINE
  8
0_00
  6
CONTINUOUS
 62
2
 10
1105.5266
 20
617.4478
 11
1105.5707
 21
617.4478
  0
LINE
  8
0_00
  6
CONTINUOUS
 62
4
 10
1110.9816
 20
626.9943
 11
1110.9816
 21
623.8442
  0
LINE
  8
0_00
  6
CONTINUOUS
 62
4
 10
1105.5815
 20
627.2443
 11
1105.5815
 21
623.8442
  0
LINE
  8
0_00
  6
CONTINUOUS
 62
4
 10
1110.7816
 20
623.6443
 11
1105.7816
 21
623.6443
  0
LINE
  8
0_00
  6
CONTINUOUS
 62
4
 10
1105.5815
 20
624.4996
 11
1105.5815
 21
624.3655
  0
LINE
  8
0_00
  6
CONTINUOUS
 62
4
 10
1105.5815
 20
627.1942
 11
1105.5815
 21
623.6943
  0
LINE
  8
0_00
  6
CONTINUOUS
 62
4
 10
1106.1817
 20
698.9943
 11
1106.1817
 21
627.2443
  0
LINE
  8
0_00
  6
CONTINUOUS
 62
4
 10
1106.1817
 20
623.6443
 11
1106.1817
 21
618.1978
  0
LINE
  8
0_00
  6
CONTINUOUS
 62
4
 10
1107.4317
 20
627.2443
 11
1107.4317
 21
698.9643
  0
LINE
  8
0_00
  6
CONTINUOUS
 62
4
 10
1109.9316
 20
627.2443
 11
1109.9316
 21
698.9643
  0
LINE
  8
0_00
  6
CONTINUOUS
 62
4
 10
1110.7316
 20
627.2443
 11
1105.5815
 21
627.2443
  0
LINE
  8
0_00
  6
CONTINUOUS
 62
4
 10
1114.2521
 20
616.7396
 11
1114.3686
 21
615.6943
  0
LINE
  8
0_00
  6
CONTINUOUS
 62
4
 10
1114.0534
 20
616.9176
 11
1110.9816
 21
616.8152
  0
LINE
  8
0_00
  6
CENTER1
 62
6
 10
1083.6817
 20
706.9047
 11
1083.6817
 21
607.6007
  0
LINE
  8
0_00
  6
CENTER1
 62
6
 10
1108.6816
 20
706.9047
 11
1108.6816
 21
607.4795
  0
LINE
  8
0_00
  6
CONTINUOUS
 62
4
 10
982.3482
 20
627.1942
 11
1081.6816
 21
627.1942
  0
LINE
  8
0_00
  6
CONTINUOUS
 62
4
 10
982.3482
 20
623.6943
 11
1081.6816
 21
623.6943
  0
LINE
  8
0_00
  6
CONTINUOUS
 62
4
 10
1069.1148
 20
698.9943
 11
1069.1148
 21
627.1942
  0
LINE
  8
0_00
  6
CONTINUOUS
 62
4
 10
1071.1149
 20
627.1942
 11
1071.1149
 21
698.9943
  0
LINE
  8
0_00
  6
CONTINUOUS
 62
4
 10
1056.4149
 20
698.9943
 11
1056.4149
 21
627.1942
  0
LINE
  8
0_00
  6
CONTINUOUS
 62
4
 10
1058.4149
 20
627.1942
 11
1058.4149
 21
698.9943
  0
LINE
  8
0_00
  6
CONTINUOUS
 62
4
 10
1043.7148
 20
698.9943
 11
1043.7148
 21
627.1942
  0
LINE
  8
0_00
  6
CONTINUOUS
 62
4
 10
1045.7149
 20
627.1942
 11
1045.7149
 21
698.9943
  0
LINE
  8
0_00
  6
CONTINUOUS
 62
4
 10
1031.0149
 20
698.9943
 11
1031.0149
 21
627.1942
  0
LINE
  8
0_00
  6
CONTINUOUS
 62
4
 10
1033.0149
 20
627.1942
 11
1033.0149
 21
698.9943
  0
LINE
  8
0_00
  6
CONTINUOUS
 62
4
 10
994.9149
 20
698.9943
 11
994.9149
 21
627.1942
  0
LINE
  8
0_00
  6
CONTINUOUS
 62
4
 10
992.9149
 20
627.1942
 11
992.9149
 21
698.9943
  0
LINE
  8
0_00
  6
CONTINUOUS
 62
4
 10
1007.6148
 20
698.9943
 11
1007.6148
 21
627.1942
  0
LINE
  8
0_00
  6
CONTINUOUS
 62
4
 10
1005.6149
 20
627.1942
 11
1005.6149
 21
698.9943
  0
LINE
  8
0_00
  6
CONTINUOUS
 62
4
 10
1020.3149
 20
698.9943
 11
1020.3149
 21
627.1942
  0
LINE
  8
0_00
  6
CONTINUOUS
 62
4
 10
1018.3150
 20
627.1942
 11
1018.3150
 21
698.9943
  0
LINE
  8
0_00
  6
CONTINUOUS
 62
4
 10
965.7816
 20
698.9943
 11
965.7816
 21
627.1942
  0
LINE
  8
0_00
  6
CONTINUOUS
 62
4
 10
967.7816
 20
627.1942
 11
967.7816
 21
698.9943
  0
LINE
  8
0_00
  6
CONTINUOUS
 62
4
 10
953.0815
 20
698.9943
 11
953.0815
 21
627.1942
  0
LINE
  8
0_00
  6
CONTINUOUS
 62
4
 10
955.0815
 20
627.1942
 11
955.0815
 21
698.9943
  0
LINE
  8
0_00
  6
CONTINUOUS
 62
4
 10
940.3816
 20
698.9943
 11
940.3816
 21
627.1942
  0
LINE
  8
0_00
  6
CONTINUOUS
 62
4
 10
942.3816
 20
627.1942
 11
942.3816
 21
698.9943
  0
LINE
  8
0_00
  6
CONTINUOUS
 62
4
 10
927.6816
 20
698.9943
 11
927.6816
 21
627.1942
  0
LINE
  8
0_00
  6
CONTINUOUS
 62
4
 10
929.6816
 20
627.1942
 11
929.6816
 21
698.9943
  0
LINE
  8
0_00
  6
CONTINUOUS
 62
4
 10
916.9816
 20
698.9943
 11
916.9816
 21
627.1942
  0
LINE
  8
0_00
  6
CONTINUOUS
 62
4
 10
914.9816
 20
627.1942
 11
914.9816
 21
698.9943
  0
LINE
  8
0_00
  6
CONTINUOUS
 62
4
 10
891.5815
 20
698.9943
 11
891.5815
 21
627.1942
  0
LINE
  8
0_00
  6
CONTINUOUS
 62
4
 10
889.5816
 20
627.1942
 11
889.5816
 21
698.9943
  0
LINE
  8
0_00
  6
CONTINUOUS
 62
4
 10
904.2816
 20
698.9943
 11
904.2816
 21
627.1942
  0
LINE
  8
0_00
  6
CONTINUOUS
 62
4
 10
902.2816
 20
627.1942
 11
902.2816
 21
698.9943
  0
LINE
  8
0_00
  6
CONTINUOUS
 62
4
 10
862.4483
 20
698.9943
 11
862.4483
 21
627.1942
  0
LINE
  8
0_00
  6
CONTINUOUS
 62
4
 10
864.4482
 20
627.1942
 11
864.4482
 21
698.9943
  0
LINE
  8
0_00
  6
CONTINUOUS
 62
4
 10
849.7483
 20
698.9943
 11
849.7483
 21
627.1942
  0
LINE
  8
0_00
  6
CONTINUOUS
 62
4
 10
851.7482
 20
627.1942
 11
851.7482
 21
698.9943
  0
LINE
  8
0_00
  6
CONTINUOUS
 62
4
 10
837.0482
 20
698.9943
 11
837.0482
 21
627.1942
  0
LINE
  8
0_00
  6
CONTINUOUS
 62
4
 10
839.0482
 20
627.1942
 11
839.0482
 21
698.9943
  0
LINE
  8
0_00
  6
CONTINUOUS
 62
4
 10
824.3483
 20
698.9943
 11
824.3483
 21
627.1942
  0
LINE
  8
0_00
  6
CONTINUOUS
 62
4
 10
826.3482
 20
627.1942
 11
826.3482
 21
698.9943
  0
LINE
  8
0_00
  6
CONTINUOUS
 62
4
 10
813.6483
 20
698.9943
 11
813.6483
 21
627.1942
  0
LINE
  8
0_00
  6
CONTINUOUS
 62
4
 10
811.6482
 20
627.1942
 11
811.6482
 21
698.9943
  0
LINE
  8
0_00
  6
CONTINUOUS
 62
4
 10
788.2483
 20
698.9943
 11
788.2483
 21
627.1942
  0
LINE
  8
0_00
  6
CONTINUOUS
 62
4
 10
786.2482
 20
627.1942
 11
786.2482
 21
698.9943
  0
LINE
  8
0_00
  6
CONTINUOUS
 62
4
 10
800.9482
 20
698.9943
 11
800.9482
 21
627.1942
  0
LINE
  8
0_00
  6
CONTINUOUS
 62
4
 10
798.9483
 20
627.1942
 11
798.9483
 21
698.9943
  0
LINE
  8
0_00
  6
CONTINUOUS
 62
2
 10
896.7982
 20
717.4691
 11
880.0854
 21
717.4691
  0
LINE
  8
0_00
  6
CONTINUOUS
 62
2
 10
880.0854
 20
717.4691
 11
887.4216
 21
715.9098
  0
LINE
  8
0_00
  6
CONTINUOUS
 62
2
 10
880.0854
 20
717.4691
 11
887.4216
 21
719.0284
  0
LINE
  8
0_00
  6
CONTINUOUS
 62
2
 10
896.7982
 20
598.6539
 11
880.0854
 21
598.6539
  0
LINE
  8
0_00
  6
CONTINUOUS
 62
2
 10
880.0854
 20
598.6539
 11
887.4216
 21
597.0945
  0
LINE
  8
0_00
  6
CONTINUOUS
 62
2
 10
880.0854
 20
598.6539
 11
887.4216
 21
600.2132
  0
LINE
  8
0_00
  6
CONTINUOUS
 62
2
 10
1001.1063
 20
648.1070
 11
1001.1063
 21
598.3339
  0
LINE
  8
0_00
  6
CONTINUOUS
 62
2
 10
1001.1063
 20
598.3339
 11
1002.6657
 21
605.6699
  0
LINE
  8
0_00
  6
CONTINUOUS
 62
2
 10
1001.1063
 20
598.3339
 11
999.5469
 21
605.6699
  0
LINE
  8
0_00
  6
CENTER1
 62
6
 10
928.6815
 20
708.4304
 11
928.6815
 21
665.9073
  0
LINE
  8
0_00
  6
CENTER1
 62
6
 10
941.3816
 20
708.4304
 11
941.3816
 21
665.9073
  0
LINE
  8
0_00
  6
CONTINUOUS
 62
4
 10
351.2032
 20
727.1499
 11
351.2031
 21
688.3280
  0
LINE
  8
0_00
  6
CONTINUOUS
 62
4
 10
349.8032
 20
727.1251
 11
349.8031
 21
700.7518
  0
LINE
  8
0_00
  6
CONTINUOUS
 62
4
 10
349.8031
 20
688.3280
 11
349.8031
 21
691.5017
  0
LINE
  8
0_00
  6
CONTINUOUS
 62
4
 10
291.2032
 20
727.1499
 11
291.2032
 21
688.3228
  0
LINE
  8
0_00
  6
CONTINUOUS
 62
4
 10
292.6031
 20
727.1251
 11
292.6032
 21
700.7305
  0
LINE
  8
0_00
  6
CONTINUOUS
 62
4
 10
292.6027
 20
691.5017
 11
292.6027
 21
688.3280
  0
LINE
  8
0_00
  6
CONTINUOUS
 62
4
 10
321.2032
 20
690.9279
 11
320.9032
 21
690.6279
  0
LINE
  8
0_00
  6
CONTINUOUS
 62
4
 10
333.5032
 20
690.6279
 11
321.5032
 21
690.6279
  0
LINE
  8
0_00
  6
CONTINUOUS
 62
4
 10
321.2032
 20
690.9279
 11
321.5032
 21
690.6279
  0
LINE
  8
14_0E
  6
CONTINUOUS
 62
4
 10
334.2794
 20
692.2375
 11
325.2032
 21
692.6279
  0
LINE
  8
0_00
  6
CONTINUOUS
 62
4
 10
333.5032
 20
690.6279
 11
333.9032
 21
689.1279
  0
LINE
  8
0_00
  6
CONTINUOUS
 62
4
 10
336.7032
 20
690.8280
 11
341.7032
 21
690.8280
  0
LINE
  8
0_00
  6
CONTINUOUS
 62
4
 10
333.9032
 20
689.1279
 11
348.6032
 21
689.1279
  0
LINE
  8
0_00
  6
CONTINUOUS
 62
4
 10
339.2032
 20
689.4280
 11
338.9032
 21
689.1279
  0
LINE
  8
0_00
  6
CONTINUOUS
 62
4
 10
339.2032
 20
689.4280
 11
339.5032
 21
689.1279
  0
LINE
  8
0_00
  6
CONTINUOUS
 62
4
 10
346.5309
 20
690.6279
 11
342.0032
 21
690.6279
  0
LINE
  8
0_00
  6
CONTINUOUS
 62
4
 10
341.7032
 20
690.8280
 11
342.0032
 21
690.6279
  0
LINE
  8
0_00
  6
CONTINUOUS
 62
4
 10
336.4032
 20
690.6279
 11
335.2155
 21
690.6279
  0
LINE
  8
0_00
  6
CONTINUOUS
 62
4
 10
336.7032
 20
690.8280
 11
336.4032
 21
690.6279
  0
LINE
  8
0_00
  6
CONTINUOUS
 62
4
 10
334.5575
 20
692.0106
 11
334.8274
 21
690.9309
  0
LINE
  8
0_00
  6
CONTINUOUS
 62
4
 10
321.2032
 20
690.9279
 11
321.5032
 21
690.6279
  0
LINE
  8
0_00
  6
CONTINUOUS
 62
4
 10
308.9032
 20
690.6279
 11
320.9032
 21
690.6279
  0
LINE
  8
0_00
  6
CONTINUOUS
 62
4
 10
321.2032
 20
690.9279
 11
320.9032
 21
690.6279
  0
LINE
  8
14_0E
  6
CONTINUOUS
 62
4
 10
308.1270
 20
692.2375
 11
317.2032
 21
692.6279
  0
LINE
  8
0_00
  6
CONTINUOUS
 62
4
 10
308.9032
 20
690.6279
 11
308.5032
 21
689.1279
  0
LINE
  8
0_00
  6
CONTINUOUS
 62
4
 10
305.7032
 20
690.8280
 11
300.7032
 21
690.8280
  0
LINE
  8
0_00
  6
CONTINUOUS
 62
4
 10
296.2033
 20
689.1279
 11
293.8032
 21
689.1279
  0
LINE
  8
0_00
  6
CONTINUOUS
 62
4
 10
303.2032
 20
689.4280
 11
303.5032
 21
689.1279
  0
LINE
  8
0_00
  6
CONTINUOUS
 62
4
 10
303.2032
 20
689.4280
 11
302.9032
 21
689.1279
  0
LINE
  8
0_00
  6
CONTINUOUS
 62
4
 10
295.8754
 20
690.6279
 11
300.4032
 21
690.6279
  0
LINE
  8
0_00
  6
CONTINUOUS
 62
4
 10
300.7032
 20
690.8280
 11
300.4032
 21
690.6279
  0
LINE
  8
0_00
  6
CONTINUOUS
 62
4
 10
306.0032
 20
690.6279
 11
307.1908
 21
690.6279
  0
LINE
  8
0_00
  6
CONTINUOUS
 62
4
 10
305.7032
 20
690.8280
 11
306.0032
 21
690.6279
  0
LINE
  8
0_00
  6
CONTINUOUS
 62
4
 10
307.8488
 20
692.0106
 11
307.5789
 21
690.9309
  0
LINE
  8
0_00
  6
CONTINUOUS
 62
4
 10
325.2032
 20
692.6279
 11
317.2032
 21
692.6279
  0
LINE
  8
0_00
  6
CONTINUOUS
 62
4
 10
348.6032
 20
689.1279
 11
349.6032
 21
690.1279
  0
LINE
  8
0_00
  6
CONTINUOUS
 62
4
 10
349.6032
 20
690.1279
 11
349.6032
 21
691.4279
  0
LINE
  8
0_00
  6
CONTINUOUS
 62
4
 10
349.6032
 20
690.6279
 11
349.6032
 21
690.1279
  0
LINE
  8
0_00
  6
CONTINUOUS
 62
4
 10
348.6227
 20
693.5059
 11
349.4793
 21
693.5809
  0
LINE
  8
0_00
  6
CONTINUOUS
 62
4
 10
347.5160
 20
694.5133
 11
348.3541
 21
694.5866
  0
LINE
  8
0_00
  6
CONTINUOUS
 62
4
 10
346.6032
 20
693.5171
 11
346.6032
 21
693.0841
  0
LINE
  8
14_0E
  6
CONTINUOUS
 62
4
 10
349.7471
 20
693.9400
 11
348.6616
 21
699.2280
  0
LINE
  8
0_00
  6
CONTINUOUS
 62
4
 10
347.9154
 20
698.3872
 11
348.6218
 21
694.9458
  0
LINE
  8
0_00
  6
CONTINUOUS
 62
4
 10
348.6011
 20
699.2280
 11
348.6616
 21
699.2280
  0
LINE
  8
0_00
  6
CONTINUOUS
 62
4
 10
293.8032
 20
689.1279
 11
292.8032
 21
690.1279
  0
LINE
  8
0_00
  6
CONTINUOUS
 62
4
 10
292.8032
 20
690.1279
 11
292.8032
 21
691.4279
  0
LINE
  8
0_00
  6
CONTINUOUS
 62
4
 10
292.8032
 20
690.6279
 11
292.8032
 21
690.1279
  0
LINE
  8
0_00
  6
CONTINUOUS
 62
4
 10
293.7837
 20
693.5059
 11
292.9270
 21
693.5809
  0
LINE
  8
0_00
  6
CONTINUOUS
 62
4
 10
294.8903
 20
694.5133
 11
294.0523
 21
694.5866
  0
LINE
  8
0_00
  6
CONTINUOUS
 62
4
 10
295.8032
 20
693.5171
 11
295.8032
 21
693.0841
  0
LINE
  8
0_00
  6
CONTINUOUS
 62
4
 10
292.6593
 20
693.9400
 11
293.7448
 21
699.2280
  0
LINE
  8
0_00
  6
CONTINUOUS
 62
4
 10
294.4909
 20
698.3872
 11
293.7845
 21
694.9458
  0
LINE
  8
0_00
  6
CONTINUOUS
 62
4
 10
293.8052
 20
699.2280
 11
293.7448
 21
699.2280
  0
LINE
  8
0_00
  6
CONTINUOUS
 62
4
 10
349.8031
 20
696.5517
 11
349.8031
 21
698.9518
  0
LINE
  8
0_00
  6
CONTINUOUS
 62
4
 10
347.1031
 20
699.3518
 11
349.4031
 21
699.3518
  0
LINE
  8
0_00
  6
CONTINUOUS
 62
4
 10
346.8031
 20
700.3518
 11
349.4031
 21
700.3518
  0
LINE
  8
0_00
  6
CONTINUOUS
 62
4
 10
346.3031
 20
699.8518
 11
346.3031
 21
698.7518
  0
LINE
  8
0_00
  6
CONTINUOUS
 62
4
 10
347.1031
 20
699.3518
 11
347.1031
 21
699.1518
  0
LINE
  8
0_00
  6
CONTINUOUS
 62
4
 10
348.7226
 20
693.4573
 11
349.4380
 21
693.5198
  0
LINE
  8
0_00
  6
CONTINUOUS
 62
4
 10
349.7952
 20
693.9974
 11
349.3285
 21
696.3123
  0
LINE
  8
0_00
  6
CONTINUOUS
 62
4
 10
349.5245
 20
696.5517
 11
349.8031
 21
696.5517
  0
LINE
  8
0_00
  6
CONTINUOUS
 62
4
 10
292.6027
 20
696.5517
 11
292.6027
 21
698.9518
  0
LINE
  8
0_00
  6
CONTINUOUS
 62
4
 10
295.3027
 20
699.3518
 11
293.0027
 21
699.3518
  0
LINE
  8
0_00
  6
CONTINUOUS
 62
4
 10
295.6027
 20
700.3518
 11
293.0027
 21
700.3518
  0
LINE
  8
0_00
  6
CONTINUOUS
 62
4
 10
296.1027
 20
699.8518
 11
296.1027
 21
698.7518
  0
LINE
  8
0_00
  6
CONTINUOUS
 62
4
 10
295.3027
 20
699.3518
 11
295.3027
 21
699.1518
  0
LINE
  8
0_00
  6
CONTINUOUS
 62
4
 10
293.6832
 20
693.4573
 11
292.9678
 21
693.5198
  0
LINE
  8
0_00
  6
CONTINUOUS
 62
4
 10
292.6106
 20
693.9974
 11
293.0773
 21
696.3123
  0
LINE
  8
0_00
  6
CONTINUOUS
 62
4
 10
292.8812
 20
696.5517
 11
292.6027
 21
696.5517
  0
LINE
  8
12_0C
  6
CONTINUOUS
 62
2
 10
342.7032
 20
691.7980
 11
342.7032
 21
690.8280
  0
LINE
  8
12_0C
  6
CONTINUOUS
 62
2
 10
335.7032
 20
691.7980
 11
335.7032
 21
690.8280
  0
LINE
  8
12_0C
  6
DASHED
 62
2
 10
337.2032
 20
690.8280
 11
337.2032
 21
670.6479
  0
LINE
  8
12_0C
  6
DASHED
 62
2
 10
337.7032
 20
690.8280
 11
337.7032
 21
660.8279
  0
LINE
  8
12_0C
  6
DASHED
 62
2
 10
341.2032
 20
690.8280
 11
341.2032
 21
670.6479
  0
LINE
  8
12_0C
  6
DASHED
 62
2
 10
340.7032
 20
690.8280
 11
340.7032
 21
660.8279
  0
LINE
  8
12_0C
  6
DASHED
 62
2
 10
337.2032
 20
670.6479
 11
337.7032
 21
666.2661
  0
LINE
  8
12_0C
  6
DASHED
 62
2
 10
341.2032
 20
670.6479
 11
340.7032
 21
666.2661
  0
LINE
  8
12_0C
  6
DASHED
 62
2
 10
337.7032
 20
660.8279
 11
340.7032
 21
660.8279
  0
LINE
  8
12_0C
  6
CONTINUOUS
 62
2
 10
335.7032
 20
690.8280
 11
342.7032
 21
690.8280
  0
LINE
  8
12_0C
  6
DASHED
 62
2
 10
341.2032
 20
670.6479
 11
337.7032
 21
666.2661
  0
LINE
  8
12_0C
  6
CONTINUOUS
 62
2
 10
306.7032
 20
691.7980
 11
306.7032
 21
690.8280
  0
LINE
  8
12_0C
  6
CONTINUOUS
 62
2
 10
299.7032
 20
691.7980
 11
299.7032
 21
690.8280
  0
LINE
  8
12_0C
  6
DASHED
 62
2
 10
301.2032
 20
690.8280
 11
301.2032
 21
670.6479
  0
LINE
  8
12_0C
  6
DASHED
 62
2
 10
301.7032
 20
690.8280
 11
301.7032
 21
660.8279
  0
LINE
  8
12_0C
  6
DASHED
 62
2
 10
305.2032
 20
690.8280
 11
305.2032
 21
670.6479
  0
LINE
  8
12_0C
  6
DASHED
 62
2
 10
304.7032
 20
690.8280
 11
304.7032
 21
660.8279
  0
LINE
  8
12_0C
  6
DASHED
 62
2
 10
301.2032
 20
670.6479
 11
301.7032
 21
666.2661
  0
LINE
  8
12_0C
  6
DASHED
 62
2
 10
305.2032
 20
670.6479
 11
304.7032
 21
666.2661
  0
LINE
  8
12_0C
  6
DASHED
 62
2
 10
301.7032
 20
660.8279
 11
304.7032
 21
660.8279
  0
LINE
  8
12_0C
  6
CONTINUOUS
 62
2
 10
299.7032
 20
690.8280
 11
306.7032
 21
690.8280
  0
LINE
  8
12_0C
  6
DASHED
 62
2
 10
305.2032
 20
670.6479
 11
301.7032
 21
666.2661
  0
LINE
  8
0_00
  6
CENTER1
 62
6
 10
303.2032
 20
695.6926
 11
303.2032
 21
657.9996
  0
LINE
  8
0_00
  6
CENTER1
 62
6
 10
339.2032
 20
695.6926
 11
339.2032
 21
657.9996
  0
LINE
  8
0_00
  6
CONTINUOUS
 62
4
 10
333.7032
 20
689.8779
 11
308.7032
 21
689.8779
  0
LINE
  8
0_00
  6
CONTINUOUS
 62
4
 10
308.5032
 20
689.1279
 11
296.2032
 21
689.1279
  0
LINE
  8
12_0C
  6
CONTINUOUS
 62
2
 10
324.7032
 20
693.5980
 11
324.7032
 21
692.6279
  0
LINE
  8
12_0C
  6
CONTINUOUS
 62
2
 10
317.7032
 20
693.5980
 11
317.7032
 21
692.6279
  0
LINE
  8
12_0C
  6
DASHED
 62
2
 10
319.2032
 20
692.6279
 11
319.2032
 21
672.4479
  0
LINE
  8
12_0C
  6
DASHED
 62
2
 10
319.7032
 20
692.6279
 11
319.7032
 21
668.0661
  0
LINE
  8
12_0C
  6
DASHED
 62
2
 10
323.2032
 20
692.6279
 11
323.2032
 21
672.4479
  0
LINE
  8
12_0C
  6
DASHED
 62
2
 10
322.7032
 20
692.6279
 11
322.7032
 21
668.0661
  0
LINE
  8
12_0C
  6
DASHED
 62
2
 10
319.2032
 20
672.4479
 11
319.7532
 21
667.6279
  0
LINE
  8
12_0C
  6
DASHED
 62
2
 10
323.2032
 20
672.4479
 11
322.6532
 21
667.6279
  0
LINE
  8
12_0C
  6
DASHED
 62
2
 10
319.7532
 20
667.6279
 11
322.6532
 21
667.6279
  0
LINE
  8
0_00
  6
CONTINUOUS
 62
2
 10
317.7032
 20
692.6279
 11
324.7032
 21
692.6279
  0
LINE
  8
0_00
  6
CONTINUOUS
 62
4
 10
295.2032
 20
688.6279
 11
308.7032
 21
688.6279
  0
LINE
  8
0_00
  6
CONTINUOUS
 62
4
 10
333.7032
 20
688.6279
 11
347.2032
 21
688.6279
  0
LINE
  8
0_00
  6
CONTINUOUS
 62
4
 10
347.2032
 20
689.1279
 11
347.2032
 21
688.6279
  0
LINE
  8
0_00
  6
CONTINUOUS
 62
4
 10
295.2032
 20
689.1279
 11
295.2032
 21
688.6279
  0
LINE
  8
0_00
  6
CONTINUOUS
 62
6
 10
500.0000
 20
709.1279
 11
500.0000
 21
708.6280
  0
LINE
  8
0_00
  6
CONTINUOUS
 62
2
 10
668.5550
 20
371.8623
 11
668.5550
 21
268.8623
  0
LINE
  8
0_00
  6
CONTINUOUS
 62
2
 10
651.5549
 20
268.8623
 11
651.5549
 21
371.8623
  0
LINE
  8
0_00
  6
CONTINUOUS
 62
2
 10
651.5549
 20
371.8623
 11
668.5550
 21
371.8623
  0
LINE
  8
0_00
  6
CONTINUOUS
 62
2
 10
651.5549
 20
268.8623
 11
668.5550
 21
268.8623
  0
LINE
  8
0_00
  6
CONTINUOUS
 62
2
 10
269.7032
 20
326.4546
 11
269.7032
 21
325.9546
  0
LINE
  8
0_00
  6
CONTINUOUS
 62
2
 10
269.7032
 20
326.4546
 11
289.2110
 21
326.4546
  0
LINE
  8
0_00
  6
CONTINUOUS
 62
2
 10
289.2110
 20
326.4546
 11
294.0736
 21
326.3026
  0
LINE
  8
0_00
  6
CONTINUOUS
 62
4
 10
269.2032
 20
325.9546
 11
289.2032
 21
325.9546
  0
LINE
  8
0_00
  6
CONTINUOUS
 62
4
 10
294.0580
 20
325.8029
 11
294.7032
 21
325.1577
  0
LINE
  8
0_00
  6
CONTINUOUS
 62
4
 10
289.2032
 20
325.9546
 11
294.0580
 21
325.8029
  0
LINE
  8
0_00
  6
CONTINUOUS
 62
2
 10
294.4116
 20
326.1564
 11
294.9103
 21
325.6577
  0
LINE
  8
0_00
  6
CONTINUOUS
 62
4
 10
321.0580
 20
324.9592
 11
321.7032
 21
324.3140
  0
LINE
  8
0_00
  6
CONTINUOUS
 62
4
 10
314.7032
 20
325.1577
 11
321.0580
 21
324.9592
  0
LINE
  8
0_00
  6
CONTINUOUS
 62
4
 10
314.7032
 20
325.1577
 11
294.7032
 21
325.1577
  0
LINE
  8
0_00
  6
CONTINUOUS
 62
2
 10
321.4116
 20
325.3127
 11
321.9103
 21
324.8140
  0
LINE
  8
0_00
  6
CONTINUOUS
 62
2
 10
294.9103
 20
325.6577
 11
314.7110
 21
325.6577
  0
LINE
  8
0_00
  6
CONTINUOUS
 62
2
 10
314.7110
 20
325.6577
 11
321.0737
 21
325.4589
  0
LINE
  8
0_00
  6
CONTINUOUS
 62
2
 10
341.7109
 20
324.8140
 11
352.4962
 21
324.4769
  0
LINE
  8
0_00
  6
CONTINUOUS
 62
4
 10
353.2032
 20
323.2546
 11
352.4806
 21
323.9772
  0
LINE
  8
0_00
  6
CONTINUOUS
 62
4
 10
341.7032
 20
324.3140
 11
352.4806
 21
323.9772
  0
LINE
  8
0_00
  6
CONTINUOUS
 62
4
 10
341.7032
 20
324.3140
 11
321.7032
 21
324.3140
  0
LINE
  8
0_00
  6
CONTINUOUS
 62
2
 10
321.9103
 20
324.8140
 11
341.7109
 21
324.8140
  0
LINE
  8
0_00
  6
CONTINUOUS
 62
2
 10
352.8341
 20
324.3308
 11
353.4103
 21
323.7546
  0
LINE
  8
0_00
  6
CONTINUOUS
 62
2
 10
372.7032
 20
323.7546
 11
372.7032
 21
323.2546
  0
LINE
  8
0_00
  6
CONTINUOUS
 62
2
 10
353.4103
 20
323.7546
 11
372.7032
 21
323.7546
  0
LINE
  8
0_00
  6
CONTINUOUS
 62
4
 10
353.2032
 20
323.2546
 11
373.2032
 21
323.2546
  0
LINE
  8
0_00
  6
CONTINUOUS
 62
6
 10
266.6489
 20
336.6471
 11
243.6553
 21
359.6407
  0
LINE
  8
0_00
  6
CONTINUOUS
 62
6
 10
266.6489
 20
336.6471
 11
262.5641
 21
342.9372
  0
LINE
  8
0_00
  6
CONTINUOUS
 62
6
 10
266.6489
 20
336.6471
 11
260.3589
 21
340.7319
  0
LINE
  8
0_00
  6
CONTINUOUS
 62
2
 10
849.7483
 20
614.1288
 11
849.7483
 21
598.3339
  0
LINE
  8
0_00
  6
CONTINUOUS
 62
2
 10
849.7483
 20
598.3339
 11
851.3076
 21
605.6699
  0
LINE
  8
0_00
  6
CONTINUOUS
 62
2
 10
849.7483
 20
598.3339
 11
848.1889
 21
605.6699
  0
LINE
  8
15_0F
  6
CONTINUOUS
 62
6
 10
411.2032
 20
257.8984
 11
411.2032
 21
137.3263
  0
LINE
  8
15_0F
  6
CONTINUOUS
 62
6
 10
231.2032
 20
140.0000
 11
411.2032
 21
140.0000
  0
LINE
  8
15_0F
  6
CONTINUOUS
 62
6
 10
231.2032
 20
140.0000
 11
238.5393
 21
138.4407
  0
LINE
  8
15_0F
  6
CONTINUOUS
 62
6
 10
231.2032
 20
140.0000
 11
238.5393
 21
141.5593
  0
LINE
  8
15_0F
  6
CONTINUOUS
 62
6
 10
411.2032
 20
140.0000
 11
403.8671
 21
141.5593
  0
LINE
  8
15_0F
  6
CONTINUOUS
 62
6
 10
411.2032
 20
140.0000
 11
403.8671
 21
138.4407
  0
LINE
  8
15_0F
  6
CONTINUOUS
 62
6
 10
396.2032
 20
216.1356
 11
396.2032
 21
171.5748
  0
LINE
  8
0_00
  6
CONTINUOUS
 62
6
 10
246.2032
 20
175.8615
 11
396.2032
 21
175.8615
  0
LINE
  8
0_00
  6
CONTINUOUS
 62
6
 10
246.2032
 20
175.8615
 11
253.5393
 21
174.3022
  0
LINE
  8
0_00
  6
CONTINUOUS
 62
6
 10
246.2032
 20
175.8615
 11
253.5393
 21
177.4209
  0
LINE
  8
0_00
  6
CONTINUOUS
 62
6
 10
396.2032
 20
175.8615
 11
388.8670
 21
177.4209
  0
LINE
  8
0_00
  6
CONTINUOUS
 62
6
 10
396.2032
 20
175.8615
 11
388.8670
 21
174.3022
  0
LINE
  8
15_0F
  6
CONTINUOUS
 62
6
 10
246.2032
 20
216.2740
 11
246.2032
 21
171.0781
  0
LINE
  8
15_0F
  6
CONTINUOUS
 62
6
 10
231.2032
 20
257.8984
 11
231.2032
 21
137.1385
  0
LINE
  8
0_00
  6
CENTER1
 62
6
 10
561.6736
 20
742.7632
 11
561.6736
 21
620.1361
  0
LINE
  8
0_00
  6
CONTINUOUS
 62
4
 10
561.6736
 20
700.6718
 11
561.3736
 21
700.3719
  0
LINE
  8
0_00
  6
CONTINUOUS
 62
4
 10
561.6736
 20
700.6718
 11
561.9736
 21
700.3719
  0
LINE
  8
14_0E
  6
CONTINUOUS
 62
4
 10
574.7498
 20
701.9816
 11
565.6736
 21
702.3719
  0
LINE
  8
0_00
  6
CONTINUOUS
 62
4
 10
561.6736
 20
700.6718
 11
561.9736
 21
700.3719
  0
LINE
  8
0_00
  6
CONTINUOUS
 62
4
 10
561.6736
 20
700.6718
 11
561.3736
 21
700.3719
  0
LINE
  8
14_0E
  6
CONTINUOUS
 62
4
 10
548.5974
 20
701.9816
 11
557.6736
 21
702.3719
  0
LINE
  8
0_00
  6
CONTINUOUS
 62
4
 10
565.6736
 20
702.3719
 11
557.6736
 21
702.3719
  0
LINE
  8
0_00
  6
CONTINUOUS
 62
4
 10
577.1736
 20
700.5719
 11
582.1736
 21
700.5719
  0
LINE
  8
0_00
  6
CONTINUOUS
 62
4
 10
576.8736
 20
700.3719
 11
575.6859
 21
700.3719
  0
LINE
  8
0_00
  6
CONTINUOUS
 62
4
 10
577.1736
 20
700.5719
 11
576.8736
 21
700.3719
  0
LINE
  8
0_00
  6
CONTINUOUS
 62
4
 10
575.0280
 20
701.7546
 11
575.2978
 21
700.6749
  0
LINE
  8
0_00
  6
CONTINUOUS
 62
4
 10
546.1736
 20
700.5719
 11
541.1736
 21
700.5719
  0
LINE
  8
0_00
  6
CONTINUOUS
 62
4
 10
541.1736
 20
700.5719
 11
540.8736
 21
700.3719
  0
LINE
  8
0_00
  6
CONTINUOUS
 62
4
 10
546.4736
 20
700.3719
 11
547.6613
 21
700.3719
  0
LINE
  8
0_00
  6
CONTINUOUS
 62
4
 10
546.1736
 20
700.5719
 11
546.4736
 21
700.3719
  0
LINE
  8
0_00
  6
CONTINUOUS
 62
4
 10
548.3193
 20
701.7546
 11
548.0493
 21
700.6749
  0
LINE
  8
15_0F
  6
CONTINUOUS
 62
6
 10
584.7749
 20
730.2127
 11
599.1523
 21
745.7928
  0
LINE
  8
15_0F
  6
CONTINUOUS
 62
6
 10
584.7749
 20
730.2127
 11
590.8960
 21
734.5465
  0
LINE
  8
15_0F
  6
CONTINUOUS
 62
6
 10
584.7749
 20
730.2127
 11
588.6041
 21
736.6615
  0
LINE
  8
15_0F
  6
CONTINUOUS
 62
6
 10
599.1523
 20
745.7928
 11
663.5523
 21
745.7928
  0
LINE
  8
15_0F
  6
CONTINUOUS
 62
6
 10
349.2573
 20
731.5788
 11
363.6347
 21
747.1591
  0
LINE
  8
15_0F
  6
CONTINUOUS
 62
6
 10
349.2573
 20
731.5788
 11
355.3784
 21
735.9126
  0
LINE
  8
15_0F
  6
CONTINUOUS
 62
6
 10
349.2573
 20
731.5788
 11
353.0865
 21
738.0276
  0
LINE
  8
15_0F
  6
CONTINUOUS
 62
6
 10
363.6347
 20
747.1591
 11
423.0347
 21
747.1591
  0
LINE
  8
0_00
  6
CONTINUOUS
 62
4
 10
561.6736
 20
700.6718
 11
561.3736
 21
700.3719
  0
LINE
  8
0_00
  6
CONTINUOUS
 62
4
 10
573.9736
 20
700.3719
 11
561.9736
 21
700.3719
  0
LINE
  8
0_00
  6
CONTINUOUS
 62
4
 10
561.6736
 20
700.6718
 11
561.9736
 21
700.3719
  0
LINE
  8
14_0E
  6
CONTINUOUS
 62
4
 10
574.7498
 20
701.9816
 11
565.6736
 21
702.3719
  0
LINE
  8
0_00
  6
CONTINUOUS
 62
4
 10
561.6736
 20
700.6718
 11
561.9736
 21
700.3719
  0
LINE
  8
0_00
  6
CONTINUOUS
 62
4
 10
549.3736
 20
700.3719
 11
561.3736
 21
700.3719
  0
LINE
  8
0_00
  6
CONTINUOUS
 62
4
 10
561.6736
 20
700.6718
 11
561.3736
 21
700.3719
  0
LINE
  8
14_0E
  6
CONTINUOUS
 62
4
 10
548.5974
 20
701.9816
 11
557.6736
 21
702.3719
  0
LINE
  8
0_00
  6
CONTINUOUS
 62
4
 10
565.6736
 20
702.3719
 11
557.6736
 21
702.3719
  0
LINE
  8
0_00
  6
CONTINUOUS
 62
4
 10
574.3736
 20
698.8719
 11
579.3736
 21
698.8719
  0
LINE
  8
0_00
  6
CONTINUOUS
 62
4
 10
573.9736
 20
700.3719
 11
574.3736
 21
698.8719
  0
LINE
  8
0_00
  6
CONTINUOUS
 62
4
 10
577.1736
 20
700.5719
 11
582.1736
 21
700.5719
  0
LINE
  8
0_00
  6
CONTINUOUS
 62
4
 10
579.9736
 20
698.8719
 11
589.0736
 21
698.8719
  0
LINE
  8
0_00
  6
CONTINUOUS
 62
4
 10
579.6736
 20
699.1718
 11
579.3736
 21
698.8719
  0
LINE
  8
0_00
  6
CONTINUOUS
 62
4
 10
579.6736
 20
699.1718
 11
579.9736
 21
698.8719
  0
LINE
  8
0_00
  6
CONTINUOUS
 62
4
 10
587.0013
 20
700.3719
 11
582.4736
 21
700.3719
  0
LINE
  8
0_00
  6
CONTINUOUS
 62
4
 10
582.1736
 20
700.5719
 11
582.4736
 21
700.3719
  0
LINE
  8
0_00
  6
CONTINUOUS
 62
4
 10
576.8736
 20
700.3719
 11
575.6859
 21
700.3719
  0
LINE
  8
0_00
  6
CONTINUOUS
 62
4
 10
577.1736
 20
700.5719
 11
576.8736
 21
700.3719
  0
LINE
  8
0_00
  6
CONTINUOUS
 62
4
 10
575.0280
 20
701.7546
 11
575.2978
 21
700.6749
  0
LINE
  8
0_00
  6
CONTINUOUS
 62
4
 10
589.0736
 20
698.8719
 11
590.0736
 21
699.8719
  0
LINE
  8
0_00
  6
CONTINUOUS
 62
4
 10
590.0736
 20
699.8719
 11
590.0736
 21
701.1719
  0
LINE
  8
0_00
  6
CONTINUOUS
 62
4
 10
590.0736
 20
700.3719
 11
590.0736
 21
699.8719
  0
LINE
  8
0_00
  6
CONTINUOUS
 62
4
 10
589.0930
 20
703.2498
 11
589.9498
 21
703.3248
  0
LINE
  8
0_00
  6
CONTINUOUS
 62
4
 10
587.9865
 20
704.2572
 11
588.8245
 21
704.3306
  0
LINE
  8
0_00
  6
CONTINUOUS
 62
4
 10
587.0736
 20
703.2610
 11
587.0736
 21
702.8281
  0
LINE
  8
0_00
  6
CONTINUOUS
 62
4
 10
590.2175
 20
703.6840
 11
589.1320
 21
708.9720
  0
LINE
  8
0_00
  6
CONTINUOUS
 62
4
 10
588.3858
 20
708.1311
 11
589.0922
 21
704.6897
  0
LINE
  8
0_00
  6
CONTINUOUS
 62
4
 10
589.0715
 20
708.9720
 11
589.1320
 21
708.9720
  0
LINE
  8
0_00
  6
CONTINUOUS
 62
4
 10
591.6742
 20
709.1184
 11
591.6741
 21
699.9107
  0
LINE
  8
0_00
  6
CONTINUOUS
 62
4
 10
590.2741
 20
701.2684
 11
590.2741
 21
698.9280
  0
LINE
  8
0_00
  6
CONTINUOUS
 62
4
 10
590.2742
 20
706.3185
 11
590.2742
 21
708.7145
  0
LINE
  8
0_00
  6
CONTINUOUS
 62
4
 10
587.5742
 20
709.1185
 11
589.8742
 21
709.1184
  0
LINE
  8
0_00
  6
CONTINUOUS
 62
4
 10
586.7742
 20
709.4185
 11
586.7742
 21
708.5185
  0
LINE
  8
0_00
  6
CONTINUOUS
 62
4
 10
587.5742
 20
709.1185
 11
587.5742
 21
708.9184
  0
LINE
  8
0_00
  6
CONTINUOUS
 62
4
 10
589.1937
 20
703.2239
 11
589.9090
 21
703.2865
  0
LINE
  8
0_00
  6
CONTINUOUS
 62
4
 10
590.2663
 20
703.7640
 11
589.7995
 21
706.0789
  0
LINE
  8
0_00
  6
CONTINUOUS
 62
4
 10
589.9956
 20
706.3185
 11
590.2742
 21
706.3185
  0
LINE
  8
0_00
  6
CONTINUOUS
 62
4
 10
587.7742
 20
710.4184
 11
590.3742
 21
710.4184
  0
LINE
  8
0_00
  6
CONTINUOUS
 62
4
 10
548.9735
 20
698.8719
 11
543.9736
 21
698.8719
  0
LINE
  8
0_00
  6
CONTINUOUS
 62
4
 10
549.3736
 20
700.3719
 11
548.9735
 21
698.8719
  0
LINE
  8
0_00
  6
CONTINUOUS
 62
4
 10
546.1736
 20
700.5719
 11
541.1736
 21
700.5719
  0
LINE
  8
0_00
  6
CONTINUOUS
 62
4
 10
543.3736
 20
698.8719
 11
534.2737
 21
698.8719
  0
LINE
  8
0_00
  6
CONTINUOUS
 62
4
 10
543.6736
 20
699.1718
 11
543.9736
 21
698.8719
  0
LINE
  8
0_00
  6
CONTINUOUS
 62
4
 10
543.6736
 20
699.1718
 11
543.3736
 21
698.8719
  0
LINE
  8
0_00
  6
CONTINUOUS
 62
4
 10
536.3458
 20
700.3719
 11
540.8736
 21
700.3719
  0
LINE
  8
0_00
  6
CONTINUOUS
 62
4
 10
541.1736
 20
700.5719
 11
540.8736
 21
700.3719
  0
LINE
  8
0_00
  6
CONTINUOUS
 62
4
 10
546.4736
 20
700.3719
 11
547.6613
 21
700.3719
  0
LINE
  8
0_00
  6
CONTINUOUS
 62
4
 10
546.1736
 20
700.5719
 11
546.4736
 21
700.3719
  0
LINE
  8
0_00
  6
CONTINUOUS
 62
4
 10
548.3193
 20
701.7546
 11
548.0493
 21
700.6749
  0
LINE
  8
0_00
  6
CONTINUOUS
 62
4
 10
534.2737
 20
698.8719
 11
533.2736
 21
699.8719
  0
LINE
  8
0_00
  6
CONTINUOUS
 62
4
 10
533.2736
 20
699.8719
 11
533.2736
 21
701.1719
  0
LINE
  8
0_00
  6
CONTINUOUS
 62
4
 10
533.2736
 20
700.3719
 11
533.2736
 21
699.8719
  0
LINE
  8
0_00
  6
CONTINUOUS
 62
4
 10
534.2541
 20
703.2498
 11
533.3975
 21
703.3248
  0
LINE
  8
0_00
  6
CONTINUOUS
 62
4
 10
535.3607
 20
704.2572
 11
534.5226
 21
704.3306
  0
LINE
  8
0_00
  6
CONTINUOUS
 62
4
 10
536.2736
 20
703.2610
 11
536.2736
 21
702.8281
  0
LINE
  8
0_00
  6
CONTINUOUS
 62
4
 10
533.1297
 20
703.6840
 11
534.2152
 21
708.9720
  0
LINE
  8
0_00
  6
CONTINUOUS
 62
4
 10
534.9613
 20
708.1311
 11
534.2549
 21
704.6897
  0
LINE
  8
0_00
  6
CONTINUOUS
 62
4
 10
534.2756
 20
708.9720
 11
534.2152
 21
708.9720
  0
LINE
  8
0_00
  6
CONTINUOUS
 62
4
 10
531.6730
 20
709.1184
 11
531.6731
 21
699.9107
  0
LINE
  8
0_00
  6
CONTINUOUS
 62
4
 10
533.0730
 20
701.2684
 11
533.0731
 21
698.9280
  0
LINE
  8
0_00
  6
CONTINUOUS
 62
4
 10
533.0730
 20
706.3185
 11
533.0730
 21
708.7145
  0
LINE
  8
0_00
  6
CONTINUOUS
 62
4
 10
535.7730
 20
709.1185
 11
533.4730
 21
709.1184
  0
LINE
  8
0_00
  6
CONTINUOUS
 62
4
 10
536.5730
 20
709.4185
 11
536.5730
 21
708.5185
  0
LINE
  8
0_00
  6
CONTINUOUS
 62
4
 10
535.7730
 20
709.1185
 11
535.7730
 21
708.9184
  0
LINE
  8
0_00
  6
CONTINUOUS
 62
4
 10
534.1536
 20
703.2239
 11
533.4382
 21
703.2865
  0
LINE
  8
0_00
  6
CONTINUOUS
 62
4
 10
533.0809
 20
703.7640
 11
533.5477
 21
706.0789
  0
LINE
  8
0_00
  6
CONTINUOUS
 62
4
 10
533.3516
 20
706.3185
 11
533.0730
 21
706.3185
  0
LINE
  8
0_00
  6
CONTINUOUS
 62
4
 10
535.5730
 20
710.4184
 11
532.9730
 21
710.4184
  0
LINE
  8
0_00
  6
CONTINUOUS
 62
4
 10
538.1736
 20
700.3719
 11
539.6736
 21
700.3719
  0
LINE
  8
0_00
  6
CONTINUOUS
 62
4
 10
536.6736
 20
698.3719
 11
536.6736
 21
626.2404
  0
LINE
  8
0_00
  6
CONTINUOUS
 62
4
 10
549.1736
 20
699.6219
 11
549.1736
 21
626.2404
  0
LINE
  8
0_00
  6
CONTINUOUS
 62
4
 10
574.1736
 20
699.6219
 11
549.1736
 21
699.6219
  0
LINE
  8
0_00
  6
CONTINUOUS
 62
4
 10
574.1736
 20
626.2404
 11
574.1736
 21
699.6219
  0
LINE
  8
0_00
  6
CONTINUOUS
 62
4
 10
586.6736
 20
698.3719
 11
586.6736
 21
626.2404
  0
LINE
  8
0_00
  6
CONTINUOUS
 62
4
 10
574.1736
 20
698.3719
 11
587.6736
 21
698.3719
  0
LINE
  8
0_00
  6
CONTINUOUS
 62
4
 10
587.6736
 20
698.8719
 11
587.6736
 21
698.3719
  0
LINE
  8
0_00
  6
CONTINUOUS
 62
4
 10
535.6736
 20
698.3719
 11
549.1736
 21
698.3719
  0
LINE
  8
0_00
  6
CONTINUOUS
 62
4
 10
535.6736
 20
698.8719
 11
535.6736
 21
698.3719
  0
LINE
  8
12_0C
  6
DASHED
 62
2
 10
563.6736
 20
702.3719
 11
563.6736
 21
682.1919
  0
LINE
  8
12_0C
  6
CONTINUOUS
 62
2
 10
565.1736
 20
703.3419
 11
565.1736
 21
702.3719
  0
LINE
  8
12_0C
  6
CONTINUOUS
 62
2
 10
558.1736
 20
703.3419
 11
558.1736
 21
702.3719
  0
LINE
  8
12_0C
  6
DASHED
 62
2
 10
559.6736
 20
702.3719
 11
559.6736
 21
682.1919
  0
LINE
  8
12_0C
  6
DASHED
 62
2
 10
560.1736
 20
702.3719
 11
560.1736
 21
677.8100
  0
LINE
  8
12_0C
  6
DASHED
 62
2
 10
563.1736
 20
702.3719
 11
563.1736
 21
677.8100
  0
LINE
  8
12_0C
  6
DASHED
 62
2
 10
559.6736
 20
682.1919
 11
560.2235
 21
677.3719
  0
LINE
  8
12_0C
  6
DASHED
 62
2
 10
563.6736
 20
682.1919
 11
563.1236
 21
677.3719
  0
LINE
  8
12_0C
  6
DASHED
 62
2
 10
560.2235
 20
677.3719
 11
563.1236
 21
677.3719
  0
LINE
  8
0_00
  6
CONTINUOUS
 62
2
 10
558.1736
 20
702.3719
 11
565.1736
 21
702.3719
  0
LINE
  8
12_0C
  6
CONTINUOUS
 62
2
 10
547.1736
 20
701.5419
 11
547.1736
 21
700.5719
  0
LINE
  8
12_0C
  6
CONTINUOUS
 62
2
 10
540.1736
 20
701.5419
 11
540.1736
 21
700.5719
  0
LINE
  8
12_0C
  6
DASHED
 62
2
 10
541.6736
 20
700.5719
 11
541.6736
 21
680.3919
  0
LINE
  8
12_0C
  6
DASHED
 62
2
 10
542.1736
 20
700.5719
 11
542.1736
 21
670.5719
  0
LINE
  8
12_0C
  6
DASHED
 62
2
 10
545.6736
 20
700.5719
 11
545.6736
 21
680.3919
  0
LINE
  8
12_0C
  6
DASHED
 62
2
 10
545.1736
 20
700.5719
 11
545.1736
 21
670.5719
  0
LINE
  8
12_0C
  6
DASHED
 62
2
 10
541.6736
 20
680.3919
 11
542.1736
 21
676.0101
  0
LINE
  8
12_0C
  6
DASHED
 62
2
 10
545.6736
 20
680.3919
 11
545.1736
 21
676.0101
  0
LINE
  8
12_0C
  6
DASHED
 62
2
 10
542.1736
 20
670.5719
 11
545.1736
 21
670.5719
  0
LINE
  8
12_0C
  6
CONTINUOUS
 62
2
 10
540.1736
 20
700.5719
 11
547.1736
 21
700.5719
  0
LINE
  8
12_0C
  6
DASHED
 62
2
 10
545.6736
 20
680.3919
 11
542.1736
 21
676.0101
  0
LINE
  8
0_00
  6
CENTER1
 62
6
 10
543.6736
 20
705.4365
 11
543.6736
 21
667.7435
  0
LINE
  8
12_0C
  6
CONTINUOUS
 62
2
 10
583.1736
 20
701.5419
 11
583.1736
 21
700.5719
  0
LINE
  8
12_0C
  6
CONTINUOUS
 62
2
 10
576.1736
 20
701.5419
 11
576.1736
 21
700.5719
  0
LINE
  8
12_0C
  6
DASHED
 62
2
 10
577.6736
 20
700.5719
 11
577.6736
 21
680.3919
  0
LINE
  8
12_0C
  6
DASHED
 62
2
 10
578.1736
 20
700.5719
 11
578.1736
 21
670.5719
  0
LINE
  8
12_0C
  6
DASHED
 62
2
 10
581.6736
 20
700.5719
 11
581.6736
 21
680.3919
  0
LINE
  8
12_0C
  6
DASHED
 62
2
 10
581.1736
 20
700.5719
 11
581.1736
 21
670.5719
  0
LINE
  8
12_0C
  6
DASHED
 62
2
 10
577.6736
 20
680.3919
 11
578.1736
 21
676.0101
  0
LINE
  8
12_0C
  6
DASHED
 62
2
 10
581.6736
 20
680.3919
 11
581.1736
 21
676.0101
  0
LINE
  8
12_0C
  6
DASHED
 62
2
 10
578.1736
 20
670.5719
 11
581.1736
 21
670.5719
  0
LINE
  8
12_0C
  6
CONTINUOUS
 62
2
 10
576.1736
 20
700.5719
 11
583.1736
 21
700.5719
  0
LINE
  8
12_0C
  6
DASHED
 62
2
 10
581.6736
 20
680.3919
 11
578.1736
 21
676.0101
  0
LINE
  8
0_00
  6
CENTER1
 62
6
 10
579.6736
 20
705.4365
 11
579.6736
 21
667.7435
  0
LINE
  8
0_00
  6
CONTINUOUS
 62
4
 10
1134.2251
 20
460.0624
 11
1165.4251
 21
460.0624
  0
LINE
  8
0_00
  6
CONTINUOUS
 62
4
 10
1165.4251
 20
460.0624
 11
1165.4251
 21
474.4623
  0
LINE
  8
0_00
  6
CONTINUOUS
 62
4
 10
1134.2251
 20
474.4623
 11
1165.4251
 21
474.4623
  0
LINE
  8
0_00
  6
CONTINUOUS
 62
4
 10
1134.2251
 20
460.0624
 11
1134.2251
 21
474.4623
  0
LINE
  8
0_00
  6
CONTINUOUS
 62
4
 10
1134.2251
 20
165.6623
 11
1165.4251
 21
165.6623
  0
LINE
  8
0_00
  6
CONTINUOUS
 62
4
 10
1165.4251
 20
165.6623
 11
1165.4251
 21
180.0624
  0
LINE
  8
0_00
  6
CONTINUOUS
 62
4
 10
1134.2251
 20
180.0624
 11
1165.4251
 21
180.0624
  0
LINE
  8
0_00
  6
CONTINUOUS
 62
4
 10
1134.2251
 20
165.6623
 11
1134.2251
 21
180.0624
  0
LINE
  8
0_00
  6
CONTINUOUS
 62
3
 10
547.4110
 20
97.2001
 11
547.4110
 21
37.2000
  0
LINE
  8
0_00
  6
CONTINUOUS
 62
7
 10
54.6905
 20
112.2001
 11
1218.5110
 21
112.2001
  0
LINE
  8
0_00
  6
CONTINUOUS
 62
3
 10
1218.5110
 20
851.7001
 11
1218.5110
 21
865.2001
  0
LINE
  8
0_00
  6
CONTINUOUS
 62
7
 10
1218.5110
 20
37.2000
 11
1218.5110
 21
851.7001
  0
LINE
  8
0_00
  6
CONTINUOUS
 62
3
 10
54.6905
 20
851.7001
 11
54.6905
 21
865.2001
  0
LINE
  8
0_00
  6
CONTINUOUS
 62
7
 10
54.6905
 20
37.2000
 11
54.6905
 21
851.7001
  0
LINE
  8
0_00
  6
CONTINUOUS
 62
7
 10
54.6905
 20
851.7001
 11
1218.5110
 21
851.7001
  0
LINE
  8
0_00
  6
CONTINUOUS
 62
7
 10
54.6905
 20
37.2000
 11
1218.5110
 21
37.2000
  0
LINE
  8
0_00
  6
CONTINUOUS
 62
3
 10
39.6905
 20
22.2000
 11
39.6905
 21
865.2001
  0
LINE
  8
0_00
  6
CONTINUOUS
 62
3
 10
1233.5110
 20
22.2000
 11
1233.5110
 21
865.2001
  0
LINE
  8
0_00
  6
CONTINUOUS
 62
3
 10
39.6905
 20
865.2001
 11
1233.5110
 21
865.2001
  0
LINE
  8
0_00
  6
CONTINUOUS
 62
3
 10
1070.6111
 20
37.2000
 11
1070.6111
 21
112.2001
  0
LINE
  8
0_00
  6
CONTINUOUS
 62
3
 10
54.6905
 20
97.2001
 11
812.7610
 21
97.2001
  0
LINE
  8
0_00
  6
CONTINUOUS
 62
7
 10
812.7610
 20
97.2001
 11
1218.5110
 21
97.2001
  0
LINE
  8
0_00
  6
CONTINUOUS
 62
3
 10
1070.6111
 20
67.2000
 11
1218.5110
 21
67.2000
  0
LINE
  8
0_00
  6
CONTINUOUS
 62
3
 10
1100.6111
 20
112.2001
 11
1100.6111
 21
97.2001
  0
LINE
  8
0_00
  6
CONTINUOUS
 62
3
 10
812.7610
 20
37.2000
 11
812.7610
 21
97.2001
  0
LINE
  8
0_00
  6
CONTINUOUS
 62
7
 10
812.7610
 20
97.2001
 11
812.7610
 21
112.2001
  0
LINE
  8
0_00
  6
CONTINUOUS
 62
3
 10
836.7610
 20
97.2001
 11
836.7610
 21
112.2001
  0
LINE
  8
0_00
  6
CONTINUOUS
 62
3
 10
912.5110
 20
37.2000
 11
912.5110
 21
112.2001
  0
LINE
  8
0_00
  6
CONTINUOUS
 62
3
 10
1004.6111
 20
97.2001
 11
1004.6111
 21
112.2001
  0
LINE
  8
0_00
  6
CONTINUOUS
 62
3
 10
1032.2110
 20
37.2000
 11
1032.2110
 21
97.2001
  0
LINE
  8
0_00
  6
CONTINUOUS
 62
3
 10
995.9110
 20
37.2000
 11
995.9110
 21
97.2001
  0
LINE
  8
0_00
  6
CONTINUOUS
 62
3
 10
959.6110
 20
37.2000
 11
959.6110
 21
97.2001
  0
LINE
  8
0_00
  6
CONTINUOUS
 62
3
 10
468.6610
 20
37.2000
 11
468.6610
 21
112.2001
  0
LINE
  8
0_00
  6
CONTINUOUS
 62
3
 10
626.1610
 20
37.2000
 11
626.1610
 21
97.2001
  0
LINE
  8
0_00
  6
CONTINUOUS
 62
3
 10
54.6905
 20
82.2001
 11
468.6610
 21
82.2001
  0
LINE
  8
0_00
  6
CONTINUOUS
 62
3
 10
54.6905
 20
67.2000
 11
912.5110
 21
67.2000
  0
LINE
  8
0_00
  6
CONTINUOUS
 62
3
 10
174.6905
 20
52.2000
 11
468.6610
 21
52.2000
  0
LINE
  8
0_00
  6
CONTINUOUS
 62
7
 10
54.6905
 20
52.2000
 11
174.6905
 21
52.2000
  0
LINE
  8
0_00
  6
CONTINUOUS
 62
3
 10
818.0110
 20
851.7001
 11
818.0110
 21
865.2001
  0
LINE
  8
0_00
  6
CONTINUOUS
 62
3
 10
788.0110
 20
851.7001
 11
788.0110
 21
865.2001
  0
LINE
  8
0_00
  6
CONTINUOUS
 62
3
 10
204.6905
 20
851.7001
 11
204.6905
 21
865.2001
  0
LINE
  8
0_00
  6
CONTINUOUS
 62
3
 10
854.0110
 20
851.7001
 11
854.0110
 21
865.2001
  0
LINE
  8
0_00
  6
CONTINUOUS
 62
3
 10
915.5110
 20
851.7001
 11
915.5110
 21
865.2001
  0
LINE
  8
0_00
  6
CONTINUOUS
 62
3
 10
1146.5110
 20
851.7001
 11
1146.5110
 21
865.2001
  0
LINE
  8
0_00
  6
CONTINUOUS
 62
3
 10
114.6905
 20
112.2001
 11
114.6905
 21
37.2000
  0
LINE
  8
0_00
  6
CONTINUOUS
 62
7
 10
174.6905
 20
112.2001
 11
174.6905
 21
37.2000
  0
LINE
  8
0_00
  6
CONTINUOUS
 62
3
 10
869.7610
 20
67.2000
 11
869.7610
 21
97.2001
  0
LINE
  8
0_00
  6
CONTINUOUS
 62
3
 10
893.7610
 20
112.2001
 11
893.7610
 21
97.2001
  0
LINE
  8
0_00
  6
CONTINUOUS
 62
3
 10
912.5110
 20
82.2001
 11
1070.6111
 21
82.2001
  0
LINE
  8
0_00
  6
CONTINUOUS
 62
3
 10
1076.6111
 20
71.7000
 11
1078.5610
 21
71.7000
  0
LINE
  8
0_00
  6
CONTINUOUS
 62
3
 10
1078.5610
 20
71.7000
 11
1078.5610
 21
91.2000
  0
LINE
  8
0_00
  6
CONTINUOUS
 62
3
 10
1078.5610
 20
91.2000
 11
1076.6111
 21
91.2000
  0
LINE
  8
0_00
  6
CONTINUOUS
 62
3
 10
1076.6111
 20
71.7000
 11
1076.6111
 21
91.2000
  0
LINE
  8
0_00
  6
CONTINUOUS
 62
3
 10
1079.3410
 20
71.7000
 11
1081.2911
 21
71.7000
  0
LINE
  8
0_00
  6
CONTINUOUS
 62
3
 10
1081.2911
 20
71.7000
 11
1081.2911
 21
91.2000
  0
LINE
  8
0_00
  6
CONTINUOUS
 62
3
 10
1081.2911
 20
91.2000
 11
1079.3410
 21
91.2000
  0
LINE
  8
0_00
  6
CONTINUOUS
 62
3
 10
1079.3410
 20
71.7000
 11
1079.3410
 21
91.2000
  0
LINE
  8
0_00
  6
CONTINUOUS
 62
3
 10
1082.0711
 20
71.7000
 11
1084.0210
 21
71.7000
  0
LINE
  8
0_00
  6
CONTINUOUS
 62
3
 10
1084.0210
 20
71.7000
 11
1084.0210
 21
91.2000
  0
LINE
  8
0_00
  6
CONTINUOUS
 62
3
 10
1084.0210
 20
91.2000
 11
1082.0711
 21
91.2000
  0
LINE
  8
0_00
  6
CONTINUOUS
 62
3
 10
1082.0711
 20
71.7000
 11
1082.0711
 21
91.2000
  0
LINE
  8
0_00
  6
CONTINUOUS
 62
3
 10
1084.8010
 20
71.7000
 11
1086.7511
 21
71.7000
  0
LINE
  8
0_00
  6
CONTINUOUS
 62
3
 10
1086.7511
 20
91.2000
 11
1084.8010
 21
91.2000
  0
LINE
  8
0_00
  6
CONTINUOUS
 62
3
 10
1084.8010
 20
71.7000
 11
1084.8010
 21
91.2000
  0
LINE
  8
0_00
  6
CONTINUOUS
 62
3
 10
1092.4061
 20
71.7000
 11
1100.0110
 21
71.7000
  0
LINE
  8
0_00
  6
CONTINUOUS
 62
3
 10
1100.0110
 20
71.7000
 11
1100.0110
 21
73.4550
  0
LINE
  8
0_00
  6
CONTINUOUS
 62
3
 10
1100.0110
 20
73.4550
 11
1092.4061
 21
73.4550
  0
LINE
  8
0_00
  6
CONTINUOUS
 62
3
 10
1092.4061
 20
73.4550
 11
1092.4061
 21
71.7000
  0
LINE
  8
0_00
  6
CONTINUOUS
 62
3
 10
1092.4061
 20
74.2350
 11
1100.0110
 21
74.2350
  0
LINE
  8
0_00
  6
CONTINUOUS
 62
3
 10
1100.0110
 20
74.2350
 11
1100.0110
 21
75.9900
  0
LINE
  8
0_00
  6
CONTINUOUS
 62
3
 10
1100.0110
 20
75.9900
 11
1092.4061
 21
75.9900
  0
LINE
  8
0_00
  6
CONTINUOUS
 62
3
 10
1092.4061
 20
75.9900
 11
1092.4061
 21
74.2350
  0
LINE
  8
0_00
  6
CONTINUOUS
 62
3
 10
1092.4061
 20
76.7700
 11
1100.0110
 21
76.7700
  0
LINE
  8
0_00
  6
CONTINUOUS
 62
3
 10
1100.0110
 20
76.7700
 11
1100.0110
 21
78.5250
  0
LINE
  8
0_00
  6
CONTINUOUS
 62
3
 10
1100.0110
 20
78.5250
 11
1092.4061
 21
78.5250
  0
LINE
  8
0_00
  6
CONTINUOUS
 62
3
 10
1092.4061
 20
78.5250
 11
1092.4061
 21
76.7700
  0
LINE
  8
0_00
  6
CONTINUOUS
 62
3
 10
1092.4061
 20
79.3050
 11
1100.0110
 21
79.3050
  0
LINE
  8
0_00
  6
CONTINUOUS
 62
3
 10
1100.0110
 20
79.3050
 11
1100.0110
 21
81.0600
  0
LINE
  8
0_00
  6
CONTINUOUS
 62
3
 10
1100.0110
 20
81.0600
 11
1092.4061
 21
81.0600
  0
LINE
  8
0_00
  6
CONTINUOUS
 62
3
 10
1092.4061
 20
81.0600
 11
1092.4061
 21
79.3050
  0
LINE
  8
0_00
  6
CONTINUOUS
 62
3
 10
1092.4061
 20
81.8401
 11
1100.0110
 21
81.8401
  0
LINE
  8
0_00
  6
CONTINUOUS
 62
3
 10
1100.0110
 20
81.8401
 11
1100.0110
 21
83.5950
  0
LINE
  8
0_00
  6
CONTINUOUS
 62
3
 10
1100.0110
 20
83.5950
 11
1092.4061
 21
83.5950
  0
LINE
  8
0_00
  6
CONTINUOUS
 62
3
 10
1092.4061
 20
83.5950
 11
1092.4061
 21
81.8401
  0
LINE
  8
0_00
  6
CONTINUOUS
 62
3
 10
1092.4061
 20
84.3751
 11
1100.0110
 21
84.3751
  0
LINE
  8
0_00
  6
CONTINUOUS
 62
3
 10
1100.0110
 20
84.3751
 11
1100.0110
 21
86.1300
  0
LINE
  8
0_00
  6
CONTINUOUS
 62
3
 10
1100.0110
 20
86.1300
 11
1092.4061
 21
86.1300
  0
LINE
  8
0_00
  6
CONTINUOUS
 62
3
 10
1092.4061
 20
86.1300
 11
1092.4061
 21
84.3751
  0
LINE
  8
0_00
  6
CONTINUOUS
 62
3
 10
1092.4061
 20
86.9101
 11
1100.0110
 21
86.9101
  0
LINE
  8
0_00
  6
CONTINUOUS
 62
3
 10
1100.0110
 20
86.9101
 11
1100.0110
 21
88.6650
  0
LINE
  8
0_00
  6
CONTINUOUS
 62
3
 10
1100.0110
 20
88.6650
 11
1092.4061
 21
88.6650
  0
LINE
  8
0_00
  6
CONTINUOUS
 62
3
 10
1092.4061
 20
88.6650
 11
1092.4061
 21
86.9101
  0
LINE
  8
0_00
  6
CONTINUOUS
 62
3
 10
1092.4061
 20
89.4451
 11
1100.0110
 21
89.4451
  0
LINE
  8
0_00
  6
CONTINUOUS
 62
3
 10
1100.0110
 20
89.4451
 11
1100.0110
 21
91.2000
  0
LINE
  8
0_00
  6
CONTINUOUS
 62
3
 10
1100.0110
 20
91.2000
 11
1092.4061
 21
91.2000
  0
LINE
  8
0_00
  6
CONTINUOUS
 62
3
 10
1092.4061
 20
91.2000
 11
1092.4061
 21
89.4451
  0
LINE
  8
0_00
  6
CONTINUOUS
 62
3
 10
1087.5311
 20
71.7000
 11
1087.5311
 21
77.0626
  0
LINE
  8
0_00
  6
CONTINUOUS
 62
3
 10
1088.8375
 20
72.7725
 11
1088.8375
 21
77.0626
  0
LINE
  8
0_00
  6
CONTINUOUS
 62
3
 10
1087.5311
 20
71.7000
 11
1089.6760
 21
71.7000
  0
LINE
  8
0_00
  6
CONTINUOUS
 62
3
 10
1088.8375
 20
72.7725
 11
1089.6760
 21
72.7725
  0
LINE
  8
0_00
  6
CONTINUOUS
 62
3
 10
1089.6050
 20
79.8056
 11
1090.4561
 21
78.1351
  0
LINE
  8
0_00
  6
CONTINUOUS
 62
3
 10
1090.9410
 20
82.5453
 11
1089.6047
 21
79.8055
  0
LINE
  8
0_00
  6
CONTINUOUS
 62
3
 10
1086.7511
 20
85.3501
 11
1086.7511
 21
91.2000
  0
LINE
  8
0_00
  6
CONTINUOUS
 62
3
 10
1086.7511
 20
85.3501
 11
1089.1886
 21
85.3501
  0
LINE
  8
0_00
  6
CONTINUOUS
 62
3
 10
1086.7511
 20
84.1801
 11
1087.8333
 21
84.1801
  0
LINE
  8
0_00
  6
CONTINUOUS
 62
3
 10
1086.7511
 20
78.1351
 11
1090.4561
 21
78.1351
  0
LINE
  8
0_00
  6
CONTINUOUS
 62
3
 10
1086.7511
 20
81.9611
 11
1087.8334
 21
84.1801
  0
LINE
  8
0_00
  6
CONTINUOUS
 62
3
 10
1086.7511
 20
81.9613
 11
1086.7511
 21
84.1801
  0
LINE
  8
0_00
  6
CONTINUOUS
 62
3
 10
1086.7511
 20
78.1351
 11
1086.7511
 21
71.7000
  0
LINE
  8
0_00
  6
CONTINUOUS
 62
3
 10
1076.9110
 20
91.2000
 11
1076.9110
 21
71.7000
  0
LINE
  8
0_00
  6
CONTINUOUS
 62
3
 10
1077.2110
 20
91.2000
 11
1077.2110
 21
71.7000
  0
LINE
  8
0_00
  6
CONTINUOUS
 62
3
 10
1077.5110
 20
91.2000
 11
1077.5110
 21
71.7000
  0
LINE
  8
0_00
  6
CONTINUOUS
 62
3
 10
1077.8109
 20
91.2000
 11
1077.8109
 21
71.7000
  0
LINE
  8
0_00
  6
CONTINUOUS
 62
3
 10
1078.1111
 20
91.2000
 11
1078.1111
 21
71.7000
  0
LINE
  8
0_00
  6
CONTINUOUS
 62
3
 10
1079.6411
 20
91.2000
 11
1079.6411
 21
71.7000
  0
LINE
  8
0_00
  6
CONTINUOUS
 62
3
 10
1079.9410
 20
91.2000
 11
1079.9410
 21
71.7000
  0
LINE
  8
0_00
  6
CONTINUOUS
 62
3
 10
1080.2410
 20
91.2000
 11
1080.2410
 21
71.7000
  0
LINE
  8
0_00
  6
CONTINUOUS
 62
3
 10
1080.5410
 20
91.2000
 11
1080.5410
 21
71.7000
  0
LINE
  8
0_00
  6
CONTINUOUS
 62
3
 10
1080.8410
 20
91.2000
 11
1080.8410
 21
71.7000
  0
LINE
  8
0_00
  6
CONTINUOUS
 62
3
 10
1081.1411
 20
91.2000
 11
1081.1411
 21
71.7000
  0
LINE
  8
0_00
  6
CONTINUOUS
 62
3
 10
1082.3709
 20
91.2000
 11
1082.3709
 21
71.7000
  0
LINE
  8
0_00
  6
CONTINUOUS
 62
3
 10
1082.6711
 20
91.2000
 11
1082.6711
 21
71.7000
  0
LINE
  8
0_00
  6
CONTINUOUS
 62
3
 10
1082.9711
 20
91.2000
 11
1082.9711
 21
71.7000
  0
LINE
  8
0_00
  6
CONTINUOUS
 62
3
 10
1083.2710
 20
91.2000
 11
1083.2710
 21
71.7000
  0
LINE
  8
0_00
  6
CONTINUOUS
 62
3
 10
1083.5711
 20
91.2000
 11
1083.5711
 21
71.7000
  0
LINE
  8
0_00
  6
CONTINUOUS
 62
3
 10
1083.8709
 20
91.2000
 11
1083.8709
 21
71.7000
  0
LINE
  8
0_00
  6
CONTINUOUS
 62
3
 10
1092.4061
 20
72.0001
 11
1100.0110
 21
72.0001
  0
LINE
  8
0_00
  6
CONTINUOUS
 62
3
 10
1092.4061
 20
72.3001
 11
1100.0110
 21
72.3001
  0
LINE
  8
0_00
  6
CONTINUOUS
 62
3
 10
1092.4061
 20
72.6000
 11
1100.0110
 21
72.6000
  0
LINE
  8
0_00
  6
CONTINUOUS
 62
3
 10
1092.4061
 20
72.9000
 11
1100.0110
 21
72.9000
  0
LINE
  8
0_00
  6
CONTINUOUS
 62
3
 10
1092.4061
 20
73.2000
 11
1100.0110
 21
73.2000
  0
LINE
  8
0_00
  6
CONTINUOUS
 62
3
 10
1092.4061
 20
74.5351
 11
1100.0110
 21
74.5351
  0
LINE
  8
0_00
  6
CONTINUOUS
 62
3
 10
1092.4061
 20
74.8351
 11
1100.0110
 21
74.8351
  0
LINE
  8
0_00
  6
CONTINUOUS
 62
3
 10
1092.4061
 20
75.1350
 11
1100.0110
 21
75.1350
  0
LINE
  8
0_00
  6
CONTINUOUS
 62
3
 10
1092.4061
 20
75.4350
 11
1100.0110
 21
75.4350
  0
LINE
  8
0_00
  6
CONTINUOUS
 62
3
 10
1092.4061
 20
75.7350
 11
1100.0110
 21
75.7350
  0
LINE
  8
0_00
  6
CONTINUOUS
 62
3
 10
1092.4061
 20
77.0701
 11
1100.0110
 21
77.0701
  0
LINE
  8
0_00
  6
CONTINUOUS
 62
3
 10
1092.4061
 20
77.3701
 11
1100.0110
 21
77.3701
  0
LINE
  8
0_00
  6
CONTINUOUS
 62
3
 10
1092.4061
 20
77.6700
 11
1100.0110
 21
77.6700
  0
LINE
  8
0_00
  6
CONTINUOUS
 62
3
 10
1092.4061
 20
77.9700
 11
1100.0110
 21
77.9700
  0
LINE
  8
0_00
  6
CONTINUOUS
 62
3
 10
1092.4061
 20
78.2701
 11
1100.0110
 21
78.2701
  0
LINE
  8
0_00
  6
CONTINUOUS
 62
3
 10
1092.4061
 20
79.6051
 11
1100.0110
 21
79.6051
  0
LINE
  8
0_00
  6
CONTINUOUS
 62
3
 10
1092.4061
 20
79.9051
 11
1100.0110
 21
79.9051
  0
LINE
  8
0_00
  6
CONTINUOUS
 62
3
 10
1092.4061
 20
80.2050
 11
1100.0110
 21
80.2050
  0
LINE
  8
0_00
  6
CONTINUOUS
 62
3
 10
1092.4061
 20
80.5050
 11
1100.0110
 21
80.5050
  0
LINE
  8
0_00
  6
CONTINUOUS
 62
3
 10
1092.4061
 20
80.8051
 11
1100.0110
 21
80.8051
  0
LINE
  8
0_00
  6
CONTINUOUS
 62
3
 10
1092.4061
 20
82.1401
 11
1100.0110
 21
82.1401
  0
LINE
  8
0_00
  6
CONTINUOUS
 62
3
 10
1092.4061
 20
82.4401
 11
1100.0110
 21
82.4401
  0
LINE
  8
0_00
  6
CONTINUOUS
 62
3
 10
1092.4061
 20
82.7400
 11
1100.0110
 21
82.7400
  0
LINE
  8
0_00
  6
CONTINUOUS
 62
3
 10
1092.4061
 20
83.0400
 11
1100.0110
 21
83.0400
  0
LINE
  8
0_00
  6
CONTINUOUS
 62
3
 10
1092.4061
 20
83.3401
 11
1100.0110
 21
83.3401
  0
LINE
  8
0_00
  6
CONTINUOUS
 62
3
 10
1100.0110
 20
84.6751
 11
1092.4061
 21
84.6751
  0
LINE
  8
0_00
  6
CONTINUOUS
 62
3
 10
1100.0110
 20
84.9751
 11
1092.4061
 21
84.9751
  0
LINE
  8
0_00
  6
CONTINUOUS
 62
3
 10
1100.0110
 20
85.2750
 11
1092.4061
 21
85.2750
  0
LINE
  8
0_00
  6
CONTINUOUS
 62
3
 10
1100.0110
 20
85.5750
 11
1092.4061
 21
85.5750
  0
LINE
  8
0_00
  6
CONTINUOUS
 62
3
 10
1100.0110
 20
85.8751
 11
1092.4061
 21
85.8751
  0
LINE
  8
0_00
  6
CONTINUOUS
 62
3
 10
1092.4061
 20
87.2101
 11
1100.0110
 21
87.2101
  0
LINE
  8
0_00
  6
CONTINUOUS
 62
3
 10
1092.4061
 20
87.5101
 11
1100.0110
 21
87.5101
  0
LINE
  8
0_00
  6
CONTINUOUS
 62
3
 10
1092.4061
 20
87.8100
 11
1100.0110
 21
87.8100
  0
LINE
  8
0_00
  6
CONTINUOUS
 62
3
 10
1092.4061
 20
88.1100
 11
1100.0110
 21
88.1100
  0
LINE
  8
0_00
  6
CONTINUOUS
 62
3
 10
1092.4061
 20
88.4101
 11
1100.0110
 21
88.4101
  0
LINE
  8
0_00
  6
CONTINUOUS
 62
3
 10
1092.4061
 20
89.7451
 11
1100.0110
 21
89.7451
  0
LINE
  8
0_00
  6
CONTINUOUS
 62
3
 10
1092.4061
 20
90.0451
 11
1100.0110
 21
90.0451
  0
LINE
  8
0_00
  6
CONTINUOUS
 62
3
 10
1092.4061
 20
90.3450
 11
1100.0110
 21
90.3450
  0
LINE
  8
0_00
  6
CONTINUOUS
 62
3
 10
1092.4061
 20
90.6450
 11
1100.0110
 21
90.6450
  0
LINE
  8
0_00
  6
CONTINUOUS
 62
3
 10
1092.4061
 20
90.9451
 11
1100.0110
 21
90.9451
  0
LINE
  8
0_00
  6
CONTINUOUS
 62
3
 10
1085.1010
 20
91.2000
 11
1085.1010
 21
71.7000
  0
LINE
  8
0_00
  6
CONTINUOUS
 62
3
 10
1085.4011
 20
91.2000
 11
1085.4011
 21
71.7000
  0
LINE
  8
0_00
  6
CONTINUOUS
 62
3
 10
1085.7009
 20
91.2000
 11
1085.7009
 21
71.7000
  0
LINE
  8
0_00
  6
CONTINUOUS
 62
3
 10
1086.0008
 20
91.2000
 11
1086.0008
 21
71.7000
  0
LINE
  8
0_00
  6
CONTINUOUS
 62
3
 10
1086.3010
 20
91.2000
 11
1086.3010
 21
71.7000
  0
LINE
  8
0_00
  6
CONTINUOUS
 62
3
 10
1086.6010
 20
91.2000
 11
1086.6010
 21
71.7000
  0
LINE
  8
0_00
  6
CONTINUOUS
 62
3
 10
1087.8311
 20
71.7000
 11
1087.8311
 21
77.0626
  0
LINE
  8
0_00
  6
CONTINUOUS
 62
3
 10
1088.1312
 20
71.7000
 11
1088.1312
 21
77.0626
  0
LINE
  8
0_00
  6
CONTINUOUS
 62
3
 10
1088.4310
 20
71.7000
 11
1088.4310
 21
77.0626
  0
LINE
  8
0_00
  6
CONTINUOUS
 62
3
 10
1088.7309
 20
71.7000
 11
1088.7309
 21
77.0626
  0
LINE
  8
0_00
  6
CONTINUOUS
 62
3
 10
1088.8375
 20
72.4725
 11
1089.6760
 21
72.4725
  0
LINE
  8
0_00
  6
CONTINUOUS
 62
3
 10
1088.8375
 20
72.1725
 11
1089.6760
 21
72.1725
  0
LINE
  8
0_00
  6
CONTINUOUS
 62
3
 10
1088.8375
 20
71.8725
 11
1089.6760
 21
71.8725
  0
LINE
  8
0_00
  6
CONTINUOUS
 62
3
 10
1090.2825
 20
78.4758
 11
1086.7853
 21
78.4758
  0
LINE
  8
0_00
  6
CONTINUOUS
 62
3
 10
1090.1032
 20
78.8278
 11
1086.7853
 21
78.8278
  0
LINE
  8
0_00
  6
CONTINUOUS
 62
3
 10
1089.8939
 20
79.2384
 11
1086.7779
 21
79.2384
  0
LINE
  8
0_00
  6
CONTINUOUS
 62
3
 10
1089.7204
 20
79.5787
 11
1086.7744
 21
79.5787
  0
LINE
  8
0_00
  6
CONTINUOUS
 62
3
 10
1091.0859
 20
83.5262
 11
1089.1502
 21
79.5579
  0
LINE
  8
0_00
  6
CONTINUOUS
 62
3
 10
1090.9896
 20
84.0133
 11
1088.8107
 21
79.5458
  0
LINE
  8
0_00
  6
CONTINUOUS
 62
3
 10
1090.8083
 20
84.3258
 11
1088.4914
 21
79.5758
  0
LINE
  8
0_00
  6
CONTINUOUS
 62
3
 10
1090.6029
 20
84.5893
 11
1088.1454
 21
79.5508
  0
LINE
  8
0_00
  6
CONTINUOUS
 62
3
 10
1090.4008
 20
84.8596
 11
1087.8790
 21
79.6887
  0
LINE
  8
0_00
  6
CONTINUOUS
 62
3
 10
1090.1371
 20
85.0026
 11
1087.4908
 21
79.5774
  0
LINE
  8
0_00
  6
CONTINUOUS
 62
3
 10
1089.8761
 20
85.1521
 11
1087.1534
 21
79.5697
  0
LINE
  8
0_00
  6
CONTINUOUS
 62
3
 10
1089.5665
 20
85.2017
 11
1086.8386
 21
79.6087
  0
LINE
  8
0_00
  6
CONTINUOUS
 62
3
 10
1089.2498
 20
85.2367
 11
1086.7053
 21
80.0197
  0
LINE
  8
0_00
  6
CONTINUOUS
 62
3
 10
1088.9374
 20
85.2802
 11
1086.7329
 21
80.7607
  0
LINE
  8
0_00
  6
CONTINUOUS
 62
3
 10
1088.5957
 20
85.2643
 11
1086.6388
 21
81.2521
  0
LINE
  8
0_00
  6
CONTINUOUS
 62
3
 10
1087.9926
 20
84.4801
 11
1086.7511
 21
84.4801
  0
LINE
  8
0_00
  6
CONTINUOUS
 62
3
 10
1088.2355
 20
84.7801
 11
1086.7511
 21
84.7801
  0
LINE
  8
0_00
  6
CONTINUOUS
 62
3
 10
1088.3496
 20
85.0800
 11
1086.7511
 21
85.0800
  0
LINE
  8
0_00
  6
CONTINUOUS
 62
3
 10
796.2610
 20
852.4893
 11
809.7610
 21
852.4893
  0
LINE
  8
0_00
  6
CONTINUOUS
 62
3
 10
797.1685
 20
854.0609
 11
796.2610
 21
852.4893
  0
LINE
  8
0_00
  6
CONTINUOUS
 62
3
 10
800.8929
 20
860.5119
 11
803.0110
 21
864.1806
  0
LINE
  8
0_00
  6
CONTINUOUS
 62
3
 10
808.8538
 20
854.0609
 11
809.7610
 21
852.4893
  0
LINE
  8
0_00
  6
CONTINUOUS
 62
3
 10
805.1292
 20
860.5119
 11
803.0110
 21
864.1806
  0
LINE
  8
0_00
  6
CONTINUOUS
 62
3
 10
1218.5110
 20
154.2001
 11
1221.5110
 21
154.2001
  0
LINE
  8
0_00
  6
CONTINUOUS
 62
3
 10
1218.5110
 20
175.2001
 11
1221.5110
 21
175.2001
  0
LINE
  8
0_00
  6
CONTINUOUS
 62
3
 10
1218.5110
 20
196.2001
 11
1221.5110
 21
196.2001
  0
LINE
  8
0_00
  6
CONTINUOUS
 62
3
 10
1218.5110
 20
217.2001
 11
1221.5110
 21
217.2001
  0
LINE
  8
0_00
  6
CONTINUOUS
 62
3
 10
1218.5110
 20
238.2001
 11
1221.5110
 21
238.2001
  0
LINE
  8
0_00
  6
CONTINUOUS
 62
3
 10
1218.5110
 20
259.2001
 11
1221.5110
 21
259.2001
  0
LINE
  8
0_00
  6
CONTINUOUS
 62
3
 10
1218.5110
 20
280.2001
 11
1221.5110
 21
280.2001
  0
LINE
  8
0_00
  6
CONTINUOUS
 62
3
 10
1218.5110
 20
301.2001
 11
1221.5110
 21
301.2001
  0
LINE
  8
0_00
  6
CONTINUOUS
 62
3
 10
1218.5110
 20
322.2001
 11
1221.5110
 21
322.2001
  0
LINE
  8
0_00
  6
CONTINUOUS
 62
3
 10
1218.5110
 20
343.2001
 11
1221.5110
 21
343.2001
  0
LINE
  8
0_00
  6
CONTINUOUS
 62
3
 10
1218.5110
 20
364.2001
 11
1221.5110
 21
364.2001
  0
LINE
  8
0_00
  6
CONTINUOUS
 62
3
 10
1218.5110
 20
385.2001
 11
1221.5110
 21
385.2001
  0
LINE
  8
0_00
  6
CONTINUOUS
 62
3
 10
1218.5110
 20
406.2001
 11
1221.5110
 21
406.2001
  0
LINE
  8
0_00
  6
CONTINUOUS
 62
3
 10
1218.5110
 20
427.2001
 11
1221.5110
 21
427.2001
  0
LINE
  8
0_00
  6
CONTINUOUS
 62
3
 10
1218.5110
 20
448.2001
 11
1221.5110
 21
448.2001
  0
LINE
  8
0_00
  6
CONTINUOUS
 62
3
 10
1218.5110
 20
469.2001
 11
1221.5110
 21
469.2001
  0
LINE
  8
0_00
  6
CONTINUOUS
 62
3
 10
1218.5110
 20
490.2001
 11
1221.5110
 21
490.2001
  0
LINE
  8
0_00
  6
CONTINUOUS
 62
3
 10
1218.5110
 20
833.7001
 11
1221.5110
 21
833.7001
  0
LINE
  8
0_00
  6
CONTINUOUS
 62
3
 10
1218.5110
 20
815.7001
 11
1221.5110
 21
815.7001
  0
LINE
  8
0_00
  6
CONTINUOUS
 62
3
 10
1218.5110
 20
797.7001
 11
1221.5110
 21
797.7001
  0
LINE
  8
0_00
  6
CONTINUOUS
 62
3
 10
1218.5110
 20
779.7001
 11
1221.5110
 21
779.7001
  0
LINE
  8
0_00
  6
CONTINUOUS
 62
3
 10
1218.5110
 20
761.7001
 11
1221.5110
 21
761.7001
  0
LINE
  8
0_00
  6
CONTINUOUS
 62
3
 10
1218.5110
 20
743.7001
 11
1221.5110
 21
743.7001
  0
LINE
  8
0_00
  6
CONTINUOUS
 62
3
 10
1218.5110
 20
511.2001
 11
1221.5110
 21
511.2001
  0
LINE
  8
0_00
  6
CONTINUOUS
 62
3
 10
1218.5110
 20
532.2001
 11
1221.5110
 21
532.2001
  0
LINE
  8
0_00
  6
CONTINUOUS
 62
3
 10
1218.5110
 20
553.2001
 11
1221.5110
 21
553.2001
  0
LINE
  8
0_00
  6
CONTINUOUS
 62
3
 10
1218.5110
 20
574.2001
 11
1221.5110
 21
574.2001
  0
LINE
  8
0_00
  6
CONTINUOUS
 62
3
 10
1218.5110
 20
595.2001
 11
1221.5110
 21
595.2001
  0
LINE
  8
0_00
  6
CONTINUOUS
 62
3
 10
1218.5110
 20
616.2001
 11
1221.5110
 21
616.2001
  0
LINE
  8
0_00
  6
CONTINUOUS
 62
3
 10
1218.5110
 20
637.2000
 11
1221.5110
 21
637.2000
  0
LINE
  8
0_00
  6
CONTINUOUS
 62
3
 10
1218.5110
 20
658.2000
 11
1221.5110
 21
658.2000
  0
LINE
  8
0_00
  6
CONTINUOUS
 62
3
 10
1218.5110
 20
679.2000
 11
1221.5110
 21
679.2000
  0
LINE
  8
0_00
  6
CONTINUOUS
 62
3
 10
1218.5110
 20
700.2001
 11
1221.5110
 21
700.2001
  0
LINE
  8
0_00
  6
CONTINUOUS
 62
3
 10
1218.5110
 20
721.2001
 11
1221.5110
 21
721.2001
  0
LINE
  8
0_00
  6
CENTER1
 62
3
 10
881.0410
 20
73.2001
 11
881.0410
 21
91.2001
  0
LINE
  8
0_00
  6
CONTINUOUS
 62
4
 10
891.5411
 20
78.4501
 11
891.5411
 21
85.9501
  0
LINE
  8
0_00
  6
CONTINUOUS
 62
4
 10
905.0410
 20
76.2001
 11
905.0410
 21
88.2001
  0
LINE
  8
0_00
  6
CONTINUOUS
 62
4
 10
891.5411
 20
85.9501
 11
905.0410
 21
88.2001
  0
LINE
  8
0_00
  6
CONTINUOUS
 62
4
 10
891.5411
 20
78.4501
 11
905.0410
 21
76.2001
  0
LINE
  8
0_00
  6
CENTER1
 62
3
 10
872.0411
 20
82.2001
 11
907.3555
 21
82.2001
  0
LINE
  8
0_00
  6
CONTINUOUS
 62
3
 10
1191.5110
 20
37.2000
 11
1191.5110
 21
67.2000
  0
LINE
  8
0_00
  6
CONTINUOUS
 62
3
 10
39.6905
 20
22.2000
 11
1233.5110
 21
22.2000
  0
LINE
  8
0_00
  6
CONTINUOUS
 62
3
 10
1182.5110
 20
865.2001
 11
1182.5110
 21
851.7001
  0
LINE
  8
0_00
  6
CONTINUOUS
 62
3
 10
0.0000
 20
443.7000
 11
39.6905
 21
443.7000
  0
LINE
  8
0_00
  6
CONTINUOUS
 62
3
 10
626.1610
 20
22.2000
 11
626.1610
 21
0.0000
  0
LINE
  8
0_00
  6
CONTINUOUS
 62
3
 10
626.1610
 20
865.2001
 11
626.1610
 21
891.0000
  0
LINE
  8
0_00
  6
CONTINUOUS
 62
3
 10
1233.5110
 20
443.7000
 11
1260.0000
 21
443.7000
  0
LINE
  8
0_00
  6
CONTINUOUS
 62
6
 10
293.2032
 20
243.1366
 11
293.2032
 21
194.0000
  0
LINE
  8
0_00
  6
CONTINUOUS
 62
6
 10
349.2032
 20
243.1366
 11
349.2032
 21
194.0000
  0
LINE
  8
0_00
  6
CONTINUOUS
 62
6
 10
293.2032
 20
200.0000
 11
349.2032
 21
200.0000
  0
LINE
  8
0_00
  6
CONTINUOUS
 62
6
 10
293.2032
 20
200.0000
 11
300.5393
 21
198.4407
  0
LINE
  8
0_00
  6
CONTINUOUS
 62
6
 10
293.2032
 20
200.0000
 11
300.5393
 21
201.5593
  0
LINE
  8
0_00
  6
CONTINUOUS
 62
6
 10
349.2032
 20
200.0000
 11
341.8671
 21
201.5593
  0
LINE
  8
0_00
  6
CONTINUOUS
 62
6
 10
349.2032
 20
200.0000
 11
341.8671
 21
198.4407
  0
LINE
  8
0_00
  6
CONTINUOUS
 62
6
 10
266.5254
 20
734.6279
 11
134.0000
 21
734.6279
  0
LINE
  8
0_00
  6
CONTINUOUS
 62
6
 10
276.9027
 20
687.6280
 11
134.0000
 21
687.6280
  0
LINE
  8
0_00
  6
CONTINUOUS
 62
6
 10
140.0000
 20
734.6279
 11
140.0000
 21
687.6280
  0
LINE
  8
0_00
  6
CONTINUOUS
 62
6
 10
140.0000
 20
734.6279
 11
138.4407
 21
727.2919
  0
LINE
  8
0_00
  6
CONTINUOUS
 62
6
 10
140.0000
 20
734.6279
 11
141.5593
 21
727.2919
  0
LINE
  8
0_00
  6
CONTINUOUS
 62
6
 10
140.0000
 20
687.6280
 11
141.5593
 21
694.9641
  0
LINE
  8
0_00
  6
CONTINUOUS
 62
6
 10
140.0000
 20
687.6280
 11
138.4407
 21
694.9641
  0
LINE
  8
0_00
  6
CONTINUOUS
 62
6
 10
266.5254
 20
427.8546
 11
134.0000
 21
427.8546
  0
LINE
  8
0_00
  6
CONTINUOUS
 62
6
 10
281.5254
 20
462.8546
 11
134.0000
 21
462.8546
  0
LINE
  8
0_00
  6
CONTINUOUS
 62
6
 10
140.0000
 20
462.8546
 11
140.0000
 21
427.8546
  0
LINE
  8
0_00
  6
CONTINUOUS
 62
6
 10
140.0000
 20
462.8546
 11
138.4407
 21
455.5185
  0
LINE
  8
0_00
  6
CONTINUOUS
 62
6
 10
140.0000
 20
462.8546
 11
141.5593
 21
455.5185
  0
LINE
  8
0_00
  6
CONTINUOUS
 62
6
 10
140.0000
 20
427.8546
 11
141.5593
 21
435.1907
  0
LINE
  8
0_00
  6
CONTINUOUS
 62
6
 10
140.0000
 20
427.8546
 11
138.4407
 21
435.1907
  0
LINE
  8
0_00
  6
CONTINUOUS
 62
6
 10
1120.5816
 20
703.6943
 11
1186.0000
 21
703.6943
  0
LINE
  8
0_00
  6
CONTINUOUS
 62
6
 10
1120.5816
 20
615.6943
 11
1186.0000
 21
615.6943
  0
LINE
  8
0_00
  6
CONTINUOUS
 62
6
 10
1180.0000
 20
703.6943
 11
1180.0000
 21
615.6943
  0
LINE
  8
0_00
  6
CONTINUOUS
 62
6
 10
1180.0000
 20
703.6943
 11
1178.4407
 21
696.3582
  0
LINE
  8
0_00
  6
CONTINUOUS
 62
6
 10
1180.0000
 20
703.6943
 11
1181.5594
 21
696.3582
  0
LINE
  8
0_00
  6
CONTINUOUS
 62
6
 10
1180.0000
 20
615.6943
 11
1181.5594
 21
623.0304
  0
LINE
  8
0_00
  6
CONTINUOUS
 62
6
 10
1180.0000
 20
615.6943
 11
1178.4407
 21
623.0304
  0
LINE
  8
0_00
  6
CONTINUOUS
 62
6
 10
1120.5816
 20
623.6943
 11
1166.0000
 21
623.6943
  0
LINE
  8
0_00
  6
CONTINUOUS
 62
6
 10
1130.1315
 20
615.6943
 11
1166.0000
 21
615.6943
  0
LINE
  8
0_00
  6
CONTINUOUS
 62
6
 10
1160.0000
 20
615.6943
 11
1160.0000
 21
623.6943
  0
LINE
  8
0_00
  6
CONTINUOUS
 62
6
 10
1160.0000
 20
593.5918
 11
1160.0000
 21
615.6943
  0
LINE
  8
0_00
  6
CONTINUOUS
 62
6
 10
1160.0000
 20
615.6943
 11
1158.4406
 21
608.3582
  0
LINE
  8
0_00
  6
CONTINUOUS
 62
6
 10
1160.0000
 20
615.6943
 11
1161.5593
 21
608.3582
  0
LINE
  8
0_00
  6
CONTINUOUS
 62
6
 10
1120.5816
 20
703.6943
 11
1166.0000
 21
703.6943
  0
LINE
  8
0_00
  6
CONTINUOUS
 62
6
 10
1160.0000
 20
623.6943
 11
1160.0000
 21
703.6943
  0
LINE
  8
0_00
  6
CONTINUOUS
 62
6
 10
1160.0000
 20
623.6943
 11
1161.5593
 21
631.0304
  0
LINE
  8
0_00
  6
CONTINUOUS
 62
6
 10
1160.0000
 20
623.6943
 11
1158.4406
 21
631.0304
  0
LINE
  8
0_00
  6
CONTINUOUS
 62
6
 10
1160.0000
 20
703.6943
 11
1158.4406
 21
696.3582
  0
LINE
  8
0_00
  6
CONTINUOUS
 62
6
 10
1160.0000
 20
703.6943
 11
1161.5593
 21
696.3582
  0
LINE
  8
0_00
  6
CONTINUOUS
 62
6
 10
928.6815
 20
723.4304
 11
928.6815
 21
746.0000
  0
LINE
  8
0_00
  6
CONTINUOUS
 62
6
 10
941.3816
 20
723.4304
 11
941.3816
 21
746.0000
  0
LINE
  8
0_00
  6
CONTINUOUS
 62
6
 10
928.6815
 20
740.0000
 11
941.3816
 21
740.0000
  0
LINE
  8
0_00
  6
CONTINUOUS
 62
6
 10
959.3817
 20
740.0000
 11
941.3816
 21
740.0000
  0
LINE
  8
0_00
  6
CONTINUOUS
 62
6
 10
941.3816
 20
740.0000
 11
948.7177
 21
738.4407
  0
LINE
  8
0_00
  6
CONTINUOUS
 62
6
 10
941.3816
 20
740.0000
 11
948.7177
 21
741.5593
  0
LINE
  8
0_00
  6
CONTINUOUS
 62
6
 10
910.6816
 20
740.0000
 11
928.6815
 21
740.0000
  0
LINE
  8
0_00
  6
CONTINUOUS
 62
6
 10
928.6815
 20
740.0000
 11
921.3454
 21
741.5593
  0
LINE
  8
0_00
  6
CONTINUOUS
 62
6
 10
928.6815
 20
740.0000
 11
921.3454
 21
738.4407
  0
LINE
  8
0_00
  6
CONTINUOUS
 62
4
 10
1050.1278
 20
535.1458
 11
1123.9277
 21
535.1458
  0
LINE
  8
0_00
  6
CONTINUOUS
 62
6
 10
748.6816
 20
721.9046
 11
748.6816
 21
766.0000
  0
LINE
  8
0_00
  6
CONTINUOUS
 62
6
 10
773.6816
 20
721.9046
 11
773.6816
 21
766.0000
  0
LINE
  8
0_00
  6
CONTINUOUS
 62
6
 10
748.6816
 20
760.0000
 11
773.6816
 21
760.0000
  0
LINE
  8
0_00
  6
CONTINUOUS
 62
6
 10
748.6816
 20
760.0000
 11
756.0177
 21
758.4407
  0
LINE
  8
0_00
  6
CONTINUOUS
 62
6
 10
748.6816
 20
760.0000
 11
756.0177
 21
761.5594
  0
LINE
  8
0_00
  6
CONTINUOUS
 62
6
 10
773.6816
 20
760.0000
 11
766.3455
 21
761.5594
  0
LINE
  8
0_00
  6
CONTINUOUS
 62
6
 10
773.6816
 20
760.0000
 11
766.3455
 21
758.4407
  0
LINE
  8
0_00
  6
CONTINUOUS
 62
6
 10
877.0149
 20
721.9046
 11
877.0149
 21
766.0000
  0
LINE
  8
0_00
  6
CONTINUOUS
 62
6
 10
773.6816
 20
760.0000
 11
877.0149
 21
760.0000
  0
LINE
  8
0_00
  6
CONTINUOUS
 62
6
 10
773.6816
 20
760.0000
 11
781.0177
 21
758.4407
  0
LINE
  8
0_00
  6
CONTINUOUS
 62
6
 10
773.6816
 20
760.0000
 11
781.0177
 21
761.5594
  0
LINE
  8
0_00
  6
CONTINUOUS
 62
6
 10
877.0149
 20
760.0000
 11
869.6788
 21
761.5594
  0
LINE
  8
0_00
  6
CONTINUOUS
 62
6
 10
877.0149
 20
760.0000
 11
869.6788
 21
758.4407
  0
LINE
  8
0_00
  6
CONTINUOUS
 62
6
 10
980.3482
 20
721.9046
 11
980.3482
 21
766.0000
  0
LINE
  8
0_00
  6
CONTINUOUS
 62
6
 10
877.0149
 20
760.0000
 11
980.3482
 21
760.0000
  0
LINE
  8
0_00
  6
CONTINUOUS
 62
6
 10
877.0149
 20
760.0000
 11
884.3510
 21
758.4407
  0
LINE
  8
0_00
  6
CONTINUOUS
 62
6
 10
877.0149
 20
760.0000
 11
884.3510
 21
761.5594
  0
LINE
  8
0_00
  6
CONTINUOUS
 62
6
 10
980.3482
 20
760.0000
 11
973.0121
 21
761.5594
  0
LINE
  8
0_00
  6
CONTINUOUS
 62
6
 10
980.3482
 20
760.0000
 11
973.0121
 21
758.4407
  0
LINE
  8
0_00
  6
CONTINUOUS
 62
6
 10
1083.6817
 20
721.9046
 11
1083.6817
 21
766.0000
  0
LINE
  8
0_00
  6
CONTINUOUS
 62
6
 10
980.3482
 20
760.0000
 11
1083.6817
 21
760.0000
  0
LINE
  8
0_00
  6
CONTINUOUS
 62
6
 10
980.3482
 20
760.0000
 11
987.6844
 21
758.4407
  0
LINE
  8
0_00
  6
CONTINUOUS
 62
6
 10
980.3482
 20
760.0000
 11
987.6844
 21
761.5594
  0
LINE
  8
0_00
  6
CONTINUOUS
 62
6
 10
1083.6817
 20
760.0000
 11
1076.3455
 21
761.5594
  0
LINE
  8
0_00
  6
CONTINUOUS
 62
6
 10
1083.6817
 20
760.0000
 11
1076.3455
 21
758.4407
  0
LINE
  8
0_00
  6
CONTINUOUS
 62
6
 10
1108.6816
 20
721.9046
 11
1108.6816
 21
766.0000
  0
LINE
  8
0_00
  6
CONTINUOUS
 62
6
 10
1083.6817
 20
760.0000
 11
1108.6816
 21
760.0000
  0
LINE
  8
0_00
  6
CONTINUOUS
 62
6
 10
1083.6817
 20
760.0000
 11
1091.0177
 21
758.4407
  0
LINE
  8
0_00
  6
CONTINUOUS
 62
6
 10
1083.6817
 20
760.0000
 11
1091.0177
 21
761.5594
  0
LINE
  8
0_00
  6
CONTINUOUS
 62
6
 10
1108.6816
 20
760.0000
 11
1101.3454
 21
761.5594
  0
LINE
  8
0_00
  6
CONTINUOUS
 62
6
 10
1108.6816
 20
760.0000
 11
1101.3454
 21
758.4407
  0
LINE
  8
0_00
  6
CONTINUOUS
 62
4
 10
529.6046
 20
171.9849
 11
574.6046
 21
171.9849
  0
LINE
  8
0_00
  6
CONTINUOUS
 62
4
 10
130.2610
 20
139.0381
 11
175.2610
 21
139.0381
  0
LINE
  8
0_00
  6
CONTINUOUS
 62
2
 10
339.8282
 20
689.1279
 11
339.3282
 21
688.6279
  0
LINE
  8
0_00
  6
CONTINUOUS
 62
2
 10
335.5856
 20
689.1279
 11
335.0855
 21
688.6279
  0
LINE
  8
0_00
  6
CONTINUOUS
 62
2
 10
344.0708
 20
689.1279
 11
343.5708
 21
688.6279
  0
LINE
  8
0_00
  6
CONTINUOUS
 62
2
 10
302.3282
 20
689.1279
 11
301.8282
 21
688.6279
  0
LINE
  8
0_00
  6
CONTINUOUS
 62
2
 10
298.0855
 20
689.1279
 11
297.5855
 21
688.6279
  0
LINE
  8
0_00
  6
CONTINUOUS
 62
2
 10
306.5708
 20
689.1279
 11
306.0708
 21
688.6279
  0
LINE
  8
0_00
  6
CONTINUOUS
 62
6
 10
110.5000
 20
327.8546
 11
146.0000
 21
327.8546
  0
LINE
  8
0_00
  6
CONTINUOUS
 62
6
 10
277.0662
 20
355.9546
 11
134.0000
 21
355.9546
  0
LINE
  8
0_00
  6
CONTINUOUS
 62
6
 10
140.0000
 20
355.9546
 11
140.0000
 21
327.8546
  0
LINE
  8
0_00
  6
CONTINUOUS
 62
6
 10
140.0000
 20
373.9546
 11
140.0000
 21
355.9546
  0
LINE
  8
0_00
  6
CONTINUOUS
 62
6
 10
140.0000
 20
355.9546
 11
141.5593
 21
363.2907
  0
LINE
  8
0_00
  6
CONTINUOUS
 62
6
 10
140.0000
 20
355.9546
 11
138.4407
 21
363.2907
  0
LINE
  8
0_00
  6
CONTINUOUS
 62
6
 10
140.0000
 20
309.8546
 11
140.0000
 21
327.8546
  0
LINE
  8
0_00
  6
CONTINUOUS
 62
6
 10
140.0000
 20
327.8546
 11
138.4407
 21
320.5185
  0
LINE
  8
0_00
  6
CONTINUOUS
 62
6
 10
140.0000
 20
327.8546
 11
141.5593
 21
320.5185
  0
LINE
  8
15_0F
  6
CONTINUOUS
 62
6
 10
396.2032
 20
201.1356
 11
396.2032
 21
169.8615
  0
LINE
  8
15_0F
  6
CONTINUOUS
 62
6
 10
401.2032
 20
216.1356
 11
401.2032
 21
169.8615
  0
LINE
  8
15_0F
  6
CONTINUOUS
 62
6
 10
396.2032
 20
175.8615
 11
401.2032
 21
175.8615
  0
LINE
  8
15_0F
  6
CONTINUOUS
 62
6
 10
374.0032
 20
175.8615
 11
396.2032
 21
175.8615
  0
LINE
  8
15_0F
  6
CONTINUOUS
 62
6
 10
396.2032
 20
175.8615
 11
388.8670
 21
177.4209
  0
LINE
  8
15_0F
  6
CONTINUOUS
 62
6
 10
396.2032
 20
175.8615
 11
388.8670
 21
174.3022
  0
LINE
  8
15_0F
  6
CONTINUOUS
 62
6
 10
411.2032
 20
242.8983
 11
411.2032
 21
169.8615
  0
LINE
  8
15_0F
  6
CONTINUOUS
 62
6
 10
401.2032
 20
175.8615
 11
411.2032
 21
175.8615
  0
LINE
  8
15_0F
  6
CONTINUOUS
 62
6
 10
440.6032
 20
175.8615
 11
411.2032
 21
175.8615
  0
LINE
  8
15_0F
  6
CONTINUOUS
 62
6
 10
411.2032
 20
175.8615
 11
418.5393
 21
174.3022
  0
LINE
  8
15_0F
  6
CONTINUOUS
 62
6
 10
411.2032
 20
175.8615
 11
418.5393
 21
177.4209
  0
LINE
  8
15_0F
  6
CONTINUOUS
 62
6
 10
241.2032
 20
216.2740
 11
241.2032
 21
169.8615
  0
LINE
  8
15_0F
  6
CONTINUOUS
 62
6
 10
231.2032
 20
242.8983
 11
231.2032
 21
169.8615
  0
LINE
  8
15_0F
  6
CONTINUOUS
 62
6
 10
231.2032
 20
175.8615
 11
241.2032
 21
175.8615
  0
LINE
  8
15_0F
  6
CONTINUOUS
 62
6
 10
201.8032
 20
175.8615
 11
231.2032
 21
175.8615
  0
LINE
  8
15_0F
  6
CONTINUOUS
 62
6
 10
231.2032
 20
175.8615
 11
223.8671
 21
177.4209
  0
LINE
  8
15_0F
  6
CONTINUOUS
 62
6
 10
231.2032
 20
175.8615
 11
223.8671
 21
174.3022
  0
LINE
  8
15_0F
  6
CONTINUOUS
 62
6
 10
246.2032
 20
201.2740
 11
246.2032
 21
169.8615
  0
LINE
  8
15_0F
  6
CONTINUOUS
 62
6
 10
241.2032
 20
175.8615
 11
246.2032
 21
175.8615
  0
LINE
  8
15_0F
  6
CONTINUOUS
 62
6
 10
268.4032
 20
175.8615
 11
246.2032
 21
175.8615
  0
LINE
  8
15_0F
  6
CONTINUOUS
 62
6
 10
246.2032
 20
175.8615
 11
253.5393
 21
174.3022
  0
LINE
  8
15_0F
  6
CONTINUOUS
 62
6
 10
246.2032
 20
175.8615
 11
253.5393
 21
177.4209
  0
LINE
  8
15_0F
  6
CONTINUOUS
 62
6
 10
601.6736
 20
726.8301
 11
601.6736
 21
782.1021
  0
LINE
  8
15_0F
  6
CONTINUOUS
 62
6
 10
521.6736
 20
726.8301
 11
521.6736
 21
782.1021
  0
LINE
  8
15_0F
  6
CONTINUOUS
 62
6
 10
521.6736
 20
776.1022
 11
601.6736
 21
776.1022
  0
LINE
  8
15_0F
  6
CONTINUOUS
 62
6
 10
521.6736
 20
776.1022
 11
529.0097
 21
774.5429
  0
LINE
  8
15_0F
  6
CONTINUOUS
 62
6
 10
521.6736
 20
776.1022
 11
529.0097
 21
777.6616
  0
LINE
  8
15_0F
  6
CONTINUOUS
 62
6
 10
601.6736
 20
776.1022
 11
594.3375
 21
777.6616
  0
LINE
  8
15_0F
  6
CONTINUOUS
 62
6
 10
601.6736
 20
776.1022
 11
594.3375
 21
774.5429
  0
LINE
  8
0_00
  6
CONTINUOUS
 62
2
 10
580.2986
 20
698.8719
 11
579.7986
 21
698.3719
  0
LINE
  8
0_00
  6
CONTINUOUS
 62
2
 10
576.0560
 20
698.8719
 11
575.5560
 21
698.3719
  0
LINE
  8
0_00
  6
CONTINUOUS
 62
2
 10
584.5412
 20
698.8719
 11
584.0413
 21
698.3719
  0
LINE
  8
0_00
  6
CONTINUOUS
 62
2
 10
542.7986
 20
698.8719
 11
542.2986
 21
698.3719
  0
LINE
  8
0_00
  6
CONTINUOUS
 62
2
 10
538.5560
 20
698.8719
 11
538.0560
 21
698.3719
  0
LINE
  8
0_00
  6
CONTINUOUS
 62
2
 10
547.0413
 20
698.8719
 11
546.5413
 21
698.3719
  0
LINE
  8
0_00
  6
CONTINUOUS
 62
6
 10
516.6636
 20
697.5184
 11
474.0000
 21
697.5184
  0
LINE
  8
0_00
  6
CONTINUOUS
 62
6
 10
546.6736
 20
734.6279
 11
474.0000
 21
734.6279
  0
LINE
  8
0_00
  6
CONTINUOUS
 62
6
 10
480.0000
 20
734.6279
 11
480.0000
 21
697.5184
  0
LINE
  8
0_00
  6
CONTINUOUS
 62
6
 10
480.0000
 20
734.6279
 11
478.4407
 21
727.2919
  0
LINE
  8
0_00
  6
CONTINUOUS
 62
6
 10
480.0000
 20
734.6279
 11
481.5593
 21
727.2919
  0
LINE
  8
0_00
  6
CONTINUOUS
 62
6
 10
480.0000
 20
697.5184
 11
481.5593
 21
704.8545
  0
LINE
  8
0_00
  6
CONTINUOUS
 62
6
 10
480.0000
 20
697.5184
 11
478.4407
 21
704.8545
  0
ARC
  8
0_00
  6
CONTINUOUS
 62
4
 10
1002.5549
 20
297.5623
 40
2.5000
 50
180.0000
 51
270.0000
  0
ARC
  8
0_00
  6
CONTINUOUS
 62
4
 10
1003.5549
 20
302.0623
 40
1.7000
 50
298.0725
 51
321.6204
  0
ARC
  8
0_00
  6
CONTINUOUS
 62
4
 10
1003.5549
 20
302.0623
 40
3.2500
 50
243.0423
 51
298.1446
  0
ARC
  8
0_00
  6
CONTINUOUS
 62
4
 10
1001.8549
 20
298.7198
 40
0.5000
 50
63.0423
 51
180.0000
  0
ARC
  8
0_00
  6
CONTINUOUS
 62
4
 10
1004.8050
 20
299.7257
 40
0.6000
 50
298.1446
 51
360.0000
  0
ARC
  8
0_00
  6
CONTINUOUS
 62
4
 10
1003.5549
 20
302.0623
 40
1.7000
 50
210.0000
 51
241.9275
  0
ARC
  8
0_00
  6
CONTINUOUS
 62
4
 10
1037.5549
 20
297.5623
 40
2.5000
 50
270.0000
 51
360.0000
  0
ARC
  8
0_00
  6
CONTINUOUS
 62
4
 10
1005.1150
 20
300.8268
 40
0.2900
 50
0.0000
 51
141.6204
  0
ARC
  8
0_00
  6
CONTINUOUS
 62
4
 10
1001.7049
 20
301.3406
 40
0.3000
 50
180.0000
 51
300.0000
  0
ARC
  8
0_00
  6
CONTINUOUS
 62
4
 10
1003.5549
 20
302.0623
 40
2.1500
 50
248.1552
 51
291.8448
  0
ARC
  8
0_00
  6
CONTINUOUS
 62
4
 10
1003.5549
 20
302.0623
 40
1.7000
 50
38.3796
 51
61.9275
  0
ARC
  8
0_00
  6
CONTINUOUS
 62
4
 10
1003.5549
 20
302.0623
 40
3.2500
 50
61.8554
 51
118.6854
  0
ARC
  8
0_00
  6
CONTINUOUS
 62
4
 10
1004.8050
 20
304.3990
 40
0.6000
 50
0.0000
 51
61.8554
  0
ARC
  8
0_00
  6
CONTINUOUS
 62
4
 10
1001.7549
 20
305.3521
 40
0.5000
 50
180.0000
 51
298.6854
  0
ARC
  8
0_00
  6
CONTINUOUS
 62
4
 10
1003.5549
 20
302.0623
 40
1.7000
 50
118.0725
 51
150.0000
  0
ARC
  8
0_00
  6
CONTINUOUS
 62
4
 10
1005.1150
 20
303.2978
 40
0.2900
 50
218.3796
 51
360.0000
  0
ARC
  8
0_00
  6
CONTINUOUS
 62
4
 10
1001.7049
 20
302.7840
 40
0.3000
 50
60.0000
 51
180.0000
  0
ARC
  8
0_00
  6
CONTINUOUS
 62
4
 10
1003.5549
 20
302.0623
 40
2.1500
 50
68.1552
 51
111.8448
  0
ARC
  8
0_00
  6
CONTINUOUS
 62
4
 10
1036.5549
 20
302.0623
 40
1.7000
 50
218.3796
 51
241.9275
  0
ARC
  8
0_00
  6
CONTINUOUS
 62
4
 10
1036.5549
 20
302.0623
 40
3.2500
 50
241.8554
 51
296.9578
  0
ARC
  8
0_00
  6
CONTINUOUS
 62
4
 10
1035.3050
 20
299.7257
 40
0.6000
 50
180.0000
 51
241.8554
  0
ARC
  8
0_00
  6
CONTINUOUS
 62
4
 10
1036.5549
 20
302.0623
 40
1.7000
 50
298.0725
 51
330.0000
  0
ARC
  8
0_00
  6
CONTINUOUS
 62
4
 10
1034.9949
 20
300.8268
 40
0.2900
 50
38.3796
 51
180.0000
  0
ARC
  8
0_00
  6
CONTINUOUS
 62
4
 10
1038.4049
 20
301.3406
 40
0.3000
 50
240.0000
 51
360.0000
  0
ARC
  8
0_00
  6
CONTINUOUS
 62
4
 10
1036.5549
 20
302.0623
 40
2.1500
 50
248.1552
 51
291.8448
  0
ARC
  8
0_00
  6
CONTINUOUS
 62
4
 10
1036.5549
 20
302.0623
 40
1.7000
 50
118.0725
 51
141.6204
  0
ARC
  8
0_00
  6
CONTINUOUS
 62
4
 10
1036.5549
 20
302.0623
 40
3.2500
 50
61.3146
 51
118.1446
  0
ARC
  8
0_00
  6
CONTINUOUS
 62
4
 10
1035.3050
 20
304.3990
 40
0.6000
 50
118.1446
 51
180.0000
  0
ARC
  8
0_00
  6
CONTINUOUS
 62
4
 10
1038.3549
 20
305.3521
 40
0.5000
 50
241.3146
 51
360.0000
  0
ARC
  8
0_00
  6
CONTINUOUS
 62
4
 10
1036.5549
 20
302.0623
 40
1.7000
 50
30.0000
 51
61.9275
  0
ARC
  8
0_00
  6
CONTINUOUS
 62
4
 10
1034.9949
 20
303.2978
 40
0.2900
 50
180.0000
 51
321.6204
  0
ARC
  8
0_00
  6
CONTINUOUS
 62
4
 10
1038.4049
 20
302.7840
 40
0.3000
 50
0.0000
 51
120.0000
  0
ARC
  8
0_00
  6
CONTINUOUS
 62
4
 10
1036.5549
 20
302.0623
 40
2.1500
 50
68.1552
 51
111.8448
  0
ARC
  8
0_00
  6
CONTINUOUS
 62
4
 10
1001.8549
 20
297.5623
 40
0.5000
 50
180.0000
 51
270.0000
  0
ARC
  8
0_00
  6
CONTINUOUS
 62
4
 10
1038.2549
 20
298.7198
 40
0.5000
 50
0.0000
 51
116.9577
  0
ARC
  8
0_00
  6
CONTINUOUS
 62
4
 10
1038.2549
 20
297.5623
 40
0.5000
 50
270.0000
 51
360.0000
  0
ARC
  8
0_00
  6
CONTINUOUS
 62
4
 10
1002.5549
 20
342.5623
 40
2.5000
 50
90.0000
 51
180.0000
  0
ARC
  8
0_00
  6
CONTINUOUS
 62
4
 10
1003.5549
 20
338.0623
 40
1.7000
 50
38.3796
 51
61.9275
  0
ARC
  8
0_00
  6
CONTINUOUS
 62
4
 10
1003.5549
 20
338.0623
 40
3.2500
 50
61.8554
 51
116.9577
  0
ARC
  8
0_00
  6
CONTINUOUS
 62
4
 10
1001.8549
 20
341.4049
 40
0.5000
 50
180.0000
 51
296.9578
  0
ARC
  8
0_00
  6
CONTINUOUS
 62
4
 10
1004.8050
 20
340.3990
 40
0.6000
 50
0.0000
 51
61.8554
  0
ARC
  8
0_00
  6
CONTINUOUS
 62
4
 10
1003.5549
 20
338.0623
 40
1.7000
 50
118.0725
 51
150.0000
  0
ARC
  8
0_00
  6
CONTINUOUS
 62
4
 10
1037.5549
 20
342.5623
 40
2.5000
 50
0.0000
 51
90.0000
  0
ARC
  8
0_00
  6
CONTINUOUS
 62
4
 10
1005.1150
 20
339.2979
 40
0.2900
 50
218.3796
 51
360.0000
  0
ARC
  8
0_00
  6
CONTINUOUS
 62
4
 10
1001.7049
 20
338.7840
 40
0.3000
 50
60.0000
 51
180.0000
  0
ARC
  8
0_00
  6
CONTINUOUS
 62
4
 10
1003.5549
 20
338.0623
 40
2.1500
 50
68.1552
 51
111.8448
  0
ARC
  8
0_00
  6
CONTINUOUS
 62
4
 10
1003.5549
 20
338.0623
 40
1.7000
 50
298.0725
 51
321.6204
  0
ARC
  8
0_00
  6
CONTINUOUS
 62
4
 10
1003.5549
 20
338.0623
 40
3.2500
 50
241.3146
 51
298.1446
  0
ARC
  8
0_00
  6
CONTINUOUS
 62
4
 10
1004.8050
 20
335.7257
 40
0.6000
 50
298.1446
 51
360.0000
  0
ARC
  8
0_00
  6
CONTINUOUS
 62
4
 10
1001.7549
 20
334.7726
 40
0.5000
 50
61.3146
 51
180.0000
  0
ARC
  8
0_00
  6
CONTINUOUS
 62
4
 10
1003.5549
 20
338.0623
 40
1.7000
 50
210.0000
 51
241.9275
  0
ARC
  8
0_00
  6
CONTINUOUS
 62
4
 10
1005.1150
 20
336.8268
 40
0.2900
 50
0.0000
 51
141.6204
  0
ARC
  8
0_00
  6
CONTINUOUS
 62
4
 10
1001.7049
 20
337.3406
 40
0.3000
 50
180.0000
 51
300.0000
  0
ARC
  8
0_00
  6
CONTINUOUS
 62
4
 10
1003.5549
 20
338.0623
 40
2.1500
 50
248.1552
 51
291.8448
  0
ARC
  8
0_00
  6
CONTINUOUS
 62
4
 10
1036.5549
 20
338.0623
 40
1.7000
 50
118.0725
 51
141.6204
  0
ARC
  8
0_00
  6
CONTINUOUS
 62
4
 10
1036.5549
 20
338.0623
 40
3.2500
 50
63.0423
 51
118.1446
  0
ARC
  8
0_00
  6
CONTINUOUS
 62
4
 10
1035.3050
 20
340.3990
 40
0.6000
 50
118.1446
 51
180.0000
  0
ARC
  8
0_00
  6
CONTINUOUS
 62
4
 10
1036.5549
 20
338.0623
 40
1.7000
 50
30.0000
 51
61.9275
  0
ARC
  8
0_00
  6
CONTINUOUS
 62
4
 10
1034.9949
 20
339.2979
 40
0.2900
 50
180.0000
 51
321.6204
  0
ARC
  8
0_00
  6
CONTINUOUS
 62
4
 10
1038.4049
 20
338.7840
 40
0.3000
 50
0.0000
 51
120.0000
  0
ARC
  8
0_00
  6
CONTINUOUS
 62
4
 10
1036.5549
 20
338.0623
 40
2.1500
 50
68.1552
 51
111.8448
  0
ARC
  8
0_00
  6
CONTINUOUS
 62
4
 10
1036.5549
 20
338.0623
 40
1.7000
 50
218.3796
 51
241.9275
  0
ARC
  8
0_00
  6
CONTINUOUS
 62
4
 10
1036.5549
 20
338.0623
 40
3.2500
 50
241.8554
 51
298.6854
  0
ARC
  8
0_00
  6
CONTINUOUS
 62
4
 10
1035.3050
 20
335.7257
 40
0.6000
 50
180.0000
 51
241.8554
  0
ARC
  8
0_00
  6
CONTINUOUS
 62
4
 10
1038.3549
 20
334.7726
 40
0.5000
 50
0.0000
 51
118.6854
  0
ARC
  8
0_00
  6
CONTINUOUS
 62
4
 10
1036.5549
 20
338.0623
 40
1.7000
 50
298.0725
 51
330.0000
  0
ARC
  8
0_00
  6
CONTINUOUS
 62
4
 10
1034.9949
 20
336.8268
 40
0.2900
 50
38.3796
 51
180.0000
  0
ARC
  8
0_00
  6
CONTINUOUS
 62
4
 10
1038.4049
 20
337.3406
 40
0.3000
 50
240.0000
 51
360.0000
  0
ARC
  8
0_00
  6
CONTINUOUS
 62
4
 10
1036.5549
 20
338.0623
 40
2.1500
 50
248.1552
 51
291.8448
  0
ARC
  8
0_00
  6
CONTINUOUS
 62
4
 10
1001.8549
 20
342.5623
 40
0.5000
 50
90.0000
 51
180.0000
  0
ARC
  8
0_00
  6
CONTINUOUS
 62
4
 10
1038.2549
 20
341.4049
 40
0.5000
 50
243.0423
 51
360.0000
  0
ARC
  8
0_00
  6
CONTINUOUS
 62
4
 10
1038.2549
 20
342.5623
 40
0.5000
 50
0.0000
 51
90.0000
  0
ARC
  8
0_00
  6
CONTINUOUS
 62
4
 10
1012.7549
 20
316.7623
 40
0.5000
 50
180.0000
 51
270.0000
  0
ARC
  8
0_00
  6
CONTINUOUS
 62
4
 10
1015.1549
 20
315.6624
 40
0.6000
 50
270.0000
 51
450.0000
  0
ARC
  8
0_00
  6
CONTINUOUS
 62
4
 10
1025.7288
 20
299.2123
 40
0.5000
 50
270.0000
 51
385.8040
  0
ARC
  8
0_00
  6
CONTINUOUS
 62
4
 10
1031.7050
 20
304.7284
 40
0.5000
 50
239.6101
 51
360.0000
  0
ARC
  8
0_00
  6
CONTINUOUS
 62
4
 10
1027.3550
 20
316.7623
 40
0.5000
 50
270.0000
 51
360.0000
  0
ARC
  8
0_00
  6
CONTINUOUS
 62
4
 10
1024.9549
 20
315.6624
 40
0.6000
 50
90.0000
 51
270.0000
  0
ARC
  8
0_00
  6
CONTINUOUS
 62
4
 10
1012.1111
 20
314.5623
 40
0.5000
 50
90.0000
 51
147.2286
  0
ARC
  8
0_00
  6
CONTINUOUS
 62
4
 10
1027.9988
 20
314.5623
 40
0.5000
 50
32.7714
 51
90.0000
  0
ARC
  8
0_00
  6
CONTINUOUS
 62
4
 10
1026.9609
 20
301.2398
 40
0.5000
 50
356.0875
 51
435.0000
  0
ARC
  8
0_00
  6
CONTINUOUS
 62
4
 10
1026.3236
 20
301.4105
 40
0.5000
 50
75.0000
 51
173.8499
  0
ARC
  8
0_00
  6
CONTINUOUS
 62
4
 10
1029.3775
 20
303.6563
 40
0.5000
 50
195.0000
 51
273.9125
  0
ARC
  8
0_00
  6
CONTINUOUS
 62
4
 10
1029.2068
 20
304.2936
 40
0.5000
 50
96.1501
 51
195.0000
  0
ARC
  8
0_00
  6
CONTINUOUS
 62
4
 10
1029.5549
 20
301.0623
 40
3.7500
 50
59.6100
 51
96.1501
  0
ARC
  8
0_00
  6
CONTINUOUS
 62
4
 10
1029.5549
 20
301.0623
 40
3.7500
 50
173.8499
 51
205.8040
  0
ARC
  8
0_00
  6
CONTINUOUS
 62
4
 10
1014.3811
 20
299.2123
 40
0.5000
 50
154.1960
 51
270.0000
  0
ARC
  8
0_00
  6
CONTINUOUS
 62
4
 10
1008.4049
 20
304.7284
 40
0.5000
 50
180.0000
 51
300.3900
  0
ARC
  8
0_00
  6
CONTINUOUS
 62
4
 10
1013.1488
 20
301.2398
 40
0.5000
 50
105.0000
 51
183.9125
  0
ARC
  8
0_00
  6
CONTINUOUS
 62
4
 10
1013.7863
 20
301.4105
 40
0.5000
 50
6.1501
 51
105.0000
  0
ARC
  8
0_00
  6
CONTINUOUS
 62
4
 10
1010.7323
 20
303.6563
 40
0.5000
 50
266.0875
 51
345.0000
  0
ARC
  8
0_00
  6
CONTINUOUS
 62
4
 10
1010.9030
 20
304.2936
 40
0.5000
 50
345.0000
 51
443.8499
  0
ARC
  8
0_00
  6
CONTINUOUS
 62
4
 10
1010.5550
 20
301.0623
 40
3.7500
 50
83.8499
 51
120.3899
  0
ARC
  8
0_00
  6
CONTINUOUS
 62
4
 10
1010.5550
 20
301.0623
 40
3.7500
 50
334.1960
 51
366.1501
  0
ARC
  8
0_00
  6
CONTINUOUS
 62
4
 10
1010.5550
 20
301.0623
 40
2.1000
 50
245.9248
 51
294.0752
  0
ARC
  8
0_00
  6
CONTINUOUS
 62
4
 10
1010.5550
 20
301.0623
 40
2.1000
 50
335.9248
 51
363.9125
  0
ARC
  8
0_00
  6
CONTINUOUS
 62
4
 10
1010.5550
 20
301.0623
 40
2.1000
 50
86.0875
 51
114.0752
  0
ARC
  8
0_00
  6
CONTINUOUS
 62
4
 10
1010.5550
 20
301.0623
 40
2.1000
 50
155.9248
 51
204.0752
  0
ARC
  8
0_00
  6
CONTINUOUS
 62
4
 10
1029.5549
 20
301.0623
 40
2.1000
 50
176.0875
 51
204.0752
  0
ARC
  8
0_00
  6
CONTINUOUS
 62
4
 10
1029.5549
 20
301.0623
 40
2.1000
 50
245.9248
 51
294.0752
  0
ARC
  8
0_00
  6
CONTINUOUS
 62
4
 10
1029.5549
 20
301.0623
 40
2.1000
 50
335.9248
 51
384.0752
  0
ARC
  8
0_00
  6
CONTINUOUS
 62
4
 10
1029.5549
 20
301.0623
 40
2.1000
 50
65.9248
 51
93.9125
  0
ARC
  8
0_00
  6
CONTINUOUS
 62
4
 10
1012.7549
 20
323.3623
 40
0.5000
 50
90.0000
 51
180.0000
  0
ARC
  8
0_00
  6
CONTINUOUS
 62
4
 10
1015.1549
 20
324.4623
 40
0.6000
 50
270.0000
 51
450.0000
  0
ARC
  8
0_00
  6
CONTINUOUS
 62
4
 10
1025.7288
 20
340.9123
 40
0.5000
 50
334.1960
 51
450.0000
  0
ARC
  8
0_00
  6
CONTINUOUS
 62
4
 10
1031.7050
 20
335.3963
 40
0.5000
 50
0.0000
 51
120.3899
  0
ARC
  8
0_00
  6
CONTINUOUS
 62
4
 10
1027.3550
 20
323.3623
 40
0.5000
 50
0.0000
 51
90.0000
  0
ARC
  8
0_00
  6
CONTINUOUS
 62
4
 10
1024.9549
 20
324.4623
 40
0.6000
 50
90.0000
 51
270.0000
  0
ARC
  8
0_00
  6
CONTINUOUS
 62
4
 10
1012.1111
 20
325.5623
 40
0.5000
 50
212.7714
 51
270.0000
  0
ARC
  8
0_00
  6
CONTINUOUS
 62
4
 10
1027.9988
 20
325.5623
 40
0.5000
 50
270.0000
 51
327.2286
  0
ARC
  8
0_00
  6
CONTINUOUS
 62
4
 10
1026.9609
 20
338.8849
 40
0.5000
 50
285.0000
 51
363.9125
  0
ARC
  8
0_00
  6
CONTINUOUS
 62
4
 10
1026.3236
 20
338.7141
 40
0.5000
 50
186.1501
 51
285.0000
  0
ARC
  8
0_00
  6
CONTINUOUS
 62
4
 10
1029.3775
 20
336.4684
 40
0.5000
 50
86.0875
 51
165.0000
  0
ARC
  8
0_00
  6
CONTINUOUS
 62
4
 10
1029.2068
 20
335.8310
 40
0.5000
 50
165.0000
 51
263.8499
  0
ARC
  8
0_00
  6
CONTINUOUS
 62
4
 10
1029.5549
 20
339.0623
 40
3.7500
 50
263.8499
 51
300.3900
  0
ARC
  8
0_00
  6
CONTINUOUS
 62
4
 10
1029.5549
 20
339.0623
 40
3.7500
 50
154.1960
 51
186.1501
  0
ARC
  8
0_00
  6
CONTINUOUS
 62
4
 10
1014.3811
 20
340.9123
 40
0.5000
 50
90.0000
 51
205.8040
  0
ARC
  8
0_00
  6
CONTINUOUS
 62
4
 10
1008.4049
 20
335.3963
 40
0.5000
 50
59.6100
 51
180.0000
  0
ARC
  8
0_00
  6
CONTINUOUS
 62
4
 10
1013.1488
 20
338.8849
 40
0.5000
 50
176.0875
 51
255.0000
  0
ARC
  8
0_00
  6
CONTINUOUS
 62
4
 10
1013.7863
 20
338.7141
 40
0.5000
 50
255.0000
 51
353.8499
  0
ARC
  8
0_00
  6
CONTINUOUS
 62
4
 10
1010.7323
 20
336.4684
 40
0.5000
 50
15.0000
 51
93.9125
  0
ARC
  8
0_00
  6
CONTINUOUS
 62
4
 10
1010.9030
 20
335.8310
 40
0.5000
 50
276.1501
 51
375.0000
  0
ARC
  8
0_00
  6
CONTINUOUS
 62
4
 10
1010.5550
 20
339.0623
 40
3.7500
 50
239.6101
 51
276.1501
  0
ARC
  8
0_00
  6
CONTINUOUS
 62
4
 10
1010.5550
 20
339.0623
 40
3.7500
 50
353.8499
 51
385.8040
  0
ARC
  8
0_00
  6
CONTINUOUS
 62
4
 10
1010.5550
 20
339.0623
 40
2.1000
 50
65.9248
 51
114.0752
  0
ARC
  8
0_00
  6
CONTINUOUS
 62
4
 10
1010.5550
 20
339.0623
 40
2.1000
 50
356.0875
 51
384.0752
  0
ARC
  8
0_00
  6
CONTINUOUS
 62
4
 10
1010.5550
 20
339.0623
 40
2.1000
 50
245.9248
 51
273.9125
  0
ARC
  8
0_00
  6
CONTINUOUS
 62
4
 10
1010.5550
 20
339.0623
 40
2.1000
 50
155.9248
 51
204.0752
  0
ARC
  8
0_00
  6
CONTINUOUS
 62
4
 10
1029.5549
 20
339.0623
 40
2.1000
 50
155.9248
 51
183.9125
  0
ARC
  8
0_00
  6
CONTINUOUS
 62
4
 10
1029.5549
 20
339.0623
 40
2.1000
 50
65.9248
 51
114.0752
  0
ARC
  8
0_00
  6
CONTINUOUS
 62
4
 10
1029.5549
 20
339.0623
 40
2.1000
 50
335.9248
 51
384.0752
  0
ARC
  8
0_00
  6
CONTINUOUS
 62
4
 10
1029.5549
 20
339.0623
 40
2.1000
 50
266.0875
 51
294.0752
  0
CIRCLE
  8
0_00
  6
CONTINUOUS
 62
2
 10
1010.5550
 20
301.0623
 40
2.5000
  0
CIRCLE
  8
0_00
  6
CONTINUOUS
 62
2
 10
1029.5549
 20
301.0623
 40
2.5000
  0
CIRCLE
  8
0_00
  6
CONTINUOUS
 62
2
 10
1029.5549
 20
339.0623
 40
2.5000
  0
CIRCLE
  8
0_00
  6
CONTINUOUS
 62
2
 10
1010.5550
 20
339.0623
 40
2.5000
  0
ARC
  8
0_00
  6
CONTINUOUS
 62
4
 10
341.7032
 20
460.8546
 40
2.0000
 50
0.0000
 51
90.0000
  0
ARC
  8
0_00
  6
CONTINUOUS
 62
4
 10
342.2032
 20
429.3546
 40
1.5000
 50
270.0000
 51
360.0000
  0
ARC
  8
0_00
  6
CONTINUOUS
 62
4
 10
341.5032
 20
428.1546
 40
0.3000
 50
180.0000
 51
270.0000
  0
ARC
  8
0_00
  6
CONTINUOUS
 62
4
 10
341.5032
 20
429.0546
 40
0.3000
 50
90.0000
 51
180.0000
  0
ARC
  8
0_00
  6
CONTINUOUS
 62
4
 10
335.4397
 20
460.8546
 40
0.5000
 50
90.0000
 51
165.0686
  0
ARC
  8
0_00
  6
CONTINUOUS
 62
4
 10
306.9666
 20
460.8546
 40
0.5000
 50
14.9314
 51
90.0000
  0
ARC
  8
0_00
  6
CONTINUOUS
 62
4
 10
341.9060
 20
461.0546
 40
0.3000
 50
0.5371
 51
90.0000
  0
ARC
  8
0_00
  6
CONTINUOUS
 62
4
 10
342.2004
 20
429.6546
 40
0.3000
 50
270.0000
 51
360.5371
  0
ARC
  8
0_00
  6
CONTINUOUS
 62
4
 10
300.7032
 20
460.8546
 40
2.0000
 50
90.0000
 51
180.0000
  0
ARC
  8
0_00
  6
CONTINUOUS
 62
4
 10
300.2032
 20
429.3546
 40
1.5000
 50
180.0000
 51
270.0000
  0
ARC
  8
0_00
  6
CONTINUOUS
 62
4
 10
300.9032
 20
428.1546
 40
0.3000
 50
270.0000
 51
360.0000
  0
ARC
  8
0_00
  6
CONTINUOUS
 62
4
 10
300.9032
 20
429.0546
 40
0.3000
 50
0.0000
 51
90.0000
  0
ARC
  8
0_00
  6
CONTINUOUS
 62
4
 10
300.5004
 20
461.0546
 40
0.3000
 50
90.0000
 51
179.4629
  0
ARC
  8
0_00
  6
CONTINUOUS
 62
4
 10
300.2060
 20
429.6546
 40
0.3000
 50
179.4629
 51
270.0000
  0
ARC
  8
12_0C
  6
CONTINUOUS
 62
2
 10
319.0032
 20
458.5846
 40
1.3000
 50
180.0000
 51
253.3778
  0
ARC
  8
12_0C
  6
CONTINUOUS
 62
2
 10
321.2032
 20
465.9546
 40
9.0000
 50
253.3790
 51
286.6667
  0
ARC
  8
12_0C
  6
CONTINUOUS
 62
2
 10
323.4032
 20
458.5846
 40
1.3000
 50
286.6222
 51
360.0000
  0
ARC
  8
12_0C
  6
CONTINUOUS
 62
2
 10
303.2032
 20
459.9941
 40
5.1605
 50
39.1846
 51
140.8154
  0
ARC
  8
3_03
  6
CONTINUOUS
 62
4
 10
234.2032
 20
327.7529
 40
3.0000
 50
88.0908
 51
180.0000
  0
ARC
  8
3_03
  6
CONTINUOUS
 62
4
 10
408.2032
 20
321.9529
 40
3.0000
 50
0.0000
 51
88.0908
  0
ARC
  8
3_03
  6
CONTINUOUS
 62
4
 10
234.2032
 20
268.8546
 40
3.0000
 50
180.0000
 51
270.0000
  0
ARC
  8
3_03
  6
CONTINUOUS
 62
4
 10
408.2032
 20
267.8546
 40
3.0000
 50
270.0000
 51
360.0000
  0
ARC
  8
3_03
  6
CONTINUOUS
 62
4
 10
234.2032
 20
268.8546
 40
1.4000
 50
180.0000
 51
268.6079
  0
ARC
  8
3_03
  6
CONTINUOUS
 62
4
 10
234.3032
 20
327.6495
 40
1.5000
 50
88.0908
 51
180.0000
  0
ARC
  8
3_03
  6
CONTINUOUS
 62
4
 10
408.1032
 20
321.8562
 40
1.5000
 50
0.0000
 51
88.0908
  0
ARC
  8
3_03
  6
CONTINUOUS
 62
4
 10
408.2032
 20
267.8546
 40
1.4000
 50
271.3922
 51
360.0000
  0
ARC
  8
3_03
  6
CONTINUOUS
 62
4
 10
237.9032
 20
266.8496
 40
0.8000
 50
270.0041
 51
450.0041
  0
ARC
  8
3_03
  6
CONTINUOUS
 62
4
 10
404.5031
 20
265.8496
 40
0.8000
 50
87.0000
 51
269.9959
  0
ARC
  8
3_03
  6
CONTINUOUS
 62
4
 10
234.2032
 20
269.0546
 40
1.5000
 50
180.0000
 51
270.0000
  0
ARC
  8
3_03
  6
CONTINUOUS
 62
4
 10
408.2032
 20
268.0546
 40
1.5000
 50
270.0000
 51
360.0000
  0
ARC
  8
3_03
  6
CONTINUOUS
 62
4
 10
401.2706
 20
307.3546
 40
0.5000
 50
8.2660
 51
90.0000
  0
ARC
  8
3_03
  6
CONTINUOUS
 62
4
 10
241.1342
 20
307.3546
 40
0.5000
 50
90.0000
 51
171.5318
  0
ARC
  8
3_03
  6
CONTINUOUS
 62
4
 10
244.1660
 20
323.0703
 40
2.0000
 50
88.0908
 51
162.9351
  0
ARC
  8
3_03
  6
CONTINUOUS
 62
4
 10
398.3034
 20
319.9335
 40
2.0000
 50
20.6902
 51
88.0908
  0
ARC
  8
3_03
  6
CONTINUOUS
 62
4
 10
376.0032
 20
311.6546
 40
0.5000
 50
180.0000
 51
270.0000
  0
ARC
  8
3_03
  6
CONTINUOUS
 62
4
 10
266.4032
 20
311.6546
 40
0.5000
 50
270.0000
 51
360.0000
  0
ARC
  8
3_03
  6
CONTINUOUS
 62
4
 10
246.7032
 20
326.6878
 40
0.3000
 50
88.0908
 51
180.0000
  0
ARC
  8
3_03
  6
CONTINUOUS
 62
4
 10
253.6032
 20
326.4578
 40
0.3000
 50
0.0000
 51
88.0908
  0
ARC
  8
3_03
  6
CONTINUOUS
 62
4
 10
388.8032
 20
321.9511
 40
0.3000
 50
88.0908
 51
180.0000
  0
ARC
  8
3_03
  6
CONTINUOUS
 62
4
 10
267.9032
 20
313.8546
 40
1.0000
 50
0.0000
 51
180.0000
  0
ARC
  8
3_03
  6
CONTINUOUS
 62
4
 10
374.5032
 20
313.8546
 40
1.0000
 50
0.0000
 51
180.0000
  0
ARC
  8
3_03
  6
CONTINUOUS
 62
4
 10
241.3940
 20
311.6546
 40
0.5000
 50
162.9351
 51
270.0000
  0
ARC
  8
3_03
  6
CONTINUOUS
 62
4
 10
245.0438
 20
321.8404
 40
1.0000
 50
88.0908
 51
162.9351
  0
ARC
  8
3_03
  6
CONTINUOUS
 62
4
 10
253.4032
 20
325.0637
 40
0.5000
 50
268.0909
 51
360.0000
  0
ARC
  8
3_03
  6
CONTINUOUS
 62
4
 10
249.1032
 20
324.2065
 40
0.5000
 50
88.0908
 51
180.0000
  0
ARC
  8
3_03
  6
CONTINUOUS
 62
4
 10
400.6819
 20
311.6546
 40
0.5000
 50
270.0000
 51
380.6902
  0
ARC
  8
3_03
  6
CONTINUOUS
 62
4
 10
397.4636
 20
318.7608
 40
1.0000
 50
20.6902
 51
88.0908
  0
ARC
  8
3_03
  6
CONTINUOUS
 62
4
 10
389.0032
 20
320.5437
 40
0.5000
 50
180.0000
 51
268.0909
  0
ARC
  8
0_00
  6
CONTINUOUS
 62
4
 10
267.4859
 20
341.1516
 40
2.0000
 50
88.0908
 51
173.6399
  0
ARC
  8
0_00
  6
CONTINUOUS
 62
4
 10
374.9058
 20
337.5709
 40
2.0000
 50
6.3135
 51
88.0908
  0
ARC
  8
0_00
  6
CONTINUOUS
 62
4
 10
317.2032
 20
328.9885
 40
1.0000
 50
88.0908
 51
180.0000
  0
ARC
  8
0_00
  6
CONTINUOUS
 62
4
 10
325.2032
 20
328.7219
 40
1.0000
 50
0.0000
 51
88.0908
  0
ARC
  8
0_00
  6
CONTINUOUS
 62
4
 10
284.0510
 20
348.6038
 40
6.0000
 50
268.0909
 51
351.5889
  0
ARC
  8
0_00
  6
CONTINUOUS
 62
4
 10
292.0662
 20
354.9546
 40
1.0000
 50
90.0000
 51
171.5889
  0
ARC
  8
0_00
  6
CONTINUOUS
 62
4
 10
358.5106
 20
346.1218
 40
6.0000
 50
187.2938
 51
268.0909
  0
ARC
  8
0_00
  6
CONTINUOUS
 62
4
 10
350.3230
 20
354.9546
 40
1.0000
 50
7.2938
 51
90.0000
  0
ARC
  8
0_00
  6
CONTINUOUS
 62
2
 10
269.2032
 20
289.8546
 40
8.0000
 50
90.0000
 51
180.0000
  0
ARC
  8
0_00
  6
CONTINUOUS
 62
2
 10
373.2032
 20
289.8546
 40
4.0000
 50
0.0000
 51
90.0000
  0
ARC
  8
0_00
  6
CONTINUOUS
 62
4
 10
373.2032
 20
289.8546
 40
8.0000
 50
0.0000
 51
90.0000
  0
CIRCLE
  8
0_00
  6
CONTINUOUS
 62
2
 10
384.9866
 20
305.4008
 40
0.1000
  0
CIRCLE
  8
0_00
  6
CONTINUOUS
 62
2
 10
386.4277
 20
302.7246
 40
0.1000
  0
CIRCLE
  8
0_00
  6
CONTINUOUS
 62
2
 10
389.0009
 20
300.8719
 40
0.1000
  0
CIRCLE
  8
0_00
  6
CONTINUOUS
 62
2
 10
382.7222
 20
298.5045
 40
0.1000
  0
CIRCLE
  8
0_00
  6
CONTINUOUS
 62
2
 10
381.5899
 20
302.7246
 40
0.1000
  0
CIRCLE
  8
0_00
  6
CONTINUOUS
 62
2
 10
376.5464
 20
300.3572
 40
0.1000
  0
CIRCLE
  8
0_00
  6
CONTINUOUS
 62
2
 10
379.8402
 20
299.0191
 40
0.1000
  0
CIRCLE
  8
0_00
  6
CONTINUOUS
 62
2
 10
385.6042
 20
295.7255
 40
0.1000
  0
CIRCLE
  8
0_00
  6
CONTINUOUS
 62
2
 10
382.2076
 20
295.6225
 40
0.1000
  0
CIRCLE
  8
0_00
  6
CONTINUOUS
 62
2
 10
391.8829
 20
297.0635
 40
0.1000
  0
CIRCLE
  8
0_00
  6
CONTINUOUS
 62
2
 10
392.8092
 20
298.9162
 40
0.1000
  0
CIRCLE
  8
0_00
  6
CONTINUOUS
 62
2
 10
395.6913
 20
294.6962
 40
0.1000
  0
CIRCLE
  8
0_00
  6
CONTINUOUS
 62
2
 10
374.8560
 20
305.2074
 40
0.1000
  0
CIRCLE
  8
0_00
  6
CONTINUOUS
 62
2
 10
373.1272
 20
302.3672
 40
0.1000
  0
CIRCLE
  8
0_00
  6
CONTINUOUS
 62
2
 10
379.5484
 20
304.9604
 40
0.1000
  0
CIRCLE
  8
0_00
  6
CONTINUOUS
 62
2
 10
367.8173
 20
300.8854
 40
0.1000
  0
CIRCLE
  8
0_00
  6
CONTINUOUS
 62
2
 10
368.5583
 20
304.4665
 40
0.1000
  0
CIRCLE
  8
0_00
  6
CONTINUOUS
 62
2
 10
358.9264
 20
304.3430
 40
0.1000
  0
CIRCLE
  8
0_00
  6
CONTINUOUS
 62
2
 10
359.5438
 20
301.5028
 40
0.1000
  0
CIRCLE
  8
0_00
  6
CONTINUOUS
 62
2
 10
364.7302
 20
303.7256
 40
0.1000
  0
CIRCLE
  8
0_00
  6
CONTINUOUS
 62
2
 10
363.2484
 20
300.8854
 40
0.1000
  0
CIRCLE
  8
0_00
  6
CONTINUOUS
 62
2
 10
371.5219
 20
299.8975
 40
0.1000
  0
CIRCLE
  8
0_00
  6
CONTINUOUS
 62
2
 10
352.6287
 20
299.1566
 40
0.1000
  0
CIRCLE
  8
0_00
  6
CONTINUOUS
 62
2
 10
355.2219
 20
302.1202
 40
0.1000
  0
CIRCLE
  8
0_00
  6
CONTINUOUS
 62
2
 10
352.2582
 20
304.2195
 40
0.1000
  0
CIRCLE
  8
0_00
  6
CONTINUOUS
 62
2
 10
347.0719
 20
302.8612
 40
0.1000
  0
CIRCLE
  8
0_00
  6
CONTINUOUS
 62
2
 10
346.0840
 20
300.0210
 40
0.1000
  0
CIRCLE
  8
0_00
  6
CONTINUOUS
 62
2
 10
351.7643
 20
301.6263
 40
0.1000
  0
CIRCLE
  8
0_00
  6
CONTINUOUS
 62
2
 10
346.5779
 20
305.5778
 40
0.1000
  0
CIRCLE
  8
0_00
  6
CONTINUOUS
 62
2
 10
339.5393
 20
303.9725
 40
0.1000
  0
CIRCLE
  8
0_00
  6
CONTINUOUS
 62
2
 10
338.5514
 20
301.5028
 40
0.1000
  0
CIRCLE
  8
0_00
  6
CONTINUOUS
 62
2
 10
343.9848
 20
302.6142
 40
0.1000
  0
CIRCLE
  8
0_00
  6
CONTINUOUS
 62
2
 10
340.8976
 20
300.2680
 40
0.1000
  0
CIRCLE
  8
0_00
  6
CONTINUOUS
 62
2
 10
332.1302
 20
300.2680
 40
0.1000
  0
CIRCLE
  8
0_00
  6
CONTINUOUS
 62
2
 10
333.9825
 20
302.7377
 40
0.1000
  0
CIRCLE
  8
0_00
  6
CONTINUOUS
 62
2
 10
333.4885
 20
305.0839
 40
0.1000
  0
CIRCLE
  8
0_00
  6
CONTINUOUS
 62
2
 10
327.0674
 20
304.2195
 40
0.1000
  0
CIRCLE
  8
0_00
  6
CONTINUOUS
 62
2
 10
327.3143
 20
301.9968
 40
0.1000
  0
CIRCLE
  8
0_00
  6
CONTINUOUS
 62
2
 10
322.7454
 20
300.6384
 40
0.1000
  0
CIRCLE
  8
0_00
  6
CONTINUOUS
 62
2
 10
322.0044
 20
303.2316
 40
0.1000
  0
CIRCLE
  8
0_00
  6
CONTINUOUS
 62
2
 10
317.1886
 20
306.3187
 40
0.1000
  0
CIRCLE
  8
0_00
  6
CONTINUOUS
 62
2
 10
315.8302
 20
302.8612
 40
0.1000
  0
CIRCLE
  8
0_00
  6
CONTINUOUS
 62
2
 10
312.4961
 20
301.8733
 40
0.1000
  0
CIRCLE
  8
0_00
  6
CONTINUOUS
 62
2
 10
317.1886
 20
300.0210
 40
0.1000
  0
CIRCLE
  8
0_00
  6
CONTINUOUS
 62
2
 10
305.3340
 20
300.0210
 40
0.1000
  0
CIRCLE
  8
0_00
  6
CONTINUOUS
 62
2
 10
309.7795
 20
304.7134
 40
0.1000
  0
CIRCLE
  8
0_00
  6
CONTINUOUS
 62
2
 10
310.2734
 20
301.3793
 40
0.1000
  0
CIRCLE
  8
0_00
  6
CONTINUOUS
 62
2
 10
304.5931
 20
304.4665
 40
0.1000
  0
CIRCLE
  8
0_00
  6
CONTINUOUS
 62
2
 10
299.9007
 20
301.9968
 40
0.1000
  0
CIRCLE
  8
0_00
  6
CONTINUOUS
 62
2
 10
298.4188
 20
305.5778
 40
0.1000
  0
CIRCLE
  8
0_00
  6
CONTINUOUS
 62
2
 10
314.5954
 20
306.1953
 40
0.1000
  0
CIRCLE
  8
0_00
  6
CONTINUOUS
 62
2
 10
292.3391
 20
304.5386
 40
0.1000
  0
CIRCLE
  8
0_00
  6
CONTINUOUS
 62
2
 10
289.8142
 20
301.1720
 40
0.1000
  0
CIRCLE
  8
0_00
  6
CONTINUOUS
 62
2
 10
294.5274
 20
300.3304
 40
0.1000
  0
CIRCLE
  8
0_00
  6
CONTINUOUS
 62
2
 10
282.4078
 20
299.9938
 40
0.1000
  0
CIRCLE
  8
0_00
  6
CONTINUOUS
 62
2
 10
283.5861
 20
303.8653
 40
0.1000
  0
CIRCLE
  8
0_00
  6
CONTINUOUS
 62
2
 10
275.5064
 20
304.0336
 40
0.1000
  0
CIRCLE
  8
0_00
  6
CONTINUOUS
 62
2
 10
271.1299
 20
300.6671
 40
0.1000
  0
CIRCLE
  8
0_00
  6
CONTINUOUS
 62
2
 10
278.3680
 20
300.1621
 40
0.1000
  0
CIRCLE
  8
0_00
  6
CONTINUOUS
 62
2
 10
270.4566
 20
304.7069
 40
0.1000
  0
CIRCLE
  8
0_00
  6
CONTINUOUS
 62
2
 10
267.4267
 20
302.5186
 40
0.1000
  0
CIRCLE
  8
0_00
  6
CONTINUOUS
 62
2
 10
264.7335
 20
299.9938
 40
0.1000
  0
CIRCLE
  8
0_00
  6
CONTINUOUS
 62
2
 10
260.1887
 20
306.7268
 40
0.1000
  0
CIRCLE
  8
0_00
  6
CONTINUOUS
 62
2
 10
258.5054
 20
302.3503
 40
0.1000
  0
CIRCLE
  8
0_00
  6
CONTINUOUS
 62
2
 10
265.0702
 20
303.6969
 40
0.1000
  0
CIRCLE
  8
0_00
  6
CONTINUOUS
 62
2
 10
252.9506
 20
298.1421
 40
0.1000
  0
CIRCLE
  8
0_00
  6
CONTINUOUS
 62
2
 10
254.8022
 20
300.3304
 40
0.1000
  0
CIRCLE
  8
0_00
  6
CONTINUOUS
 62
2
 10
258.1687
 20
296.9639
 40
0.1000
  0
CIRCLE
  8
0_00
  6
CONTINUOUS
 62
2
 10
260.8620
 20
298.1421
 40
0.1000
  0
CIRCLE
  8
0_00
  6
CONTINUOUS
 62
2
 10
257.3271
 20
292.5873
 40
0.1000
  0
CIRCLE
  8
0_00
  6
CONTINUOUS
 62
2
 10
250.9307
 20
294.6073
 40
0.1000
  0
CIRCLE
  8
0_00
  6
CONTINUOUS
 62
2
 10
248.9108
 20
296.2906
 40
0.1000
  0
CIRCLE
  8
0_00
  6
CONTINUOUS
 62
2
 10
249.0791
 20
287.3692
 40
0.1000
  0
CIRCLE
  8
0_00
  6
CONTINUOUS
 62
2
 10
256.6538
 20
285.6860
 40
0.1000
  0
CIRCLE
  8
0_00
  6
CONTINUOUS
 62
2
 10
253.6239
 20
290.2308
 40
0.1000
  0
CIRCLE
  8
0_00
  6
CONTINUOUS
 62
2
 10
251.9407
 20
285.1810
 40
0.1000
  0
CIRCLE
  8
0_00
  6
CONTINUOUS
 62
2
 10
248.5741
 20
280.4678
 40
0.1000
  0
CIRCLE
  8
0_00
  6
CONTINUOUS
 62
2
 10
255.6438
 20
277.7746
 40
0.1000
  0
CIRCLE
  8
0_00
  6
CONTINUOUS
 62
2
 10
256.8221
 20
281.3094
 40
0.1000
  0
CIRCLE
  8
0_00
  6
CONTINUOUS
 62
2
 10
252.9506
 20
280.6362
 40
0.1000
  0
CIRCLE
  8
0_00
  6
CONTINUOUS
 62
2
 10
249.9207
 20
272.2198
 40
0.1000
  0
CIRCLE
  8
0_00
  6
CONTINUOUS
 62
2
 10
259.5154
 20
285.0126
 40
0.1000
  0
CIRCLE
  8
0_00
  6
CONTINUOUS
 62
2
 10
257.4954
 20
275.4180
 40
0.1000
  0
CIRCLE
  8
0_00
  6
CONTINUOUS
 62
2
 10
257.1588
 20
267.5067
 40
0.1000
  0
CIRCLE
  8
0_00
  6
CONTINUOUS
 62
2
 10
253.2873
 20
275.2497
 40
0.1000
  0
CIRCLE
  8
0_00
  6
CONTINUOUS
 62
2
 10
250.2574
 20
267.1700
 40
0.1000
  0
CIRCLE
  8
0_00
  6
CONTINUOUS
 62
2
 10
252.7823
 20
268.3483
 40
0.1000
  0
CIRCLE
  8
0_00
  6
CONTINUOUS
 62
2
 10
253.4556
 20
261.2786
 40
0.1000
  0
CIRCLE
  8
0_00
  6
CONTINUOUS
 62
2
 10
259.5154
 20
265.3184
 40
0.1000
  0
CIRCLE
  8
0_00
  6
CONTINUOUS
 62
2
 10
259.0104
 20
270.7049
 40
0.1000
  0
CIRCLE
  8
0_00
  6
CONTINUOUS
 62
2
 10
257.6638
 20
257.9120
 40
0.1000
  0
CIRCLE
  8
0_00
  6
CONTINUOUS
 62
2
 10
250.5940
 20
259.4269
 40
0.1000
  0
CIRCLE
  8
0_00
  6
CONTINUOUS
 62
2
 10
249.4157
 20
255.0505
 40
0.1000
  0
CIRCLE
  8
0_00
  6
CONTINUOUS
 62
2
 10
253.7922
 20
252.1889
 40
0.1000
  0
CIRCLE
  8
0_00
  6
CONTINUOUS
 62
2
 10
254.3623
 20
255.9447
 40
0.1000
  0
CIRCLE
  8
0_00
  6
CONTINUOUS
 62
2
 10
256.7346
 20
249.8047
 40
0.1000
  0
CIRCLE
  8
0_00
  6
CONTINUOUS
 62
2
 10
254.6414
 20
244.0833
 40
0.1000
  0
CIRCLE
  8
0_00
  6
CONTINUOUS
 62
2
 10
258.6882
 20
246.7346
 40
0.1000
  0
CIRCLE
  8
0_00
  6
CONTINUOUS
 62
2
 10
250.1759
 20
245.4787
 40
0.1000
  0
CIRCLE
  8
0_00
  6
CONTINUOUS
 62
2
 10
249.8968
 20
248.8279
 40
0.1000
  0
CIRCLE
  8
0_00
  6
CONTINUOUS
 62
2
 10
393.3273
 20
287.3692
 40
0.1000
  0
CIRCLE
  8
0_00
  6
CONTINUOUS
 62
2
 10
385.7526
 20
285.6860
 40
0.1000
  0
CIRCLE
  8
0_00
  6
CONTINUOUS
 62
2
 10
390.4657
 20
285.1810
 40
0.1000
  0
CIRCLE
  8
0_00
  6
CONTINUOUS
 62
2
 10
393.8322
 20
280.4678
 40
0.1000
  0
CIRCLE
  8
0_00
  6
CONTINUOUS
 62
2
 10
386.7625
 20
277.7746
 40
0.1000
  0
CIRCLE
  8
0_00
  6
CONTINUOUS
 62
2
 10
385.5842
 20
281.3094
 40
0.1000
  0
CIRCLE
  8
0_00
  6
CONTINUOUS
 62
2
 10
389.4558
 20
280.6362
 40
0.1000
  0
CIRCLE
  8
0_00
  6
CONTINUOUS
 62
2
 10
392.4857
 20
272.2198
 40
0.1000
  0
CIRCLE
  8
0_00
  6
CONTINUOUS
 62
2
 10
382.8910
 20
285.0126
 40
0.1000
  0
CIRCLE
  8
0_00
  6
CONTINUOUS
 62
2
 10
384.9109
 20
275.4180
 40
0.1000
  0
CIRCLE
  8
0_00
  6
CONTINUOUS
 62
2
 10
385.2475
 20
267.5067
 40
0.1000
  0
CIRCLE
  8
0_00
  6
CONTINUOUS
 62
2
 10
389.1191
 20
275.2497
 40
0.1000
  0
CIRCLE
  8
0_00
  6
CONTINUOUS
 62
2
 10
392.1490
 20
267.1700
 40
0.1000
  0
CIRCLE
  8
0_00
  6
CONTINUOUS
 62
2
 10
389.6241
 20
268.3483
 40
0.1000
  0
CIRCLE
  8
0_00
  6
CONTINUOUS
 62
2
 10
388.9508
 20
261.2786
 40
0.1000
  0
CIRCLE
  8
0_00
  6
CONTINUOUS
 62
2
 10
382.8910
 20
265.3184
 40
0.1000
  0
CIRCLE
  8
0_00
  6
CONTINUOUS
 62
2
 10
383.3960
 20
270.7049
 40
0.1000
  0
CIRCLE
  8
0_00
  6
CONTINUOUS
 62
2
 10
384.7426
 20
257.9120
 40
0.1000
  0
CIRCLE
  8
0_00
  6
CONTINUOUS
 62
2
 10
391.8123
 20
259.4269
 40
0.1000
  0
CIRCLE
  8
0_00
  6
CONTINUOUS
 62
2
 10
392.9906
 20
255.0505
 40
0.1000
  0
CIRCLE
  8
0_00
  6
CONTINUOUS
 62
2
 10
388.6141
 20
252.1889
 40
0.1000
  0
CIRCLE
  8
0_00
  6
CONTINUOUS
 62
2
 10
388.0440
 20
255.9447
 40
0.1000
  0
CIRCLE
  8
0_00
  6
CONTINUOUS
 62
2
 10
385.6717
 20
249.8047
 40
0.1000
  0
CIRCLE
  8
0_00
  6
CONTINUOUS
 62
2
 10
387.7649
 20
244.0833
 40
0.1000
  0
CIRCLE
  8
0_00
  6
CONTINUOUS
 62
2
 10
383.7181
 20
246.7346
 40
0.1000
  0
CIRCLE
  8
0_00
  6
CONTINUOUS
 62
2
 10
392.2304
 20
245.4787
 40
0.1000
  0
CIRCLE
  8
0_00
  6
CONTINUOUS
 62
2
 10
392.5095
 20
248.8279
 40
0.1000
  0
CIRCLE
  8
0_00
  6
CONTINUOUS
 62
2
 10
385.9503
 20
292.6482
 40
0.1000
  0
CIRCLE
  8
0_00
  6
CONTINUOUS
 62
2
 10
384.9613
 20
288.7541
 40
0.1000
  0
CIRCLE
  8
0_00
  6
CONTINUOUS
 62
2
 10
390.8334
 20
291.8447
 40
0.1000
  0
CIRCLE
  8
0_00
  6
CONTINUOUS
 62
2
 10
389.4117
 20
288.8777
 40
0.1000
  0
CIRCLE
  8
0_00
  6
CONTINUOUS
 62
2
 10
393.4295
 20
293.7609
 40
0.1000
  0
CIRCLE
  8
0_00
  6
CONTINUOUS
 62
2
 10
386.8775
 20
298.5204
 40
0.1000
  0
ARC
  8
0_00
  6
CONTINUOUS
 62
4
 10
1003.0550
 20
273.0623
 40
10.0000
 50
180.0000
 51
270.0000
  0
ARC
  8
0_00
  6
CONTINUOUS
 62
4
 10
1037.0550
 20
273.0623
 40
10.0000
 50
270.0000
 51
360.0000
  0
ARC
  8
0_00
  6
CONTINUOUS
 62
4
 10
1003.0959
 20
273.0623
 40
8.5000
 50
180.0000
 51
270.0000
  0
ARC
  8
0_00
  6
CONTINUOUS
 62
4
 10
1037.0139
 20
273.0623
 40
8.5000
 50
270.0000
 51
360.0000
  0
ARC
  8
0_00
  6
CONTINUOUS
 62
4
 10
1030.0550
 20
272.5623
 40
6.0000
 50
270.0000
 51
360.0000
  0
ARC
  8
0_00
  6
CONTINUOUS
 62
4
 10
1030.0550
 20
277.5623
 40
6.0000
 50
0.0000
 51
90.0000
  0
ARC
  8
0_00
  6
CONTINUOUS
 62
4
 10
1010.0549
 20
277.5623
 40
6.0000
 50
90.0000
 51
180.0000
  0
ARC
  8
0_00
  6
CONTINUOUS
 62
4
 10
1010.0549
 20
272.5623
 40
6.0000
 50
180.0000
 51
270.0000
  0
ARC
  8
0_00
  6
CONTINUOUS
 62
4
 10
1030.0550
 20
272.5623
 40
5.4500
 50
270.0000
 51
360.0000
  0
ARC
  8
0_00
  6
CONTINUOUS
 62
4
 10
1010.0549
 20
272.5623
 40
5.4500
 50
180.0000
 51
270.0000
  0
ARC
  8
0_00
  6
CONTINUOUS
 62
4
 10
1030.0550
 20
277.5623
 40
5.4500
 50
0.0000
 51
90.0000
  0
ARC
  8
0_00
  6
CONTINUOUS
 62
4
 10
1010.0549
 20
277.5623
 40
5.4500
 50
90.0000
 51
180.0000
  0
ARC
  8
0_00
  6
CONTINUOUS
 62
4
 10
1003.0550
 20
367.0623
 40
10.0000
 50
90.0000
 51
180.0000
  0
ARC
  8
0_00
  6
CONTINUOUS
 62
4
 10
1037.0550
 20
367.0623
 40
10.0000
 50
0.0000
 51
90.0000
  0
ARC
  8
0_00
  6
CONTINUOUS
 62
4
 10
1003.0959
 20
367.0623
 40
8.5000
 50
90.0000
 51
180.0000
  0
ARC
  8
0_00
  6
CONTINUOUS
 62
4
 10
1037.0139
 20
367.0623
 40
8.5000
 50
0.0000
 51
90.0000
  0
ARC
  8
0_00
  6
CONTINUOUS
 62
4
 10
1030.0550
 20
367.5623
 40
6.0000
 50
0.0000
 51
90.0000
  0
ARC
  8
0_00
  6
CONTINUOUS
 62
4
 10
1030.0550
 20
362.5623
 40
6.0000
 50
270.0000
 51
360.0000
  0
ARC
  8
0_00
  6
CONTINUOUS
 62
4
 10
1010.0549
 20
362.5623
 40
6.0000
 50
180.0000
 51
270.0000
  0
ARC
  8
0_00
  6
CONTINUOUS
 62
4
 10
1010.0549
 20
367.5623
 40
6.0000
 50
90.0000
 51
180.0000
  0
ARC
  8
0_00
  6
CONTINUOUS
 62
4
 10
1030.0550
 20
362.5623
 40
5.4500
 50
270.0000
 51
360.0000
  0
ARC
  8
0_00
  6
CONTINUOUS
 62
4
 10
1010.0549
 20
362.5623
 40
5.4500
 50
180.0000
 51
270.0000
  0
ARC
  8
0_00
  6
CONTINUOUS
 62
4
 10
1030.0550
 20
367.5623
 40
5.4500
 50
0.0000
 51
90.0000
  0
ARC
  8
0_00
  6
CONTINUOUS
 62
4
 10
1010.0549
 20
367.5623
 40
5.4500
 50
90.0000
 51
180.0000
  0
ARC
  8
0_00
  6
CONTINUOUS
 62
4
 10
1037.0550
 20
296.8123
 40
7.0000
 50
270.0000
 51
360.0000
  0
ARC
  8
0_00
  6
CONTINUOUS
 62
4
 10
1036.5139
 20
297.0623
 40
9.0000
 50
270.0000
 51
360.0000
  0
ARC
  8
0_00
  6
CONTINUOUS
 62
4
 10
1003.0550
 20
296.8123
 40
7.0000
 50
180.0000
 51
270.0000
  0
ARC
  8
0_00
  6
CONTINUOUS
 62
4
 10
1003.5958
 20
297.0623
 40
9.0000
 50
180.0000
 51
270.0000
  0
ARC
  8
0_00
  6
CONTINUOUS
 62
4
 10
1037.0550
 20
343.3123
 40
7.0000
 50
0.0000
 51
90.0000
  0
ARC
  8
0_00
  6
CONTINUOUS
 62
4
 10
1036.5139
 20
343.0623
 40
9.0000
 50
0.0000
 51
90.0000
  0
ARC
  8
0_00
  6
CONTINUOUS
 62
4
 10
1003.0550
 20
343.3123
 40
7.0000
 50
90.0000
 51
180.0000
  0
ARC
  8
0_00
  6
CONTINUOUS
 62
4
 10
1003.5958
 20
343.0623
 40
9.0000
 50
90.0000
 51
180.0000
  0
ARC
  8
0_00
  6
CONTINUOUS
 62
4
 10
1022.2397
 20
289.2493
 40
0.0652
 50
282.2655
 51
437.7345
  0
ARC
  8
0_00
  6
CONTINUOUS
 62
4
 10
1020.0549
 20
279.1999
 40
10.3494
 50
77.7345
 51
102.2655
  0
ARC
  8
0_00
  6
CONTINUOUS
 62
4
 10
1017.8701
 20
289.2493
 40
0.0652
 50
102.2655
 51
257.7346
  0
ARC
  8
0_00
  6
CONTINUOUS
 62
4
 10
1020.0549
 20
299.2988
 40
10.3494
 50
257.7346
 51
259.5651
  0
ARC
  8
0_00
  6
CONTINUOUS
 62
4
 10
1020.0549
 20
299.2988
 40
10.3494
 50
280.4350
 51
282.2655
  0
ARC
  8
12_0C
  6
CONTINUOUS
 62
2
 10
1020.0549
 20
291.3728
 40
5.1605
 50
219.1846
 51
320.8154
  0
ARC
  8
12_0C
  6
CONTINUOUS
 62
2
 10
1020.0549
 20
348.7518
 40
5.1605
 50
39.1846
 51
140.8154
  0
ARC
  8
0_00
  6
CONTINUOUS
 62
4
 10
1037.0550
 20
342.0623
 40
4.0000
 50
7.1808
 51
90.0000
  0
ARC
  8
0_00
  6
CONTINUOUS
 62
4
 10
1037.0550
 20
298.0623
 40
4.0000
 50
270.0000
 51
352.8192
  0
ARC
  8
0_00
  6
CONTINUOUS
 62
4
 10
1003.0550
 20
298.0623
 40
4.0000
 50
187.1808
 51
270.0000
  0
ARC
  8
0_00
  6
CONTINUOUS
 62
4
 10
1003.0550
 20
342.0623
 40
4.0000
 50
90.0000
 51
172.8192
  0
CIRCLE
  8
0_00
  6
CONTINUOUS
 62
4
 10
702.5549
 20
320.0623
 40
4.2500
  0
CIRCLE
  8
0_00
  6
CONTINUOUS
 62
4
 10
617.5549
 20
320.0623
 40
4.2500
  0
CIRCLE
  8
0_00
  6
CONTINUOUS
 62
2
 10
680.5549
 20
348.0623
 40
7.0000
  0
ARC
  8
0_00
  6
CONTINUOUS
 62
2
 10
680.5549
 20
348.0623
 40
3.1000
 50
45.0000
 51
58.5444
  0
ARC
  8
0_00
  6
CONTINUOUS
 62
2
 10
680.5549
 20
348.0623
 40
3.1000
 50
121.3667
 51
135.0000
  0
ARC
  8
0_00
  6
CONTINUOUS
 62
2
 10
680.5549
 20
348.0623
 40
3.1000
 50
211.4556
 51
225.0000
  0
ARC
  8
0_00
  6
CONTINUOUS
 62
2
 10
680.5549
 20
348.0623
 40
3.1000
 50
135.0000
 51
148.6333
  0
ARC
  8
0_00
  6
CONTINUOUS
 62
2
 10
680.5549
 20
348.0623
 40
3.1000
 50
31.4556
 51
45.0000
  0
ARC
  8
0_00
  6
CONTINUOUS
 62
2
 10
680.5549
 20
348.0623
 40
3.1000
 50
315.0000
 51
328.6334
  0
ARC
  8
0_00
  6
CONTINUOUS
 62
2
 10
680.5549
 20
348.0623
 40
3.1000
 50
225.0000
 51
238.5444
  0
ARC
  8
0_00
  6
CONTINUOUS
 62
2
 10
680.5549
 20
348.0623
 40
3.1000
 50
301.3667
 51
315.0000
  0
CIRCLE
  8
0_00
  6
CONTINUOUS
 62
2
 10
639.5549
 20
348.0623
 40
7.0000
  0
ARC
  8
0_00
  6
CONTINUOUS
 62
2
 10
639.5549
 20
348.0623
 40
3.1000
 50
45.0000
 51
58.5444
  0
ARC
  8
0_00
  6
CONTINUOUS
 62
2
 10
639.5549
 20
348.0623
 40
3.1000
 50
121.3667
 51
135.0000
  0
ARC
  8
0_00
  6
CONTINUOUS
 62
2
 10
639.5549
 20
348.0623
 40
3.1000
 50
211.4556
 51
225.0000
  0
ARC
  8
0_00
  6
CONTINUOUS
 62
2
 10
639.5549
 20
348.0623
 40
3.1000
 50
135.0000
 51
148.6333
  0
ARC
  8
0_00
  6
CONTINUOUS
 62
2
 10
639.5549
 20
348.0623
 40
3.1000
 50
31.4556
 51
45.0000
  0
ARC
  8
0_00
  6
CONTINUOUS
 62
2
 10
639.5549
 20
348.0623
 40
3.1000
 50
315.0000
 51
328.6334
  0
ARC
  8
0_00
  6
CONTINUOUS
 62
2
 10
639.5549
 20
348.0623
 40
3.1000
 50
225.0000
 51
238.5444
  0
ARC
  8
0_00
  6
CONTINUOUS
 62
2
 10
639.5549
 20
348.0623
 40
3.1000
 50
301.3667
 51
315.0000
  0
CIRCLE
  8
0_00
  6
CONTINUOUS
 62
4
 10
682.0549
 20
320.0623
 40
4.2500
  0
CIRCLE
  8
0_00
  6
CONTINUOUS
 62
4
 10
638.0549
 20
320.0623
 40
4.2500
  0
CIRCLE
  8
0_00
  6
CONTINUOUS
 62
2
 10
680.5549
 20
292.0623
 40
7.0000
  0
ARC
  8
0_00
  6
CONTINUOUS
 62
2
 10
680.5549
 20
292.0623
 40
3.1000
 50
301.4556
 51
315.0000
  0
ARC
  8
0_00
  6
CONTINUOUS
 62
2
 10
680.5549
 20
292.0623
 40
3.1000
 50
225.0000
 51
238.6333
  0
ARC
  8
0_00
  6
CONTINUOUS
 62
2
 10
680.5549
 20
292.0623
 40
3.1000
 50
135.0000
 51
148.5444
  0
ARC
  8
0_00
  6
CONTINUOUS
 62
2
 10
680.5549
 20
292.0623
 40
3.1000
 50
211.3667
 51
225.0000
  0
ARC
  8
0_00
  6
CONTINUOUS
 62
2
 10
680.5549
 20
292.0623
 40
3.1000
 50
315.0000
 51
328.5444
  0
ARC
  8
0_00
  6
CONTINUOUS
 62
2
 10
680.5549
 20
292.0623
 40
3.1000
 50
31.3667
 51
45.0000
  0
ARC
  8
0_00
  6
CONTINUOUS
 62
2
 10
680.5549
 20
292.0623
 40
3.1000
 50
121.4556
 51
135.0000
  0
ARC
  8
0_00
  6
CONTINUOUS
 62
2
 10
680.5549
 20
292.0623
 40
3.1000
 50
45.0000
 51
58.6333
  0
CIRCLE
  8
0_00
  6
CONTINUOUS
 62
2
 10
639.5549
 20
292.0623
 40
7.0000
  0
ARC
  8
0_00
  6
CONTINUOUS
 62
2
 10
639.5549
 20
292.0623
 40
3.1000
 50
301.4556
 51
315.0000
  0
ARC
  8
0_00
  6
CONTINUOUS
 62
2
 10
639.5549
 20
292.0623
 40
3.1000
 50
225.0000
 51
238.6333
  0
ARC
  8
0_00
  6
CONTINUOUS
 62
2
 10
639.5549
 20
292.0623
 40
3.1000
 50
135.0000
 51
148.5444
  0
ARC
  8
0_00
  6
CONTINUOUS
 62
2
 10
639.5549
 20
292.0623
 40
3.1000
 50
211.3667
 51
225.0000
  0
ARC
  8
0_00
  6
CONTINUOUS
 62
2
 10
639.5549
 20
292.0623
 40
3.1000
 50
315.0000
 51
328.5444
  0
ARC
  8
0_00
  6
CONTINUOUS
 62
2
 10
639.5549
 20
292.0623
 40
3.1000
 50
31.3667
 51
45.0000
  0
ARC
  8
0_00
  6
CONTINUOUS
 62
2
 10
639.5549
 20
292.0623
 40
3.1000
 50
121.4556
 51
135.0000
  0
ARC
  8
0_00
  6
CONTINUOUS
 62
2
 10
639.5549
 20
292.0623
 40
3.1000
 50
45.0000
 51
58.6333
  0
ARC
  8
11_0B
  6
DASHED
 62
2
 10
288.7914
 20
290.7116
 40
0.4000
 50
175.0000
 51
255.0000
  0
ARC
  8
11_0B
  6
DASHED
 62
2
 10
288.3556
 20
285.7307
 40
0.4000
 50
175.0000
 51
255.0000
  0
ARC
  8
11_0B
  6
DASHED
 62
2
 10
287.9199
 20
280.7497
 40
0.4000
 50
175.0000
 51
255.0000
  0
ARC
  8
11_0B
  6
DASHED
 62
2
 10
287.4841
 20
275.7687
 40
0.4000
 50
175.0000
 51
255.0000
  0
ARC
  8
11_0B
  6
DASHED
 62
2
 10
287.2657
 20
270.9775
 40
0.6000
 50
175.0000
 51
205.0000
  0
ARC
  8
11_0B
  6
DASHED
 62
2
 10
297.6149
 20
290.7116
 40
0.4000
 50
285.0000
 51
365.0000
  0
ARC
  8
11_0B
  6
DASHED
 62
2
 10
298.0507
 20
285.7307
 40
0.4000
 50
285.0000
 51
365.0000
  0
ARC
  8
11_0B
  6
DASHED
 62
2
 10
298.4865
 20
280.7497
 40
0.4000
 50
285.0000
 51
365.0000
  0
ARC
  8
11_0B
  6
DASHED
 62
2
 10
298.9223
 20
275.7687
 40
0.4000
 50
285.0000
 51
365.0000
  0
ARC
  8
11_0B
  6
DASHED
 62
2
 10
299.1407
 20
270.9775
 40
0.6000
 50
335.0000
 51
365.0000
  0
ARC
  8
11_0B
  6
DASHED
 62
2
 10
289.0373
 20
272.8695
 40
0.2000
 50
265.0000
 51
355.0000
  0
ARC
  8
11_0B
  6
DASHED
 62
2
 10
297.3690
 20
272.8695
 40
0.2000
 50
185.0000
 51
275.0000
  0
ARC
  8
11_0B
  6
DASHED
 62
2
 10
289.4731
 20
277.8505
 40
0.2000
 50
265.0000
 51
355.0000
  0
ARC
  8
11_0B
  6
DASHED
 62
2
 10
296.9333
 20
277.8505
 40
0.2000
 50
185.0000
 51
275.0000
  0
ARC
  8
11_0B
  6
DASHED
 62
2
 10
289.9089
 20
282.8315
 40
0.2000
 50
265.0000
 51
355.0000
  0
ARC
  8
11_0B
  6
DASHED
 62
2
 10
296.4975
 20
282.8315
 40
0.2000
 50
185.0000
 51
275.0000
  0
ARC
  8
11_0B
  6
DASHED
 62
2
 10
290.3447
 20
287.8124
 40
0.2000
 50
265.0000
 51
355.0000
  0
ARC
  8
11_0B
  6
DASHED
 62
2
 10
296.0617
 20
287.8124
 40
0.2000
 50
185.0000
 51
275.0000
  0
ARC
  8
11_0B
  6
DASHED
 62
2
 10
290.1827
 20
292.8457
 40
0.2000
 50
265.0000
 51
355.0000
  0
ARC
  8
11_0B
  6
DASHED
 62
2
 10
296.2236
 20
292.8457
 40
0.2000
 50
185.0000
 51
275.0000
  0
ARC
  8
11_0B
  6
DASHED
 62
2
 10
297.4237
 20
274.5390
 40
0.4000
 50
105.0000
 51
185.0000
  0
ARC
  8
11_0B
  6
DASHED
 62
2
 10
289.1965
 20
274.6887
 40
0.2000
 50
355.0000
 51
435.0000
  0
ARC
  8
11_0B
  6
DASHED
 62
2
 10
296.9880
 20
279.5199
 40
0.4000
 50
105.0000
 51
185.0000
  0
ARC
  8
11_0B
  6
DASHED
 62
2
 10
289.4184
 20
279.5199
 40
0.4000
 50
355.0000
 51
435.0000
  0
ARC
  8
11_0B
  6
DASHED
 62
2
 10
296.5522
 20
284.5009
 40
0.4000
 50
105.0000
 51
185.0000
  0
ARC
  8
11_0B
  6
DASHED
 62
2
 10
289.8541
 20
284.5009
 40
0.4000
 50
355.0000
 51
435.0000
  0
ARC
  8
11_0B
  6
DASHED
 62
2
 10
296.1164
 20
289.4819
 40
0.4000
 50
105.0000
 51
185.0000
  0
ARC
  8
11_0B
  6
DASHED
 62
2
 10
290.2899
 20
289.4819
 40
0.4000
 50
355.0000
 51
435.0000
  0
ARC
  8
11_0B
  6
DASHED
 62
2
 10
290.2001
 20
295.3396
 40
0.4000
 50
355.0000
 51
440.0000
  0
ARC
  8
11_0B
  6
DASHED
 62
2
 10
296.2062
 20
295.3396
 40
0.4000
 50
100.0000
 51
185.0000
  0
ARC
  8
11_0B
  6
DASHED
 62
2
 10
300.6975
 20
293.9556
 40
0.4000
 50
335.0000
 51
425.0000
  0
ARC
  8
11_0B
  6
DASHED
 62
2
 10
300.5162
 20
294.0401
 40
0.4000
 50
65.0000
 51
155.0000
  0
ARC
  8
11_0B
  6
DASHED
 62
2
 10
285.7088
 20
293.9556
 40
0.4000
 50
115.0000
 51
205.0000
  0
ARC
  8
11_0B
  6
DASHED
 62
2
 10
285.8901
 20
294.0401
 40
0.4000
 50
25.0000
 51
115.0000
  0
ARC
  8
13_0D
  6
CONTINUOUS
 62
2
 10
293.2032
 20
310.5546
 40
9.1000
 50
39.7151
 51
90.0000
  0
ARC
  8
13_0D
  6
CONTINUOUS
 62
2
 10
293.2032
 20
310.5546
 40
9.1000
 50
90.0000
 51
140.2849
  0
ARC
  8
11_0B
  6
DASHED
 62
2
 10
344.7914
 20
290.7116
 40
0.4000
 50
175.0000
 51
255.0000
  0
ARC
  8
11_0B
  6
DASHED
 62
2
 10
344.3557
 20
285.7307
 40
0.4000
 50
175.0000
 51
255.0000
  0
ARC
  8
11_0B
  6
DASHED
 62
2
 10
343.9199
 20
280.7497
 40
0.4000
 50
175.0000
 51
255.0000
  0
ARC
  8
11_0B
  6
DASHED
 62
2
 10
343.4841
 20
275.7687
 40
0.4000
 50
175.0000
 51
255.0000
  0
ARC
  8
11_0B
  6
DASHED
 62
2
 10
343.2657
 20
270.9775
 40
0.6000
 50
175.0000
 51
205.0000
  0
ARC
  8
11_0B
  6
DASHED
 62
2
 10
353.6149
 20
290.7116
 40
0.4000
 50
285.0000
 51
365.0000
  0
ARC
  8
11_0B
  6
DASHED
 62
2
 10
354.0507
 20
285.7307
 40
0.4000
 50
285.0000
 51
365.0000
  0
ARC
  8
11_0B
  6
DASHED
 62
2
 10
354.4865
 20
280.7497
 40
0.4000
 50
285.0000
 51
365.0000
  0
ARC
  8
11_0B
  6
DASHED
 62
2
 10
354.9223
 20
275.7687
 40
0.4000
 50
285.0000
 51
365.0000
  0
ARC
  8
11_0B
  6
DASHED
 62
2
 10
355.1407
 20
270.9775
 40
0.6000
 50
335.0000
 51
365.0000
  0
ARC
  8
11_0B
  6
DASHED
 62
2
 10
345.0373
 20
272.8695
 40
0.2000
 50
265.0000
 51
355.0000
  0
ARC
  8
11_0B
  6
DASHED
 62
2
 10
353.3690
 20
272.8695
 40
0.2000
 50
185.0000
 51
275.0000
  0
ARC
  8
11_0B
  6
DASHED
 62
2
 10
345.4731
 20
277.8505
 40
0.2000
 50
265.0000
 51
355.0000
  0
ARC
  8
11_0B
  6
DASHED
 62
2
 10
352.9333
 20
277.8505
 40
0.2000
 50
185.0000
 51
275.0000
  0
ARC
  8
11_0B
  6
DASHED
 62
2
 10
345.9089
 20
282.8315
 40
0.2000
 50
265.0000
 51
355.0000
  0
ARC
  8
11_0B
  6
DASHED
 62
2
 10
352.4975
 20
282.8315
 40
0.2000
 50
185.0000
 51
275.0000
  0
ARC
  8
11_0B
  6
DASHED
 62
2
 10
346.3447
 20
287.8124
 40
0.2000
 50
265.0000
 51
355.0000
  0
ARC
  8
11_0B
  6
DASHED
 62
2
 10
352.0617
 20
287.8124
 40
0.2000
 50
185.0000
 51
275.0000
  0
ARC
  8
11_0B
  6
DASHED
 62
2
 10
346.1827
 20
292.8457
 40
0.2000
 50
265.0000
 51
355.0000
  0
ARC
  8
11_0B
  6
DASHED
 62
2
 10
352.2236
 20
292.8457
 40
0.2000
 50
185.0000
 51
275.0000
  0
ARC
  8
11_0B
  6
DASHED
 62
2
 10
353.4237
 20
274.5390
 40
0.4000
 50
105.0000
 51
185.0000
  0
ARC
  8
11_0B
  6
DASHED
 62
2
 10
345.1965
 20
274.6887
 40
0.2000
 50
355.0000
 51
435.0000
  0
ARC
  8
11_0B
  6
DASHED
 62
2
 10
352.9879
 20
279.5199
 40
0.4000
 50
105.0000
 51
185.0000
  0
ARC
  8
11_0B
  6
DASHED
 62
2
 10
345.4184
 20
279.5199
 40
0.4000
 50
355.0000
 51
435.0000
  0
ARC
  8
11_0B
  6
DASHED
 62
2
 10
352.5522
 20
284.5009
 40
0.4000
 50
105.0000
 51
185.0000
  0
ARC
  8
11_0B
  6
DASHED
 62
2
 10
345.8542
 20
284.5009
 40
0.4000
 50
355.0000
 51
435.0000
  0
ARC
  8
11_0B
  6
DASHED
 62
2
 10
352.1164
 20
289.4819
 40
0.4000
 50
105.0000
 51
185.0000
  0
ARC
  8
11_0B
  6
DASHED
 62
2
 10
346.2900
 20
289.4819
 40
0.4000
 50
355.0000
 51
435.0000
  0
ARC
  8
11_0B
  6
DASHED
 62
2
 10
346.2001
 20
295.3396
 40
0.4000
 50
355.0000
 51
440.0000
  0
ARC
  8
11_0B
  6
DASHED
 62
2
 10
352.2062
 20
295.3396
 40
0.4000
 50
100.0000
 51
185.0000
  0
ARC
  8
11_0B
  6
DASHED
 62
2
 10
356.6975
 20
293.9556
 40
0.4000
 50
335.0000
 51
425.0000
  0
ARC
  8
11_0B
  6
DASHED
 62
2
 10
356.5162
 20
294.0401
 40
0.4000
 50
65.0000
 51
155.0000
  0
ARC
  8
11_0B
  6
DASHED
 62
2
 10
341.7088
 20
293.9556
 40
0.4000
 50
115.0000
 51
205.0000
  0
ARC
  8
11_0B
  6
DASHED
 62
2
 10
341.8901
 20
294.0401
 40
0.4000
 50
25.0000
 51
115.0000
  0
ARC
  8
13_0D
  6
CONTINUOUS
 62
2
 10
349.2032
 20
310.5546
 40
9.1000
 50
39.7151
 51
90.0000
  0
ARC
  8
13_0D
  6
CONTINUOUS
 62
2
 10
349.2032
 20
310.5546
 40
9.1000
 50
90.0000
 51
140.2849
  0
CIRCLE
  8
0_00
  6
CONTINUOUS
 62
2
 10
390.0987
 20
239.6727
 40
0.1000
  0
CIRCLE
  8
0_00
  6
CONTINUOUS
 62
2
 10
385.8906
 20
236.3061
 40
0.1000
  0
CIRCLE
  8
0_00
  6
CONTINUOUS
 62
2
 10
392.9603
 20
237.8211
 40
0.1000
  0
CIRCLE
  8
0_00
  6
CONTINUOUS
 62
2
 10
394.1385
 20
233.4446
 40
0.1000
  0
CIRCLE
  8
0_00
  6
CONTINUOUS
 62
2
 10
389.7621
 20
230.5830
 40
0.1000
  0
CIRCLE
  8
0_00
  6
CONTINUOUS
 62
2
 10
389.1920
 20
234.3388
 40
0.1000
  0
CIRCLE
  8
0_00
  6
CONTINUOUS
 62
2
 10
386.8197
 20
228.1988
 40
0.1000
  0
CIRCLE
  8
0_00
  6
CONTINUOUS
 62
2
 10
388.9129
 20
222.4774
 40
0.1000
  0
CIRCLE
  8
0_00
  6
CONTINUOUS
 62
2
 10
384.8660
 20
225.1288
 40
0.1000
  0
CIRCLE
  8
0_00
  6
CONTINUOUS
 62
2
 10
393.3784
 20
223.8728
 40
0.1000
  0
CIRCLE
  8
0_00
  6
CONTINUOUS
 62
2
 10
393.6575
 20
227.2220
 40
0.1000
  0
CIRCLE
  8
0_00
  6
CONTINUOUS
 62
2
 10
254.6717
 20
239.6727
 40
0.1000
  0
CIRCLE
  8
0_00
  6
CONTINUOUS
 62
2
 10
250.4635
 20
236.3061
 40
0.1000
  0
CIRCLE
  8
0_00
  6
CONTINUOUS
 62
2
 10
257.5332
 20
237.8211
 40
0.1000
  0
CIRCLE
  8
0_00
  6
CONTINUOUS
 62
2
 10
258.7115
 20
233.4446
 40
0.1000
  0
CIRCLE
  8
0_00
  6
CONTINUOUS
 62
2
 10
254.3350
 20
230.5830
 40
0.1000
  0
CIRCLE
  8
0_00
  6
CONTINUOUS
 62
2
 10
253.7650
 20
234.3388
 40
0.1000
  0
CIRCLE
  8
0_00
  6
CONTINUOUS
 62
2
 10
251.3926
 20
228.1988
 40
0.1000
  0
CIRCLE
  8
0_00
  6
CONTINUOUS
 62
2
 10
249.4390
 20
225.1288
 40
0.1000
  0
CIRCLE
  8
0_00
  6
CONTINUOUS
 62
2
 10
257.9513
 20
223.8728
 40
0.1000
  0
CIRCLE
  8
0_00
  6
CONTINUOUS
 62
2
 10
258.2304
 20
227.2220
 40
0.1000
  0
ARC
  8
0_00
  6
CONTINUOUS
 62
4
 10
924.0549
 20
323.2725
 40
6.0000
 50
165.0000
 51
180.0000
  0
ARC
  8
0_00
  6
CONTINUOUS
 62
4
 10
922.6344
 20
329.5623
 40
3.0000
 50
90.0000
 51
165.0000
  0
ARC
  8
0_00
  6
CONTINUOUS
 62
4
 10
933.4753
 20
329.5623
 40
3.0000
 50
15.0000
 51
90.0000
  0
ARC
  8
0_00
  6
CONTINUOUS
 62
4
 10
919.0550
 20
321.2498
 40
1.0000
 50
180.0000
 51
208.3576
  0
ARC
  8
0_00
  6
CONTINUOUS
 62
4
 10
916.8549
 20
320.0623
 40
1.5000
 50
331.6424
 51
388.3576
  0
ARC
  8
0_00
  6
CONTINUOUS
 62
4
 10
933.4753
 20
329.5623
 40
2.3000
 50
15.0000
 51
90.0000
  0
ARC
  8
0_00
  6
CONTINUOUS
 62
4
 10
922.6344
 20
329.5623
 40
2.3000
 50
90.0000
 51
165.0000
  0
ARC
  8
0_00
  6
CONTINUOUS
 62
4
 10
924.0549
 20
323.2725
 40
5.3000
 50
165.0000
 51
180.0000
  0
ARC
  8
0_00
  6
CONTINUOUS
 62
4
 10
924.0549
 20
316.8522
 40
6.0000
 50
180.0000
 51
195.0000
  0
ARC
  8
0_00
  6
CONTINUOUS
 62
4
 10
922.6344
 20
310.5623
 40
3.0000
 50
195.0000
 51
270.0000
  0
ARC
  8
0_00
  6
CONTINUOUS
 62
4
 10
933.4753
 20
310.5623
 40
3.0000
 50
270.0000
 51
345.0000
  0
ARC
  8
0_00
  6
CONTINUOUS
 62
4
 10
919.0550
 20
318.8749
 40
1.0000
 50
151.6424
 51
180.0000
  0
ARC
  8
0_00
  6
CONTINUOUS
 62
4
 10
916.8549
 20
320.0623
 40
1.5000
 50
331.6424
 51
388.3576
  0
ARC
  8
0_00
  6
CONTINUOUS
 62
4
 10
933.4753
 20
310.5623
 40
2.3000
 50
270.0000
 51
345.0000
  0
ARC
  8
0_00
  6
CONTINUOUS
 62
4
 10
922.6344
 20
310.5623
 40
2.3000
 50
195.0000
 51
270.0000
  0
ARC
  8
0_00
  6
CONTINUOUS
 62
4
 10
924.0549
 20
316.8522
 40
5.3000
 50
180.0000
 51
195.0000
  0
ARC
  8
0_00
  6
CONTINUOUS
 62
4
 10
916.8549
 20
320.0623
 40
2.2000
 50
329.7274
 51
390.2726
  0
ARC
  8
0_00
  6
CONTINUOUS
 62
4
 10
937.0550
 20
321.2498
 40
1.0000
 50
331.6424
 51
360.0000
  0
ARC
  8
0_00
  6
CONTINUOUS
 62
4
 10
932.0549
 20
323.2725
 40
6.0000
 50
0.0000
 51
15.0000
  0
ARC
  8
0_00
  6
CONTINUOUS
 62
4
 10
939.2549
 20
320.0623
 40
1.5000
 50
151.6424
 51
208.3576
  0
ARC
  8
0_00
  6
CONTINUOUS
 62
4
 10
934.5549
 20
320.0623
 40
2.1500
 50
68.1552
 51
111.8448
  0
ARC
  8
0_00
  6
CONTINUOUS
 62
4
 10
934.5549
 20
320.0623
 40
1.7000
 50
118.0725
 51
142.6303
  0
ARC
  8
0_00
  6
CONTINUOUS
 62
4
 10
934.5549
 20
320.0623
 40
1.7000
 50
38.6269
 51
61.9275
  0
ARC
  8
0_00
  6
CONTINUOUS
 62
4
 10
936.1174
 20
321.3108
 40
0.3000
 50
218.6269
 51
300.0000
  0
ARC
  8
0_00
  6
CONTINUOUS
 62
4
 10
934.5549
 20
320.0623
 40
3.2000
 50
51.5653
 51
90.0000
  0
ARC
  8
0_00
  6
CONTINUOUS
 62
4
 10
934.5549
 20
321.4623
 40
1.8000
 50
90.0000
 51
180.0000
  0
ARC
  8
0_00
  6
CONTINUOUS
 62
4
 10
936.8549
 20
322.9606
 40
0.5000
 50
231.5654
 51
360.0000
  0
ARC
  8
0_00
  6
CONTINUOUS
 62
4
 10
933.0050
 20
321.2460
 40
0.2501
 50
180.0000
 51
322.6303
  0
ARC
  8
0_00
  6
CONTINUOUS
 62
4
 10
936.7756
 20
320.9981
 40
0.3000
 50
339.3231
 51
480.0000
  0
ARC
  8
0_00
  6
CONTINUOUS
 62
4
 10
937.0550
 20
318.8749
 40
1.0000
 50
0.0000
 51
28.3576
  0
ARC
  8
0_00
  6
CONTINUOUS
 62
4
 10
932.0549
 20
316.8522
 40
6.0000
 50
345.0000
 51
360.0000
  0
ARC
  8
0_00
  6
CONTINUOUS
 62
4
 10
936.7756
 20
319.1266
 40
0.3000
 50
240.0000
 51
380.6769
  0
ARC
  8
0_00
  6
CONTINUOUS
 62
4
 10
932.0549
 20
323.2725
 40
5.3000
 50
0.0000
 51
15.0000
  0
ARC
  8
0_00
  6
CONTINUOUS
 62
4
 10
936.8549
 20
317.1641
 40
0.5000
 50
0.0000
 51
128.4346
  0
ARC
  8
0_00
  6
CONTINUOUS
 62
4
 10
932.0549
 20
316.8522
 40
5.3000
 50
345.0000
 51
360.0000
  0
ARC
  8
0_00
  6
CONTINUOUS
 62
4
 10
939.2549
 20
320.0623
 40
2.3500
 50
159.3231
 51
200.6769
  0
ARC
  8
0_00
  6
CONTINUOUS
 62
4
 10
934.5549
 20
320.0623
 40
2.1500
 50
248.1552
 51
291.8448
  0
ARC
  8
0_00
  6
CONTINUOUS
 62
4
 10
934.5549
 20
320.0623
 40
1.7000
 50
217.3697
 51
241.9275
  0
ARC
  8
0_00
  6
CONTINUOUS
 62
4
 10
934.5549
 20
320.0623
 40
1.7000
 50
298.0725
 51
321.3731
  0
ARC
  8
0_00
  6
CONTINUOUS
 62
4
 10
936.1174
 20
318.8139
 40
0.3000
 50
60.0000
 51
141.3731
  0
ARC
  8
0_00
  6
CONTINUOUS
 62
4
 10
934.5549
 20
320.0623
 40
3.2000
 50
270.0000
 51
308.4347
  0
ARC
  8
0_00
  6
CONTINUOUS
 62
4
 10
934.5549
 20
318.6623
 40
1.8000
 50
180.0000
 51
270.0000
  0
ARC
  8
0_00
  6
CONTINUOUS
 62
4
 10
933.0050
 20
318.8787
 40
0.2501
 50
37.3697
 51
180.0000
  0
ARC
  8
0_00
  6
CONTINUOUS
 62
4
 10
1108.0549
 20
323.2725
 40
6.0000
 50
165.0000
 51
180.0000
  0
ARC
  8
0_00
  6
CONTINUOUS
 62
4
 10
1106.6345
 20
329.5623
 40
3.0000
 50
90.0000
 51
165.0000
  0
ARC
  8
0_00
  6
CONTINUOUS
 62
4
 10
1117.4753
 20
329.5623
 40
3.0000
 50
15.0000
 51
90.0000
  0
ARC
  8
0_00
  6
CONTINUOUS
 62
4
 10
1103.0550
 20
321.2498
 40
1.0000
 50
180.0000
 51
208.3576
  0
ARC
  8
0_00
  6
CONTINUOUS
 62
4
 10
1100.8550
 20
320.0623
 40
1.5000
 50
331.6424
 51
388.3576
  0
ARC
  8
0_00
  6
CONTINUOUS
 62
4
 10
1117.4753
 20
329.5623
 40
2.3000
 50
15.0000
 51
90.0000
  0
ARC
  8
0_00
  6
CONTINUOUS
 62
4
 10
1106.6345
 20
329.5623
 40
2.3000
 50
90.0000
 51
165.0000
  0
ARC
  8
0_00
  6
CONTINUOUS
 62
4
 10
1108.0549
 20
323.2725
 40
5.3000
 50
165.0000
 51
180.0000
  0
ARC
  8
0_00
  6
CONTINUOUS
 62
4
 10
1108.0549
 20
316.8522
 40
6.0000
 50
180.0000
 51
195.0000
  0
ARC
  8
0_00
  6
CONTINUOUS
 62
4
 10
1106.6345
 20
310.5623
 40
3.0000
 50
195.0000
 51
270.0000
  0
ARC
  8
0_00
  6
CONTINUOUS
 62
4
 10
1117.4753
 20
310.5623
 40
3.0000
 50
270.0000
 51
345.0000
  0
ARC
  8
0_00
  6
CONTINUOUS
 62
4
 10
1103.0550
 20
318.8749
 40
1.0000
 50
151.6424
 51
180.0000
  0
ARC
  8
0_00
  6
CONTINUOUS
 62
4
 10
1100.8550
 20
320.0623
 40
1.5000
 50
331.6424
 51
388.3576
  0
ARC
  8
0_00
  6
CONTINUOUS
 62
4
 10
1117.4753
 20
310.5623
 40
2.3000
 50
270.0000
 51
345.0000
  0
ARC
  8
0_00
  6
CONTINUOUS
 62
4
 10
1106.6345
 20
310.5623
 40
2.3000
 50
195.0000
 51
270.0000
  0
ARC
  8
0_00
  6
CONTINUOUS
 62
4
 10
1108.0549
 20
316.8522
 40
5.3000
 50
180.0000
 51
195.0000
  0
ARC
  8
0_00
  6
CONTINUOUS
 62
4
 10
1100.8550
 20
320.0623
 40
2.2000
 50
329.7274
 51
390.2726
  0
ARC
  8
0_00
  6
CONTINUOUS
 62
4
 10
1121.0549
 20
321.2498
 40
1.0000
 50
331.6424
 51
360.0000
  0
ARC
  8
0_00
  6
CONTINUOUS
 62
4
 10
1116.0549
 20
323.2725
 40
6.0000
 50
0.0000
 51
15.0000
  0
ARC
  8
0_00
  6
CONTINUOUS
 62
4
 10
1123.2549
 20
320.0623
 40
1.5000
 50
151.6424
 51
208.3576
  0
ARC
  8
0_00
  6
CONTINUOUS
 62
4
 10
1118.5550
 20
320.0623
 40
2.1500
 50
68.1552
 51
111.8448
  0
ARC
  8
0_00
  6
CONTINUOUS
 62
4
 10
1118.5550
 20
320.0623
 40
1.7000
 50
118.0725
 51
142.6303
  0
ARC
  8
0_00
  6
CONTINUOUS
 62
4
 10
1118.5550
 20
320.0623
 40
1.7000
 50
38.6269
 51
61.9275
  0
ARC
  8
0_00
  6
CONTINUOUS
 62
4
 10
1120.1175
 20
321.3108
 40
0.3000
 50
218.6269
 51
300.0000
  0
ARC
  8
0_00
  6
CONTINUOUS
 62
4
 10
1118.5550
 20
320.0623
 40
3.2000
 50
51.5653
 51
90.0000
  0
ARC
  8
0_00
  6
CONTINUOUS
 62
4
 10
1118.5550
 20
321.4623
 40
1.8000
 50
90.0000
 51
180.0000
  0
ARC
  8
0_00
  6
CONTINUOUS
 62
4
 10
1120.8549
 20
322.9606
 40
0.5000
 50
231.5654
 51
360.0000
  0
ARC
  8
0_00
  6
CONTINUOUS
 62
4
 10
1117.0052
 20
321.2460
 40
0.2501
 50
180.0000
 51
322.6303
  0
ARC
  8
0_00
  6
CONTINUOUS
 62
4
 10
1120.7756
 20
320.9981
 40
0.3000
 50
339.3231
 51
480.0000
  0
ARC
  8
0_00
  6
CONTINUOUS
 62
4
 10
1121.0549
 20
318.8749
 40
1.0000
 50
0.0000
 51
28.3576
  0
ARC
  8
0_00
  6
CONTINUOUS
 62
4
 10
1116.0549
 20
316.8522
 40
6.0000
 50
345.0000
 51
360.0000
  0
ARC
  8
0_00
  6
CONTINUOUS
 62
4
 10
1120.7756
 20
319.1266
 40
0.3000
 50
240.0000
 51
380.6769
  0
ARC
  8
0_00
  6
CONTINUOUS
 62
4
 10
1116.0549
 20
323.2725
 40
5.3000
 50
0.0000
 51
15.0000
  0
ARC
  8
0_00
  6
CONTINUOUS
 62
4
 10
1120.8549
 20
317.1641
 40
0.5000
 50
0.0000
 51
128.4346
  0
ARC
  8
0_00
  6
CONTINUOUS
 62
4
 10
1116.0549
 20
316.8522
 40
5.3000
 50
345.0000
 51
360.0000
  0
ARC
  8
0_00
  6
CONTINUOUS
 62
4
 10
1123.2549
 20
320.0623
 40
2.3500
 50
159.3231
 51
200.6769
  0
ARC
  8
0_00
  6
CONTINUOUS
 62
4
 10
1118.5550
 20
320.0623
 40
2.1500
 50
248.1552
 51
291.8448
  0
ARC
  8
0_00
  6
CONTINUOUS
 62
4
 10
1118.5550
 20
320.0623
 40
1.7000
 50
217.3697
 51
241.9275
  0
ARC
  8
0_00
  6
CONTINUOUS
 62
4
 10
1118.5550
 20
320.0623
 40
1.7000
 50
298.0725
 51
321.3731
  0
ARC
  8
0_00
  6
CONTINUOUS
 62
4
 10
1120.1175
 20
318.8139
 40
0.3000
 50
60.0000
 51
141.3731
  0
ARC
  8
0_00
  6
CONTINUOUS
 62
4
 10
1118.5550
 20
320.0623
 40
3.2000
 50
270.0000
 51
308.4347
  0
ARC
  8
0_00
  6
CONTINUOUS
 62
4
 10
1118.5550
 20
318.6623
 40
1.8000
 50
180.0000
 51
270.0000
  0
ARC
  8
0_00
  6
CONTINUOUS
 62
4
 10
1117.0052
 20
318.8787
 40
0.2501
 50
37.3697
 51
180.0000
  0
CIRCLE
  8
3_03
  6
CONTINUOUS
 62
2
 10
1070.0549
 20
302.0623
 40
4.0000
  0
ARC
  8
3_03
  6
CONTINUOUS
 62
2
 10
1070.0549
 20
302.0623
 40
2.0000
 50
126.1800
 51
143.8200
  0
ARC
  8
3_03
  6
CONTINUOUS
 62
2
 10
1070.0549
 20
302.0623
 40
2.0000
 50
36.3200
 51
53.7932
  0
ARC
  8
3_03
  6
CONTINUOUS
 62
2
 10
1070.0549
 20
302.0623
 40
2.0000
 50
306.2942
 51
323.8200
  0
ARC
  8
3_03
  6
CONTINUOUS
 62
2
 10
1070.0549
 20
302.0623
 40
2.0000
 50
216.2068
 51
233.7932
  0
CIRCLE
  8
3_03
  6
CONTINUOUS
 62
2
 10
1070.0549
 20
338.0623
 40
4.0000
  0
ARC
  8
3_03
  6
CONTINUOUS
 62
2
 10
1070.0549
 20
338.0623
 40
2.0000
 50
126.1800
 51
143.8200
  0
ARC
  8
3_03
  6
CONTINUOUS
 62
2
 10
1070.0549
 20
338.0623
 40
2.0000
 50
36.3200
 51
53.7932
  0
ARC
  8
3_03
  6
CONTINUOUS
 62
2
 10
1070.0549
 20
338.0623
 40
2.0000
 50
306.2942
 51
323.8200
  0
ARC
  8
3_03
  6
CONTINUOUS
 62
2
 10
1070.0549
 20
338.0623
 40
2.0000
 50
216.2068
 51
233.7932
  0
CIRCLE
  8
3_03
  6
CONTINUOUS
 62
2
 10
970.0549
 20
302.0623
 40
4.0000
  0
ARC
  8
3_03
  6
CONTINUOUS
 62
2
 10
970.0549
 20
302.0623
 40
2.0000
 50
36.1800
 51
53.8200
  0
ARC
  8
3_03
  6
CONTINUOUS
 62
2
 10
970.0549
 20
302.0623
 40
2.0000
 50
126.2068
 51
143.6799
  0
ARC
  8
3_03
  6
CONTINUOUS
 62
2
 10
970.0549
 20
302.0623
 40
2.0000
 50
216.1800
 51
233.7058
  0
ARC
  8
3_03
  6
CONTINUOUS
 62
2
 10
970.0549
 20
302.0623
 40
2.0000
 50
306.2068
 51
323.7932
  0
CIRCLE
  8
3_03
  6
CONTINUOUS
 62
2
 10
970.0549
 20
338.0623
 40
4.0000
  0
ARC
  8
3_03
  6
CONTINUOUS
 62
2
 10
970.0549
 20
338.0623
 40
2.0000
 50
36.1800
 51
53.8200
  0
ARC
  8
3_03
  6
CONTINUOUS
 62
2
 10
970.0549
 20
338.0623
 40
2.0000
 50
126.2068
 51
143.6799
  0
ARC
  8
3_03
  6
CONTINUOUS
 62
2
 10
970.0549
 20
338.0623
 40
2.0000
 50
216.1800
 51
233.7058
  0
ARC
  8
3_03
  6
CONTINUOUS
 62
2
 10
970.0549
 20
338.0623
 40
2.0000
 50
306.2068
 51
323.7932
  0
ARC
  8
0_00
  6
CONTINUOUS
 62
2
 10
1020.0549
 20
299.6624
 40
7.7000
 50
219.9831
 51
320.0169
  0
ARC
  8
0_00
  6
CONTINUOUS
 62
2
 10
1020.0737
 20
341.8618
 40
7.6428
 50
72.4111
 51
107.5889
  0
ARC
  8
0_00
  6
CONTINUOUS
 62
2
 10
1020.0737
 20
354.0629
 40
7.6428
 50
252.4111
 51
287.5889
  0
ARC
  8
0_00
  6
CONTINUOUS
 62
2
 10
1023.5379
 20
347.4599
 40
2.0447
 50
55.6111
 51
124.3889
  0
ARC
  8
0_00
  6
CONTINUOUS
 62
2
 10
1016.6096
 20
347.4599
 40
2.0447
 50
55.6111
 51
124.3889
  0
ARC
  8
0_00
  6
CONTINUOUS
 62
2
 10
1023.5379
 20
348.4648
 40
2.0447
 50
235.6111
 51
304.3889
  0
ARC
  8
0_00
  6
CONTINUOUS
 62
2
 10
1016.6096
 20
348.4648
 40
2.0447
 50
235.6111
 51
304.3889
  0
ARC
  8
0_00
  6
CONTINUOUS
 62
2
 10
1020.0737
 20
350.3624
 40
3.5000
 50
0.0000
 51
180.0000
  0
ARC
  8
12_0C
  6
CONTINUOUS
 62
2
 10
339.2032
 20
459.9941
 40
5.1605
 50
39.1846
 51
140.8154
  0
ARC
  8
3_03
  6
CONTINUOUS
 62
2
 10
321.2032
 20
453.6546
 40
4.0000
 50
118.7257
 51
421.2743
  0
ARC
  8
3_03
  6
CONTINUOUS
 62
2
 10
321.2032
 20
453.6546
 40
2.0000
 50
36.1800
 51
53.8200
  0
ARC
  8
3_03
  6
CONTINUOUS
 62
2
 10
321.2032
 20
453.6546
 40
2.0000
 50
126.2068
 51
143.6799
  0
ARC
  8
3_03
  6
CONTINUOUS
 62
2
 10
321.2032
 20
453.6546
 40
2.0000
 50
216.1800
 51
233.7058
  0
ARC
  8
3_03
  6
CONTINUOUS
 62
2
 10
321.2032
 20
453.6546
 40
2.0000
 50
306.2068
 51
323.7932
  0
CIRCLE
  8
3_03
  6
CONTINUOUS
 62
2
 10
321.2032
 20
440.6546
 40
4.0000
  0
ARC
  8
3_03
  6
CONTINUOUS
 62
2
 10
321.2032
 20
440.6546
 40
2.0000
 50
36.1800
 51
53.8200
  0
ARC
  8
3_03
  6
CONTINUOUS
 62
2
 10
321.2032
 20
440.6546
 40
2.0000
 50
126.2068
 51
143.6799
  0
ARC
  8
3_03
  6
CONTINUOUS
 62
2
 10
321.2032
 20
440.6546
 40
2.0000
 50
216.1800
 51
233.7058
  0
ARC
  8
3_03
  6
CONTINUOUS
 62
2
 10
321.2032
 20
440.6546
 40
2.0000
 50
306.2068
 51
323.7932
  0
ARC
  8
0_00
  6
CONTINUOUS
 62
2
 10
300.8031
 20
434.8546
 40
7.7000
 50
129.9831
 51
230.0169
  0
ARC
  8
0_00
  6
CONTINUOUS
 62
2
 10
343.0027
 20
434.8734
 40
7.6428
 50
342.4111
 51
377.5889
  0
ARC
  8
0_00
  6
CONTINUOUS
 62
2
 10
355.2037
 20
434.8734
 40
7.6428
 50
162.4111
 51
197.5889
  0
ARC
  8
0_00
  6
CONTINUOUS
 62
2
 10
348.6007
 20
438.3375
 40
2.0447
 50
325.6111
 51
394.3889
  0
ARC
  8
0_00
  6
CONTINUOUS
 62
2
 10
348.6007
 20
431.4093
 40
2.0447
 50
325.6111
 51
394.3889
  0
ARC
  8
0_00
  6
CONTINUOUS
 62
2
 10
349.6056
 20
438.3375
 40
2.0447
 50
145.6111
 51
214.3889
  0
ARC
  8
0_00
  6
CONTINUOUS
 62
2
 10
349.6056
 20
431.4093
 40
2.0447
 50
145.6111
 51
214.3889
  0
ARC
  8
0_00
  6
CONTINUOUS
 62
2
 10
351.5032
 20
434.8734
 40
3.5000
 50
270.0000
 51
450.0000
  0
ARC
  8
12_0C
  6
CONTINUOUS
 62
2
 10
292.5134
 20
350.4546
 40
5.1605
 50
129.1846
 51
230.8154
  0
ARC
  8
12_0C
  6
CONTINUOUS
 62
2
 10
349.8929
 20
350.4546
 40
5.1605
 50
309.1846
 51
410.8154
  0
ARC
  8
0_00
  6
CONTINUOUS
 62
4
 10
702.5549
 20
277.3123
 40
4.2500
 50
180.0000
 51
360.0000
  0
ARC
  8
0_00
  6
CONTINUOUS
 62
4
 10
702.5549
 20
288.8123
 40
4.2500
 50
0.0000
 51
180.0000
  0
ARC
  8
0_00
  6
CONTINUOUS
 62
4
 10
702.5549
 20
362.8123
 40
4.2500
 50
0.0000
 51
180.0000
  0
ARC
  8
0_00
  6
CONTINUOUS
 62
4
 10
702.5549
 20
351.3123
 40
4.2500
 50
180.0000
 51
360.0000
  0
ARC
  8
0_00
  6
CONTINUOUS
 62
4
 10
617.5549
 20
277.3123
 40
4.2500
 50
180.0000
 51
360.0000
  0
ARC
  8
0_00
  6
CONTINUOUS
 62
4
 10
617.5549
 20
288.8123
 40
4.2500
 50
0.0000
 51
180.0000
  0
ARC
  8
0_00
  6
CONTINUOUS
 62
4
 10
617.5549
 20
362.8123
 40
4.2500
 50
0.0000
 51
180.0000
  0
ARC
  8
0_00
  6
CONTINUOUS
 62
4
 10
617.5549
 20
351.3123
 40
4.2500
 50
180.0000
 51
360.0000
  0
ARC
  8
0_00
  6
CONTINUOUS
 62
4
 10
307.7032
 20
460.1546
 40
1.0000
 50
180.0000
 51
270.0000
  0
ARC
  8
0_00
  6
CONTINUOUS
 62
4
 10
334.7032
 20
460.1546
 40
1.0000
 50
270.0000
 51
360.0000
  0
ARC
  8
0_00
  6
CONTINUOUS
 62
2
 10
253.4858
 20
222.4774
 40
0.1000
 50
154.0798
 51
430.7844
  0
ARC
  8
0_00
  6
CONTINUOUS
 62
2
 10
373.2032
 20
289.8546
 40
2.0000
 50
0.0000
 51
90.0000
  0
ARC
  8
0_00
  6
CONTINUOUS
 62
2
 10
373.2032
 20
289.8546
 40
6.0000
 50
0.0000
 51
90.0000
  0
ARC
  8
3_03
  6
CONTINUOUS
 62
4
 10
748.6816
 20
683.5343
 40
20.2300
 50
89.8197
 51
97.0407
  0
ARC
  8
3_03
  6
CONTINUOUS
 62
4
 10
746.2816
 20
702.9666
 40
0.6500
 50
97.0407
 51
180.0000
  0
ARC
  8
3_03
  6
CONTINUOUS
 62
4
 10
751.7315
 20
703.7142
 40
0.0500
 50
0.0000
 51
90.0000
  0
ARC
  8
3_03
  6
CONTINUOUS
 62
4
 10
751.7315
 20
699.0142
 40
0.0500
 50
270.0000
 51
360.0000
  0
ARC
  8
3_03
  6
CONTINUOUS
 62
4
 10
745.6816
 20
699.0142
 40
0.0500
 50
180.0000
 51
270.0000
  0
ARC
  8
0_00
  6
CONTINUOUS
 62
4
 10
874.6029
 20
616.7235
 40
0.2000
 50
90.0000
 51
175.6347
  0
ARC
  8
0_00
  6
CONTINUOUS
 62
4
 10
874.6076
 20
618.0978
 40
0.1000
 50
90.0000
 51
175.6347
  0
ARC
  8
0_00
  6
CONTINUOUS
 62
4
 10
879.4269
 20
616.7235
 40
0.2000
 50
4.3652
 51
90.0000
  0
ARC
  8
0_00
  6
CONTINUOUS
 62
4
 10
879.4222
 20
618.0978
 40
0.1000
 50
4.3652
 51
90.0000
  0
ARC
  8
0_00
  6
CONTINUOUS
 62
4
 10
977.9363
 20
616.7235
 40
0.2000
 50
90.0000
 51
175.6347
  0
ARC
  8
0_00
  6
CONTINUOUS
 62
4
 10
977.9409
 20
618.0978
 40
0.1000
 50
90.0000
 51
175.6347
  0
ARC
  8
0_00
  6
CONTINUOUS
 62
4
 10
982.7602
 20
616.7235
 40
0.2000
 50
4.3652
 51
90.0000
  0
ARC
  8
0_00
  6
CONTINUOUS
 62
4
 10
982.7556
 20
618.0978
 40
0.1000
 50
4.3652
 51
90.0000
  0
ARC
  8
3_03
  6
CONTINUOUS
 62
4
 10
739.9816
 20
609.5045
 40
0.3000
 50
180.0000
 51
270.0000
  0
ARC
  8
3_03
  6
CONTINUOUS
 62
4
 10
739.9816
 20
615.3943
 40
0.3000
 50
90.0000
 51
180.0000
  0
ARC
  8
3_03
  6
CONTINUOUS
 62
4
 10
1117.3815
 20
609.5045
 40
0.3000
 50
270.0000
 51
360.0000
  0
ARC
  8
3_03
  6
CONTINUOUS
 62
4
 10
1117.3815
 20
615.3943
 40
0.3000
 50
0.0000
 51
90.0000
  0
CIRCLE
  8
3_03
  6
CONTINUOUS
 62
2
 10
877.0149
 20
617.6646
 40
0.4000
  0
ARC
  8
3_03
  6
CONTINUOUS
 62
2
 10
877.0149
 20
617.6646
 40
0.2000
 50
36.1800
 51
53.8200
  0
ARC
  8
3_03
  6
CONTINUOUS
 62
2
 10
877.0149
 20
617.6646
 40
0.2000
 50
126.2068
 51
143.6799
  0
ARC
  8
3_03
  6
CONTINUOUS
 62
2
 10
877.0149
 20
617.6646
 40
0.2000
 50
216.1800
 51
233.7058
  0
ARC
  8
3_03
  6
CONTINUOUS
 62
2
 10
877.0149
 20
617.6646
 40
0.2000
 50
306.2068
 51
323.7932
  0
CIRCLE
  8
3_03
  6
CONTINUOUS
 62
2
 10
980.3482
 20
617.6646
 40
0.4000
  0
ARC
  8
3_03
  6
CONTINUOUS
 62
2
 10
980.3482
 20
617.6646
 40
0.2000
 50
36.1800
 51
53.8200
  0
ARC
  8
3_03
  6
CONTINUOUS
 62
2
 10
980.3482
 20
617.6646
 40
0.2000
 50
126.2068
 51
143.6799
  0
ARC
  8
3_03
  6
CONTINUOUS
 62
2
 10
980.3482
 20
617.6646
 40
0.2000
 50
216.1800
 51
233.7058
  0
ARC
  8
3_03
  6
CONTINUOUS
 62
2
 10
980.3482
 20
617.6646
 40
0.2000
 50
306.2068
 51
323.7932
  0
ARC
  8
0_00
  6
CONTINUOUS
 62
2
 10
877.0149
 20
624.1942
 40
0.2450
 50
45.0000
 51
58.5444
  0
ARC
  8
0_00
  6
CONTINUOUS
 62
2
 10
877.0149
 20
624.1942
 40
0.2450
 50
121.3667
 51
135.0000
  0
ARC
  8
0_00
  6
CONTINUOUS
 62
2
 10
877.0149
 20
624.1942
 40
0.2450
 50
211.4556
 51
225.0000
  0
ARC
  8
0_00
  6
CONTINUOUS
 62
2
 10
877.0149
 20
624.1942
 40
0.2450
 50
135.0000
 51
148.6333
  0
ARC
  8
0_00
  6
CONTINUOUS
 62
2
 10
877.0149
 20
624.1942
 40
0.2450
 50
31.4556
 51
45.0000
  0
ARC
  8
0_00
  6
CONTINUOUS
 62
2
 10
877.0149
 20
624.1942
 40
0.2450
 50
315.0000
 51
328.6334
  0
ARC
  8
0_00
  6
CONTINUOUS
 62
2
 10
877.0149
 20
624.1942
 40
0.2450
 50
225.0000
 51
238.5444
  0
ARC
  8
0_00
  6
CONTINUOUS
 62
2
 10
877.0149
 20
624.1942
 40
0.2450
 50
301.3667
 51
315.0000
  0
CIRCLE
  8
0_00
  6
CONTINUOUS
 62
2
 10
877.0149
 20
624.1942
 40
0.5900
  0
ARC
  8
0_00
  6
CONTINUOUS
 62
2
 10
980.3482
 20
624.1942
 40
0.2450
 50
45.0000
 51
58.5444
  0
ARC
  8
0_00
  6
CONTINUOUS
 62
2
 10
980.3482
 20
624.1942
 40
0.2450
 50
121.3667
 51
135.0000
  0
ARC
  8
0_00
  6
CONTINUOUS
 62
2
 10
980.3482
 20
624.1942
 40
0.2450
 50
211.4556
 51
225.0000
  0
ARC
  8
0_00
  6
CONTINUOUS
 62
2
 10
980.3482
 20
624.1942
 40
0.2450
 50
135.0000
 51
148.6333
  0
ARC
  8
0_00
  6
CONTINUOUS
 62
2
 10
980.3482
 20
624.1942
 40
0.2450
 50
31.4556
 51
45.0000
  0
ARC
  8
0_00
  6
CONTINUOUS
 62
2
 10
980.3482
 20
624.1942
 40
0.2450
 50
315.0000
 51
328.6334
  0
ARC
  8
0_00
  6
CONTINUOUS
 62
2
 10
980.3482
 20
624.1942
 40
0.2450
 50
225.0000
 51
238.5444
  0
ARC
  8
0_00
  6
CONTINUOUS
 62
2
 10
980.3482
 20
624.1942
 40
0.2450
 50
301.3667
 51
315.0000
  0
CIRCLE
  8
0_00
  6
CONTINUOUS
 62
2
 10
980.3482
 20
624.1942
 40
0.5900
  0
ARC
  8
0_00
  6
CONTINUOUS
 62
4
 10
771.2696
 20
616.7235
 40
0.2000
 50
90.0000
 51
175.6347
  0
ARC
  8
0_00
  6
CONTINUOUS
 62
4
 10
771.2742
 20
618.0978
 40
0.1000
 50
90.0000
 51
175.6347
  0
ARC
  8
0_00
  6
CONTINUOUS
 62
4
 10
776.0935
 20
616.7235
 40
0.2000
 50
4.3652
 51
90.0000
  0
ARC
  8
0_00
  6
CONTINUOUS
 62
4
 10
776.0889
 20
618.0978
 40
0.1000
 50
4.3652
 51
90.0000
  0
CIRCLE
  8
3_03
  6
CONTINUOUS
 62
2
 10
773.6816
 20
617.6646
 40
0.4000
  0
ARC
  8
3_03
  6
CONTINUOUS
 62
2
 10
773.6816
 20
617.6646
 40
0.2000
 50
36.1800
 51
53.8200
  0
ARC
  8
3_03
  6
CONTINUOUS
 62
2
 10
773.6816
 20
617.6646
 40
0.2000
 50
126.2068
 51
143.6799
  0
ARC
  8
3_03
  6
CONTINUOUS
 62
2
 10
773.6816
 20
617.6646
 40
0.2000
 50
216.1800
 51
233.7058
  0
ARC
  8
3_03
  6
CONTINUOUS
 62
2
 10
773.6816
 20
617.6646
 40
0.2000
 50
306.2068
 51
323.7932
  0
ARC
  8
0_00
  6
CONTINUOUS
 62
2
 10
773.6816
 20
624.1942
 40
0.2450
 50
45.0000
 51
58.5444
  0
ARC
  8
0_00
  6
CONTINUOUS
 62
2
 10
773.6816
 20
624.1942
 40
0.2450
 50
121.3667
 51
135.0000
  0
ARC
  8
0_00
  6
CONTINUOUS
 62
2
 10
773.6816
 20
624.1942
 40
0.2450
 50
211.4556
 51
225.0000
  0
ARC
  8
0_00
  6
CONTINUOUS
 62
2
 10
773.6816
 20
624.1942
 40
0.2450
 50
135.0000
 51
148.6333
  0
ARC
  8
0_00
  6
CONTINUOUS
 62
2
 10
773.6816
 20
624.1942
 40
0.2450
 50
31.4556
 51
45.0000
  0
ARC
  8
0_00
  6
CONTINUOUS
 62
2
 10
773.6816
 20
624.1942
 40
0.2450
 50
315.0000
 51
328.6334
  0
ARC
  8
0_00
  6
CONTINUOUS
 62
2
 10
773.6816
 20
624.1942
 40
0.2450
 50
225.0000
 51
238.5444
  0
ARC
  8
0_00
  6
CONTINUOUS
 62
2
 10
773.6816
 20
624.1942
 40
0.2450
 50
301.3667
 51
315.0000
  0
CIRCLE
  8
0_00
  6
CONTINUOUS
 62
2
 10
773.6816
 20
624.1942
 40
0.5900
  0
ARC
  8
0_00
  6
CONTINUOUS
 62
4
 10
743.3098
 20
616.7174
 40
0.2000
 50
88.0908
 51
173.6399
  0
ARC
  8
0_00
  6
CONTINUOUS
 62
4
 10
744.9663
 20
617.4627
 40
0.6000
 50
268.0909
 51
351.5889
  0
ARC
  8
0_00
  6
CONTINUOUS
 62
4
 10
745.7679
 20
618.0978
 40
0.1000
 50
90.0000
 51
171.5889
  0
ARC
  8
0_00
  6
CONTINUOUS
 62
4
 10
752.4123
 20
617.2145
 40
0.6000
 50
187.2938
 51
268.0909
  0
ARC
  8
0_00
  6
CONTINUOUS
 62
4
 10
751.5936
 20
618.0978
 40
0.1000
 50
7.2938
 51
90.0000
  0
ARC
  8
0_00
  6
CONTINUOUS
 62
4
 10
754.0518
 20
616.3594
 40
0.2000
 50
6.3135
 51
88.0908
  0
ARC
  8
0_00
  6
CONTINUOUS
 62
2
 10
746.6416
 20
626.0878
 40
0.7700
 50
129.9831
 51
230.0169
  0
ARC
  8
12_0C
  6
CONTINUOUS
 62
2
 10
745.8126
 20
617.6478
 40
0.5161
 50
129.1846
 51
230.8154
  0
ARC
  8
12_0C
  6
CONTINUOUS
 62
2
 10
751.5505
 20
617.6478
 40
0.5161
 50
309.1846
 51
410.8154
  0
ARC
  8
2_02
  6
CONTINUOUS
 62
4
 10
751.5815
 20
623.8442
 40
0.2000
 50
270.0000
 51
360.0000
  0
ARC
  8
2_02
  6
CONTINUOUS
 62
4
 10
746.6316
 20
626.9943
 40
0.2500
 50
90.0000
 51
180.0000
  0
ARC
  8
2_02
  6
CONTINUOUS
 62
4
 10
746.5816
 20
623.8442
 40
0.2000
 50
180.0000
 51
270.0000
  0
ARC
  8
0_00
  6
CONTINUOUS
 62
4
 10
1108.6816
 20
683.5343
 40
20.2300
 50
82.9593
 51
90.1802
  0
ARC
  8
0_00
  6
CONTINUOUS
 62
4
 10
1111.0816
 20
702.9666
 40
0.6500
 50
0.0000
 51
82.9593
  0
ARC
  8
0_00
  6
CONTINUOUS
 62
4
 10
1105.6317
 20
703.7142
 40
0.0500
 50
90.0000
 51
180.0000
  0
ARC
  8
0_00
  6
CONTINUOUS
 62
4
 10
1105.6317
 20
699.0142
 40
0.0500
 50
180.0000
 51
270.0000
  0
ARC
  8
0_00
  6
CONTINUOUS
 62
4
 10
1111.6816
 20
699.0142
 40
0.0500
 50
270.0000
 51
360.0000
  0
ARC
  8
0_00
  6
CONTINUOUS
 62
4
 10
1086.0935
 20
616.7235
 40
0.2000
 50
4.3652
 51
90.0000
  0
ARC
  8
0_00
  6
CONTINUOUS
 62
4
 10
1086.0889
 20
618.0978
 40
0.1000
 50
4.3652
 51
90.0000
  0
ARC
  8
0_00
  6
CONTINUOUS
 62
4
 10
1081.2697
 20
616.7235
 40
0.2000
 50
90.0000
 51
175.6347
  0
ARC
  8
0_00
  6
CONTINUOUS
 62
4
 10
1081.2741
 20
618.0978
 40
0.1000
 50
90.0000
 51
175.6347
  0
CIRCLE
  8
0_00
  6
CONTINUOUS
 62
2
 10
1083.6817
 20
617.6646
 40
0.4000
  0
ARC
  8
0_00
  6
CONTINUOUS
 62
2
 10
1083.6817
 20
617.6646
 40
0.2000
 50
126.1800
 51
143.8200
  0
ARC
  8
0_00
  6
CONTINUOUS
 62
2
 10
1083.6817
 20
617.6646
 40
0.2000
 50
36.3200
 51
53.7932
  0
ARC
  8
0_00
  6
CONTINUOUS
 62
2
 10
1083.6817
 20
617.6646
 40
0.2000
 50
306.2942
 51
323.8200
  0
ARC
  8
0_00
  6
CONTINUOUS
 62
2
 10
1083.6817
 20
617.6646
 40
0.2000
 50
216.2068
 51
233.7932
  0
ARC
  8
0_00
  6
CONTINUOUS
 62
2
 10
1083.6817
 20
624.1942
 40
0.2450
 50
121.4556
 51
135.0000
  0
ARC
  8
0_00
  6
CONTINUOUS
 62
2
 10
1083.6817
 20
624.1942
 40
0.2450
 50
45.0000
 51
58.6333
  0
ARC
  8
0_00
  6
CONTINUOUS
 62
2
 10
1083.6817
 20
624.1942
 40
0.2450
 50
315.0000
 51
328.5444
  0
ARC
  8
0_00
  6
CONTINUOUS
 62
2
 10
1083.6817
 20
624.1942
 40
0.2450
 50
31.3667
 51
45.0000
  0
ARC
  8
0_00
  6
CONTINUOUS
 62
2
 10
1083.6817
 20
624.1942
 40
0.2450
 50
135.0000
 51
148.5444
  0
ARC
  8
0_00
  6
CONTINUOUS
 62
2
 10
1083.6817
 20
624.1942
 40
0.2450
 50
211.3667
 51
225.0000
  0
ARC
  8
0_00
  6
CONTINUOUS
 62
2
 10
1083.6817
 20
624.1942
 40
0.2450
 50
301.4556
 51
315.0000
  0
ARC
  8
0_00
  6
CONTINUOUS
 62
2
 10
1083.6817
 20
624.1942
 40
0.2450
 50
225.0000
 51
238.6333
  0
CIRCLE
  8
0_00
  6
CONTINUOUS
 62
2
 10
1083.6817
 20
624.1942
 40
0.5900
  0
ARC
  8
0_00
  6
CONTINUOUS
 62
4
 10
1112.3968
 20
617.4627
 40
0.6000
 50
188.4111
 51
271.9092
  0
ARC
  8
0_00
  6
CONTINUOUS
 62
4
 10
1111.5952
 20
618.0978
 40
0.1000
 50
8.4111
 51
90.0000
  0
ARC
  8
0_00
  6
CONTINUOUS
 62
4
 10
1104.9509
 20
617.2145
 40
0.6000
 50
271.9092
 51
352.7062
  0
ARC
  8
0_00
  6
CONTINUOUS
 62
4
 10
1105.7695
 20
618.0978
 40
0.1000
 50
90.0000
 51
172.7062
  0
ARC
  8
0_00
  6
CONTINUOUS
 62
4
 10
1103.3112
 20
616.3594
 40
0.2000
 50
91.9091
 51
173.6865
  0
ARC
  8
0_00
  6
CONTINUOUS
 62
2
 10
1110.7215
 20
626.0878
 40
0.7700
 50
309.9831
 51
410.0169
  0
ARC
  8
0_00
  6
CONTINUOUS
 62
2
 10
1111.5505
 20
617.6478
 40
0.5161
 50
309.1846
 51
410.8154
  0
ARC
  8
0_00
  6
CONTINUOUS
 62
2
 10
1105.8126
 20
617.6478
 40
0.5161
 50
129.1846
 51
230.8154
  0
ARC
  8
0_00
  6
CONTINUOUS
 62
4
 10
1105.7816
 20
623.8442
 40
0.2000
 50
180.0000
 51
270.0000
  0
ARC
  8
0_00
  6
CONTINUOUS
 62
4
 10
1110.7316
 20
626.9943
 40
0.2500
 50
0.0000
 51
90.0000
  0
ARC
  8
0_00
  6
CONTINUOUS
 62
4
 10
1110.7816
 20
623.8442
 40
0.2000
 50
270.0000
 51
360.0000
  0
ARC
  8
0_00
  6
CONTINUOUS
 62
4
 10
1117.3815
 20
615.3943
 40
0.3000
 50
0.0000
 51
90.0000
  0
ARC
  8
0_00
  6
CONTINUOUS
 62
4
 10
1114.0534
 20
616.7174
 40
0.2000
 50
6.3600
 51
91.9091
  0
ARC
  8
0_00
  6
CONTINUOUS
 62
4
 10
321.2032
 20
533.0279
 40
201.6000
 50
82.9521
 51
97.0479
  0
ARC
  8
0_00
  6
CONTINUOUS
 62
4
 10
297.2032
 20
727.1499
 40
6.0000
 50
97.0479
 51
180.0001
  0
ARC
  8
0_00
  6
CONTINUOUS
 62
4
 10
345.2032
 20
727.1499
 40
6.0000
 50
359.9999
 51
442.9521
  0
ARC
  8
14_0E
  6
CONTINUOUS
 62
4
 10
321.2032
 20
533.0279
 40
200.0000
 50
82.8930
 51
97.1069
  0
ARC
  8
14_0E
  6
CONTINUOUS
 62
4
 10
297.0032
 20
727.1251
 40
4.4000
 50
97.1069
 51
180.0000
  0
ARC
  8
14_0E
  6
CONTINUOUS
 62
4
 10
345.4032
 20
727.1251
 40
4.4000
 50
0.0000
 51
82.8930
  0
ARC
  8
0_00
  6
CONTINUOUS
 62
4
 10
350.5031
 20
688.3280
 40
0.7000
 50
179.9999
 51
359.9999
  0
ARC
  8
0_00
  6
CONTINUOUS
 62
4
 10
291.9027
 20
688.3280
 40
0.7000
 50
180.0001
 51
360.0001
  0
ARC
  8
0_00
  6
CONTINUOUS
 62
4
 10
346.5309
 20
691.2280
 40
0.6000
 50
270.0000
 51
388.8667
  0
ARC
  8
0_00
  6
CONTINUOUS
 62
4
 10
335.2155
 20
691.0280
 40
0.4000
 50
194.0363
 51
270.0000
  0
ARC
  8
0_00
  6
CONTINUOUS
 62
4
 10
334.2664
 20
691.9379
 40
0.3000
 50
14.0362
 51
87.5372
  0
ARC
  8
0_00
  6
CONTINUOUS
 62
4
 10
307.1908
 20
691.0280
 40
0.4000
 50
270.0000
 51
345.9637
  0
ARC
  8
0_00
  6
CONTINUOUS
 62
4
 10
308.1399
 20
691.9379
 40
0.3000
 50
92.4628
 51
165.9637
  0
ARC
  8
0_00
  6
CONTINUOUS
 62
4
 10
349.4532
 20
693.8797
 40
0.3000
 50
275.0000
 51
371.6000
  0
ARC
  8
0_00
  6
CONTINUOUS
 62
4
 10
348.6532
 20
693.1572
 40
0.3500
 50
95.0000
 51
185.0988
  0
ARC
  8
0_00
  6
CONTINUOUS
 62
4
 10
347.6032
 20
693.5171
 40
1.0000
 50
95.0000
 51
180.0000
  0
ARC
  8
0_00
  6
CONTINUOUS
 62
4
 10
348.3279
 20
694.8855
 40
0.3000
 50
275.0000
 51
371.6000
  0
ARC
  8
0_00
  6
CONTINUOUS
 62
4
 10
348.6011
 20
698.5280
 40
0.7000
 50
90.0000
 51
191.6000
  0
ARC
  8
0_00
  6
CONTINUOUS
 62
4
 10
350.2966
 20
693.3038
 40
2.0000
 50
185.0988
 51
249.7122
  0
ARC
  8
0_00
  6
CONTINUOUS
 62
4
 10
350.2966
 20
693.3038
 40
3.7000
 50
183.4043
 51
208.8667
  0
ARC
  8
0_00
  6
CONTINUOUS
 62
4
 10
295.8754
 20
691.2280
 40
0.6000
 50
151.1333
 51
270.0000
  0
ARC
  8
0_00
  6
CONTINUOUS
 62
4
 10
292.9532
 20
693.8797
 40
0.3000
 50
168.4000
 51
265.0000
  0
ARC
  8
0_00
  6
CONTINUOUS
 62
4
 10
293.7532
 20
693.1572
 40
0.3500
 50
354.9012
 51
445.0000
  0
ARC
  8
0_00
  6
CONTINUOUS
 62
4
 10
294.8031
 20
693.5171
 40
1.0000
 50
0.0000
 51
85.0000
  0
ARC
  8
0_00
  6
CONTINUOUS
 62
4
 10
294.0784
 20
694.8855
 40
0.3000
 50
168.4000
 51
265.0000
  0
ARC
  8
0_00
  6
CONTINUOUS
 62
4
 10
293.8052
 20
698.5280
 40
0.7000
 50
348.4000
 51
450.0000
  0
ARC
  8
0_00
  6
CONTINUOUS
 62
4
 10
292.1097
 20
693.3038
 40
2.0000
 50
290.2878
 51
354.9012
  0
ARC
  8
0_00
  6
CONTINUOUS
 62
4
 10
292.1097
 20
693.3038
 40
3.7000
 50
331.1333
 51
356.5957
  0
ARC
  8
0_00
  6
CONTINUOUS
 62
4
 10
349.4031
 20
698.9518
 40
0.4000
 50
0.0000
 51
90.0000
  0
ARC
  8
0_00
  6
CONTINUOUS
 62
4
 10
349.4031
 20
700.7518
 40
0.4000
 50
270.0000
 51
359.9999
  0
ARC
  8
0_00
  6
CONTINUOUS
 62
4
 10
346.8031
 20
699.8518
 40
0.5000
 50
90.0000
 51
180.0000
  0
ARC
  8
0_00
  6
CONTINUOUS
 62
4
 10
346.5031
 20
698.7518
 40
0.2000
 50
180.0000
 51
270.0000
  0
ARC
  8
0_00
  6
CONTINUOUS
 62
4
 10
346.5031
 20
699.1518
 40
0.6000
 50
270.0000
 51
360.0000
  0
ARC
  8
0_00
  6
CONTINUOUS
 62
4
 10
348.7531
 20
693.1086
 40
0.3500
 50
95.0000
 51
190.8317
  0
ARC
  8
14_0E
  6
CONTINUOUS
 62
4
 10
350.3737
 20
693.4187
 40
2.0000
 50
190.8317
 51
253.4226
  0
ARC
  8
0_00
  6
CONTINUOUS
 62
4
 10
349.4031
 20
693.9183
 40
0.4000
 50
275.0000
 51
371.4000
  0
ARC
  8
0_00
  6
CONTINUOUS
 62
4
 10
349.5245
 20
696.3518
 40
0.2000
 50
90.0000
 51
191.4000
  0
ARC
  8
0_00
  6
CONTINUOUS
 62
4
 10
293.0027
 20
698.9518
 40
0.4000
 50
90.0000
 51
180.0000
  0
ARC
  8
0_00
  6
CONTINUOUS
 62
4
 10
293.0027
 20
700.7518
 40
0.4000
 50
183.0566
 51
270.0000
  0
ARC
  8
0_00
  6
CONTINUOUS
 62
4
 10
295.6027
 20
699.8518
 40
0.5000
 50
0.0000
 51
90.0000
  0
ARC
  8
0_00
  6
CONTINUOUS
 62
4
 10
295.9026
 20
698.7518
 40
0.2000
 50
270.0000
 51
360.0000
  0
ARC
  8
0_00
  6
CONTINUOUS
 62
4
 10
295.9026
 20
699.1518
 40
0.6000
 50
180.0000
 51
270.0000
  0
ARC
  8
0_00
  6
CONTINUOUS
 62
4
 10
293.6526
 20
693.1086
 40
0.3500
 50
349.1683
 51
445.0000
  0
ARC
  8
14_0E
  6
CONTINUOUS
 62
4
 10
292.0320
 20
693.4187
 40
2.0000
 50
286.5774
 51
349.1683
  0
ARC
  8
0_00
  6
CONTINUOUS
 62
4
 10
293.0027
 20
693.9183
 40
0.4000
 50
168.6000
 51
265.0000
  0
ARC
  8
0_00
  6
CONTINUOUS
 62
4
 10
292.8812
 20
696.3518
 40
0.2000
 50
348.6000
 51
450.0000
  0
ARC
  8
12_0C
  6
CONTINUOUS
 62
2
 10
341.4031
 20
691.7980
 40
1.3000
 50
0.0000
 51
73.3778
  0
ARC
  8
12_0C
  6
CONTINUOUS
 62
2
 10
339.2032
 20
684.4280
 40
9.0000
 50
73.3790
 51
106.6667
  0
ARC
  8
12_0C
  6
CONTINUOUS
 62
2
 10
337.0032
 20
691.7980
 40
1.3000
 50
106.6222
 51
180.0000
  0
ARC
  8
12_0C
  6
CONTINUOUS
 62
2
 10
305.4032
 20
691.7980
 40
1.3000
 50
0.0000
 51
73.3778
  0
ARC
  8
12_0C
  6
CONTINUOUS
 62
2
 10
303.2032
 20
684.4280
 40
9.0000
 50
73.3790
 51
106.6667
  0
ARC
  8
12_0C
  6
CONTINUOUS
 62
2
 10
301.0032
 20
691.7980
 40
1.3000
 50
106.6222
 51
180.0000
  0
ARC
  8
12_0C
  6
CONTINUOUS
 62
2
 10
323.4032
 20
693.5980
 40
1.3000
 50
0.0000
 51
73.3778
  0
ARC
  8
12_0C
  6
CONTINUOUS
 62
2
 10
321.2032
 20
686.2279
 40
9.0000
 50
73.3790
 51
106.6667
  0
ARC
  8
12_0C
  6
CONTINUOUS
 62
2
 10
319.0032
 20
693.5980
 40
1.3000
 50
106.6222
 51
180.0000
  0
ARC
  8
0_00
  6
CONTINUOUS
 62
2
 10
294.0580
 20
325.8029
 40
0.5000
 50
45.0000
 51
88.2101
  0
ARC
  8
0_00
  6
CONTINUOUS
 62
2
 10
294.9103
 20
325.6577
 40
0.5000
 50
225.0000
 51
270.0000
  0
ARC
  8
0_00
  6
CONTINUOUS
 62
2
 10
321.0580
 20
324.9592
 40
0.5000
 50
45.0000
 51
88.2101
  0
ARC
  8
0_00
  6
CONTINUOUS
 62
2
 10
321.9103
 20
324.8140
 40
0.5000
 50
225.0000
 51
270.0000
  0
ARC
  8
0_00
  6
CONTINUOUS
 62
2
 10
352.4806
 20
323.9772
 40
0.5000
 50
45.0000
 51
88.2101
  0
ARC
  8
0_00
  6
CONTINUOUS
 62
2
 10
353.4103
 20
323.7546
 40
0.5000
 50
225.0000
 51
270.0000
  0
CIRCLE
  8
0_00
  6
CONTINUOUS
 62
2
 10
660.0549
 20
365.0623
 40
2.2500
  0
CIRCLE
  8
0_00
  6
CONTINUOUS
 62
2
 10
660.0549
 20
333.5623
 40
2.2500
  0
CIRCLE
  8
0_00
  6
CONTINUOUS
 62
2
 10
660.0549
 20
306.5623
 40
2.2500
  0
CIRCLE
  8
0_00
  6
CONTINUOUS
 62
2
 10
660.0549
 20
275.0623
 40
2.2500
  0
CIRCLE
  8
0_00
  6
DASHED
 62
6
 10
660.0549
 20
365.0623
 40
2.5000
  0
CIRCLE
  8
0_00
  6
DASHED
 62
6
 10
660.0549
 20
365.0623
 40
3.0000
  0
CIRCLE
  8
0_00
  6
DASHED
 62
6
 10
660.0549
 20
333.5623
 40
3.0000
  0
CIRCLE
  8
0_00
  6
DASHED
 62
6
 10
660.0549
 20
333.5623
 40
2.5000
  0
CIRCLE
  8
0_00
  6
DASHED
 62
6
 10
660.0549
 20
306.5623
 40
3.0000
  0
CIRCLE
  8
0_00
  6
DASHED
 62
6
 10
660.0549
 20
306.5623
 40
2.5000
  0
CIRCLE
  8
0_00
  6
DASHED
 62
6
 10
660.0549
 20
275.0623
 40
3.0000
  0
CIRCLE
  8
0_00
  6
DASHED
 62
6
 10
660.0549
 20
275.0623
 40
2.5000
  0
ARC
  8
0_00
  6
CONTINUOUS
 62
4
 10
575.6859
 20
700.7719
 40
0.4000
 50
194.0363
 51
270.0000
  0
ARC
  8
0_00
  6
CONTINUOUS
 62
4
 10
574.7369
 20
701.6818
 40
0.3000
 50
14.0362
 51
87.5372
  0
ARC
  8
0_00
  6
CONTINUOUS
 62
4
 10
547.6613
 20
700.7719
 40
0.4000
 50
270.0000
 51
345.9637
  0
ARC
  8
0_00
  6
CONTINUOUS
 62
4
 10
548.6103
 20
701.6818
 40
0.3000
 50
92.4628
 51
165.9637
  0
ARC
  8
0_00
  6
CONTINUOUS
 62
4
 10
575.6859
 20
700.7719
 40
0.4000
 50
194.0363
 51
270.0000
  0
ARC
  8
0_00
  6
CONTINUOUS
 62
4
 10
574.7369
 20
701.6818
 40
0.3000
 50
14.0362
 51
87.5372
  0
ARC
  8
0_00
  6
CONTINUOUS
 62
4
 10
587.0013
 20
700.9719
 40
0.6000
 50
270.0000
 51
388.8667
  0
ARC
  8
0_00
  6
CONTINUOUS
 62
4
 10
589.9236
 20
703.6237
 40
0.3000
 50
275.0000
 51
371.6000
  0
ARC
  8
0_00
  6
CONTINUOUS
 62
4
 10
589.1236
 20
702.9012
 40
0.3500
 50
95.0000
 51
185.0988
  0
ARC
  8
0_00
  6
CONTINUOUS
 62
4
 10
588.0736
 20
703.2610
 40
1.0000
 50
95.0000
 51
180.0000
  0
ARC
  8
0_00
  6
CONTINUOUS
 62
4
 10
588.7984
 20
704.6294
 40
0.3000
 50
275.0000
 51
371.6000
  0
ARC
  8
0_00
  6
CONTINUOUS
 62
4
 10
589.0715
 20
708.2720
 40
0.7000
 50
90.0000
 51
191.6000
  0
ARC
  8
0_00
  6
CONTINUOUS
 62
4
 10
590.7671
 20
703.0479
 40
2.0000
 50
185.0988
 51
249.7122
  0
ARC
  8
0_00
  6
CONTINUOUS
 62
4
 10
590.7671
 20
703.0479
 40
3.7000
 50
183.4043
 51
208.8667
  0
ARC
  8
0_00
  6
CONTINUOUS
 62
4
 10
592.1741
 20
699.9107
 40
0.5000
 50
179.9995
 51
296.3368
  0
ARC
  8
0_00
  6
CONTINUOUS
 62
4
 10
589.8742
 20
708.7185
 40
0.4000
 50
359.4403
 51
449.9995
  0
ARC
  8
0_00
  6
CONTINUOUS
 62
4
 10
586.9742
 20
708.5185
 40
0.2000
 50
179.9995
 51
269.9996
  0
ARC
  8
0_00
  6
CONTINUOUS
 62
4
 10
586.9742
 20
708.9184
 40
0.6000
 50
269.9996
 51
359.9996
  0
ARC
  8
0_00
  6
CONTINUOUS
 62
4
 10
589.2241
 20
702.8753
 40
0.3500
 50
94.9995
 51
190.8312
  0
ARC
  8
14_0E
  6
CONTINUOUS
 62
4
 10
590.8447
 20
703.1853
 40
2.0000
 50
190.8312
 51
253.4221
  0
ARC
  8
0_00
  6
CONTINUOUS
 62
4
 10
589.8741
 20
703.6849
 40
0.4000
 50
274.9996
 51
371.3995
  0
ARC
  8
0_00
  6
CONTINUOUS
 62
4
 10
589.9956
 20
706.1184
 40
0.2000
 50
89.9995
 51
191.3996
  0
ARC
  8
0_00
  6
CONTINUOUS
 62
4
 10
587.7741
 20
709.4185
 40
1.0000
 50
89.9995
 51
179.9995
  0
ARC
  8
0_00
  6
CONTINUOUS
 62
4
 10
590.3741
 20
709.1184
 40
1.3000
 50
359.9996
 51
449.9995
  0
ARC
  8
0_00
  6
CONTINUOUS
 62
4
 10
561.6736
 20
674.6279
 40
60.0000
 50
56.5252
 51
123.4747
  0
ARC
  8
0_00
  6
CONTINUOUS
 62
4
 10
586.2736
 20
711.8301
 40
15.4000
 50
292.7488
 51
416.5252
  0
ARC
  8
0_00
  6
CONTINUOUS
 62
4
 10
591.6836
 20
698.9279
 40
1.4095
 50
179.9994
 51
292.7488
  0
ARC
  8
0_00
  6
CONTINUOUS
 62
4
 10
586.2736
 20
711.8301
 40
13.8000
 50
296.3368
 51
416.5252
  0
ARC
  8
0_00
  6
CONTINUOUS
 62
4
 10
561.6736
 20
674.6279
 40
58.4000
 50
56.5252
 51
123.4747
  0
ARC
  8
0_00
  6
CONTINUOUS
 62
4
 10
547.6613
 20
700.7719
 40
0.4000
 50
270.0000
 51
345.9637
  0
ARC
  8
0_00
  6
CONTINUOUS
 62
4
 10
548.6103
 20
701.6818
 40
0.3000
 50
92.4628
 51
165.9637
  0
ARC
  8
0_00
  6
CONTINUOUS
 62
4
 10
536.3458
 20
700.9719
 40
0.6000
 50
151.1333
 51
270.0000
  0
ARC
  8
0_00
  6
CONTINUOUS
 62
4
 10
533.4236
 20
703.6237
 40
0.3000
 50
168.4000
 51
265.0000
  0
ARC
  8
0_00
  6
CONTINUOUS
 62
4
 10
534.2236
 20
702.9012
 40
0.3500
 50
354.9012
 51
445.0000
  0
ARC
  8
0_00
  6
CONTINUOUS
 62
4
 10
535.2736
 20
703.2610
 40
1.0000
 50
0.0000
 51
85.0000
  0
ARC
  8
0_00
  6
CONTINUOUS
 62
4
 10
534.5488
 20
704.6294
 40
0.3000
 50
168.4000
 51
265.0000
  0
ARC
  8
0_00
  6
CONTINUOUS
 62
4
 10
534.2756
 20
708.2720
 40
0.7000
 50
348.4000
 51
450.0000
  0
ARC
  8
0_00
  6
CONTINUOUS
 62
4
 10
532.5802
 20
703.0479
 40
2.0000
 50
290.2878
 51
354.9012
  0
ARC
  8
0_00
  6
CONTINUOUS
 62
4
 10
532.5802
 20
703.0479
 40
3.7000
 50
331.1333
 51
356.5957
  0
ARC
  8
0_00
  6
CONTINUOUS
 62
4
 10
531.1731
 20
699.9107
 40
0.5000
 50
243.6632
 51
360.0004
  0
ARC
  8
0_00
  6
CONTINUOUS
 62
4
 10
533.4730
 20
708.7185
 40
0.4000
 50
89.9999
 51
180.5597
  0
ARC
  8
0_00
  6
CONTINUOUS
 62
4
 10
536.3730
 20
708.5185
 40
0.2000
 50
270.0005
 51
360.0004
  0
ARC
  8
0_00
  6
CONTINUOUS
 62
4
 10
536.3730
 20
708.9184
 40
0.6000
 50
180.0005
 51
270.0005
  0
ARC
  8
0_00
  6
CONTINUOUS
 62
4
 10
534.1230
 20
702.8753
 40
0.3500
 50
349.1688
 51
445.0004
  0
ARC
  8
14_0E
  6
CONTINUOUS
 62
4
 10
532.5025
 20
703.1853
 40
2.0000
 50
286.5779
 51
349.1688
  0
ARC
  8
0_00
  6
CONTINUOUS
 62
4
 10
533.4730
 20
703.6849
 40
0.4000
 50
168.6004
 51
265.0005
  0
ARC
  8
0_00
  6
CONTINUOUS
 62
4
 10
533.3516
 20
706.1184
 40
0.2000
 50
348.6005
 51
450.0004
  0
ARC
  8
0_00
  6
CONTINUOUS
 62
4
 10
535.5730
 20
709.4185
 40
1.0000
 50
0.0004
 51
90.0004
  0
ARC
  8
0_00
  6
CONTINUOUS
 62
4
 10
532.9730
 20
709.1184
 40
1.3000
 50
90.0004
 51
180.0005
  0
ARC
  8
0_00
  6
CONTINUOUS
 62
4
 10
537.0736
 20
711.8301
 40
15.4000
 50
123.4747
 51
247.2512
  0
ARC
  8
0_00
  6
CONTINUOUS
 62
4
 10
531.6636
 20
698.9279
 40
1.4095
 50
247.2512
 51
360.0006
  0
ARC
  8
0_00
  6
CONTINUOUS
 62
4
 10
537.0736
 20
711.8301
 40
13.8000
 50
123.4747
 51
243.6632
  0
ARC
  8
12_0C
  6
CONTINUOUS
 62
2
 10
563.8736
 20
703.3419
 40
1.3000
 50
0.0000
 51
73.3778
  0
ARC
  8
12_0C
  6
CONTINUOUS
 62
2
 10
561.6736
 20
695.9719
 40
9.0000
 50
73.3790
 51
106.6667
  0
ARC
  8
12_0C
  6
CONTINUOUS
 62
2
 10
559.4735
 20
703.3419
 40
1.3000
 50
106.6222
 51
180.0000
  0
ARC
  8
12_0C
  6
CONTINUOUS
 62
2
 10
545.8736
 20
701.5419
 40
1.3000
 50
0.0000
 51
73.3778
  0
ARC
  8
12_0C
  6
CONTINUOUS
 62
2
 10
543.6736
 20
694.1719
 40
9.0000
 50
73.3790
 51
106.6667
  0
ARC
  8
12_0C
  6
CONTINUOUS
 62
2
 10
541.4736
 20
701.5419
 40
1.3000
 50
106.6222
 51
180.0000
  0
ARC
  8
12_0C
  6
CONTINUOUS
 62
2
 10
581.8736
 20
701.5419
 40
1.3000
 50
0.0000
 51
73.3778
  0
ARC
  8
12_0C
  6
CONTINUOUS
 62
2
 10
579.6736
 20
694.1719
 40
9.0000
 50
73.3790
 51
106.6667
  0
ARC
  8
12_0C
  6
CONTINUOUS
 62
2
 10
577.4736
 20
701.5419
 40
1.3000
 50
106.6222
 51
180.0000
  0
ARC
  8
0_00
  6
CONTINUOUS
 62
3
 10
1089.6760
 20
72.2363
 40
0.5362
 50
270.0000
 51
450.0000
  0
ARC
  8
0_00
  6
CONTINUOUS
 62
3
 10
1088.1842
 20
77.0626
 40
0.6532
 50
0.0000
 51
180.0000
  0
ARC
  8
0_00
  6
CONTINUOUS
 62
3
 10
1089.1886
 20
83.4001
 40
1.9500
 50
333.9999
 51
450.0000
  0
CIRCLE
  8
0_00
  6
CONTINUOUS
 62
3
 10
1090.0660
 20
87.3000
 40
1.5600
  0
ARC
  8
0_00
  6
CONTINUOUS
 62
3
 10
1088.2811
 20
77.0626
 40
0.4500
 50
0.0000
 51
180.0000
  0
ARC
  8
0_00
  6
CONTINUOUS
 62
3
 10
1088.2811
 20
77.0626
 40
0.1500
 50
0.0000
 51
180.0000
  0
ARC
  8
0_00
  6
CONTINUOUS
 62
3
 10
1089.6760
 20
72.1725
 40
0.3000
 50
270.0000
 51
450.0000
  0
CIRCLE
  8
0_00
  6
CONTINUOUS
 62
3
 10
1090.0660
 20
87.3000
 40
1.3244
  0
CIRCLE
  8
0_00
  6
CONTINUOUS
 62
3
 10
1090.0660
 20
87.3000
 40
1.0256
  0
CIRCLE
  8
0_00
  6
CONTINUOUS
 62
3
 10
1090.0660
 20
87.3000
 40
0.7027
  0
CIRCLE
  8
0_00
  6
CONTINUOUS
 62
3
 10
1090.0660
 20
87.3000
 40
0.3440
  0
CIRCLE
  8
0_00
  6
CONTINUOUS
 62
3
 10
1090.0660
 20
87.3000
 40
0.1699
  0
CIRCLE
  8
0_00
  6
CONTINUOUS
 62
4
 10
881.0410
 20
82.2001
 40
3.7500
  0
CIRCLE
  8
0_00
  6
CONTINUOUS
 62
4
 10
881.0410
 20
82.2001
 40
6.0000
  0
TEXT
  8
0_00
 62
7
 10
370.6573
 20
630.1722
 40
7.50
 41
1.00
 50
0.0000
  1
標準手すり直線格子セット
  0
TEXT
  8
0_00
 62
7
 10
370.6573
 20
535.6900
 40
7.50
 41
1.00
 50
0.0000
  1
間柱
  0
TEXT
  8
0_00
 62
7
 10
164.0124
 20
213.5153
 40
7.50
 41
1.00
 50
0.0000
  1
ナイロンアンカー
  0
TEXT
  8
0_00
 62
7
 10
182.2124
 20
201.5153
 40
7.50
 41
1.00
 50
0.0000
  1
φ８
  0
TEXT
  8
0_00
 62
7
 10
154.8617
 20
239.1840
 40
7.50
 41
1.00
 50
0.0000
  1
タッピンねじ・トラス
  0
TEXT
  8
0_00
 62
7
 10
159.3148
 20
227.0238
 40
7.50
 41
1.00
 50
0.0000
  1
φ６×５０（１種）
  0
TEXT
  8
0_00
 62
7
 10
120.7150
 20
188.8044
 40
7.50
 41
1.00
 50
0.0000
  1
下穴（φ８）現場加工
  0
TEXT
  8
0_00
 62
7
 10
123.9150
 20
176.8044
 40
7.50
 41
1.00
 50
0.0000
  1
下穴コーキング処理
  0
TEXT
  8
0_00
 62
7
 10
410.1428
 20
343.7220
 40
7.50
 41
1.00
 50
0.0000
  1
笠木
  0
TEXT
  8
0_00
 62
7
 10
449.4378
 20
246.7403
 40
7.50
 41
1.00
 50
0.0000
  1
ブラケット
  0
TEXT
  8
0_00
 62
7
 10
739.3701
 20
269.8095
 40
7.50
 41
1.00
 50
0.0000
  1
ベース
  0
TEXT
  8
0_00
 62
7
 10
722.9335
 20
202.1967
 40
7.50
 41
1.00
 50
0.0000
  1
ブラケット
  0
TEXT
  8
0_00
 62
7
 10
923.8841
 20
243.0506
 40
7.50
 41
1.00
 50
0.0000
  1
間柱基礎金具
  0
TEXT
  8
0_00
 62
7
 10
1065.5666
 20
243.0506
 40
7.50
 41
1.00
 50
0.0000
  1
ボルトキャップ
  0
TEXT
  8
0_00
 62
2
 10
191.2032
 20
796.2000
 40
12.00
 41
1.00
 50
0.0000
  1
屋外側
  0
TEXT
  8
0_00
 62
2
 10
422.4032
 20
796.2000
 40
12.00
 41
1.00
 50
0.0000
  1
建物側
  0
TEXT
  8
15_0F
 62
7
 10
98.4012
 20
311.7891
 40
6.75
 41
0.75
 50
90.0000
  1
20
  0
TEXT
  8
15_0F
 62
7
 10
98.5000
 20
462.8413
 40
7.50
 41
1.00
 50
90.0000
  1
３０１≦Ｈ（手すり高さ寸法）≦１２００
  0
TEXT
  8
15_0F
 62
7
 10
118.5000
 20
574.0412
 40
7.50
 41
1.00
 50
90.0000
  1
Ｈ１
  0
TEXT
  8
15_0F
 62
7
 10
118.5000
 20
331.0546
 40
7.50
 41
1.00
 50
90.0000
  1
３０≦ｇ［１００］≦１００
  0
TEXT
  8
15_0F
 62
7
 10
158.5000
 20
291.1546
 40
6.75
 41
0.75
 50
90.0000
  1
65
  0
TEXT
  8
15_0F
 62
7
 10
458.5000
 20
287.6546
 40
6.75
 41
0.75
 50
90.0000
  1
60
  0
TEXT
  8
15_0F
 62
7
 10
928.0550
 20
461.5000
 40
7.50
 41
1.00
 50
0.0000
  1
（５３．５～１１７）
  0
TEXT
  8
15_0F
 62
7
 10
1013.5168
 20
461.5000
 40
6.75
 41
0.75
 50
0.0000
  1
40
  0
TEXT
  8
15_0F
 62
7
 10
1040.0550
 20
461.5000
 40
7.50
 41
1.00
 50
0.0000
  1
（５３．５～１１７）
  0
TEXT
  8
15_0F
 62
7
 10
775.2549
 20
481.5000
 40
7.50
 41
1.00
 50
0.0000
  1
２５０≦Ｌ（柱スパン寸法）≦１８２０
  0
TEXT
  8
15_0F
 62
7
 10
1012.8549
 20
181.5000
 40
6.75
 41
0.75
 50
0.0000
  1
54
  0
TEXT
  8
15_0F
 62
7
 10
649.2550
 20
461.5000
 40
6.75
 41
0.75
 50
0.0000
  1
110
  0
TEXT
  8
15_0F
 62
7
 10
652.4889
 20
441.5000
 40
6.75
 41
0.75
 50
0.0000
  1
41
  0
TEXT
  8
15_0F
 62
7
 10
652.8549
 20
181.5000
 40
6.75
 41
0.75
 50
0.0000
  1
60
  0
TEXT
  8
15_0F
 62
7
 10
1198.5000
 20
309.2623
 40
6.75
 41
0.75
 50
90.0000
  1
114
  0
TEXT
  8
15_0F
 62
7
 10
1178.5000
 20
312.8623
 40
6.75
 41
0.75
 50
90.0000
  1
90
  0
TEXT
  8
15_0F
 62
7
 10
1158.5000
 20
312.8623
 40
6.75
 41
0.75
 50
90.0000
  1
50
  0
TEXT
  8
15_0F
 62
7
 10
951.5549
 20
441.5000
 40
6.75
 41
0.75
 50
0.0000
  1
20
  0
TEXT
  8
15_0F
 62
7
 10
778.5000
 20
303.8623
 40
6.75
 41
0.75
 50
90.0000
  1
45
  0
TEXT
  8
15_0F
 62
7
 10
798.5000
 20
346.0623
 40
6.75
 41
0.75
 50
90.0000
  1
25
  0
TEXT
  8
15_0F
 62
7
 10
518.5000
 20
309.2623
 40
6.75
 41
0.75
 50
90.0000
  1
104
  0
TEXT
  8
15_0F
 62
7
 10
538.5000
 20
312.8623
 40
6.75
 41
0.75
 50
90.0000
  1
56
  0
TEXT
  8
0_00
 62
7
 10
195.9553
 20
362.0408
 40
7.50
 41
1.00
 50
0.0000
  1
間柱基礎金具
  0
TEXT
  8
15_0F
 62
7
 10
204.6905
 20
100.2001
 40
7.50
 41
1.00
 50
0.0000
  1
１）Ｈ、Ｈ１、Ｌ、ＬＣは発注寸法とする。
  0
TEXT
  8
0_00
 62
7
 10
900.4926
 20
712.6138
 40
6.75
 41
0.75
 50
0.0000
  1
A
  0
TEXT
  8
0_00
 62
7
 10
900.4926
 20
593.7986
 40
6.75
 41
0.75
 50
0.0000
  1
A
  0
TEXT
  8
0_00
 62
7
 10
846.3545
 20
586.5759
 40
7.50
 41
1.00
 50
0.0000
  1
Ｂ
  0
TEXT
  8
0_00
 62
7
 10
204.6905
 20
85.2001
 40
7.50
 41
1.00
 50
0.0000
  1
２）［　］内寸法は標準寸法とする。
  0
TEXT
  8
0_00
 62
7
 10
997.7126
 20
586.5759
 40
7.50
 41
1.00
 50
0.0000
  1
Ｂ
  0
TEXT
  8
15_0F
 62
7
 10
221.9032
 20
128.4252
 40
7.50
 41
1.00
 50
0.0000
  1
　　　 １８０、１９５、２１０、２４０、２７０
  0
TEXT
  8
15_0F
 62
7
 10
234.9532
 20
143.4252
 40
7.50
 41
1.00
 50
0.0000
  1
Ａ（笠木幅）＝１３５、１５０、１６５、　
  0
TEXT
  8
0_00
 62
7
 10
278.4153
 20
164.0241
 40
7.50
 41
1.00
 50
0.0000
  1
（最大躯体寸法Ａ－２０）
  0
TEXT
  8
0_00
 62
7
 10
270.8032
 20
178.8615
 40
7.50
 41
1.00
 50
0.0000
  1
躯体寸法（推奨寸法Ａ－３０）
  0
TEXT
  8
15_0F
 62
7
 10
300.0338
 20
812.0619
 40
7.50
 41
1.00
 50
0.0000
  1
［ＫＯＡ型］
  0
TEXT
  8
15_0F
 62
7
 10
608.6523
 20
748.1928
 40
7.50
 41
1.00
 50
0.0000
  1
Ｄ型笠木カバー
  0
TEXT
  8
15_0F
 62
7
 10
368.1347
 20
749.5590
 40
7.50
 41
1.00
 50
0.0000
  1
Ｋ型笠木カバー
  0
TEXT
  8
15_0F
 62
7
 10
540.5043
 20
812.0619
 40
7.50
 41
1.00
 50
0.0000
  1
［ＤＯＡ型］
  0
TEXT
  8
15_0F
 62
7
 10
824.1611
 20
70.2000
 40
7.50
 41
1.00
 50
0.0000
  1
１
  0
TEXT
  8
15_0F
 62
7
 10
852.6611
 20
70.2000
 40
7.50
 41
1.00
 50
0.0000
  1
３
  0
TEXT
  8
15_0F
 62
7
 10
704.3110
 20
74.7000
 40
7.50
 41
1.00
 50
0.0000
  1
納まり図
  0
TEXT
  8
15_0F
 62
7
 10
508.1110
 20
41.7000
 40
7.50
 41
1.00
 50
0.0000
  1
ＲＣ造
  0
TEXT
  8
15_0F
 62
7
 10
497.3110
 20
71.7000
 40
7.50
 41
1.00
 50
0.0000
  1
低・中・高層
  0
TEXT
  8
15_0F
 62
7
 10
576.0610
 20
71.7000
 40
7.50
 41
1.00
 50
0.0000
  1
手すり付笠木
  0
TEXT
  8
15_0F
 62
7
 10
563.8610
 20
41.7000
 40
7.50
 41
1.00
 50
0.0000
  1
ＫＯＡ、ＤＯＡ型
  0
TEXT
  8
15_0F
 62
7
 10
635.9110
 20
44.7000
 40
7.50
 41
1.00
 50
0.0000
  1
床支持標準手すり［直線部］（直線格子）納まり図
  0
TEXT
  8
0_00
 62
2
 10
1135.4250
 20
461.2623
 40
12.00
 41
1.00
 50
0.0000
  1
建物側
  0
TEXT
  8
0_00
 62
2
 10
1135.4250
 20
166.8623
 40
12.00
 41
1.00
 50
0.0000
  1
屋外側
  0
TEXT
  8
0_00
 62
7
 10
70.2905
 20
40.2001
 40
7.50
 41
1.00
 50
0.0000
  1
適用製品
  0
TEXT
  8
0_00
 62
7
 10
130.2905
 20
40.2001
 40
7.50
 41
1.00
 50
0.0000
  1
適用日付
  0
TEXT
  8
0_00
 62
7
 10
178.5905
 20
100.2001
 40
7.50
 41
1.00
 50
0.0000
  1
記事
  0
TEXT
  8
0_00
 62
7
 10
472.5611
 20
85.2001
 40
7.50
 41
1.00
 50
0.0000
  1
階層仕様
  0
TEXT
  8
0_00
 62
7
 10
472.5611
 20
55.2000
 40
7.50
 41
1.00
 50
0.0000
  1
適用躯体
  0
TEXT
  8
0_00
 62
7
 10
630.0610
 20
85.2001
 40
7.50
 41
1.00
 50
0.0000
  1
名　称
  0
TEXT
  8
0_00
 62
7
 10
630.0610
 20
55.2000
 40
7.50
 41
1.00
 50
0.0000
  1
図　名
  0
TEXT
  8
0_00
 62
7
 10
814.9368
 20
100.2458
 40
7.50
 41
1.00
 50
0.0000
  1
Ｎｏ．
  0
TEXT
  8
0_00
 62
7
 10
1123.5610
 20
100.2001
 40
7.50
 41
1.00
 50
0.0000
  1
適　　　　　　　　用
  0
TEXT
  8
0_00
 62
7
 10
1078.4111
 20
100.2001
 40
7.50
 41
1.00
 50
0.0000
  1
個数
  0
TEXT
  8
0_00
 62
7
 10
1023.2110
 20
100.2001
 40
7.50
 41
1.00
 50
0.0000
  1
材　　質
  0
TEXT
  8
0_00
 62
7
 10
926.1610
 20
100.2001
 40
7.50
 41
1.00
 50
0.0000
  1
部　　　品　　　名
  0
TEXT
  8
0_00
 62
7
 10
895.9360
 20
100.2001
 40
7.50
 41
1.00
 50
0.0000
  1
品番
  0
TEXT
  8
0_00
 62
7
 10
850.8611
 20
100.2001
 40
7.50
 41
1.00
 50
0.0000
  1
図　　番
  0
TEXT
  8
0_00
 62
7
 10
816.6610
 20
85.2001
 40
7.50
 41
1.00
 50
0.0000
  1
尺度
  0
TEXT
  8
0_00
 62
7
 10
816.6610
 20
55.2000
 40
7.50
 41
1.00
 50
0.0000
  1
日付
  0
TEXT
  8
0_00
 62
7
 10
928.3942
 20
85.2001
 40
7.50
 41
1.00
 50
0.0000
  1
承認
  0
TEXT
  8
0_00
 62
7
 10
970.5611
 20
85.2001
 40
7.50
 41
1.00
 50
0.0000
  1
検図
  0
TEXT
  8
0_00
 62
7
 10
1006.8610
 20
85.2001
 40
7.50
 41
1.00
 50
0.0000
  1
設計
  0
TEXT
  8
0_00
 62
7
 10
1044.2110
 20
85.2001
 40
7.50
 41
1.00
 50
0.0000
  1
製図
  0
TEXT
  8
0_00
 62
7
 10
1074.5110
 20
55.2000
 40
7.50
 41
1.00
 50
0.0000
  1
図番
  0
TEXT
  8
0_00
 62
2
 10
1103.9219
 20
74.2350
 40
12.00
 41
1.00
 50
0.0000
  1
文化シヤッター株式会社
  0
TEXT
  8
0_00
 62
7
 10
200.7905
 20
862.9501
 40
7.50
 41
1.00
 50
180.0000
  1
図番
  0
TEXT
  8
0_00
 62
7
 10
799.0510
 20
854.0169
 40
6.00
 41
1.00
 50
0.0000
  1
ＮＯ
  0
TEXT
  8
0_00
 62
7
 10
825.2111
 20
853.9501
 40
7.50
 41
1.00
 50
0.0000
  1
個　数
  0
TEXT
  8
0_00
 62
7
 10
870.3611
 20
853.9501
 40
7.50
 41
1.00
 50
0.0000
  1
日　　付
  0
TEXT
  8
0_00
 62
7
 10
984.2111
 20
853.9501
 40
7.50
 41
1.00
 50
0.0000
  1
訂　　　正　　　記　　　事
  0
TEXT
  8
0_00
 62
7
 10
838.4111
 20
70.2000
 40
6.75
 41
0.75
 50
0.0000
  1
:
  0
TEXT
  8
0_00
 62
7
 10
1137.8712
 20
26.7000
 40
6.00
 41
1.00
 50
0.0000
  1
ＪＩＳ　Ａ－３
  0
TEXT
  8
0_00
 62
7
 10
1179.4986
 20
26.6983
 40
6.00
 41
1.00
 50
0.0000
  1
（２９７×４２０）
  0
TEXT
  8
0_00
 62
7
 10
1153.1111
 20
853.9501
 40
7.50
 41
1.00
 50
0.0000
  1
担　当
  0
TEXT
  8
0_00
 62
7
 10
1189.1111
 20
853.9501
 40
7.50
 41
1.00
 50
0.0000
  1
承　認
  0
TEXT
  8
0_00
 62
7
 10
551.3111
 20
85.2001
 40
7.50
 41
1.00
 50
0.0000
  1
機種名
  0
TEXT
  8
0_00
 62
7
 10
551.3111
 20
55.2000
 40
7.50
 41
1.00
 50
0.0000
  1
型　式
  0
TEXT
  8
0_00
 62
7
 10
314.0032
 20
203.0000
 40
6.75
 41
0.75
 50
0.0000
  1
56
  0
TEXT
  8
0_00
 62
7
 10
314.0032
 20
783.0000
 40
6.75
 41
0.75
 50
0.0000
  1
60
  0
TEXT
  8
0_00
 62
7
 10
140.0000
 20
703.9280
 40
6.75
 41
0.75
 50
90.0000
  1
47
  0
TEXT
  8
0_00
 62
7
 10
140.0000
 20
438.1546
 40
6.75
 41
0.75
 50
90.0000
  1
35
  0
TEXT
  8
0_00
 62
7
 10
1177.0000
 20
656.0942
 40
6.75
 41
0.75
 50
90.0000
  1
H
  0
TEXT
  8
0_00
 62
7
 10
1157.0000
 20
599.4943
 40
6.75
 41
0.75
 50
90.0000
  1
g
  0
TEXT
  8
0_00
 62
7
 10
1157.0000
 20
656.4943
 40
6.75
 41
0.75
 50
90.0000
  1
H1
  0
TEXT
  8
0_00
 62
7
 10
924.2316
 20
743.0000
 40
6.75
 41
0.75
 50
0.0000
  1
127
  0
TEXT
  8
0_00
 62
7
 10
1051.0279
 20
536.0458
 40
7.50
 41
1.00
 50
0.0000
  1
外観姿図（１：３０）
  0
TEXT
  8
0_00
 62
7
 10
753.9816
 20
763.0000
 40
7.50
 41
1.00
 50
0.0000
  1
ＬＣ
  0
TEXT
  8
0_00
 62
7
 10
821.7482
 20
763.0000
 40
7.50
 41
1.00
 50
0.0000
  1
Ｌ
  0
TEXT
  8
0_00
 62
7
 10
892.6816
 20
763.0000
 40
7.50
 41
1.00
 50
0.0000
  1
２５０≦Ｌ≦１８２０
  0
TEXT
  8
0_00
 62
7
 10
1028.4150
 20
763.0000
 40
7.50
 41
1.00
 50
0.0000
  1
Ｌ
  0
TEXT
  8
0_00
 62
7
 10
1088.9815
 20
763.0000
 40
7.50
 41
1.00
 50
0.0000
  1
ＬＣ
  0
TEXT
  8
0_00
 62
7
 10
530.5045
 20
172.8849
 40
7.50
 41
1.00
 50
0.0000
  1
Ｂ－Ｂ矢視図
  0
TEXT
  8
0_00
 62
7
 10
131.1611
 20
139.9380
 40
7.50
 41
1.00
 50
0.0000
  1
Ａ－Ａ矢視図
  0
TEXT
  8
0_00
 62
7
 10
137.0000
 20
327.5046
 40
6.75
 41
0.75
 50
90.0000
  1
(28)
  0
TEXT
  8
15_0F
 62
7
 10
380.0032
 20
178.8615
 40
6.75
 41
0.75
 50
0.0000
  1
n
  0
TEXT
  8
15_0F
 62
7
 10
420.2032
 20
178.8615
 40
6.75
 41
0.75
 50
0.0000
  1
10
  0
TEXT
  8
15_0F
 62
7
 10
207.8032
 20
178.8615
 40
6.75
 41
0.75
 50
0.0000
  1
10
  0
TEXT
  8
15_0F
 62
7
 10
255.2032
 20
178.8615
 40
6.75
 41
0.75
 50
0.0000
  1
n
  0
TEXT
  8
15_0F
 62
7
 10
554.7540
 20
779.1022
 40
6.75
 41
0.75
 50
0.0000
  1
80
  0
TEXT
  8
0_00
 62
7
 10
477.0000
 20
708.8731
 40
6.75
 41
0.75
 50
90.0000
  1
37
  0
POINT
  8
0_00
 62
2
 10
1112.0549
 20
320.0623
  0
POINT
  8
0_00
 62
2
 10
1070.0549
 20
302.0623
  0
POINT
  8
0_00
 62
2
 10
1070.0549
 20
338.0623
  0
POINT
  8
0_00
 62
2
 10
970.0549
 20
302.0623
  0
POINT
  8
0_00
 62
2
 10
970.0549
 20
338.0623
  0
POINT
  8
0_00
 62
2
 10
321.2032
 20
453.6546
  0
POINT
  8
0_00
 62
2
 10
321.2032
 20
440.6546
  0
POINT
  8
0_00
 62
2
 10
289.6529
 20
350.4546
  0
POINT
  8
0_00
 62
2
 10
352.7535
 20
350.4546
  0
POINT
  8
0_00
 62
2
 10
1020.0549
 20
288.5123
  0
POINT
  8
0_00
 62
2
 10
1020.0549
 20
351.6124
  0
POINT
  8
0_00
 62
2
 10
1070.0549
 20
302.0623
  0
POINT
  8
0_00
 62
2
 10
1070.0549
 20
338.0623
  0
POINT
  8
0_00
 62
2
 10
970.0549
 20
302.0623
  0
POINT
  8
0_00
 62
2
 10
970.0549
 20
338.0623
  0
POINT
  8
0_00
 62
2
 10
321.2032
 20
453.6546
  0
POINT
  8
0_00
 62
2
 10
321.2032
 20
440.6546
  0
POINT
  8
0_00
 62
2
 10
877.0149
 20
617.6646
  0
POINT
  8
0_00
 62
2
 10
980.3482
 20
617.6646
  0
POINT
  8
0_00
 62
2
 10
877.0149
 20
624.1942
  0
POINT
  8
0_00
 62
2
 10
980.3482
 20
624.1942
  0
POINT
  8
0_00
 62
2
 10
773.6816
 20
617.6646
  0
POINT
  8
0_00
 62
2
 10
773.6816
 20
624.1942
  0
POINT
  8
0_00
 62
2
 10
745.5266
 20
617.6478
  0
POINT
  8
0_00
 62
2
 10
751.8366
 20
617.6478
  0
POINT
  8
0_00
 62
2
 10
1083.6817
 20
617.6646
  0
POINT
  8
0_00
 62
2
 10
1083.6817
 20
624.1942
  0
POINT
  8
0_00
 62
2
 10
1111.8366
 20
617.6478
  0
POINT
  8
0_00
 62
2
 10
1105.5266
 20
617.6478
  0
POINT
  8
0_00
 62
4
 10
307.9032
 20
692.2280
  0
POINT
  8
0_00
 62
4
 10
307.5032
 20
690.6279
  0
POINT
  8
0_00
 62
2
 10
294.6635
 20
699.2280
  0
POINT
  8
0_00
 62
2
 10
293.7448
 20
699.2280
  0
POINT
  8
0_00
 62
2
 10
24.0905
 20
14.9991
  0
POINT
  8
0_00
 62
2
 10
24.0905
 20
14.9991
  0
POINT
  8
0_00
 62
2
 10
84.6905
 20
59.7001
  0
POINT
  8
0_00
 62
2
 10
84.6905
 20
74.7001
  0
POINT
  8
0_00
 62
2
 10
84.6905
 20
89.7001
  0
POINT
  8
0_00
 62
2
 10
84.6905
 20
104.7001
  0
POINT
  8
0_00
 62
2
 10
518.9110
 20
76.2000
  0
POINT
  8
0_00
 62
2
 10
518.9110
 20
46.2000
  0
POINT
  8
0_00
 62
2
 10
718.7110
 20
79.2000
  0
POINT
  8
0_00
 62
2
 10
718.7110
 20
49.2000
  0
POINT
  8
0_00
 62
2
 10
1097.7610
 20
52.2000
  0
POINT
  8
0_00
 62
2
 10
1014.0610
 20
59.7001
  0
POINT
  8
0_00
 62
2
 10
144.6905
 20
59.7001
  0
POINT
  8
0_00
 62
2
 10
144.6905
 20
74.7001
  0
POINT
  8
0_00
 62
2
 10
144.6905
 20
89.7001
  0
POINT
  8
0_00
 62
2
 10
144.6905
 20
104.7001
  0
POINT
  8
0_00
 62
2
 10
856.2610
 20
74.7000
  0
POINT
  8
0_00
 62
2
 10
827.7610
 20
74.7000
  0
POINT
  8
0_00
 62
2
 10
204.6905
 20
104.7001
  0
POINT
  8
0_00
 62
2
 10
204.6905
 20
89.7001
  0
POINT
  8
0_00
 62
2
 10
204.6905
 20
74.7001
  0
POINT
  8
0_00
 62
2
 10
204.6905
 20
59.7001
  0
POINT
  8
0_00
 62
2
 10
204.6905
 20
44.7001
  0
POINT
  8
0_00
 62
2
 10
1051.4110
 20
59.7001
  0
POINT
  8
0_00
 62
2
 10
84.6905
 20
44.7001
  0
POINT
  8
0_00
 62
2
 10
144.6905
 20
44.7001
  0
POINT
  8
0_00
 62
2
 10
174.6905
 20
858.4501
  0
POINT
  8
0_00
 62
2
 10
862.6360
 20
49.2000
  0
POINT
  8
0_00
 62
2
 10
597.6610
 20
76.2000
  0
POINT
  8
0_00
 62
2
 10
597.6610
 20
46.2000
  0
POINT
  8
15_0F
 62
6
 10
401.2032
 20
175.8615
  0
POINT
  8
15_0F
 62
6
 10
241.2032
 20
175.8615
  0
ENDSEC
  0
EOF
