999
  
  0
SECTION
  2
HEADER
  9
$EXTMIN
 10
0
 20
0
  9
$EXTMAX
 10
1260
 20
888
  9
$LTSCALE
 40
3.00
  9
$PDMODE
 70
33
  9
$PDSIZE
 40
1.80
  0
ENDSEC
  0
SECTION
  2
TABLES
  0
TABLE
  2
LTYPE
 70
9
  0
LTYPE
  2
CONTINUOUS
 70
64
  3
実線
 72
65
 73
0
 40
0.00
  0
LTYPE
  2
DASHED
 70
64
  3
__  __  __  __  __  __  __ 
 72
65
 73
2
 40
1.00
 49
0.50
 49
-0.50
  0
LTYPE
  2
HIDDEN1
 70
64
  3
____    ____    ____    ___
 72
65
 73
2
 40
2.20
 49
1.20
 49
-1.00
  0
LTYPE
  2
HIDDEN2
 70
64
  3
______  ______  ______  ___
 72
65
 73
2
 40
4.50
 49
3.50
 49
-1.00
  0
LTYPE
  2
CENTER1
 70
64
  3
_______ _ _______ _ _______
 72
65
 73
4
 40
20.00
 49
17.00
 49
-1.00
 49
1.00
 49
-1.00
  0
LTYPE
  2
CENTER2
 70
64
  3
___________  __  __________
 72
65
 73
4
 40
40.00
 49
34.00
 49
-2.00
 49
2.00
 49
-2.00
  0
LTYPE
  2
PHANTOM1
 70
64
  3
______ _ _ ______ _ _ _____
 72
65
 73
6
 40
20.00
 49
15.00
 49
-1.00
 49
1.00
 49
-1.00
 49
1.00
 49
-1.00
  0
LTYPE
  2
PHANTOM2
 70
64
  3
__________  _  _  _________
 72
65
 73
6
 40
40.00
 49
30.00
 49
-2.00
 49
2.00
 49
-2.00
 49
2.00
 49
-2.00
  0
LTYPE
  2
DOT
 70
64
  3
 .  .  .  .  .  .  .  .  . 
 72
65
 73
2
 40
1.00
 49
0.00
 49
-1.00
  0
ENDTAB
  0
TABLE
  2
STYLE
 70
1
  0
STYLE
  2
STANDARD
 70
64
 40
0.0
 41
1.0
 42
0.0
 50
0.0
 71
0
  3
ROMANS
  4
BIGFONT
  0
ENDTAB
  0
TABLE
  2
LAYER
 70
6
  0
LAYER
  2
0_00
 70
64
 62
7
  6
CONTINUOUS
  0
LAYER
  2
2_02
 70
64
 62
7
  6
CONTINUOUS
  0
LAYER
  2
3_03
 70
64
 62
7
  6
CONTINUOUS
  0
LAYER
  2
12_0C
 70
64
 62
7
  6
CONTINUOUS
  0
LAYER
  2
14_0E
 70
64
 62
7
  6
CONTINUOUS
  0
LAYER
  2
15_0F
 70
64
 62
7
  6
CONTINUOUS
  0
ENDTAB
  0
ENDSEC
  0
SECTION
  2
ENTITIES
  0
LINE
  8
0_00
  6
CENTER1
 62
6
 10
780.2643
 20
711.5408
 11
780.2643
 21
159.9928
  0
LINE
  8
0_00
  6
CONTINUOUS
 62
2
 10
162.8494
 20
516.7709
 11
210.2937
 21
516.7709
  0
LINE
  8
0_00
  6
CONTINUOUS
 62
2
 10
210.2937
 20
512.2710
 11
162.8494
 21
512.2710
  0
LINE
  8
0_00
  6
CONTINUOUS
 62
4
 10
728.2643
 20
216.3843
 11
832.2643
 21
216.3843
  0
LINE
  8
0_00
  6
CONTINUOUS
 62
4
 10
840.2643
 20
208.3843
 11
840.2643
 21
167.3880
  0
LINE
  8
0_00
  6
CONTINUOUS
 62
4
 10
720.2643
 20
208.3843
 11
720.2643
 21
167.3880
  0
LINE
  8
0_00
  6
CONTINUOUS
 62
4
 10
720.2643
 20
208.3843
 11
832.2643
 21
208.3843
  0
LINE
  8
0_00
  6
CONTINUOUS
 62
4
 10
832.2643
 20
208.3843
 11
832.2643
 21
167.3880
  0
LINE
  8
0_00
  6
CONTINUOUS
 62
2
 10
728.2643
 20
216.3843
 11
728.2643
 21
208.3843
  0
LINE
  8
0_00
  6
CONTINUOUS
 62
2
 10
725.8188
 20
216.0014
 11
728.2643
 21
213.5558
  0
LINE
  8
0_00
  6
CONTINUOUS
 62
2
 10
723.9017
 20
215.0901
 11
728.2643
 21
210.7274
  0
LINE
  8
0_00
  6
CONTINUOUS
 62
2
 10
722.3700
 20
213.7933
 11
727.7790
 21
208.3843
  0
LINE
  8
0_00
  6
CONTINUOUS
 62
2
 10
721.1987
 20
212.1362
 11
724.9506
 21
208.3843
  0
LINE
  8
0_00
  6
CONTINUOUS
 62
2
 10
720.4426
 20
210.0638
 11
722.1221
 21
208.3843
  0
LINE
  8
0_00
  6
CONTINUOUS
 62
2
 10
728.2643
 20
212.3843
 11
832.2643
 21
212.3843
  0
LINE
  8
0_00
  6
CONTINUOUS
 62
2
 10
836.2643
 20
208.3843
 11
836.2643
 21
167.3880
  0
LINE
  8
0_00
  6
CONTINUOUS
 62
4
 10
855.2642
 20
216.3843
 11
845.2643
 21
226.3843
  0
LINE
  8
3_03
  6
CONTINUOUS
 62
4
 10
715.2643
 20
226.3843
 11
705.2643
 21
216.3843
  0
LINE
  8
0_00
  6
CONTINUOUS
 62
2
 10
749.0368
 20
208.3843
 11
720.2643
 21
179.6117
  0
LINE
  8
0_00
  6
CONTINUOUS
 62
2
 10
753.2795
 20
208.3843
 11
720.2643
 21
175.3691
  0
LINE
  8
0_00
  6
CONTINUOUS
 62
2
 10
757.5221
 20
208.3843
 11
720.2643
 21
171.1265
  0
LINE
  8
0_00
  6
CONTINUOUS
 62
2
 10
828.2327
 20
208.3843
 11
787.2365
 21
167.3880
  0
LINE
  8
0_00
  6
CONTINUOUS
 62
2
 10
832.2643
 20
208.1731
 11
791.4792
 21
167.3880
  0
LINE
  8
0_00
  6
CONTINUOUS
 62
2
 10
832.2643
 20
203.9305
 11
795.7218
 21
167.3880
  0
LINE
  8
0_00
  6
CONTINUOUS
 62
2
 10
728.2643
 20
216.3843
 11
720.2643
 21
208.3843
  0
LINE
  8
0_00
  6
CONTINUOUS
 62
2
 10
724.4891
 20
215.4375
 11
721.2111
 21
212.1595
  0
LINE
  8
0_00
  6
CONTINUOUS
 62
2
 10
728.2643
 20
213.5558
 11
723.0927
 21
208.3843
  0
LINE
  8
0_00
  6
CONTINUOUS
 62
2
 10
728.2643
 20
210.7274
 11
725.9211
 21
208.3843
  0
LINE
  8
0_00
  6
CONTINUOUS
 62
2
 10
728.2643
 20
216.3843
 11
720.2643
 21
208.3843
  0
LINE
  8
0_00
  6
CONTINUOUS
 62
2
 10
724.4891
 20
215.4375
 11
721.2111
 21
212.1595
  0
LINE
  8
0_00
  6
CONTINUOUS
 62
2
 10
728.2643
 20
213.5558
 11
723.0927
 21
208.3843
  0
LINE
  8
0_00
  6
CONTINUOUS
 62
2
 10
728.2643
 20
210.7274
 11
725.9211
 21
208.3843
  0
LINE
  8
0_00
  6
CONTINUOUS
 62
2
 10
728.2643
 20
214.3843
 11
832.2643
 21
214.3843
  0
LINE
  8
0_00
  6
CONTINUOUS
 62
2
 10
728.2643
 20
210.3843
 11
832.2643
 21
210.3843
  0
LINE
  8
0_00
  6
CONTINUOUS
 62
2
 10
838.2643
 20
208.3843
 11
838.2643
 21
167.3880
  0
LINE
  8
0_00
  6
CONTINUOUS
 62
2
 10
834.2642
 20
208.3843
 11
834.2642
 21
167.3880
  0
LINE
  8
0_00
  6
CONTINUOUS
 62
4
 10
891.9254
 20
471.4179
 11
1140.6949
 21
471.4179
  0
LINE
  8
0_00
  6
CONTINUOUS
 62
4
 10
891.9254
 20
466.7179
 11
1140.6949
 21
466.7179
  0
LINE
  8
0_00
  6
CENTER1
 62
6
 10
922.0281
 20
474.6284
 11
922.0281
 21
375.2032
  0
LINE
  8
0_00
  6
CENTER1
 62
6
 10
1025.3616
 20
474.6284
 11
1025.3616
 21
375.2032
  0
LINE
  8
0_00
  6
CONTINUOUS
 62
4
 10
1023.3615
 20
466.7179
 11
1023.3615
 21
385.9214
  0
LINE
  8
0_00
  6
CONTINUOUS
 62
4
 10
1027.3616
 20
466.7179
 11
1027.3616
 21
385.9214
  0
LINE
  8
0_00
  6
CONTINUOUS
 62
4
 10
920.0283
 20
466.7179
 11
920.0283
 21
385.9214
  0
LINE
  8
0_00
  6
CONTINUOUS
 62
4
 10
924.0282
 20
466.7179
 11
924.0282
 21
385.9214
  0
LINE
  8
0_00
  6
CONTINUOUS
 62
4
 10
924.0282
 20
394.9179
 11
1023.3615
 21
394.9179
  0
LINE
  8
0_00
  6
CONTINUOUS
 62
4
 10
924.0282
 20
391.4179
 11
1023.3615
 21
391.4179
  0
LINE
  8
0_00
  6
CONTINUOUS
 62
4
 10
924.4402
 20
384.6471
 11
919.6163
 21
384.6471
  0
LINE
  8
0_00
  6
CONTINUOUS
 62
4
 10
924.4355
 20
385.9214
 11
919.6208
 21
385.9214
  0
LINE
  8
0_00
  6
CONTINUOUS
 62
4
 10
919.3371
 20
383.4179
 11
919.5211
 21
385.8290
  0
LINE
  8
0_00
  6
CONTINUOUS
 62
4
 10
924.7193
 20
383.4179
 11
924.5353
 21
385.8290
  0
LINE
  8
0_00
  6
CONTINUOUS
 62
4
 10
1027.7735
 20
384.6471
 11
1022.9496
 21
384.6471
  0
LINE
  8
0_00
  6
CONTINUOUS
 62
4
 10
1027.7688
 20
385.9214
 11
1022.9542
 21
385.9214
  0
LINE
  8
0_00
  6
CONTINUOUS
 62
4
 10
1022.6704
 20
383.4179
 11
1022.8544
 21
385.8290
  0
LINE
  8
0_00
  6
CONTINUOUS
 62
4
 10
1028.0526
 20
383.4179
 11
1027.8687
 21
385.8290
  0
LINE
  8
0_00
  6
CONTINUOUS
 62
4
 10
891.9254
 20
383.4179
 11
1140.6949
 21
383.4179
  0
LINE
  8
0_00
  6
CONTINUOUS
 62
4
 10
891.9254
 20
376.9281
 11
1140.6949
 21
376.9281
  0
LINE
  8
3_03
  6
CONTINUOUS
 62
2
 10
922.0281
 20
385.4548
 11
921.9952
 21
385.4675
  0
LINE
  8
3_03
  6
CONTINUOUS
 62
2
 10
922.0281
 20
385.4548
 11
922.0613
 21
385.4675
  0
LINE
  8
3_03
  6
CONTINUOUS
 62
2
 10
921.9952
 20
385.4675
 11
921.9100
 21
385.5496
  0
LINE
  8
3_03
  6
CONTINUOUS
 62
2
 10
922.0613
 20
385.4675
 11
922.0612
 21
385.4675
  0
LINE
  8
3_03
  6
CONTINUOUS
 62
2
 10
922.0612
 20
385.4675
 11
922.1462
 21
385.5497
  0
LINE
  8
3_03
  6
CONTINUOUS
 62
2
 10
921.9617
 20
385.3882
 11
921.9489
 21
385.4213
  0
LINE
  8
3_03
  6
CONTINUOUS
 62
2
 10
921.9617
 20
385.3882
 11
921.9489
 21
385.3552
  0
LINE
  8
3_03
  6
CONTINUOUS
 62
2
 10
921.9489
 20
385.4213
 11
921.8668
 21
385.5064
  0
LINE
  8
3_03
  6
CONTINUOUS
 62
2
 10
921.9489
 20
385.3551
 11
921.9489
 21
385.3552
  0
LINE
  8
3_03
  6
CONTINUOUS
 62
2
 10
921.9489
 20
385.3552
 11
921.8668
 21
385.2702
  0
LINE
  8
3_03
  6
CONTINUOUS
 62
2
 10
922.0948
 20
385.3882
 11
922.1074
 21
385.3551
  0
LINE
  8
3_03
  6
CONTINUOUS
 62
2
 10
922.0948
 20
385.3882
 11
922.1074
 21
385.4213
  0
LINE
  8
3_03
  6
CONTINUOUS
 62
2
 10
922.1074
 20
385.3551
 11
922.1895
 21
385.2701
  0
LINE
  8
3_03
  6
CONTINUOUS
 62
2
 10
922.1074
 20
385.4213
 11
922.1075
 21
385.4213
  0
LINE
  8
3_03
  6
CONTINUOUS
 62
2
 10
922.1075
 20
385.4213
 11
922.1896
 21
385.5063
  0
LINE
  8
3_03
  6
CONTINUOUS
 62
2
 10
922.0281
 20
385.3217
 11
922.0613
 21
385.3090
  0
LINE
  8
3_03
  6
CONTINUOUS
 62
2
 10
922.0281
 20
385.3217
 11
921.9952
 21
385.3090
  0
LINE
  8
3_03
  6
CONTINUOUS
 62
2
 10
922.0613
 20
385.3090
 11
922.1463
 21
385.2269
  0
LINE
  8
3_03
  6
CONTINUOUS
 62
2
 10
921.9952
 20
385.3090
 11
921.9952
 21
385.3089
  0
LINE
  8
3_03
  6
CONTINUOUS
 62
2
 10
921.9952
 20
385.3089
 11
921.9100
 21
385.2268
  0
LINE
  8
3_03
  6
CONTINUOUS
 62
2
 10
1025.3616
 20
385.4548
 11
1025.3284
 21
385.4675
  0
LINE
  8
3_03
  6
CONTINUOUS
 62
2
 10
1025.3616
 20
385.4548
 11
1025.3946
 21
385.4675
  0
LINE
  8
3_03
  6
CONTINUOUS
 62
2
 10
1025.3284
 20
385.4675
 11
1025.2434
 21
385.5496
  0
LINE
  8
3_03
  6
CONTINUOUS
 62
2
 10
1025.3947
 20
385.4675
 11
1025.3946
 21
385.4675
  0
LINE
  8
3_03
  6
CONTINUOUS
 62
2
 10
1025.3946
 20
385.4675
 11
1025.4796
 21
385.5497
  0
LINE
  8
3_03
  6
CONTINUOUS
 62
2
 10
1025.2950
 20
385.3882
 11
1025.2822
 21
385.4213
  0
LINE
  8
3_03
  6
CONTINUOUS
 62
2
 10
1025.2950
 20
385.3882
 11
1025.2822
 21
385.3552
  0
LINE
  8
3_03
  6
CONTINUOUS
 62
2
 10
1025.2822
 20
385.4213
 11
1025.2000
 21
385.5064
  0
LINE
  8
3_03
  6
CONTINUOUS
 62
2
 10
1025.2822
 20
385.3551
 11
1025.2822
 21
385.3552
  0
LINE
  8
3_03
  6
CONTINUOUS
 62
2
 10
1025.2822
 20
385.3552
 11
1025.2000
 21
385.2702
  0
LINE
  8
3_03
  6
CONTINUOUS
 62
2
 10
1025.4281
 20
385.3882
 11
1025.4408
 21
385.3551
  0
LINE
  8
3_03
  6
CONTINUOUS
 62
2
 10
1025.4281
 20
385.3882
 11
1025.4408
 21
385.4213
  0
LINE
  8
3_03
  6
CONTINUOUS
 62
2
 10
1025.4408
 20
385.3551
 11
1025.5229
 21
385.2701
  0
LINE
  8
3_03
  6
CONTINUOUS
 62
2
 10
1025.4408
 20
385.4213
 11
1025.4409
 21
385.4213
  0
LINE
  8
3_03
  6
CONTINUOUS
 62
2
 10
1025.4409
 20
385.4213
 11
1025.5229
 21
385.5063
  0
LINE
  8
3_03
  6
CONTINUOUS
 62
2
 10
1025.3616
 20
385.3217
 11
1025.3947
 21
385.3090
  0
LINE
  8
3_03
  6
CONTINUOUS
 62
2
 10
1025.3616
 20
385.3217
 11
1025.3285
 21
385.3090
  0
LINE
  8
3_03
  6
CONTINUOUS
 62
2
 10
1025.3947
 20
385.3090
 11
1025.4797
 21
385.2269
  0
LINE
  8
3_03
  6
CONTINUOUS
 62
2
 10
1025.3284
 20
385.3090
 11
1025.3285
 21
385.3089
  0
LINE
  8
3_03
  6
CONTINUOUS
 62
2
 10
1025.3285
 20
385.3089
 11
1025.2434
 21
385.2268
  0
LINE
  8
0_00
  6
CONTINUOUS
 62
2
 10
921.9006
 20
392.1269
 11
921.9875
 21
392.0430
  0
LINE
  8
0_00
  6
CONTINUOUS
 62
2
 10
921.9875
 20
392.0430
 11
922.0281
 21
392.0282
  0
LINE
  8
0_00
  6
CONTINUOUS
 62
2
 10
922.0281
 20
392.0282
 11
922.0666
 21
392.0422
  0
LINE
  8
0_00
  6
CONTINUOUS
 62
2
 10
922.0666
 20
392.0422
 11
922.1564
 21
392.1266
  0
LINE
  8
0_00
  6
CONTINUOUS
 62
2
 10
921.8192
 20
392.0455
 11
921.9031
 21
391.9586
  0
LINE
  8
0_00
  6
CONTINUOUS
 62
2
 10
921.9031
 20
391.9586
 11
921.9179
 21
391.9179
  0
LINE
  8
0_00
  6
CONTINUOUS
 62
2
 10
921.9179
 20
391.9179
 11
921.9039
 21
391.8794
  0
LINE
  8
0_00
  6
CONTINUOUS
 62
2
 10
921.9039
 20
391.8794
 11
921.8194
 21
391.7898
  0
LINE
  8
0_00
  6
CONTINUOUS
 62
2
 10
922.2372
 20
391.7904
 11
922.1533
 21
391.8772
  0
LINE
  8
0_00
  6
CONTINUOUS
 62
2
 10
922.1533
 20
391.8772
 11
922.1384
 21
391.9179
  0
LINE
  8
0_00
  6
CONTINUOUS
 62
2
 10
922.1384
 20
391.9179
 11
922.1525
 21
391.9564
  0
LINE
  8
0_00
  6
CONTINUOUS
 62
2
 10
922.1525
 20
391.9564
 11
922.2369
 21
392.0461
  0
LINE
  8
0_00
  6
CONTINUOUS
 62
2
 10
922.1558
 20
391.7089
 11
922.0690
 21
391.7928
  0
LINE
  8
0_00
  6
CONTINUOUS
 62
2
 10
922.0690
 20
391.7928
 11
922.0281
 21
391.8077
  0
LINE
  8
0_00
  6
CONTINUOUS
 62
2
 10
922.0281
 20
391.8077
 11
921.9897
 21
391.7937
  0
LINE
  8
0_00
  6
CONTINUOUS
 62
2
 10
921.9897
 20
391.7937
 11
921.9001
 21
391.7092
  0
LINE
  8
0_00
  6
CONTINUOUS
 62
2
 10
1025.2339
 20
392.1269
 11
1025.3208
 21
392.0430
  0
LINE
  8
0_00
  6
CONTINUOUS
 62
2
 10
1025.3208
 20
392.0430
 11
1025.3616
 21
392.0282
  0
LINE
  8
0_00
  6
CONTINUOUS
 62
2
 10
1025.3616
 20
392.0282
 11
1025.4001
 21
392.0422
  0
LINE
  8
0_00
  6
CONTINUOUS
 62
2
 10
1025.4001
 20
392.0422
 11
1025.4898
 21
392.1266
  0
LINE
  8
0_00
  6
CONTINUOUS
 62
2
 10
1025.1526
 20
392.0455
 11
1025.2365
 21
391.9586
  0
LINE
  8
0_00
  6
CONTINUOUS
 62
2
 10
1025.2365
 20
391.9586
 11
1025.2512
 21
391.9179
  0
LINE
  8
0_00
  6
CONTINUOUS
 62
2
 10
1025.2512
 20
391.9179
 11
1025.2373
 21
391.8794
  0
LINE
  8
0_00
  6
CONTINUOUS
 62
2
 10
1025.2373
 20
391.8794
 11
1025.1529
 21
391.7898
  0
LINE
  8
0_00
  6
CONTINUOUS
 62
2
 10
1025.5705
 20
391.7904
 11
1025.4866
 21
391.8772
  0
LINE
  8
0_00
  6
CONTINUOUS
 62
2
 10
1025.4866
 20
391.8772
 11
1025.4718
 21
391.9179
  0
LINE
  8
0_00
  6
CONTINUOUS
 62
2
 10
1025.4718
 20
391.9179
 11
1025.4858
 21
391.9564
  0
LINE
  8
0_00
  6
CONTINUOUS
 62
2
 10
1025.4858
 20
391.9564
 11
1025.5703
 21
392.0461
  0
LINE
  8
0_00
  6
CONTINUOUS
 62
2
 10
1025.4891
 20
391.7089
 11
1025.4023
 21
391.7928
  0
LINE
  8
0_00
  6
CONTINUOUS
 62
2
 10
1025.4023
 20
391.7928
 11
1025.3616
 21
391.8077
  0
LINE
  8
0_00
  6
CONTINUOUS
 62
2
 10
1025.3616
 20
391.8077
 11
1025.3230
 21
391.7937
  0
LINE
  8
0_00
  6
CONTINUOUS
 62
2
 10
1025.3230
 20
391.7937
 11
1025.2333
 21
391.7092
  0
LINE
  8
0_00
  6
CONTINUOUS
 62
4
 10
891.9254
 20
394.9179
 11
920.0283
 21
394.9179
  0
LINE
  8
0_00
  6
CONTINUOUS
 62
4
 10
891.9254
 20
391.4179
 11
920.0283
 21
391.4179
  0
LINE
  8
0_00
  6
CONTINUOUS
 62
4
 10
1130.6949
 20
466.7179
 11
1130.6949
 21
385.9214
  0
LINE
  8
0_00
  6
CONTINUOUS
 62
4
 10
1126.6948
 20
466.7179
 11
1126.6948
 21
385.9214
  0
LINE
  8
0_00
  6
CONTINUOUS
 62
4
 10
1126.2829
 20
384.6471
 11
1131.1068
 21
384.6471
  0
LINE
  8
0_00
  6
CONTINUOUS
 62
4
 10
1126.2875
 20
385.9214
 11
1131.1022
 21
385.9214
  0
LINE
  8
0_00
  6
CONTINUOUS
 62
4
 10
1131.3860
 20
383.4179
 11
1131.2020
 21
385.8290
  0
LINE
  8
0_00
  6
CONTINUOUS
 62
4
 10
1126.0038
 20
383.4179
 11
1126.1878
 21
385.8290
  0
LINE
  8
0_00
  6
CONTINUOUS
 62
2
 10
1128.6948
 20
385.4548
 11
1128.7280
 21
385.4675
  0
LINE
  8
0_00
  6
CONTINUOUS
 62
2
 10
1128.6948
 20
385.4548
 11
1128.6618
 21
385.4675
  0
LINE
  8
0_00
  6
CONTINUOUS
 62
2
 10
1128.7280
 20
385.4675
 11
1128.8130
 21
385.5496
  0
LINE
  8
0_00
  6
CONTINUOUS
 62
2
 10
1128.6617
 20
385.4675
 11
1128.6618
 21
385.4675
  0
LINE
  8
0_00
  6
CONTINUOUS
 62
2
 10
1128.6618
 20
385.4675
 11
1128.5768
 21
385.5497
  0
LINE
  8
0_00
  6
CONTINUOUS
 62
2
 10
1128.7614
 20
385.3882
 11
1128.7742
 21
385.4213
  0
LINE
  8
0_00
  6
CONTINUOUS
 62
2
 10
1128.7614
 20
385.3882
 11
1128.7742
 21
385.3552
  0
LINE
  8
0_00
  6
CONTINUOUS
 62
2
 10
1128.7742
 20
385.4213
 11
1128.8564
 21
385.5064
  0
LINE
  8
0_00
  6
CONTINUOUS
 62
2
 10
1128.7742
 20
385.3551
 11
1128.7742
 21
385.3552
  0
LINE
  8
0_00
  6
CONTINUOUS
 62
2
 10
1128.7742
 20
385.3552
 11
1128.8564
 21
385.2702
  0
LINE
  8
0_00
  6
CONTINUOUS
 62
2
 10
1128.6283
 20
385.3882
 11
1128.6156
 21
385.3551
  0
LINE
  8
0_00
  6
CONTINUOUS
 62
2
 10
1128.6283
 20
385.3882
 11
1128.6156
 21
385.4213
  0
LINE
  8
0_00
  6
CONTINUOUS
 62
2
 10
1128.6156
 20
385.3551
 11
1128.5334
 21
385.2701
  0
LINE
  8
0_00
  6
CONTINUOUS
 62
2
 10
1128.6156
 20
385.4213
 11
1128.6154
 21
385.4213
  0
LINE
  8
0_00
  6
CONTINUOUS
 62
2
 10
1128.6154
 20
385.4213
 11
1128.5334
 21
385.5063
  0
LINE
  8
0_00
  6
CONTINUOUS
 62
2
 10
1128.6948
 20
385.3217
 11
1128.6617
 21
385.3090
  0
LINE
  8
0_00
  6
CONTINUOUS
 62
2
 10
1128.6948
 20
385.3217
 11
1128.7279
 21
385.3090
  0
LINE
  8
0_00
  6
CONTINUOUS
 62
2
 10
1128.6617
 20
385.3090
 11
1128.5766
 21
385.2269
  0
LINE
  8
0_00
  6
CONTINUOUS
 62
2
 10
1128.7280
 20
385.3090
 11
1128.7279
 21
385.3089
  0
LINE
  8
0_00
  6
CONTINUOUS
 62
2
 10
1128.7279
 20
385.3089
 11
1128.8130
 21
385.2268
  0
LINE
  8
0_00
  6
CONTINUOUS
 62
2
 10
1128.8225
 20
392.1269
 11
1128.7355
 21
392.0430
  0
LINE
  8
0_00
  6
CONTINUOUS
 62
2
 10
1128.7355
 20
392.0430
 11
1128.6948
 21
392.0282
  0
LINE
  8
0_00
  6
CONTINUOUS
 62
2
 10
1128.6948
 20
392.0282
 11
1128.6563
 21
392.0422
  0
LINE
  8
0_00
  6
CONTINUOUS
 62
2
 10
1128.6563
 20
392.0422
 11
1128.5666
 21
392.1266
  0
LINE
  8
0_00
  6
CONTINUOUS
 62
2
 10
1128.9038
 20
392.0455
 11
1128.8199
 21
391.9586
  0
LINE
  8
0_00
  6
CONTINUOUS
 62
2
 10
1128.8199
 20
391.9586
 11
1128.8052
 21
391.9179
  0
LINE
  8
0_00
  6
CONTINUOUS
 62
2
 10
1128.8052
 20
391.9179
 11
1128.8190
 21
391.8794
  0
LINE
  8
0_00
  6
CONTINUOUS
 62
2
 10
1128.8190
 20
391.8794
 11
1128.9035
 21
391.7898
  0
LINE
  8
0_00
  6
CONTINUOUS
 62
2
 10
1128.4859
 20
391.7904
 11
1128.5697
 21
391.8772
  0
LINE
  8
0_00
  6
CONTINUOUS
 62
2
 10
1128.5697
 20
391.8772
 11
1128.5846
 21
391.9179
  0
LINE
  8
0_00
  6
CONTINUOUS
 62
2
 10
1128.5846
 20
391.9179
 11
1128.5706
 21
391.9564
  0
LINE
  8
0_00
  6
CONTINUOUS
 62
2
 10
1128.5706
 20
391.9564
 11
1128.4861
 21
392.0461
  0
LINE
  8
0_00
  6
CONTINUOUS
 62
2
 10
1128.5673
 20
391.7089
 11
1128.6542
 21
391.7928
  0
LINE
  8
0_00
  6
CONTINUOUS
 62
2
 10
1128.6542
 20
391.7928
 11
1128.6948
 21
391.8077
  0
LINE
  8
0_00
  6
CONTINUOUS
 62
2
 10
1128.6948
 20
391.8077
 11
1128.7334
 21
391.7937
  0
LINE
  8
0_00
  6
CONTINUOUS
 62
2
 10
1128.7334
 20
391.7937
 11
1128.8230
 21
391.7092
  0
LINE
  8
0_00
  6
CENTER1
 62
6
 10
1128.6948
 20
474.6284
 11
1128.6948
 21
375.3243
  0
LINE
  8
0_00
  6
CONTINUOUS
 62
4
 10
1027.3616
 20
394.9179
 11
1126.6948
 21
394.9179
  0
LINE
  8
0_00
  6
CONTINUOUS
 62
4
 10
1027.3616
 20
391.4179
 11
1126.6948
 21
391.4179
  0
LINE
  8
0_00
  6
CONTINUOUS
 62
4
 10
1114.1282
 20
466.7179
 11
1114.1282
 21
394.9179
  0
LINE
  8
0_00
  6
CONTINUOUS
 62
4
 10
1116.1282
 20
394.9179
 11
1116.1282
 21
466.7179
  0
LINE
  8
0_00
  6
CONTINUOUS
 62
4
 10
1101.4282
 20
466.7179
 11
1101.4282
 21
394.9179
  0
LINE
  8
0_00
  6
CONTINUOUS
 62
4
 10
1103.4282
 20
394.9179
 11
1103.4282
 21
466.7179
  0
LINE
  8
0_00
  6
CONTINUOUS
 62
4
 10
1088.7283
 20
466.7179
 11
1088.7283
 21
394.9179
  0
LINE
  8
0_00
  6
CONTINUOUS
 62
4
 10
1090.7283
 20
394.9179
 11
1090.7283
 21
466.7179
  0
LINE
  8
0_00
  6
CONTINUOUS
 62
4
 10
1076.0282
 20
466.7179
 11
1076.0282
 21
394.9179
  0
LINE
  8
0_00
  6
CONTINUOUS
 62
4
 10
1078.0281
 20
394.9179
 11
1078.0281
 21
466.7179
  0
LINE
  8
0_00
  6
CONTINUOUS
 62
4
 10
1039.9283
 20
466.7179
 11
1039.9283
 21
394.9179
  0
LINE
  8
0_00
  6
CONTINUOUS
 62
4
 10
1037.9282
 20
394.9179
 11
1037.9282
 21
466.7179
  0
LINE
  8
0_00
  6
CONTINUOUS
 62
4
 10
1052.6281
 20
466.7179
 11
1052.6281
 21
394.9179
  0
LINE
  8
0_00
  6
CONTINUOUS
 62
4
 10
1050.6282
 20
394.9179
 11
1050.6282
 21
466.7179
  0
LINE
  8
0_00
  6
CONTINUOUS
 62
4
 10
1065.3281
 20
466.7179
 11
1065.3281
 21
394.9179
  0
LINE
  8
0_00
  6
CONTINUOUS
 62
4
 10
1063.3281
 20
394.9179
 11
1063.3281
 21
466.7179
  0
LINE
  8
0_00
  6
CONTINUOUS
 62
4
 10
1010.7949
 20
466.7179
 11
1010.7949
 21
394.9179
  0
LINE
  8
0_00
  6
CONTINUOUS
 62
4
 10
1012.7948
 20
394.9179
 11
1012.7948
 21
466.7179
  0
LINE
  8
0_00
  6
CONTINUOUS
 62
4
 10
998.0948
 20
466.7179
 11
998.0948
 21
394.9179
  0
LINE
  8
0_00
  6
CONTINUOUS
 62
4
 10
1000.0949
 20
394.9179
 11
1000.0949
 21
466.7179
  0
LINE
  8
0_00
  6
CONTINUOUS
 62
4
 10
985.3949
 20
466.7179
 11
985.3949
 21
394.9179
  0
LINE
  8
0_00
  6
CONTINUOUS
 62
4
 10
987.3949
 20
394.9179
 11
987.3949
 21
466.7179
  0
LINE
  8
0_00
  6
CONTINUOUS
 62
4
 10
972.6948
 20
466.7179
 11
972.6948
 21
394.9179
  0
LINE
  8
0_00
  6
CONTINUOUS
 62
4
 10
974.6949
 20
394.9179
 11
974.6949
 21
466.7179
  0
LINE
  8
0_00
  6
CONTINUOUS
 62
4
 10
961.9948
 20
466.7179
 11
961.9948
 21
394.9179
  0
LINE
  8
0_00
  6
CONTINUOUS
 62
4
 10
959.9949
 20
394.9179
 11
959.9949
 21
466.7179
  0
LINE
  8
0_00
  6
CONTINUOUS
 62
4
 10
936.5948
 20
466.7179
 11
936.5948
 21
394.9179
  0
LINE
  8
0_00
  6
CONTINUOUS
 62
4
 10
934.5948
 20
394.9179
 11
934.5948
 21
466.7179
  0
LINE
  8
0_00
  6
CONTINUOUS
 62
4
 10
949.2948
 20
466.7179
 11
949.2948
 21
394.9179
  0
LINE
  8
0_00
  6
CONTINUOUS
 62
4
 10
947.2949
 20
394.9179
 11
947.2949
 21
466.7179
  0
LINE
  8
0_00
  6
CENTER1
 62
6
 10
1006.2556
 20
468.1659
 11
1033.4689
 21
468.1659
  0
LINE
  8
0_00
  6
CENTER1
 62
6
 10
973.6948
 20
476.1541
 11
973.6948
 21
433.6309
  0
LINE
  8
0_00
  6
CENTER1
 62
6
 10
986.3949
 20
476.1541
 11
986.3949
 21
433.6309
  0
LINE
  8
0_00
  6
CONTINUOUS
 62
4
 10
810.2642
 20
685.6796
 11
810.2642
 21
646.8576
  0
LINE
  8
0_00
  6
CONTINUOUS
 62
4
 10
808.8643
 20
685.6548
 11
808.8643
 21
659.2814
  0
LINE
  8
0_00
  6
CONTINUOUS
 62
4
 10
808.8642
 20
646.8576
 11
808.8642
 21
650.0314
  0
LINE
  8
0_00
  6
CONTINUOUS
 62
4
 10
750.2643
 20
685.6796
 11
750.2645
 21
646.8859
  0
LINE
  8
0_00
  6
CONTINUOUS
 62
4
 10
751.6643
 20
685.6548
 11
751.6644
 21
659.2602
  0
LINE
  8
0_00
  6
CONTINUOUS
 62
4
 10
751.6638
 20
650.0314
 11
751.6638
 21
646.8576
  0
LINE
  8
0_00
  6
CONTINUOUS
 62
4
 10
780.2643
 20
649.4577
 11
779.9643
 21
649.1576
  0
LINE
  8
0_00
  6
CONTINUOUS
 62
4
 10
792.5642
 20
649.1576
 11
780.5642
 21
649.1576
  0
LINE
  8
0_00
  6
CONTINUOUS
 62
4
 10
780.2643
 20
649.4577
 11
780.5642
 21
649.1576
  0
LINE
  8
14_0E
  6
CONTINUOUS
 62
4
 10
793.3405
 20
650.7672
 11
784.2643
 21
651.1576
  0
LINE
  8
0_00
  6
CONTINUOUS
 62
4
 10
792.5642
 20
649.1576
 11
792.9643
 21
647.6576
  0
LINE
  8
0_00
  6
CONTINUOUS
 62
4
 10
795.7643
 20
649.3576
 11
800.7643
 21
649.3576
  0
LINE
  8
0_00
  6
CONTINUOUS
 62
4
 10
798.2643
 20
647.9577
 11
797.9643
 21
647.6576
  0
LINE
  8
0_00
  6
CONTINUOUS
 62
4
 10
798.2643
 20
647.9577
 11
798.5642
 21
647.6576
  0
LINE
  8
0_00
  6
CONTINUOUS
 62
4
 10
805.5920
 20
649.1576
 11
801.0643
 21
649.1576
  0
LINE
  8
0_00
  6
CONTINUOUS
 62
4
 10
800.7643
 20
649.3576
 11
801.0643
 21
649.1576
  0
LINE
  8
0_00
  6
CONTINUOUS
 62
4
 10
795.4643
 20
649.1576
 11
794.2766
 21
649.1576
  0
LINE
  8
0_00
  6
CONTINUOUS
 62
4
 10
795.7643
 20
649.3576
 11
795.4643
 21
649.1576
  0
LINE
  8
0_00
  6
CONTINUOUS
 62
4
 10
793.6187
 20
650.5403
 11
793.8885
 21
649.4606
  0
LINE
  8
0_00
  6
CONTINUOUS
 62
4
 10
780.2643
 20
649.4577
 11
780.5642
 21
649.1576
  0
LINE
  8
0_00
  6
CONTINUOUS
 62
4
 10
767.9643
 20
649.1576
 11
779.9643
 21
649.1576
  0
LINE
  8
0_00
  6
CONTINUOUS
 62
4
 10
780.2643
 20
649.4577
 11
779.9643
 21
649.1576
  0
LINE
  8
14_0E
  6
CONTINUOUS
 62
4
 10
767.1881
 20
650.7672
 11
776.2643
 21
651.1576
  0
LINE
  8
0_00
  6
CONTINUOUS
 62
4
 10
767.9643
 20
649.1576
 11
767.5643
 21
647.6576
  0
LINE
  8
0_00
  6
CONTINUOUS
 62
4
 10
764.7643
 20
649.3576
 11
759.7643
 21
649.3576
  0
LINE
  8
0_00
  6
CONTINUOUS
 62
4
 10
761.9643
 20
647.6576
 11
752.8643
 21
647.6576
  0
LINE
  8
0_00
  6
CONTINUOUS
 62
4
 10
762.2643
 20
647.9577
 11
762.5643
 21
647.6576
  0
LINE
  8
0_00
  6
CONTINUOUS
 62
4
 10
762.2643
 20
647.9577
 11
761.9643
 21
647.6576
  0
LINE
  8
0_00
  6
CONTINUOUS
 62
4
 10
754.9365
 20
649.1576
 11
759.4643
 21
649.1576
  0
LINE
  8
0_00
  6
CONTINUOUS
 62
4
 10
759.7643
 20
649.3576
 11
759.4643
 21
649.1576
  0
LINE
  8
0_00
  6
CONTINUOUS
 62
4
 10
765.0643
 20
649.1576
 11
766.2520
 21
649.1576
  0
LINE
  8
0_00
  6
CONTINUOUS
 62
4
 10
764.7643
 20
649.3576
 11
765.0643
 21
649.1576
  0
LINE
  8
0_00
  6
CONTINUOUS
 62
4
 10
766.9100
 20
650.5403
 11
766.6400
 21
649.4606
  0
LINE
  8
0_00
  6
CONTINUOUS
 62
4
 10
784.2643
 20
651.1576
 11
776.2643
 21
651.1576
  0
LINE
  8
0_00
  6
CONTINUOUS
 62
4
 10
807.6643
 20
647.6576
 11
808.6643
 21
648.6576
  0
LINE
  8
0_00
  6
CONTINUOUS
 62
4
 10
808.6643
 20
648.6576
 11
808.6643
 21
649.9576
  0
LINE
  8
0_00
  6
CONTINUOUS
 62
4
 10
808.6643
 20
649.1576
 11
808.6643
 21
648.6576
  0
LINE
  8
0_00
  6
CONTINUOUS
 62
4
 10
807.6838
 20
652.0356
 11
808.5404
 21
652.1105
  0
LINE
  8
0_00
  6
CONTINUOUS
 62
4
 10
806.5771
 20
653.0430
 11
807.4152
 21
653.1163
  0
LINE
  8
0_00
  6
CONTINUOUS
 62
4
 10
805.6643
 20
652.0467
 11
805.6643
 21
651.6138
  0
LINE
  8
14_0E
  6
CONTINUOUS
 62
4
 10
808.8082
 20
652.4697
 11
807.7227
 21
657.7576
  0
LINE
  8
0_00
  6
CONTINUOUS
 62
4
 10
806.9766
 20
656.9169
 11
807.6829
 21
653.4755
  0
LINE
  8
0_00
  6
CONTINUOUS
 62
4
 10
807.6622
 20
657.7576
 11
807.7227
 21
657.7576
  0
LINE
  8
0_00
  6
CONTINUOUS
 62
4
 10
752.8643
 20
647.6576
 11
751.8643
 21
648.6576
  0
LINE
  8
0_00
  6
CONTINUOUS
 62
4
 10
751.8643
 20
648.6576
 11
751.8643
 21
649.9576
  0
LINE
  8
0_00
  6
CONTINUOUS
 62
4
 10
751.8643
 20
649.1576
 11
751.8643
 21
648.6576
  0
LINE
  8
0_00
  6
CONTINUOUS
 62
4
 10
752.8448
 20
652.0356
 11
751.9882
 21
652.1105
  0
LINE
  8
0_00
  6
CONTINUOUS
 62
4
 10
753.9514
 20
653.0430
 11
753.1133
 21
653.1163
  0
LINE
  8
0_00
  6
CONTINUOUS
 62
4
 10
754.8643
 20
652.0467
 11
754.8643
 21
651.6138
  0
LINE
  8
0_00
  6
CONTINUOUS
 62
4
 10
751.7204
 20
652.4697
 11
752.8058
 21
657.7576
  0
LINE
  8
0_00
  6
CONTINUOUS
 62
4
 10
753.5521
 20
656.9169
 11
752.8456
 21
653.4755
  0
LINE
  8
0_00
  6
CONTINUOUS
 62
4
 10
752.8663
 20
657.7576
 11
752.8058
 21
657.7576
  0
LINE
  8
0_00
  6
CONTINUOUS
 62
4
 10
808.8643
 20
655.0814
 11
808.8643
 21
657.4815
  0
LINE
  8
0_00
  6
CONTINUOUS
 62
4
 10
806.1643
 20
657.8814
 11
808.4642
 21
657.8814
  0
LINE
  8
0_00
  6
CONTINUOUS
 62
4
 10
805.8642
 20
658.8815
 11
808.4642
 21
658.8815
  0
LINE
  8
0_00
  6
CONTINUOUS
 62
4
 10
805.3643
 20
658.3815
 11
805.3643
 21
657.2814
  0
LINE
  8
0_00
  6
CONTINUOUS
 62
4
 10
806.1643
 20
657.8814
 11
806.1643
 21
657.6815
  0
LINE
  8
0_00
  6
CONTINUOUS
 62
4
 10
807.7837
 20
651.9869
 11
808.4991
 21
652.0495
  0
LINE
  8
0_00
  6
CONTINUOUS
 62
4
 10
808.8563
 20
652.5270
 11
808.3896
 21
654.8419
  0
LINE
  8
0_00
  6
CONTINUOUS
 62
4
 10
808.5857
 20
655.0814
 11
808.8643
 21
655.0814
  0
LINE
  8
0_00
  6
CONTINUOUS
 62
4
 10
751.6638
 20
655.0814
 11
751.6638
 21
657.4815
  0
LINE
  8
0_00
  6
CONTINUOUS
 62
4
 10
754.3637
 20
657.8814
 11
752.0638
 21
657.8814
  0
LINE
  8
0_00
  6
CONTINUOUS
 62
4
 10
754.6638
 20
658.8815
 11
752.0638
 21
658.8815
  0
LINE
  8
0_00
  6
CONTINUOUS
 62
4
 10
755.1638
 20
658.3815
 11
755.1638
 21
657.2814
  0
LINE
  8
0_00
  6
CONTINUOUS
 62
4
 10
754.3637
 20
657.8814
 11
754.3637
 21
657.6815
  0
LINE
  8
0_00
  6
CONTINUOUS
 62
4
 10
752.7443
 20
651.9869
 11
752.0289
 21
652.0495
  0
LINE
  8
0_00
  6
CONTINUOUS
 62
4
 10
751.6717
 20
652.5270
 11
752.1384
 21
654.8419
  0
LINE
  8
0_00
  6
CONTINUOUS
 62
4
 10
751.9424
 20
655.0814
 11
751.6638
 21
655.0814
  0
LINE
  8
0_00
  6
CONTINUOUS
 62
4
 10
767.5643
 20
647.6576
 11
762.5643
 21
647.6576
  0
LINE
  8
0_00
  6
CONTINUOUS
 62
4
 10
1141.1948
 20
493.3120
 11
1141.1948
 21
383.4179
  0
LINE
  8
0_00
  6
CONTINUOUS
 62
4
 10
1140.6949
 20
471.4179
 11
1140.6949
 21
466.7179
  0
LINE
  8
0_00
  6
CONTINUOUS
 62
4
 10
1140.6949
 20
383.4179
 11
1140.6949
 21
376.9281
  0
LINE
  8
0_00
  6
CONTINUOUS
 62
4
 10
907.4615
 20
466.7179
 11
907.4615
 21
394.9179
  0
LINE
  8
0_00
  6
CONTINUOUS
 62
4
 10
909.4615
 20
394.9179
 11
909.4615
 21
466.7179
  0
LINE
  8
0_00
  6
CONTINUOUS
 62
4
 10
894.7615
 20
466.7179
 11
894.7615
 21
394.9179
  0
LINE
  8
0_00
  6
CONTINUOUS
 62
4
 10
896.7615
 20
394.9179
 11
896.7615
 21
466.7179
  0
LINE
  8
0_00
  6
CONTINUOUS
 62
4
 10
129.4597
 20
693.1576
 11
533.5518
 21
693.1576
  0
LINE
  8
0_00
  6
CONTINUOUS
 62
4
 10
120.5314
 20
249.2843
 11
463.2588
 21
249.2843
  0
LINE
  8
3_03
  6
CONTINUOUS
 62
2
 10
413.5518
 20
269.6528
 11
413.2208
 21
269.7798
  0
LINE
  8
3_03
  6
CONTINUOUS
 62
2
 10
413.5518
 20
269.6528
 11
413.8825
 21
269.7797
  0
LINE
  8
3_03
  6
CONTINUOUS
 62
2
 10
413.2208
 20
269.7798
 11
412.3704
 21
270.6011
  0
LINE
  8
3_03
  6
CONTINUOUS
 62
2
 10
413.8829
 20
269.7798
 11
413.8822
 21
269.7805
  0
LINE
  8
3_03
  6
CONTINUOUS
 62
2
 10
413.8822
 20
269.7805
 11
414.7325
 21
270.6016
  0
LINE
  8
3_03
  6
CONTINUOUS
 62
2
 10
412.8863
 20
268.9873
 11
412.7592
 21
269.3183
  0
LINE
  8
3_03
  6
CONTINUOUS
 62
2
 10
412.8863
 20
268.9873
 11
412.7594
 21
268.6566
  0
LINE
  8
3_03
  6
CONTINUOUS
 62
2
 10
412.7592
 20
269.3183
 11
411.9375
 21
270.1691
  0
LINE
  8
3_03
  6
CONTINUOUS
 62
2
 10
412.7592
 20
268.6563
 11
412.7586
 21
268.6569
  0
LINE
  8
3_03
  6
CONTINUOUS
 62
2
 10
412.7586
 20
268.6569
 11
411.9375
 21
267.8066
  0
LINE
  8
3_03
  6
CONTINUOUS
 62
2
 10
414.2173
 20
268.9873
 11
414.3444
 21
268.6563
  0
LINE
  8
3_03
  6
CONTINUOUS
 62
2
 10
414.2173
 20
268.9873
 11
414.3443
 21
269.3179
  0
LINE
  8
3_03
  6
CONTINUOUS
 62
2
 10
414.3444
 20
268.6563
 11
415.1656
 21
267.8059
  0
LINE
  8
3_03
  6
CONTINUOUS
 62
2
 10
414.3444
 20
269.3183
 11
414.3450
 21
269.3176
  0
LINE
  8
3_03
  6
CONTINUOUS
 62
2
 10
414.3450
 20
269.3176
 11
415.1662
 21
270.1679
  0
LINE
  8
3_03
  6
CONTINUOUS
 62
2
 10
413.5518
 20
268.3218
 11
413.8829
 21
268.1947
  0
LINE
  8
3_03
  6
CONTINUOUS
 62
2
 10
413.5518
 20
268.3218
 11
413.2212
 21
268.1948
  0
LINE
  8
3_03
  6
CONTINUOUS
 62
2
 10
413.8829
 20
268.1947
 11
414.7332
 21
267.3735
  0
LINE
  8
3_03
  6
CONTINUOUS
 62
2
 10
413.2208
 20
268.1947
 11
413.2214
 21
268.1940
  0
LINE
  8
3_03
  6
CONTINUOUS
 62
2
 10
413.2214
 20
268.1940
 11
412.3707
 21
267.3725
  0
LINE
  8
0_00
  6
CONTINUOUS
 62
2
 10
412.2759
 20
336.3742
 11
413.1449
 21
335.5354
  0
LINE
  8
0_00
  6
CONTINUOUS
 62
2
 10
413.1449
 20
335.5354
 11
413.5518
 21
335.3869
  0
LINE
  8
0_00
  6
CONTINUOUS
 62
2
 10
413.5518
 20
335.3869
 11
413.9368
 21
335.5272
  0
LINE
  8
0_00
  6
CONTINUOUS
 62
2
 10
413.9368
 20
335.5272
 11
414.8332
 21
336.3714
  0
LINE
  8
0_00
  6
CONTINUOUS
 62
2
 10
411.4619
 20
335.5602
 11
412.3006
 21
334.6913
  0
LINE
  8
0_00
  6
CONTINUOUS
 62
2
 10
412.3006
 20
334.6913
 11
412.4491
 21
334.2843
  0
LINE
  8
0_00
  6
CONTINUOUS
 62
2
 10
412.4491
 20
334.2843
 11
412.3089
 21
333.8993
  0
LINE
  8
0_00
  6
CONTINUOUS
 62
2
 10
412.3089
 20
333.8993
 11
411.4647
 21
333.0028
  0
LINE
  8
0_00
  6
CONTINUOUS
 62
2
 10
415.6417
 20
333.0084
 11
414.8030
 21
333.8773
  0
LINE
  8
0_00
  6
CONTINUOUS
 62
2
 10
414.8030
 20
333.8773
 11
414.6545
 21
334.2843
  0
LINE
  8
0_00
  6
CONTINUOUS
 62
2
 10
414.6545
 20
334.2843
 11
414.7948
 21
334.6692
  0
LINE
  8
0_00
  6
CONTINUOUS
 62
2
 10
414.7948
 20
334.6692
 11
415.6390
 21
335.5657
  0
LINE
  8
0_00
  6
CONTINUOUS
 62
2
 10
414.8277
 20
332.1944
 11
413.9588
 21
333.0331
  0
LINE
  8
0_00
  6
CONTINUOUS
 62
2
 10
413.9588
 20
333.0331
 11
413.5518
 21
333.1816
  0
LINE
  8
0_00
  6
CONTINUOUS
 62
2
 10
413.5518
 20
333.1816
 11
413.1668
 21
333.0414
  0
LINE
  8
0_00
  6
CONTINUOUS
 62
2
 10
413.1668
 20
333.0414
 11
412.2704
 21
332.1971
  0
LINE
  8
0_00
  6
CENTER1
 62
6
 10
404.1512
 20
268.9843
 11
423.0438
 21
268.9843
  0
LINE
  8
0_00
  6
CONTINUOUS
 62
4
 10
437.9563
 20
258.0418
 11
389.1473
 21
258.0418
  0
LINE
  8
0_00
  6
CONTINUOUS
 62
4
 10
437.6252
 20
274.5176
 11
389.4784
 21
274.5176
  0
LINE
  8
0_00
  6
CONTINUOUS
 62
4
 10
386.6656
 20
249.8079
 11
386.6656
 21
249.2843
  0
LINE
  8
0_00
  6
CONTINUOUS
 62
4
 10
386.6656
 20
249.8079
 11
388.4813
 21
273.5937
  0
LINE
  8
0_00
  6
CONTINUOUS
 62
4
 10
440.4380
 20
249.8079
 11
438.6224
 21
273.5937
  0
LINE
  8
12_0C
  6
CONTINUOUS
 62
2
 10
367.5518
 20
381.3843
 11
359.5518
 21
381.3843
  0
LINE
  8
12_0C
  6
CONTINUOUS
 62
2
 10
367.5518
 20
381.7843
 11
359.5518
 21
381.7843
  0
LINE
  8
12_0C
  6
CONTINUOUS
 62
2
 10
359.5518
 20
381.3843
 11
359.5518
 21
381.7843
  0
LINE
  8
12_0C
  6
CONTINUOUS
 62
2
 10
367.5518
 20
381.3843
 11
367.5518
 21
381.7843
  0
LINE
  8
0_00
  6
CENTER1
 62
6
 10
363.5518
 20
386.4586
 11
363.5518
 21
375.4450
  0
LINE
  8
0_00
  6
CONTINUOUS
 62
4
 10
433.5518
 20
274.5176
 11
433.5518
 21
484.5892
  0
LINE
  8
0_00
  6
CONTINUOUS
 62
4
 10
433.5518
 20
542.6793
 11
433.5518
 21
646.1576
  0
LINE
  8
0_00
  6
CONTINUOUS
 62
4
 10
393.5518
 20
646.1576
 11
393.5518
 21
542.6793
  0
LINE
  8
0_00
  6
CONTINUOUS
 62
4
 10
393.5518
 20
484.5892
 11
393.5518
 21
274.5176
  0
LINE
  8
0_00
  6
CONTINUOUS
 62
6
 10
432.1747
 20
444.8684
 11
448.2987
 21
460.9924
  0
LINE
  8
0_00
  6
CONTINUOUS
 62
6
 10
432.1747
 20
444.8684
 11
438.4647
 21
448.9532
  0
LINE
  8
0_00
  6
CONTINUOUS
 62
6
 10
432.1747
 20
444.8684
 11
436.2595
 21
451.1584
  0
LINE
  8
0_00
  6
CONTINUOUS
 62
6
 10
448.2987
 20
460.9924
 11
471.6987
 21
460.9924
  0
LINE
  8
0_00
  6
CENTER1
 62
6
 10
399.0172
 20
334.2843
 11
426.6490
 21
334.2843
  0
LINE
  8
0_00
  6
CONTINUOUS
 62
4
 10
393.5518
 20
381.3843
 11
129.4597
 21
381.3843
  0
LINE
  8
0_00
  6
CONTINUOUS
 62
4
 10
393.5518
 20
346.3843
 11
129.4597
 21
346.3843
  0
LINE
  8
0_00
  6
CENTER1
 62
6
 10
413.5518
 20
711.5408
 11
413.5518
 21
221.1776
  0
LINE
  8
0_00
  6
CONTINUOUS
 62
4
 10
538.5518
 20
763.5691
 11
538.5518
 21
167.3880
  0
LINE
  8
0_00
  6
CONTINUOUS
 62
4
 10
461.7383
 20
226.3843
 11
538.5518
 21
226.3843
  0
LINE
  8
0_00
  6
CENTER1
 62
6
 10
313.5518
 20
659.1308
 11
313.5518
 21
369.8882
  0
LINE
  8
0_00
  6
CONTINUOUS
 62
4
 10
323.5518
 20
646.1576
 11
323.5518
 21
530.4142
  0
LINE
  8
0_00
  6
CONTINUOUS
 62
4
 10
303.5518
 20
646.1576
 11
303.5518
 21
530.4142
  0
LINE
  8
0_00
  6
CONTINUOUS
 62
4
 10
323.5518
 20
498.1557
 11
323.5518
 21
381.3843
  0
LINE
  8
0_00
  6
CONTINUOUS
 62
4
 10
303.5518
 20
498.1557
 11
303.5518
 21
381.3843
  0
LINE
  8
2_02
  6
CONTINUOUS
 62
4
 10
538.5518
 20
651.1576
 11
493.5518
 21
651.1576
  0
LINE
  8
0_00
  6
CONTINUOUS
 62
2
 10
498.5463
 20
649.1576
 11
513.5574
 21
649.1576
  0
LINE
  8
0_00
  6
CONTINUOUS
 62
2
 10
513.5574
 20
646.3042
 11
513.5574
 21
644.3536
  0
LINE
  8
0_00
  6
CONTINUOUS
 62
2
 10
513.5574
 20
649.1576
 11
513.5574
 21
646.3042
  0
LINE
  8
0_00
  6
CONTINUOUS
 62
2
 10
498.5463
 20
646.3042
 11
498.5463
 21
644.3536
  0
LINE
  8
0_00
  6
CONTINUOUS
 62
2
 10
498.5463
 20
649.1576
 11
498.5463
 21
646.3042
  0
LINE
  8
0_00
  6
CONTINUOUS
 62
2
 10
513.5574
 20
644.3536
 11
512.3518
 21
643.6576
  0
LINE
  8
0_00
  6
CONTINUOUS
 62
2
 10
498.5463
 20
644.3536
 11
499.7519
 21
643.6576
  0
LINE
  8
0_00
  6
CONTINUOUS
 62
2
 10
499.7519
 20
643.6576
 11
512.3518
 21
643.6576
  0
LINE
  8
0_00
  6
CONTINUOUS
 62
2
 10
509.8046
 20
646.3042
 11
509.8046
 21
644.3536
  0
LINE
  8
0_00
  6
CONTINUOUS
 62
2
 10
509.8046
 20
649.1576
 11
509.8046
 21
646.3042
  0
LINE
  8
0_00
  6
CONTINUOUS
 62
2
 10
502.2990
 20
646.3042
 11
502.2990
 21
644.3536
  0
LINE
  8
0_00
  6
CONTINUOUS
 62
2
 10
502.2990
 20
649.1576
 11
502.2990
 21
646.3042
  0
LINE
  8
0_00
  6
CONTINUOUS
 62
2
 10
510.0518
 20
662.6576
 11
510.0518
 21
667.9576
  0
LINE
  8
0_00
  6
CONTINUOUS
 62
2
 10
502.0518
 20
662.6576
 11
502.0518
 21
667.9576
  0
LINE
  8
0_00
  6
CONTINUOUS
 62
2
 10
510.0518
 20
667.9576
 11
508.8518
 21
669.1576
  0
LINE
  8
0_00
  6
CONTINUOUS
 62
2
 10
502.0518
 20
667.9576
 11
503.2518
 21
669.1576
  0
LINE
  8
0_00
  6
CONTINUOUS
 62
2
 10
503.2518
 20
669.1576
 11
508.8518
 21
669.1576
  0
LINE
  8
0_00
  6
CONTINUOUS
 62
2
 10
502.0518
 20
667.9576
 11
510.0518
 21
667.9576
  0
LINE
  8
0_00
  6
CONTINUOUS
 62
6
 10
509.3018
 20
662.6576
 11
509.3018
 21
668.7077
  0
LINE
  8
0_00
  6
CONTINUOUS
 62
6
 10
502.8018
 20
662.6576
 11
502.8018
 21
668.7077
  0
LINE
  8
0_00
  6
CONTINUOUS
 62
2
 10
513.7518
 20
656.1576
 11
498.3518
 21
656.1576
  0
LINE
  8
0_00
  6
CONTINUOUS
 62
2
 10
498.3518
 20
656.1576
 11
498.3518
 21
654.1576
  0
LINE
  8
0_00
  6
CONTINUOUS
 62
2
 10
513.7518
 20
656.1576
 11
513.7518
 21
654.1576
  0
LINE
  8
0_00
  6
CONTINUOUS
 62
2
 10
513.7518
 20
654.1576
 11
498.3518
 21
654.1576
  0
LINE
  8
0_00
  6
CONTINUOUS
 62
2
 10
505.7839
 20
656.1576
 11
506.3198
 21
654.1576
  0
LINE
  8
0_00
  6
CONTINUOUS
 62
2
 10
513.5574
 20
656.1576
 11
498.5463
 21
656.1576
  0
LINE
  8
0_00
  6
CONTINUOUS
 62
2
 10
498.5463
 20
656.1576
 11
498.5463
 21
661.9327
  0
LINE
  8
0_00
  6
CONTINUOUS
 62
2
 10
513.5574
 20
656.1576
 11
513.5574
 21
661.9327
  0
LINE
  8
0_00
  6
CONTINUOUS
 62
2
 10
498.5463
 20
661.9327
 11
499.8018
 21
662.6576
  0
LINE
  8
0_00
  6
CONTINUOUS
 62
2
 10
513.5574
 20
661.9327
 11
512.3018
 21
662.6576
  0
LINE
  8
0_00
  6
CONTINUOUS
 62
2
 10
512.3018
 20
662.6576
 11
499.8018
 21
662.6576
  0
LINE
  8
0_00
  6
CONTINUOUS
 62
2
 10
502.2990
 20
656.1576
 11
502.2990
 21
661.9327
  0
LINE
  8
0_00
  6
CONTINUOUS
 62
2
 10
509.8046
 20
656.1576
 11
509.8046
 21
661.9327
  0
LINE
  8
0_00
  6
CONTINUOUS
 62
4
 10
513.5574
 20
646.1576
 11
533.5518
 21
646.1576
  0
LINE
  8
0_00
  6
CENTER1
 62
6
 10
506.0518
 20
672.9397
 11
506.0518
 21
634.1505
  0
LINE
  8
0_00
  6
CONTINUOUS
 62
2
 10
510.0518
 20
654.1576
 11
510.0518
 21
651.1576
  0
LINE
  8
0_00
  6
CONTINUOUS
 62
2
 10
510.0518
 20
649.1576
 11
510.0518
 21
651.1576
  0
LINE
  8
0_00
  6
CONTINUOUS
 62
6
 10
509.3018
 20
654.1576
 11
509.3018
 21
651.1576
  0
LINE
  8
0_00
  6
CONTINUOUS
 62
6
 10
509.3018
 20
649.1576
 11
509.3018
 21
651.1576
  0
LINE
  8
0_00
  6
CONTINUOUS
 62
6
 10
502.8018
 20
654.1576
 11
502.8018
 21
651.1576
  0
LINE
  8
0_00
  6
CONTINUOUS
 62
6
 10
502.8018
 20
649.1576
 11
502.8018
 21
651.1576
  0
LINE
  8
0_00
  6
CONTINUOUS
 62
2
 10
502.0518
 20
654.1576
 11
502.0518
 21
651.1576
  0
LINE
  8
0_00
  6
CONTINUOUS
 62
2
 10
502.0518
 20
649.1576
 11
502.0518
 21
651.1576
  0
LINE
  8
0_00
  6
CONTINUOUS
 62
4
 10
533.5518
 20
691.5576
 11
478.8615
 21
691.5576
  0
LINE
  8
0_00
  6
CONTINUOUS
 62
2
 10
538.4442
 20
699.6981
 11
538.5518
 21
699.5906
  0
LINE
  8
0_00
  6
CONTINUOUS
 62
2
 10
537.0996
 20
696.8001
 11
538.5518
 21
695.3479
  0
LINE
  8
0_00
  6
CONTINUOUS
 62
2
 10
534.9899
 20
694.6672
 11
538.0829
 21
691.5742
  0
LINE
  8
0_00
  6
CONTINUOUS
 62
2
 10
532.1201
 20
693.2945
 11
532.2568
 21
693.1576
  0
LINE
  8
0_00
  6
CONTINUOUS
 62
4
 10
478.4085
 20
693.1576
 11
478.4839
 21
692.8962
  0
LINE
  8
0_00
  6
CONTINUOUS
 62
4
 10
478.4839
 20
692.8962
 11
478.5591
 21
692.6347
  0
LINE
  8
0_00
  6
CONTINUOUS
 62
4
 10
478.5591
 20
692.6347
 11
478.6339
 21
692.3732
  0
LINE
  8
0_00
  6
CONTINUOUS
 62
4
 10
478.6339
 20
692.3732
 11
478.7080
 21
692.1117
  0
LINE
  8
0_00
  6
CONTINUOUS
 62
4
 10
478.7080
 20
692.1117
 11
478.7811
 21
691.8502
  0
LINE
  8
0_00
  6
CONTINUOUS
 62
4
 10
478.7811
 20
691.8502
 11
478.8532
 21
691.5886
  0
LINE
  8
0_00
  6
CONTINUOUS
 62
4
 10
478.8532
 20
691.5886
 11
478.9239
 21
691.3270
  0
LINE
  8
0_00
  6
CONTINUOUS
 62
4
 10
478.9239
 20
691.3270
 11
478.9930
 21
691.0654
  0
LINE
  8
0_00
  6
CONTINUOUS
 62
4
 10
478.9930
 20
691.0654
 11
479.0603
 21
690.8037
  0
LINE
  8
0_00
  6
CONTINUOUS
 62
4
 10
479.0603
 20
690.8037
 11
479.1257
 21
690.5419
  0
LINE
  8
0_00
  6
CONTINUOUS
 62
4
 10
479.1257
 20
690.5419
 11
479.1887
 21
690.2801
  0
LINE
  8
0_00
  6
CONTINUOUS
 62
4
 10
479.1887
 20
690.2801
 11
479.2493
 21
690.0182
  0
LINE
  8
0_00
  6
CONTINUOUS
 62
4
 10
479.2493
 20
690.0182
 11
479.3072
 21
689.7561
  0
LINE
  8
0_00
  6
CONTINUOUS
 62
4
 10
479.3072
 20
689.7561
 11
479.3622
 21
689.4940
  0
LINE
  8
0_00
  6
CONTINUOUS
 62
4
 10
479.3622
 20
689.4940
 11
479.4140
 21
689.2318
  0
LINE
  8
0_00
  6
CONTINUOUS
 62
4
 10
479.4140
 20
689.2318
 11
479.4624
 21
688.9695
  0
LINE
  8
0_00
  6
CONTINUOUS
 62
4
 10
479.4624
 20
688.9695
 11
479.5073
 21
688.7071
  0
LINE
  8
0_00
  6
CONTINUOUS
 62
4
 10
479.5073
 20
688.7071
 11
479.5483
 21
688.4446
  0
LINE
  8
0_00
  6
CONTINUOUS
 62
4
 10
479.5483
 20
688.4446
 11
479.5853
 21
688.1819
  0
LINE
  8
0_00
  6
CONTINUOUS
 62
4
 10
479.5853
 20
688.1819
 11
479.6180
 21
687.9191
  0
LINE
  8
0_00
  6
CONTINUOUS
 62
4
 10
479.6180
 20
687.9191
 11
479.6462
 21
687.6561
  0
LINE
  8
0_00
  6
CONTINUOUS
 62
4
 10
479.6462
 20
687.6561
 11
479.6697
 21
687.3931
  0
LINE
  8
0_00
  6
CONTINUOUS
 62
4
 10
479.6697
 20
687.3931
 11
479.6883
 21
687.1298
  0
LINE
  8
0_00
  6
CONTINUOUS
 62
4
 10
479.6883
 20
687.1298
 11
479.7016
 21
686.8665
  0
LINE
  8
0_00
  6
CONTINUOUS
 62
4
 10
479.7016
 20
686.8665
 11
479.7096
 21
686.6028
  0
LINE
  8
0_00
  6
CONTINUOUS
 62
4
 10
479.7096
 20
686.6028
 11
479.7120
 21
686.3391
  0
LINE
  8
0_00
  6
CONTINUOUS
 62
4
 10
479.7120
 20
686.3391
 11
479.7085
 21
686.0752
  0
LINE
  8
0_00
  6
CONTINUOUS
 62
4
 10
479.7085
 20
686.0752
 11
479.6990
 21
685.8111
  0
LINE
  8
0_00
  6
CONTINUOUS
 62
4
 10
479.6990
 20
685.8111
 11
479.6831
 21
685.5467
  0
LINE
  8
0_00
  6
CONTINUOUS
 62
4
 10
479.6831
 20
685.5467
 11
479.6608
 21
685.2822
  0
LINE
  8
0_00
  6
CONTINUOUS
 62
4
 10
479.6608
 20
685.2822
 11
479.6318
 21
685.0174
  0
LINE
  8
0_00
  6
CONTINUOUS
 62
4
 10
479.6318
 20
685.0174
 11
479.5965
 21
684.7525
  0
LINE
  8
0_00
  6
CONTINUOUS
 62
4
 10
479.5965
 20
684.7525
 11
479.5555
 21
684.4874
  0
LINE
  8
0_00
  6
CONTINUOUS
 62
4
 10
479.5555
 20
684.4874
 11
479.5090
 21
684.2221
  0
LINE
  8
0_00
  6
CONTINUOUS
 62
4
 10
479.5090
 20
684.2221
 11
479.4577
 21
683.9566
  0
LINE
  8
0_00
  6
CONTINUOUS
 62
4
 10
479.4577
 20
683.9566
 11
479.4020
 21
683.6909
  0
LINE
  8
0_00
  6
CONTINUOUS
 62
4
 10
479.4020
 20
683.6909
 11
479.3423
 21
683.4252
  0
LINE
  8
0_00
  6
CONTINUOUS
 62
4
 10
479.3423
 20
683.4252
 11
479.2792
 21
683.1592
  0
LINE
  8
0_00
  6
CONTINUOUS
 62
4
 10
479.2792
 20
683.1592
 11
479.2129
 21
682.8932
  0
LINE
  8
0_00
  6
CONTINUOUS
 62
4
 10
479.2129
 20
682.8932
 11
479.1443
 21
682.6269
  0
LINE
  8
0_00
  6
CONTINUOUS
 62
4
 10
479.1443
 20
682.6269
 11
479.0733
 21
682.3606
  0
LINE
  8
0_00
  6
CONTINUOUS
 62
4
 10
479.0733
 20
682.3606
 11
479.0009
 21
682.0941
  0
LINE
  8
0_00
  6
CONTINUOUS
 62
4
 10
479.0009
 20
682.0941
 11
478.9273
 21
681.8276
  0
LINE
  8
0_00
  6
CONTINUOUS
 62
4
 10
478.9273
 20
681.8276
 11
478.8529
 21
681.5611
  0
LINE
  8
0_00
  6
CONTINUOUS
 62
4
 10
478.8529
 20
681.5611
 11
478.7784
 21
681.2943
  0
LINE
  8
0_00
  6
CONTINUOUS
 62
4
 10
478.7784
 20
681.2943
 11
478.7041
 21
681.0276
  0
LINE
  8
0_00
  6
CONTINUOUS
 62
4
 10
478.7041
 20
681.0276
 11
478.6305
 21
680.7608
  0
LINE
  8
0_00
  6
CONTINUOUS
 62
4
 10
478.6305
 20
680.7608
 11
478.5580
 21
680.4939
  0
LINE
  8
0_00
  6
CONTINUOUS
 62
4
 10
478.5580
 20
680.4939
 11
478.4872
 21
680.2270
  0
LINE
  8
0_00
  6
CONTINUOUS
 62
4
 10
478.4872
 20
680.2270
 11
478.4184
 21
679.9601
  0
LINE
  8
0_00
  6
CONTINUOUS
 62
4
 10
478.4184
 20
679.9601
 11
478.3522
 21
679.6932
  0
LINE
  8
0_00
  6
CONTINUOUS
 62
4
 10
478.3522
 20
679.6932
 11
478.2891
 21
679.4262
  0
LINE
  8
0_00
  6
CONTINUOUS
 62
4
 10
478.2891
 20
679.4262
 11
478.2295
 21
679.1592
  0
LINE
  8
0_00
  6
CONTINUOUS
 62
4
 10
478.2295
 20
679.1592
 11
478.1737
 21
678.8924
  0
LINE
  8
0_00
  6
CONTINUOUS
 62
4
 10
478.1737
 20
678.8924
 11
478.1224
 21
678.6254
  0
LINE
  8
0_00
  6
CONTINUOUS
 62
4
 10
478.1224
 20
678.6254
 11
478.0760
 21
678.3586
  0
LINE
  8
0_00
  6
CONTINUOUS
 62
4
 10
478.0760
 20
678.3586
 11
478.0349
 21
678.0917
  0
LINE
  8
0_00
  6
CONTINUOUS
 62
4
 10
478.0349
 20
678.0917
 11
477.9997
 21
677.8249
  0
LINE
  8
0_00
  6
CONTINUOUS
 62
4
 10
477.9997
 20
677.8249
 11
477.9707
 21
677.5581
  0
LINE
  8
0_00
  6
CONTINUOUS
 62
4
 10
477.9707
 20
677.5581
 11
477.9485
 21
677.2915
  0
LINE
  8
0_00
  6
CONTINUOUS
 62
4
 10
477.9485
 20
677.2915
 11
477.9333
 21
677.0248
  0
LINE
  8
0_00
  6
CONTINUOUS
 62
4
 10
477.9333
 20
677.0248
 11
477.9248
 21
676.7583
  0
LINE
  8
0_00
  6
CONTINUOUS
 62
4
 10
477.9248
 20
676.7583
 11
477.9226
 21
676.4915
  0
LINE
  8
0_00
  6
CONTINUOUS
 62
4
 10
477.9226
 20
676.4915
 11
477.9260
 21
676.2245
  0
LINE
  8
0_00
  6
CONTINUOUS
 62
4
 10
477.9260
 20
676.2245
 11
477.9347
 21
675.9571
  0
LINE
  8
0_00
  6
CONTINUOUS
 62
4
 10
477.9347
 20
675.9571
 11
477.9480
 21
675.6895
  0
LINE
  8
0_00
  6
CONTINUOUS
 62
4
 10
477.9480
 20
675.6895
 11
477.9656
 21
675.4211
  0
LINE
  8
0_00
  6
CONTINUOUS
 62
4
 10
477.9656
 20
675.4211
 11
477.9868
 21
675.1523
  0
LINE
  8
0_00
  6
CONTINUOUS
 62
4
 10
477.9868
 20
675.1523
 11
478.0113
 21
674.8827
  0
LINE
  8
0_00
  6
CONTINUOUS
 62
4
 10
478.0113
 20
674.8827
 11
478.0384
 21
674.6122
  0
LINE
  8
0_00
  6
CONTINUOUS
 62
4
 10
478.0384
 20
674.6122
 11
478.0678
 21
674.3408
  0
LINE
  8
0_00
  6
CONTINUOUS
 62
4
 10
478.0678
 20
674.3408
 11
478.0988
 21
674.0684
  0
LINE
  8
0_00
  6
CONTINUOUS
 62
4
 10
478.0988
 20
674.0684
 11
478.1311
 21
673.7948
  0
LINE
  8
0_00
  6
CONTINUOUS
 62
4
 10
478.1311
 20
673.7948
 11
478.1640
 21
673.5201
  0
LINE
  8
0_00
  6
CONTINUOUS
 62
4
 10
478.1640
 20
673.5201
 11
478.1972
 21
673.2439
  0
LINE
  8
0_00
  6
CONTINUOUS
 62
4
 10
478.1972
 20
673.2439
 11
478.2300
 21
672.9663
  0
LINE
  8
0_00
  6
CONTINUOUS
 62
4
 10
478.2300
 20
672.9663
 11
478.2620
 21
672.6872
  0
LINE
  8
0_00
  6
CONTINUOUS
 62
4
 10
478.2620
 20
672.6872
 11
478.2927
 21
672.4065
  0
LINE
  8
0_00
  6
CONTINUOUS
 62
4
 10
478.2927
 20
672.4065
 11
478.3216
 21
672.1240
  0
LINE
  8
0_00
  6
CONTINUOUS
 62
4
 10
478.3216
 20
672.1240
 11
478.3482
 21
671.8396
  0
LINE
  8
0_00
  6
CONTINUOUS
 62
4
 10
478.3482
 20
671.8396
 11
478.3720
 21
671.5533
  0
LINE
  8
0_00
  6
CONTINUOUS
 62
4
 10
478.3720
 20
671.5533
 11
478.3924
 21
671.2650
  0
LINE
  8
0_00
  6
CONTINUOUS
 62
4
 10
478.3924
 20
671.2650
 11
478.4090
 21
670.9746
  0
LINE
  8
0_00
  6
CONTINUOUS
 62
4
 10
478.4090
 20
670.9746
 11
478.4214
 21
670.6819
  0
LINE
  8
0_00
  6
CONTINUOUS
 62
4
 10
478.4214
 20
670.6819
 11
478.4289
 21
670.3868
  0
LINE
  8
0_00
  6
CONTINUOUS
 62
4
 10
478.4289
 20
670.3868
 11
478.4310
 21
670.0892
  0
LINE
  8
0_00
  6
CONTINUOUS
 62
4
 10
478.4310
 20
670.0892
 11
478.4274
 21
669.7892
  0
LINE
  8
0_00
  6
CONTINUOUS
 62
4
 10
478.4274
 20
669.7892
 11
478.4174
 21
669.4864
  0
LINE
  8
0_00
  6
CONTINUOUS
 62
4
 10
478.4174
 20
669.4864
 11
478.4007
 21
669.1810
  0
LINE
  8
0_00
  6
CONTINUOUS
 62
4
 10
478.4007
 20
669.1810
 11
478.3766
 21
668.8727
  0
LINE
  8
0_00
  6
CONTINUOUS
 62
4
 10
478.3766
 20
668.8727
 11
478.3448
 21
668.5614
  0
LINE
  8
0_00
  6
CONTINUOUS
 62
4
 10
478.3448
 20
668.5614
 11
478.3058
 21
668.2475
  0
LINE
  8
0_00
  6
CONTINUOUS
 62
4
 10
478.3058
 20
668.2475
 11
478.2602
 21
667.9312
  0
LINE
  8
0_00
  6
CONTINUOUS
 62
4
 10
478.2602
 20
667.9312
 11
478.2085
 21
667.6127
  0
LINE
  8
0_00
  6
CONTINUOUS
 62
4
 10
478.2085
 20
667.6127
 11
478.1513
 21
667.2924
  0
LINE
  8
0_00
  6
CONTINUOUS
 62
4
 10
478.1513
 20
667.2924
 11
478.0892
 21
666.9703
  0
LINE
  8
0_00
  6
CONTINUOUS
 62
4
 10
478.0892
 20
666.9703
 11
478.0229
 21
666.6470
  0
LINE
  8
0_00
  6
CONTINUOUS
 62
4
 10
478.0229
 20
666.6470
 11
477.9528
 21
666.3226
  0
LINE
  8
0_00
  6
CONTINUOUS
 62
4
 10
477.9528
 20
666.3226
 11
477.8796
 21
665.9973
  0
LINE
  8
0_00
  6
CONTINUOUS
 62
4
 10
477.8796
 20
665.9973
 11
477.8039
 21
665.6716
  0
LINE
  8
0_00
  6
CONTINUOUS
 62
4
 10
477.8039
 20
665.6716
 11
477.7263
 21
665.3456
  0
LINE
  8
0_00
  6
CONTINUOUS
 62
4
 10
477.7263
 20
665.3456
 11
477.6473
 21
665.0195
  0
LINE
  8
0_00
  6
CONTINUOUS
 62
4
 10
477.6473
 20
665.0195
 11
477.5675
 21
664.6937
  0
LINE
  8
0_00
  6
CONTINUOUS
 62
4
 10
477.5675
 20
664.6937
 11
477.4876
 21
664.3685
  0
LINE
  8
0_00
  6
CONTINUOUS
 62
4
 10
477.4876
 20
664.3685
 11
477.4080
 21
664.0440
  0
LINE
  8
0_00
  6
CONTINUOUS
 62
4
 10
477.4080
 20
664.0440
 11
477.3295
 21
663.7207
  0
LINE
  8
0_00
  6
CONTINUOUS
 62
4
 10
477.3295
 20
663.7207
 11
477.2525
 21
663.3986
  0
LINE
  8
0_00
  6
CONTINUOUS
 62
4
 10
477.2525
 20
663.3986
 11
477.1777
 21
663.0781
  0
LINE
  8
0_00
  6
CONTINUOUS
 62
4
 10
477.1777
 20
663.0781
 11
477.1057
 21
662.7595
  0
LINE
  8
0_00
  6
CONTINUOUS
 62
4
 10
477.1057
 20
662.7595
 11
477.0371
 21
662.4431
  0
LINE
  8
0_00
  6
CONTINUOUS
 62
4
 10
477.0371
 20
662.4431
 11
476.9724
 21
662.1290
  0
LINE
  8
0_00
  6
CONTINUOUS
 62
4
 10
476.9724
 20
662.1290
 11
476.9122
 21
661.8176
  0
LINE
  8
0_00
  6
CONTINUOUS
 62
4
 10
476.9122
 20
661.8176
 11
476.8571
 21
661.5092
  0
LINE
  8
0_00
  6
CONTINUOUS
 62
4
 10
476.8571
 20
661.5092
 11
476.8077
 21
661.2040
  0
LINE
  8
0_00
  6
CONTINUOUS
 62
4
 10
476.8077
 20
661.2040
 11
476.7647
 21
660.9023
  0
LINE
  8
0_00
  6
CONTINUOUS
 62
4
 10
476.7647
 20
660.9023
 11
476.7285
 21
660.6042
  0
LINE
  8
0_00
  6
CONTINUOUS
 62
4
 10
476.7285
 20
660.6042
 11
476.6997
 21
660.3102
  0
LINE
  8
0_00
  6
CONTINUOUS
 62
4
 10
476.6997
 20
660.3102
 11
476.6791
 21
660.0205
  0
LINE
  8
0_00
  6
CONTINUOUS
 62
4
 10
476.6791
 20
660.0205
 11
476.6670
 21
659.7354
  0
LINE
  8
0_00
  6
CONTINUOUS
 62
4
 10
476.6670
 20
659.7354
 11
476.6643
 21
659.4550
  0
LINE
  8
0_00
  6
CONTINUOUS
 62
4
 10
476.6643
 20
659.4550
 11
476.6711
 21
659.1797
  0
LINE
  8
0_00
  6
CONTINUOUS
 62
4
 10
476.6711
 20
659.1797
 11
476.6873
 21
658.9094
  0
LINE
  8
0_00
  6
CONTINUOUS
 62
4
 10
476.6873
 20
658.9094
 11
476.7120
 21
658.6441
  0
LINE
  8
0_00
  6
CONTINUOUS
 62
4
 10
476.7120
 20
658.6441
 11
476.7451
 21
658.3838
  0
LINE
  8
0_00
  6
CONTINUOUS
 62
4
 10
476.7451
 20
658.3838
 11
476.7857
 21
658.1283
  0
LINE
  8
0_00
  6
CONTINUOUS
 62
4
 10
476.7857
 20
658.1283
 11
476.8334
 21
657.8777
  0
LINE
  8
0_00
  6
CONTINUOUS
 62
4
 10
476.8334
 20
657.8777
 11
476.8876
 21
657.6317
  0
LINE
  8
0_00
  6
CONTINUOUS
 62
4
 10
476.8876
 20
657.6317
 11
476.9477
 21
657.3906
  0
LINE
  8
0_00
  6
CONTINUOUS
 62
4
 10
476.9477
 20
657.3906
 11
477.0133
 21
657.1541
  0
LINE
  8
0_00
  6
CONTINUOUS
 62
4
 10
477.0133
 20
657.1541
 11
477.0837
 21
656.9222
  0
LINE
  8
0_00
  6
CONTINUOUS
 62
4
 10
477.0837
 20
656.9222
 11
477.1585
 21
656.6949
  0
LINE
  8
0_00
  6
CONTINUOUS
 62
4
 10
477.1585
 20
656.6949
 11
477.2369
 21
656.4722
  0
LINE
  8
0_00
  6
CONTINUOUS
 62
4
 10
477.2369
 20
656.4722
 11
477.3186
 21
656.2539
  0
LINE
  8
0_00
  6
CONTINUOUS
 62
4
 10
477.3186
 20
656.2539
 11
477.4029
 21
656.0400
  0
LINE
  8
0_00
  6
CONTINUOUS
 62
4
 10
477.4029
 20
656.0400
 11
477.4893
 21
655.8305
  0
LINE
  8
0_00
  6
CONTINUOUS
 62
4
 10
477.4893
 20
655.8305
 11
477.5773
 21
655.6253
  0
LINE
  8
0_00
  6
CONTINUOUS
 62
4
 10
477.5773
 20
655.6253
 11
477.6662
 21
655.4244
  0
LINE
  8
0_00
  6
CONTINUOUS
 62
4
 10
477.6662
 20
655.4244
 11
477.7557
 21
655.2276
  0
LINE
  8
0_00
  6
CONTINUOUS
 62
4
 10
477.7557
 20
655.2276
 11
477.8449
 21
655.0351
  0
LINE
  8
0_00
  6
CONTINUOUS
 62
4
 10
477.8449
 20
655.0351
 11
477.9336
 21
654.8466
  0
LINE
  8
0_00
  6
CONTINUOUS
 62
4
 10
477.9336
 20
654.8466
 11
478.0210
 21
654.6622
  0
LINE
  8
0_00
  6
CONTINUOUS
 62
4
 10
478.0210
 20
654.6622
 11
478.1066
 21
654.4818
  0
LINE
  8
0_00
  6
CONTINUOUS
 62
4
 10
478.1066
 20
654.4818
 11
478.1900
 21
654.3054
  0
LINE
  8
0_00
  6
CONTINUOUS
 62
4
 10
478.1900
 20
654.3054
 11
478.2704
 21
654.1328
  0
LINE
  8
0_00
  6
CONTINUOUS
 62
4
 10
478.2704
 20
654.1328
 11
478.3474
 21
653.9642
  0
LINE
  8
0_00
  6
CONTINUOUS
 62
4
 10
478.3474
 20
653.9642
 11
478.4205
 21
653.7992
  0
LINE
  8
0_00
  6
CONTINUOUS
 62
4
 10
478.4205
 20
653.7992
 11
478.4890
 21
653.6380
  0
LINE
  8
0_00
  6
CONTINUOUS
 62
4
 10
478.4890
 20
653.6380
 11
478.5525
 21
653.4806
  0
LINE
  8
0_00
  6
CONTINUOUS
 62
4
 10
478.5525
 20
653.4806
 11
478.6103
 21
653.3268
  0
LINE
  8
0_00
  6
CONTINUOUS
 62
4
 10
478.6103
 20
653.3268
 11
478.6619
 21
653.1765
  0
LINE
  8
0_00
  6
CONTINUOUS
 62
4
 10
478.6619
 20
653.1765
 11
478.7070
 21
653.0299
  0
LINE
  8
0_00
  6
CONTINUOUS
 62
4
 10
478.7070
 20
653.0299
 11
478.7456
 21
652.8866
  0
LINE
  8
0_00
  6
CONTINUOUS
 62
4
 10
478.7456
 20
652.8866
 11
478.7781
 21
652.7465
  0
LINE
  8
0_00
  6
CONTINUOUS
 62
4
 10
478.7781
 20
652.7465
 11
478.8047
 21
652.6095
  0
LINE
  8
0_00
  6
CONTINUOUS
 62
4
 10
478.8047
 20
652.6095
 11
478.8257
 21
652.4756
  0
LINE
  8
0_00
  6
CONTINUOUS
 62
4
 10
478.8257
 20
652.4756
 11
478.8415
 21
652.3443
  0
LINE
  8
0_00
  6
CONTINUOUS
 62
4
 10
478.8415
 20
652.3443
 11
478.8523
 21
652.2158
  0
LINE
  8
0_00
  6
CONTINUOUS
 62
4
 10
478.8523
 20
652.2158
 11
478.8585
 21
652.0898
  0
LINE
  8
0_00
  6
CONTINUOUS
 62
4
 10
478.8585
 20
652.0898
 11
478.8603
 21
651.9662
  0
LINE
  8
0_00
  6
CONTINUOUS
 62
4
 10
478.8603
 20
651.9662
 11
478.8580
 21
651.8448
  0
LINE
  8
0_00
  6
CONTINUOUS
 62
4
 10
478.8580
 20
651.8448
 11
478.8519
 21
651.7255
  0
LINE
  8
0_00
  6
CONTINUOUS
 62
4
 10
478.8519
 20
651.7255
 11
478.8423
 21
651.6080
  0
LINE
  8
0_00
  6
CONTINUOUS
 62
4
 10
478.8423
 20
651.6080
 11
478.8295
 21
651.4925
  0
LINE
  8
0_00
  6
CONTINUOUS
 62
4
 10
478.8295
 20
651.4925
 11
478.8139
 21
651.3784
  0
LINE
  8
0_00
  6
CONTINUOUS
 62
4
 10
478.8139
 20
651.3784
 11
478.7956
 21
651.2660
  0
LINE
  8
0_00
  6
CONTINUOUS
 62
4
 10
478.7956
 20
651.2660
 11
478.7750
 21
651.1548
  0
LINE
  8
0_00
  6
CONTINUOUS
 62
4
 10
478.7750
 20
651.1548
 11
478.7524
 21
651.0448
  0
LINE
  8
0_00
  6
CONTINUOUS
 62
4
 10
478.7524
 20
651.0448
 11
478.7280
 21
650.9359
  0
LINE
  8
0_00
  6
CONTINUOUS
 62
4
 10
478.7280
 20
650.9359
 11
478.7022
 21
650.8278
  0
LINE
  8
0_00
  6
CONTINUOUS
 62
4
 10
478.7022
 20
650.8278
 11
478.6753
 21
650.7207
  0
LINE
  8
0_00
  6
CONTINUOUS
 62
4
 10
478.6753
 20
650.7207
 11
478.6475
 21
650.6140
  0
LINE
  8
0_00
  6
CONTINUOUS
 62
4
 10
478.6475
 20
650.6140
 11
478.6192
 21
650.5078
  0
LINE
  8
0_00
  6
CONTINUOUS
 62
4
 10
478.6192
 20
650.5078
 11
478.5907
 21
650.4020
  0
LINE
  8
0_00
  6
CONTINUOUS
 62
4
 10
478.5907
 20
650.4020
 11
478.5622
 21
650.2963
  0
LINE
  8
0_00
  6
CONTINUOUS
 62
4
 10
478.5622
 20
650.2963
 11
478.5340
 21
650.1906
  0
LINE
  8
0_00
  6
CONTINUOUS
 62
4
 10
478.5340
 20
650.1906
 11
478.5065
 21
650.0848
  0
LINE
  8
0_00
  6
CONTINUOUS
 62
4
 10
478.5065
 20
650.0848
 11
478.4799
 21
649.9789
  0
LINE
  8
0_00
  6
CONTINUOUS
 62
4
 10
478.4799
 20
649.9789
 11
478.4545
 21
649.8724
  0
LINE
  8
0_00
  6
CONTINUOUS
 62
4
 10
478.4545
 20
649.8724
 11
478.4306
 21
649.7654
  0
LINE
  8
0_00
  6
CONTINUOUS
 62
4
 10
478.4306
 20
649.7654
 11
478.4085
 21
649.6576
  0
LINE
  8
0_00
  6
CONTINUOUS
 62
4
 10
478.4085
 20
649.6576
 11
478.3885
 21
649.5491
  0
LINE
  8
0_00
  6
CONTINUOUS
 62
4
 10
478.3885
 20
649.5491
 11
478.3705
 21
649.4397
  0
LINE
  8
0_00
  6
CONTINUOUS
 62
4
 10
478.3705
 20
649.4397
 11
478.3545
 21
649.3295
  0
LINE
  8
0_00
  6
CONTINUOUS
 62
4
 10
478.3545
 20
649.3295
 11
478.3404
 21
649.2186
  0
LINE
  8
0_00
  6
CONTINUOUS
 62
4
 10
478.3404
 20
649.2186
 11
478.3281
 21
649.1069
  0
LINE
  8
0_00
  6
CONTINUOUS
 62
4
 10
478.3281
 20
649.1069
 11
478.3175
 21
648.9945
  0
LINE
  8
0_00
  6
CONTINUOUS
 62
4
 10
478.3175
 20
648.9945
 11
478.3087
 21
648.8814
  0
LINE
  8
0_00
  6
CONTINUOUS
 62
4
 10
478.3087
 20
648.8814
 11
478.3015
 21
648.7677
  0
LINE
  8
0_00
  6
CONTINUOUS
 62
4
 10
478.3015
 20
648.7677
 11
478.2957
 21
648.6533
  0
LINE
  8
0_00
  6
CONTINUOUS
 62
4
 10
478.2957
 20
648.6533
 11
478.2916
 21
648.5384
  0
LINE
  8
0_00
  6
CONTINUOUS
 62
4
 10
478.2916
 20
648.5384
 11
478.2887
 21
648.4229
  0
LINE
  8
0_00
  6
CONTINUOUS
 62
4
 10
478.2887
 20
648.4229
 11
478.2872
 21
648.3068
  0
LINE
  8
0_00
  6
CONTINUOUS
 62
4
 10
478.2872
 20
648.3068
 11
478.2870
 21
648.1902
  0
LINE
  8
0_00
  6
CONTINUOUS
 62
4
 10
478.2870
 20
648.1902
 11
478.2880
 21
648.0731
  0
LINE
  8
0_00
  6
CONTINUOUS
 62
4
 10
478.2880
 20
648.0731
 11
478.2901
 21
647.9556
  0
LINE
  8
0_00
  6
CONTINUOUS
 62
4
 10
478.2901
 20
647.9556
 11
478.2932
 21
647.8377
  0
LINE
  8
0_00
  6
CONTINUOUS
 62
4
 10
478.2932
 20
647.8377
 11
478.2973
 21
647.7194
  0
LINE
  8
0_00
  6
CONTINUOUS
 62
4
 10
478.2973
 20
647.7194
 11
478.3024
 21
647.6006
  0
LINE
  8
0_00
  6
CONTINUOUS
 62
4
 10
478.3024
 20
647.6006
 11
478.3083
 21
647.4815
  0
LINE
  8
0_00
  6
CONTINUOUS
 62
4
 10
478.3083
 20
647.4815
 11
478.3150
 21
647.3622
  0
LINE
  8
0_00
  6
CONTINUOUS
 62
4
 10
478.3150
 20
647.3622
 11
478.3223
 21
647.2425
  0
LINE
  8
0_00
  6
CONTINUOUS
 62
4
 10
478.3223
 20
647.2425
 11
478.3303
 21
647.1227
  0
LINE
  8
0_00
  6
CONTINUOUS
 62
4
 10
478.3303
 20
647.1227
 11
478.3389
 21
647.0026
  0
LINE
  8
0_00
  6
CONTINUOUS
 62
4
 10
478.3389
 20
647.0026
 11
478.3479
 21
646.8822
  0
LINE
  8
0_00
  6
CONTINUOUS
 62
4
 10
478.3479
 20
646.8822
 11
478.3574
 21
646.7617
  0
LINE
  8
0_00
  6
CONTINUOUS
 62
4
 10
478.3574
 20
646.7617
 11
478.3672
 21
646.6410
  0
LINE
  8
0_00
  6
CONTINUOUS
 62
4
 10
478.3672
 20
646.6410
 11
478.3773
 21
646.5202
  0
LINE
  8
0_00
  6
CONTINUOUS
 62
4
 10
478.3773
 20
646.5202
 11
478.3876
 21
646.3994
  0
LINE
  8
0_00
  6
CONTINUOUS
 62
4
 10
478.3876
 20
646.3994
 11
478.3980
 21
646.2785
  0
LINE
  8
0_00
  6
CONTINUOUS
 62
4
 10
478.3980
 20
646.2785
 11
478.4085
 21
646.1576
  0
LINE
  8
0_00
  6
CONTINUOUS
 62
4
 10
533.5518
 20
693.1576
 11
533.5518
 21
654.1576
  0
LINE
  8
0_00
  6
CONTINUOUS
 62
4
 10
533.5518
 20
651.1576
 11
533.5518
 21
646.1576
  0
LINE
  8
0_00
  6
CONTINUOUS
 62
4
 10
478.7750
 20
651.1576
 11
533.5518
 21
651.1576
  0
LINE
  8
0_00
  6
CONTINUOUS
 62
4
 10
478.3175
 20
649.1576
 11
533.5518
 21
649.1576
  0
LINE
  8
0_00
  6
CONTINUOUS
 62
4
 10
129.4597
 20
646.1576
 11
498.5463
 21
646.1576
  0
LINE
  8
0_00
  6
CONTINUOUS
 62
4
 10
513.5574
 20
646.1576
 11
533.5518
 21
646.1576
  0
LINE
  8
0_00
  6
CONTINUOUS
 62
4
 10
533.5518
 20
244.7843
 11
461.7427
 21
244.7843
  0
LINE
  8
0_00
  6
CONTINUOUS
 62
4
 10
461.7383
 20
226.3843
 11
528.5518
 21
226.3843
  0
LINE
  8
0_00
  6
CONTINUOUS
 62
4
 10
538.5518
 20
237.5843
 11
538.5518
 21
315.6753
  0
LINE
  8
0_00
  6
CONTINUOUS
 62
2
 10
526.5518
 20
239.4843
 11
538.5518
 21
239.4843
  0
LINE
  8
0_00
  6
CONTINUOUS
 62
2
 10
524.5518
 20
243.9843
 11
501.5518
 21
243.9843
  0
LINE
  8
0_00
  6
CONTINUOUS
 62
2
 10
525.0518
 20
242.4843
 11
501.5518
 21
242.4843
  0
LINE
  8
0_00
  6
CONTINUOUS
 62
2
 10
538.5518
 20
237.9843
 11
525.0518
 21
237.9843
  0
LINE
  8
0_00
  6
CONTINUOUS
 62
2
 10
526.5518
 20
244.7843
 11
526.5518
 21
239.4843
  0
LINE
  8
0_00
  6
CONTINUOUS
 62
4
 10
533.5518
 20
246.3843
 11
533.5518
 21
239.4843
  0
LINE
  8
0_00
  6
CONTINUOUS
 62
2
 10
525.0518
 20
242.4843
 11
525.0518
 21
226.3843
  0
LINE
  8
0_00
  6
CONTINUOUS
 62
2
 10
501.5518
 20
244.7843
 11
501.5518
 21
226.3843
  0
LINE
  8
0_00
  6
CONTINUOUS
 62
2
 10
538.4242
 20
252.9448
 11
538.5518
 21
252.8173
  0
LINE
  8
0_00
  6
CONTINUOUS
 62
2
 10
537.0031
 20
250.1234
 11
538.5518
 21
248.5746
  0
LINE
  8
0_00
  6
CONTINUOUS
 62
2
 10
534.8924
 20
247.9914
 11
538.0829
 21
244.8009
  0
LINE
  8
0_00
  6
CONTINUOUS
 62
2
 10
532.0958
 20
246.5454
 11
532.2568
 21
246.3843
  0
LINE
  8
0_00
  6
CONTINUOUS
 62
4
 10
463.2588
 20
249.2843
 11
461.8679
 21
245.1572
  0
LINE
  8
0_00
  6
CONTINUOUS
 62
4
 10
461.8679
 20
245.1572
 11
461.7253
 21
244.7323
  0
LINE
  8
0_00
  6
CONTINUOUS
 62
4
 10
461.7253
 20
244.7323
 11
461.5836
 21
244.3071
  0
LINE
  8
0_00
  6
CONTINUOUS
 62
4
 10
461.5836
 20
244.3071
 11
461.4435
 21
243.8815
  0
LINE
  8
0_00
  6
CONTINUOUS
 62
4
 10
461.4435
 20
243.8815
 11
461.3055
 21
243.4554
  0
LINE
  8
0_00
  6
CONTINUOUS
 62
4
 10
461.3055
 20
243.4554
 11
461.1700
 21
243.0285
  0
LINE
  8
0_00
  6
CONTINUOUS
 62
4
 10
461.1700
 20
243.0285
 11
461.0376
 21
242.6008
  0
LINE
  8
0_00
  6
CONTINUOUS
 62
4
 10
461.0376
 20
242.6008
 11
460.9086
 21
242.1721
  0
LINE
  8
0_00
  6
CONTINUOUS
 62
4
 10
460.9086
 20
242.1721
 11
460.7838
 21
241.7423
  0
LINE
  8
0_00
  6
CONTINUOUS
 62
4
 10
460.7838
 20
241.7423
 11
460.6636
 21
241.3112
  0
LINE
  8
0_00
  6
CONTINUOUS
 62
4
 10
460.6636
 20
241.3112
 11
460.5485
 21
240.8788
  0
LINE
  8
0_00
  6
CONTINUOUS
 62
4
 10
460.5485
 20
240.8788
 11
460.4389
 21
240.4448
  0
LINE
  8
0_00
  6
CONTINUOUS
 62
4
 10
460.4389
 20
240.4448
 11
460.3355
 21
240.0091
  0
LINE
  8
0_00
  6
CONTINUOUS
 62
4
 10
460.3355
 20
240.0091
 11
460.2387
 21
239.5716
  0
LINE
  8
0_00
  6
CONTINUOUS
 62
4
 10
460.2387
 20
239.5716
 11
460.1490
 21
239.1322
  0
LINE
  8
0_00
  6
CONTINUOUS
 62
4
 10
460.1490
 20
239.1322
 11
460.0669
 21
238.6906
  0
LINE
  8
0_00
  6
CONTINUOUS
 62
4
 10
460.0669
 20
238.6906
 11
459.9930
 21
238.2468
  0
LINE
  8
0_00
  6
CONTINUOUS
 62
4
 10
459.9930
 20
238.2468
 11
459.9278
 21
237.8007
  0
LINE
  8
0_00
  6
CONTINUOUS
 62
4
 10
459.9278
 20
237.8007
 11
459.8717
 21
237.3520
  0
LINE
  8
0_00
  6
CONTINUOUS
 62
4
 10
459.8717
 20
237.3520
 11
459.8253
 21
236.9006
  0
LINE
  8
0_00
  6
CONTINUOUS
 62
4
 10
459.8253
 20
236.9006
 11
459.7891
 21
236.4465
  0
LINE
  8
0_00
  6
CONTINUOUS
 62
4
 10
459.7891
 20
236.4465
 11
459.7635
 21
235.9894
  0
LINE
  8
0_00
  6
CONTINUOUS
 62
4
 10
459.7635
 20
235.9894
 11
459.7492
 21
235.5292
  0
LINE
  8
0_00
  6
CONTINUOUS
 62
4
 10
459.7492
 20
235.5292
 11
459.7466
 21
235.0659
  0
LINE
  8
0_00
  6
CONTINUOUS
 62
4
 10
459.7466
 20
235.0659
 11
459.7561
 21
234.5991
  0
LINE
  8
0_00
  6
CONTINUOUS
 62
4
 10
459.7561
 20
234.5991
 11
459.7785
 21
234.1289
  0
LINE
  8
0_00
  6
CONTINUOUS
 62
4
 10
459.7785
 20
234.1289
 11
459.8141
 21
233.6550
  0
LINE
  8
0_00
  6
CONTINUOUS
 62
4
 10
459.8141
 20
233.6550
 11
459.8634
 21
233.1774
  0
LINE
  8
0_00
  6
CONTINUOUS
 62
4
 10
459.8634
 20
233.1774
 11
459.9269
 21
232.6958
  0
LINE
  8
0_00
  6
CONTINUOUS
 62
4
 10
459.9269
 20
232.6958
 11
460.0053
 21
232.2102
  0
LINE
  8
0_00
  6
CONTINUOUS
 62
4
 10
460.0053
 20
232.2102
 11
460.0986
 21
231.7204
  0
LINE
  8
0_00
  6
CONTINUOUS
 62
4
 10
460.0986
 20
231.7204
 11
460.2061
 21
231.2270
  0
LINE
  8
0_00
  6
CONTINUOUS
 62
4
 10
460.2061
 20
231.2270
 11
460.3266
 21
230.7303
  0
LINE
  8
0_00
  6
CONTINUOUS
 62
4
 10
460.3266
 20
230.7303
 11
460.4589
 21
230.2309
  0
LINE
  8
0_00
  6
CONTINUOUS
 62
4
 10
460.4589
 20
230.2309
 11
460.6021
 21
229.7291
  0
LINE
  8
0_00
  6
CONTINUOUS
 62
4
 10
460.6021
 20
229.7291
 11
460.7547
 21
229.2256
  0
LINE
  8
0_00
  6
CONTINUOUS
 62
4
 10
460.7547
 20
229.2256
 11
460.9159
 21
228.7207
  0
LINE
  8
0_00
  6
CONTINUOUS
 62
4
 10
460.9159
 20
228.7207
 11
461.0844
 21
228.2149
  0
LINE
  8
0_00
  6
CONTINUOUS
 62
4
 10
461.0844
 20
228.2149
 11
461.2591
 21
227.7088
  0
LINE
  8
0_00
  6
CONTINUOUS
 62
4
 10
461.2591
 20
227.7088
 11
461.4388
 21
227.2027
  0
LINE
  8
0_00
  6
CONTINUOUS
 62
4
 10
461.4388
 20
227.2027
 11
461.6226
 21
226.6973
  0
LINE
  8
0_00
  6
CONTINUOUS
 62
4
 10
461.6226
 20
226.6973
 11
461.8090
 21
226.1928
  0
LINE
  8
0_00
  6
CONTINUOUS
 62
4
 10
461.8090
 20
226.1928
 11
461.9972
 21
225.6899
  0
LINE
  8
0_00
  6
CONTINUOUS
 62
4
 10
461.9972
 20
225.6899
 11
462.1859
 21
225.1891
  0
LINE
  8
0_00
  6
CONTINUOUS
 62
4
 10
462.1859
 20
225.1891
 11
462.3740
 21
224.6906
  0
LINE
  8
0_00
  6
CONTINUOUS
 62
4
 10
462.3740
 20
224.6906
 11
462.5603
 21
224.1951
  0
LINE
  8
0_00
  6
CONTINUOUS
 62
4
 10
462.5603
 20
224.1951
 11
462.7438
 21
223.7031
  0
LINE
  8
0_00
  6
CONTINUOUS
 62
4
 10
462.7438
 20
223.7031
 11
462.9232
 21
223.2150
  0
LINE
  8
0_00
  6
CONTINUOUS
 62
4
 10
462.9232
 20
223.2150
 11
463.0975
 21
222.7312
  0
LINE
  8
0_00
  6
CONTINUOUS
 62
4
 10
463.0975
 20
222.7312
 11
463.2656
 21
222.2523
  0
LINE
  8
0_00
  6
CONTINUOUS
 62
4
 10
463.2656
 20
222.2523
 11
463.4262
 21
221.7787
  0
LINE
  8
0_00
  6
CONTINUOUS
 62
4
 10
463.4262
 20
221.7787
 11
463.5783
 21
221.3110
  0
LINE
  8
0_00
  6
CONTINUOUS
 62
4
 10
463.5783
 20
221.3110
 11
463.7206
 21
220.8495
  0
LINE
  8
0_00
  6
CONTINUOUS
 62
4
 10
463.7206
 20
220.8495
 11
463.8522
 21
220.3948
  0
LINE
  8
0_00
  6
CONTINUOUS
 62
4
 10
463.8522
 20
220.3948
 11
463.9719
 21
219.9474
  0
LINE
  8
0_00
  6
CONTINUOUS
 62
4
 10
463.9719
 20
219.9474
 11
464.0784
 21
219.5077
  0
LINE
  8
0_00
  6
CONTINUOUS
 62
4
 10
464.0784
 20
219.5077
 11
464.1708
 21
219.0761
  0
LINE
  8
0_00
  6
CONTINUOUS
 62
4
 10
464.1708
 20
219.0761
 11
464.2478
 21
218.6533
  0
LINE
  8
0_00
  6
CONTINUOUS
 62
4
 10
464.2478
 20
218.6533
 11
464.3082
 21
218.2395
  0
LINE
  8
0_00
  6
CONTINUOUS
 62
4
 10
464.3082
 20
218.2395
 11
464.3512
 21
217.8355
  0
LINE
  8
0_00
  6
CONTINUOUS
 62
4
 10
464.3512
 20
217.8355
 11
464.3757
 21
217.4413
  0
LINE
  8
0_00
  6
CONTINUOUS
 62
4
 10
464.3757
 20
217.4413
 11
464.3826
 21
217.0566
  0
LINE
  8
0_00
  6
CONTINUOUS
 62
4
 10
464.3826
 20
217.0566
 11
464.3732
 21
216.6806
  0
LINE
  8
0_00
  6
CONTINUOUS
 62
4
 10
464.3732
 20
216.6806
 11
464.3487
 21
216.3129
  0
LINE
  8
0_00
  6
CONTINUOUS
 62
4
 10
464.3487
 20
216.3129
 11
464.3102
 21
215.9526
  0
LINE
  8
0_00
  6
CONTINUOUS
 62
4
 10
464.3102
 20
215.9526
 11
464.2590
 21
215.5992
  0
LINE
  8
0_00
  6
CONTINUOUS
 62
4
 10
464.2590
 20
215.5992
 11
464.1964
 21
215.2519
  0
LINE
  8
0_00
  6
CONTINUOUS
 62
4
 10
464.1964
 20
215.2519
 11
464.1233
 21
214.9102
  0
LINE
  8
0_00
  6
CONTINUOUS
 62
4
 10
464.1233
 20
214.9102
 11
464.0412
 21
214.5734
  0
LINE
  8
0_00
  6
CONTINUOUS
 62
4
 10
464.0412
 20
214.5734
 11
463.9511
 21
214.2407
  0
LINE
  8
0_00
  6
CONTINUOUS
 62
4
 10
463.9511
 20
214.2407
 11
463.8544
 21
213.9117
  0
LINE
  8
0_00
  6
CONTINUOUS
 62
4
 10
463.8544
 20
213.9117
 11
463.7521
 21
213.5856
  0
LINE
  8
0_00
  6
CONTINUOUS
 62
4
 10
463.7521
 20
213.5856
 11
463.6456
 21
213.2618
  0
LINE
  8
0_00
  6
CONTINUOUS
 62
4
 10
463.6456
 20
213.2618
 11
463.5359
 21
212.9396
  0
LINE
  8
0_00
  6
CONTINUOUS
 62
4
 10
463.5359
 20
212.9396
 11
463.4244
 21
212.6184
  0
LINE
  8
0_00
  6
CONTINUOUS
 62
4
 10
463.4244
 20
212.6184
 11
463.3122
 21
212.2974
  0
LINE
  8
0_00
  6
CONTINUOUS
 62
4
 10
463.3122
 20
212.2974
 11
463.2005
 21
211.9762
  0
LINE
  8
0_00
  6
CONTINUOUS
 62
4
 10
463.2005
 20
211.9762
 11
463.0907
 21
211.6539
  0
LINE
  8
0_00
  6
CONTINUOUS
 62
4
 10
463.0907
 20
211.6539
 11
462.9836
 21
211.3301
  0
LINE
  8
0_00
  6
CONTINUOUS
 62
4
 10
462.9836
 20
211.3301
 11
462.8808
 21
211.0039
  0
LINE
  8
0_00
  6
CONTINUOUS
 62
4
 10
462.8808
 20
211.0039
 11
462.7833
 21
210.6747
  0
LINE
  8
0_00
  6
CONTINUOUS
 62
4
 10
462.7833
 20
210.6747
 11
462.6924
 21
210.3420
  0
LINE
  8
0_00
  6
CONTINUOUS
 62
4
 10
462.6924
 20
210.3420
 11
462.6091
 21
210.0050
  0
LINE
  8
0_00
  6
CONTINUOUS
 62
4
 10
462.6091
 20
210.0050
 11
462.5349
 21
209.6631
  0
LINE
  8
0_00
  6
CONTINUOUS
 62
4
 10
462.5349
 20
209.6631
 11
462.4709
 21
209.3157
  0
LINE
  8
0_00
  6
CONTINUOUS
 62
4
 10
462.4709
 20
209.3157
 11
462.4182
 21
208.9621
  0
LINE
  8
0_00
  6
CONTINUOUS
 62
4
 10
462.4182
 20
208.9621
 11
462.3781
 21
208.6016
  0
LINE
  8
0_00
  6
CONTINUOUS
 62
4
 10
462.3781
 20
208.6016
 11
462.3518
 21
208.2335
  0
LINE
  8
0_00
  6
CONTINUOUS
 62
4
 10
462.3518
 20
208.2335
 11
462.3405
 21
207.8573
  0
LINE
  8
0_00
  6
CONTINUOUS
 62
4
 10
462.3405
 20
207.8573
 11
462.3453
 21
207.4723
  0
LINE
  8
0_00
  6
CONTINUOUS
 62
4
 10
462.3453
 20
207.4723
 11
462.3673
 21
207.0781
  0
LINE
  8
0_00
  6
CONTINUOUS
 62
4
 10
462.3673
 20
207.0781
 11
462.4053
 21
206.6751
  0
LINE
  8
0_00
  6
CONTINUOUS
 62
4
 10
462.4053
 20
206.6751
 11
462.4586
 21
206.2644
  0
LINE
  8
0_00
  6
CONTINUOUS
 62
4
 10
462.4586
 20
206.2644
 11
462.5257
 21
205.8465
  0
LINE
  8
0_00
  6
CONTINUOUS
 62
4
 10
462.5257
 20
205.8465
 11
462.6055
 21
205.4223
  0
LINE
  8
0_00
  6
CONTINUOUS
 62
4
 10
462.6055
 20
205.4223
 11
462.6970
 21
204.9927
  0
LINE
  8
0_00
  6
CONTINUOUS
 62
4
 10
462.6970
 20
204.9927
 11
462.7989
 21
204.5583
  0
LINE
  8
0_00
  6
CONTINUOUS
 62
4
 10
462.7989
 20
204.5583
 11
462.9101
 21
204.1200
  0
LINE
  8
0_00
  6
CONTINUOUS
 62
4
 10
462.9101
 20
204.1200
 11
463.0294
 21
203.6787
  0
LINE
  8
0_00
  6
CONTINUOUS
 62
4
 10
463.0294
 20
203.6787
 11
463.1556
 21
203.2350
  0
LINE
  8
0_00
  6
CONTINUOUS
 62
4
 10
463.1556
 20
203.2350
 11
463.2877
 21
202.7898
  0
LINE
  8
0_00
  6
CONTINUOUS
 62
4
 10
463.2877
 20
202.7898
 11
463.4244
 21
202.3439
  0
LINE
  8
0_00
  6
CONTINUOUS
 62
4
 10
463.4244
 20
202.3439
 11
463.5646
 21
201.8982
  0
LINE
  8
0_00
  6
CONTINUOUS
 62
4
 10
463.5646
 20
201.8982
 11
463.7070
 21
201.4532
  0
LINE
  8
0_00
  6
CONTINUOUS
 62
4
 10
463.7070
 20
201.4532
 11
463.8506
 21
201.0100
  0
LINE
  8
0_00
  6
CONTINUOUS
 62
4
 10
463.8506
 20
201.0100
 11
463.9943
 21
200.5692
  0
LINE
  8
0_00
  6
CONTINUOUS
 62
4
 10
463.9943
 20
200.5692
 11
464.1367
 21
200.1317
  0
LINE
  8
0_00
  6
CONTINUOUS
 62
4
 10
464.1367
 20
200.1317
 11
464.2768
 21
199.6982
  0
LINE
  8
0_00
  6
CONTINUOUS
 62
4
 10
464.2768
 20
199.6982
 11
464.4135
 21
199.2696
  0
LINE
  8
0_00
  6
CONTINUOUS
 62
4
 10
464.4135
 20
199.2696
 11
464.5454
 21
198.8467
  0
LINE
  8
0_00
  6
CONTINUOUS
 62
4
 10
464.5454
 20
198.8467
 11
464.6716
 21
198.4302
  0
LINE
  8
0_00
  6
CONTINUOUS
 62
4
 10
464.6716
 20
198.4302
 11
464.7908
 21
198.0209
  0
LINE
  8
0_00
  6
CONTINUOUS
 62
4
 10
464.7908
 20
198.0209
 11
464.9019
 21
197.6197
  0
LINE
  8
0_00
  6
CONTINUOUS
 62
4
 10
464.9019
 20
197.6197
 11
465.0036
 21
197.2274
  0
LINE
  8
0_00
  6
CONTINUOUS
 62
4
 10
465.0036
 20
197.2274
 11
465.0949
 21
196.8446
  0
LINE
  8
0_00
  6
CONTINUOUS
 62
4
 10
465.0949
 20
196.8446
 11
465.1746
 21
196.4723
  0
LINE
  8
0_00
  6
CONTINUOUS
 62
4
 10
465.1746
 20
196.4723
 11
465.2415
 21
196.1113
  0
LINE
  8
0_00
  6
CONTINUOUS
 62
4
 10
465.2415
 20
196.1113
 11
465.2945
 21
195.7622
  0
LINE
  8
0_00
  6
CONTINUOUS
 62
4
 10
465.2945
 20
195.7622
 11
465.3324
 21
195.4260
  0
LINE
  8
0_00
  6
CONTINUOUS
 62
4
 10
465.3324
 20
195.4260
 11
465.3540
 21
195.1034
  0
LINE
  8
0_00
  6
CONTINUOUS
 62
4
 10
465.3540
 20
195.1034
 11
465.3586
 21
194.7949
  0
LINE
  8
0_00
  6
CONTINUOUS
 62
4
 10
465.3586
 20
194.7949
 11
465.3468
 21
194.5002
  0
LINE
  8
0_00
  6
CONTINUOUS
 62
4
 10
465.3468
 20
194.5002
 11
465.3197
 21
194.2186
  0
LINE
  8
0_00
  6
CONTINUOUS
 62
4
 10
465.3197
 20
194.2186
 11
465.2785
 21
193.9493
  0
LINE
  8
0_00
  6
CONTINUOUS
 62
4
 10
465.2785
 20
193.9493
 11
465.2239
 21
193.6918
  0
LINE
  8
0_00
  6
CONTINUOUS
 62
4
 10
465.2239
 20
193.6918
 11
465.1573
 21
193.4453
  0
LINE
  8
0_00
  6
CONTINUOUS
 62
4
 10
465.1573
 20
193.4453
 11
465.0797
 21
193.2091
  0
LINE
  8
0_00
  6
CONTINUOUS
 62
4
 10
465.0797
 20
193.2091
 11
464.9920
 21
192.9827
  0
LINE
  8
0_00
  6
CONTINUOUS
 62
4
 10
464.9920
 20
192.9827
 11
464.8954
 21
192.7652
  0
LINE
  8
0_00
  6
CONTINUOUS
 62
4
 10
464.8954
 20
192.7652
 11
464.7910
 21
192.5561
  0
LINE
  8
0_00
  6
CONTINUOUS
 62
4
 10
464.7910
 20
192.5561
 11
464.6797
 21
192.3547
  0
LINE
  8
0_00
  6
CONTINUOUS
 62
4
 10
464.6797
 20
192.3547
 11
464.5627
 21
192.1602
  0
LINE
  8
0_00
  6
CONTINUOUS
 62
4
 10
464.5627
 20
192.1602
 11
464.4408
 21
191.9721
  0
LINE
  8
0_00
  6
CONTINUOUS
 62
4
 10
464.4408
 20
191.9721
 11
464.3155
 21
191.7896
  0
LINE
  8
0_00
  6
CONTINUOUS
 62
4
 10
464.3155
 20
191.7896
 11
464.1875
 21
191.6121
  0
LINE
  8
0_00
  6
CONTINUOUS
 62
4
 10
464.1875
 20
191.6121
 11
464.0581
 21
191.4388
  0
LINE
  8
0_00
  6
CONTINUOUS
 62
4
 10
464.0581
 20
191.4388
 11
463.9281
 21
191.2692
  0
LINE
  8
0_00
  6
CONTINUOUS
 62
4
 10
463.9281
 20
191.2692
 11
463.7987
 21
191.1025
  0
LINE
  8
0_00
  6
CONTINUOUS
 62
4
 10
463.7987
 20
191.1025
 11
463.6711
 21
190.9381
  0
LINE
  8
0_00
  6
CONTINUOUS
 62
4
 10
463.6711
 20
190.9381
 11
463.5461
 21
190.7753
  0
LINE
  8
0_00
  6
CONTINUOUS
 62
4
 10
463.5461
 20
190.7753
 11
463.4250
 21
190.6134
  0
LINE
  8
0_00
  6
CONTINUOUS
 62
4
 10
463.4250
 20
190.6134
 11
463.3087
 21
190.4517
  0
LINE
  8
0_00
  6
CONTINUOUS
 62
4
 10
463.3087
 20
190.4517
 11
463.1982
 21
190.2896
  0
LINE
  8
0_00
  6
CONTINUOUS
 62
4
 10
463.1982
 20
190.2896
 11
463.0948
 21
190.1264
  0
LINE
  8
0_00
  6
CONTINUOUS
 62
4
 10
463.0948
 20
190.1264
 11
462.9993
 21
189.9614
  0
LINE
  8
0_00
  6
CONTINUOUS
 62
4
 10
462.9993
 20
189.9614
 11
462.9130
 21
189.7939
  0
LINE
  8
0_00
  6
CONTINUOUS
 62
4
 10
462.9130
 20
189.7939
 11
462.8368
 21
189.6234
  0
LINE
  8
0_00
  6
CONTINUOUS
 62
4
 10
462.8368
 20
189.6234
 11
462.7718
 21
189.4490
  0
LINE
  8
0_00
  6
CONTINUOUS
 62
4
 10
462.7718
 20
189.4490
 11
462.7191
 21
189.2701
  0
LINE
  8
0_00
  6
CONTINUOUS
 62
4
 10
462.7191
 20
189.2701
 11
462.6796
 21
189.0861
  0
LINE
  8
0_00
  6
CONTINUOUS
 62
4
 10
462.6796
 20
189.0861
 11
462.6544
 21
188.8964
  0
LINE
  8
0_00
  6
CONTINUOUS
 62
4
 10
462.6544
 20
188.8964
 11
462.6430
 21
188.7010
  0
LINE
  8
0_00
  6
CONTINUOUS
 62
4
 10
462.6430
 20
188.7010
 11
462.6450
 21
188.5002
  0
LINE
  8
0_00
  6
CONTINUOUS
 62
4
 10
462.6450
 20
188.5002
 11
462.6600
 21
188.2942
  0
LINE
  8
0_00
  6
CONTINUOUS
 62
4
 10
462.6600
 20
188.2942
 11
462.6874
 21
188.0831
  0
LINE
  8
0_00
  6
CONTINUOUS
 62
4
 10
462.6874
 20
188.0831
 11
462.7269
 21
187.8671
  0
LINE
  8
0_00
  6
CONTINUOUS
 62
4
 10
462.7269
 20
187.8671
 11
462.7778
 21
187.6465
  0
LINE
  8
0_00
  6
CONTINUOUS
 62
4
 10
462.7778
 20
187.6465
 11
462.8398
 21
187.4214
  0
LINE
  8
0_00
  6
CONTINUOUS
 62
4
 10
462.8398
 20
187.4214
 11
462.9123
 21
187.1920
  0
LINE
  8
0_00
  6
CONTINUOUS
 62
4
 10
462.9123
 20
187.1920
 11
462.9949
 21
186.9586
  0
LINE
  8
0_00
  6
CONTINUOUS
 62
4
 10
462.9949
 20
186.9586
 11
463.0871
 21
186.7212
  0
LINE
  8
0_00
  6
CONTINUOUS
 62
4
 10
463.0871
 20
186.7212
 11
463.1884
 21
186.4802
  0
LINE
  8
0_00
  6
CONTINUOUS
 62
4
 10
463.1884
 20
186.4802
 11
464.1304
 21
184.3843
  0
LINE
  8
0_00
  6
CONTINUOUS
 62
4
 10
533.5518
 20
246.3843
 11
462.2814
 21
246.3843
  0
LINE
  8
0_00
  6
CONTINUOUS
 62
4
 10
120.5314
 20
184.3843
 11
464.1304
 21
184.3843
  0
LINE
  8
0_00
  6
CONTINUOUS
 62
4
 10
533.5518
 20
246.3843
 11
533.5518
 21
239.4843
  0
LINE
  8
0_00
  6
CENTER1
 62
6
 10
186.5518
 20
659.1308
 11
186.5518
 21
369.8882
  0
LINE
  8
0_00
  6
CONTINUOUS
 62
4
 10
196.5518
 20
646.1576
 11
196.5518
 21
516.7709
  0
LINE
  8
0_00
  6
CONTINUOUS
 62
4
 10
176.5518
 20
646.1576
 11
176.5518
 21
516.7709
  0
LINE
  8
0_00
  6
CONTINUOUS
 62
4
 10
196.5518
 20
512.2710
 11
196.5518
 21
381.3843
  0
LINE
  8
0_00
  6
CONTINUOUS
 62
4
 10
176.5518
 20
512.2710
 11
176.5518
 21
381.3843
  0
LINE
  8
0_00
  6
CONTINUOUS
 62
4
 10
792.9643
 20
647.6576
 11
797.9643
 21
647.6576
  0
LINE
  8
0_00
  6
CONTINUOUS
 62
4
 10
798.5642
 20
647.6576
 11
807.6643
 21
647.6576
  0
LINE
  8
0_00
  6
CONTINUOUS
 62
4
 10
705.2643
 20
167.3880
 11
705.2643
 21
216.3843
  0
LINE
  8
0_00
  6
CONTINUOUS
 62
4
 10
845.2643
 20
226.3843
 11
715.2643
 21
226.3843
  0
LINE
  8
0_00
  6
CONTINUOUS
 62
4
 10
855.2642
 20
216.3843
 11
855.2642
 21
167.3880
  0
LINE
  8
0_00
  6
CONTINUOUS
 62
4
 10
690.2643
 20
187.3843
 11
690.2643
 21
249.1509
  0
LINE
  8
0_00
  6
CONTINUOUS
 62
4
 10
693.3642
 20
249.2810
 11
867.3643
 21
243.4809
  0
LINE
  8
0_00
  6
CONTINUOUS
 62
4
 10
870.2643
 20
243.6176
 11
870.2643
 21
186.3843
  0
LINE
  8
0_00
  6
CONTINUOUS
 62
4
 10
697.0531
 20
184.5829
 11
693.2643
 21
184.3843
  0
LINE
  8
0_00
  6
CONTINUOUS
 62
4
 10
867.2643
 20
183.3843
 11
863.4755
 21
183.5829
  0
LINE
  8
0_00
  6
CONTINUOUS
 62
4
 10
734.9545
 20
246.0936
 11
735.2643
 21
246.3834
  0
LINE
  8
0_00
  6
CONTINUOUS
 62
4
 10
735.2643
 20
246.3834
 11
735.5541
 21
246.0736
  0
LINE
  8
0_00
  6
CONTINUOUS
 62
4
 10
735.5541
 20
246.0736
 11
735.8639
 21
246.3635
  0
LINE
  8
0_00
  6
CONTINUOUS
 62
4
 10
734.9545
 20
246.0936
 11
734.6646
 21
246.4035
  0
LINE
  8
0_00
  6
CONTINUOUS
 62
4
 10
779.9545
 20
244.5936
 11
780.2643
 21
244.8834
  0
LINE
  8
0_00
  6
CONTINUOUS
 62
4
 10
780.2643
 20
244.8834
 11
780.5541
 21
244.5736
  0
LINE
  8
0_00
  6
CONTINUOUS
 62
4
 10
780.5541
 20
244.5736
 11
780.8640
 21
244.8635
  0
LINE
  8
0_00
  6
CONTINUOUS
 62
4
 10
779.9545
 20
244.5936
 11
779.6646
 21
244.9035
  0
LINE
  8
0_00
  6
CONTINUOUS
 62
4
 10
824.9545
 20
243.0936
 11
825.2643
 21
243.3834
  0
LINE
  8
0_00
  6
CONTINUOUS
 62
4
 10
825.2643
 20
243.3834
 11
825.5541
 21
243.0736
  0
LINE
  8
0_00
  6
CONTINUOUS
 62
4
 10
825.5541
 20
243.0736
 11
825.8640
 21
243.3635
  0
LINE
  8
0_00
  6
CONTINUOUS
 62
4
 10
824.9545
 20
243.0936
 11
824.6646
 21
243.4034
  0
LINE
  8
0_00
  6
CONTINUOUS
 62
4
 10
868.7643
 20
205.5844
 11
868.4643
 21
205.8844
  0
LINE
  8
0_00
  6
CONTINUOUS
 62
4
 10
868.4643
 20
205.8844
 11
868.7643
 21
206.1844
  0
LINE
  8
0_00
  6
CONTINUOUS
 62
4
 10
868.7643
 20
210.5844
 11
868.4643
 21
210.8844
  0
LINE
  8
0_00
  6
CONTINUOUS
 62
4
 10
868.4643
 20
210.8844
 11
868.7643
 21
211.1844
  0
LINE
  8
0_00
  6
CONTINUOUS
 62
4
 10
868.7643
 20
215.5844
 11
868.4643
 21
215.8844
  0
LINE
  8
0_00
  6
CONTINUOUS
 62
4
 10
868.4643
 20
215.8844
 11
868.7643
 21
216.1844
  0
LINE
  8
0_00
  6
CONTINUOUS
 62
4
 10
868.7643
 20
220.5844
 11
868.4643
 21
220.8844
  0
LINE
  8
0_00
  6
CONTINUOUS
 62
4
 10
868.4643
 20
220.8844
 11
868.7643
 21
221.1844
  0
LINE
  8
0_00
  6
CONTINUOUS
 62
4
 10
696.9746
 20
186.0808
 11
695.9573
 21
186.0275
  0
LINE
  8
0_00
  6
CONTINUOUS
 62
4
 10
695.5578
 20
186.0065
 11
693.2317
 21
185.8846
  0
LINE
  8
0_00
  6
CONTINUOUS
 62
4
 10
691.7643
 20
187.3843
 11
691.7643
 21
246.2826
  0
LINE
  8
0_00
  6
CONTINUOUS
 62
4
 10
693.3143
 20
247.7818
 11
734.6646
 21
246.4035
  0
LINE
  8
0_00
  6
CONTINUOUS
 62
4
 10
735.8639
 20
246.3635
 11
766.1646
 21
245.3534
  0
LINE
  8
0_00
  6
CONTINUOUS
 62
4
 10
767.3640
 20
245.3135
 11
779.6646
 21
244.9035
  0
LINE
  8
0_00
  6
CONTINUOUS
 62
4
 10
780.8640
 20
244.8635
 11
793.1646
 21
244.4534
  0
LINE
  8
0_00
  6
CONTINUOUS
 62
4
 10
794.3639
 20
244.4135
 11
824.6646
 21
243.4034
  0
LINE
  8
0_00
  6
CONTINUOUS
 62
4
 10
825.8640
 20
243.3635
 11
867.3143
 21
241.9818
  0
LINE
  8
0_00
  6
CONTINUOUS
 62
4
 10
868.7643
 20
240.4826
 11
868.7643
 21
221.1844
  0
LINE
  8
0_00
  6
CONTINUOUS
 62
4
 10
868.7643
 20
220.5844
 11
868.7643
 21
216.1844
  0
LINE
  8
0_00
  6
CONTINUOUS
 62
4
 10
868.7643
 20
215.5844
 11
868.7643
 21
211.1844
  0
LINE
  8
0_00
  6
CONTINUOUS
 62
4
 10
868.7643
 20
210.5844
 11
868.7643
 21
206.1844
  0
LINE
  8
0_00
  6
CONTINUOUS
 62
4
 10
868.7643
 20
205.5844
 11
868.7643
 21
186.3843
  0
LINE
  8
0_00
  6
CONTINUOUS
 62
4
 10
867.2968
 20
184.8846
 11
863.5540
 21
185.0808
  0
LINE
  8
0_00
  6
CONTINUOUS
 62
4
 10
695.5578
 20
186.0065
 11
695.7681
 21
185.8173
  0
LINE
  8
0_00
  6
CONTINUOUS
 62
4
 10
695.7681
 20
185.8173
 11
695.9573
 21
186.0275
  0
LINE
  8
0_00
  6
CONTINUOUS
 62
4
 10
766.4545
 20
245.0436
 11
766.7643
 21
245.3335
  0
LINE
  8
0_00
  6
CONTINUOUS
 62
4
 10
766.7643
 20
245.3335
 11
767.0541
 21
245.0236
  0
LINE
  8
0_00
  6
CONTINUOUS
 62
4
 10
767.0541
 20
245.0236
 11
767.3640
 21
245.3135
  0
LINE
  8
0_00
  6
CONTINUOUS
 62
4
 10
766.1646
 20
245.3534
 11
766.4545
 21
245.0436
  0
LINE
  8
0_00
  6
CONTINUOUS
 62
4
 10
793.4544
 20
244.1436
 11
793.7643
 21
244.4334
  0
LINE
  8
0_00
  6
CONTINUOUS
 62
4
 10
793.7643
 20
244.4334
 11
794.0542
 21
244.1236
  0
LINE
  8
0_00
  6
CONTINUOUS
 62
4
 10
794.0542
 20
244.1236
 11
794.3639
 21
244.4135
  0
LINE
  8
0_00
  6
CONTINUOUS
 62
4
 10
793.1646
 20
244.4534
 11
793.4544
 21
244.1436
  0
LINE
  8
0_00
  6
CONTINUOUS
 62
6
 10
691.9643
 20
197.0313
 11
691.9643
 21
244.9635
  0
LINE
  8
0_00
  6
CONTINUOUS
 62
2
 10
692.7643
 20
197.0313
 11
705.2643
 21
197.0313
  0
LINE
  8
0_00
  6
CONTINUOUS
 62
2
 10
692.7643
 20
197.0313
 11
692.7643
 21
244.9635
  0
LINE
  8
0_00
  6
CONTINUOUS
 62
2
 10
697.2643
 20
240.8780
 11
697.2643
 21
241.6596
  0
LINE
  8
0_00
  6
CONTINUOUS
 62
2
 10
698.7643
 20
197.0313
 11
698.7643
 21
242.3288
  0
LINE
  8
14_0E
  6
CONTINUOUS
 62
2
 10
694.7643
 20
246.9646
 11
865.8310
 21
241.1991
  0
LINE
  8
0_00
  6
CONTINUOUS
 62
6
 10
694.8576
 20
247.7620
 11
865.8575
 21
241.9986
  0
LINE
  8
0_00
  6
CONTINUOUS
 62
2
 10
863.2643
 20
235.2813
 11
697.2643
 21
240.8780
  0
LINE
  8
2_02
  6
CONTINUOUS
 62
2
 10
694.2643
 20
244.7613
 11
694.2643
 21
244.9635
  0
LINE
  8
2_02
  6
CONTINUOUS
 62
2
 10
865.5690
 20
239.7070
 11
865.7809
 21
239.6999
  0
LINE
  8
2_02
  6
CONTINUOUS
 62
2
 10
694.7810
 20
245.4632
 11
694.9831
 21
245.4565
  0
LINE
  8
0_00
  6
CONTINUOUS
 62
2
 10
694.9831
 20
245.4565
 11
697.9831
 21
242.3549
  0
LINE
  8
0_00
  6
CONTINUOUS
 62
2
 10
697.2643
 20
241.6596
 11
694.2643
 21
244.7613
  0
LINE
  8
3_03
  6
CONTINUOUS
 62
6
 10
691.9643
 20
197.0313
 11
692.7643
 21
197.0313
  0
LINE
  8
0_00
  6
CONTINUOUS
 62
6
 10
868.5643
 20
239.2002
 11
868.5643
 21
191.1346
  0
LINE
  8
0_00
  6
CONTINUOUS
 62
2
 10
867.7643
 20
239.2002
 11
867.7643
 21
191.1346
  0
LINE
  8
0_00
  6
CONTINUOUS
 62
2
 10
861.7643
 20
236.8321
 11
861.7643
 21
191.1346
  0
LINE
  8
2_02
  6
CONTINUOUS
 62
2
 10
866.2643
 20
239.2002
 11
866.2643
 21
238.9882
  0
LINE
  8
0_00
  6
CONTINUOUS
 62
2
 10
867.7643
 20
191.1346
 11
855.2642
 21
191.1346
  0
LINE
  8
0_00
  6
CONTINUOUS
 62
6
 10
867.7643
 20
191.1346
 11
868.5643
 21
191.1346
  0
LINE
  8
0_00
  6
CONTINUOUS
 62
2
 10
865.5690
 20
239.7070
 11
862.5691
 21
236.8053
  0
LINE
  8
0_00
  6
CONTINUOUS
 62
2
 10
863.2643
 20
236.0865
 11
866.2643
 21
238.9882
  0
LINE
  8
0_00
  6
CONTINUOUS
 62
2
 10
863.2643
 20
236.0865
 11
863.2643
 21
235.2813
  0
LINE
  8
0_00
  6
CONTINUOUS
 62
2
 10
697.9831
 20
242.3549
 11
698.7643
 21
242.3285
  0
LINE
  8
0_00
  6
CONTINUOUS
 62
2
 10
861.7643
 20
236.8324
 11
862.5691
 21
236.8053
  0
LINE
  8
0_00
  6
CONTINUOUS
 62
2
 10
817.2643
 20
685.6796
 11
817.2643
 21
646.1576
  0
LINE
  8
0_00
  6
CONTINUOUS
 62
2
 10
743.2643
 20
685.6796
 11
743.2644
 21
646.1576
  0
LINE
  8
0_00
  6
CONTINUOUS
 62
2
 10
809.5642
 20
646.1576
 11
817.2643
 21
646.1576
  0
LINE
  8
0_00
  6
CONTINUOUS
 62
2
 10
750.9638
 20
646.1576
 11
743.2644
 21
646.1576
  0
LINE
  8
0_00
  6
CONTINUOUS
 62
2
 10
697.4975
 20
256.1471
 11
863.4975
 21
250.6137
  0
LINE
  8
0_00
  6
CONTINUOUS
 62
4
 10
478.3083
 20
647.6576
 11
498.5463
 21
647.6576
  0
LINE
  8
0_00
  6
CONTINUOUS
 62
4
 10
513.5574
 20
647.6576
 11
533.5518
 21
647.6576
  0
LINE
  8
0_00
  6
CONTINUOUS
 62
2
 10
772.7587
 20
649.1576
 11
787.7698
 21
649.1576
  0
LINE
  8
0_00
  6
CONTINUOUS
 62
2
 10
787.7698
 20
646.3042
 11
787.7698
 21
644.3536
  0
LINE
  8
0_00
  6
CONTINUOUS
 62
2
 10
787.7698
 20
649.1576
 11
787.7698
 21
646.3042
  0
LINE
  8
0_00
  6
CONTINUOUS
 62
2
 10
772.7587
 20
646.3042
 11
772.7587
 21
644.3536
  0
LINE
  8
0_00
  6
CONTINUOUS
 62
2
 10
772.7587
 20
649.1576
 11
772.7587
 21
646.3042
  0
LINE
  8
0_00
  6
CONTINUOUS
 62
2
 10
787.7698
 20
644.3536
 11
786.5643
 21
643.6576
  0
LINE
  8
0_00
  6
CONTINUOUS
 62
2
 10
772.7587
 20
644.3536
 11
773.9643
 21
643.6576
  0
LINE
  8
0_00
  6
CONTINUOUS
 62
2
 10
773.9643
 20
643.6576
 11
786.5643
 21
643.6576
  0
LINE
  8
0_00
  6
CONTINUOUS
 62
2
 10
784.0171
 20
646.3042
 11
784.0171
 21
644.3536
  0
LINE
  8
0_00
  6
CONTINUOUS
 62
2
 10
784.0171
 20
649.1576
 11
784.0171
 21
646.3042
  0
LINE
  8
0_00
  6
CONTINUOUS
 62
2
 10
776.5115
 20
646.3042
 11
776.5115
 21
644.3536
  0
LINE
  8
0_00
  6
CONTINUOUS
 62
2
 10
776.5115
 20
649.1576
 11
776.5115
 21
646.3042
  0
LINE
  8
0_00
  6
CONTINUOUS
 62
2
 10
784.2643
 20
662.6576
 11
784.2643
 21
667.9576
  0
LINE
  8
0_00
  6
CONTINUOUS
 62
2
 10
776.2643
 20
662.6576
 11
776.2643
 21
667.9576
  0
LINE
  8
0_00
  6
CONTINUOUS
 62
2
 10
784.2643
 20
667.9576
 11
783.0643
 21
669.1576
  0
LINE
  8
0_00
  6
CONTINUOUS
 62
2
 10
776.2643
 20
667.9576
 11
777.4643
 21
669.1576
  0
LINE
  8
0_00
  6
CONTINUOUS
 62
2
 10
777.4643
 20
669.1576
 11
783.0643
 21
669.1576
  0
LINE
  8
0_00
  6
CONTINUOUS
 62
2
 10
776.2643
 20
667.9576
 11
784.2643
 21
667.9576
  0
LINE
  8
0_00
  6
CONTINUOUS
 62
6
 10
783.5143
 20
662.6576
 11
783.5143
 21
668.7077
  0
LINE
  8
0_00
  6
CONTINUOUS
 62
6
 10
777.0143
 20
662.6576
 11
777.0143
 21
668.7077
  0
LINE
  8
0_00
  6
CONTINUOUS
 62
2
 10
787.9644
 20
656.1576
 11
772.5643
 21
656.1576
  0
LINE
  8
0_00
  6
CONTINUOUS
 62
2
 10
772.5643
 20
656.1576
 11
772.5643
 21
654.1576
  0
LINE
  8
0_00
  6
CONTINUOUS
 62
2
 10
787.9644
 20
656.1576
 11
787.9644
 21
654.1576
  0
LINE
  8
0_00
  6
CONTINUOUS
 62
2
 10
787.9644
 20
654.1576
 11
772.5643
 21
654.1576
  0
LINE
  8
0_00
  6
CONTINUOUS
 62
2
 10
779.9963
 20
656.1576
 11
780.5322
 21
654.1576
  0
LINE
  8
0_00
  6
CONTINUOUS
 62
2
 10
787.7698
 20
656.1576
 11
772.7587
 21
656.1576
  0
LINE
  8
0_00
  6
CONTINUOUS
 62
2
 10
772.7587
 20
656.1576
 11
772.7587
 21
661.9327
  0
LINE
  8
0_00
  6
CONTINUOUS
 62
2
 10
787.7698
 20
656.1576
 11
787.7698
 21
661.9327
  0
LINE
  8
0_00
  6
CONTINUOUS
 62
2
 10
772.7587
 20
661.9327
 11
774.0143
 21
662.6576
  0
LINE
  8
0_00
  6
CONTINUOUS
 62
2
 10
787.7698
 20
661.9327
 11
786.5143
 21
662.6576
  0
LINE
  8
0_00
  6
CONTINUOUS
 62
2
 10
786.5143
 20
662.6576
 11
774.0143
 21
662.6576
  0
LINE
  8
0_00
  6
CONTINUOUS
 62
2
 10
776.5115
 20
656.1576
 11
776.5115
 21
661.9327
  0
LINE
  8
0_00
  6
CONTINUOUS
 62
2
 10
784.0171
 20
656.1576
 11
784.0171
 21
661.9327
  0
LINE
  8
0_00
  6
DASHED
 62
2
 10
784.2643
 20
654.1576
 11
784.2643
 21
651.1576
  0
LINE
  8
0_00
  6
DASHED
 62
2
 10
784.2643
 20
649.1576
 11
784.2643
 21
651.1576
  0
LINE
  8
0_00
  6
DASHED
 62
6
 10
783.5143
 20
654.1576
 11
783.5143
 21
651.1576
  0
LINE
  8
0_00
  6
DASHED
 62
6
 10
783.5143
 20
649.1576
 11
783.5143
 21
651.1576
  0
LINE
  8
0_00
  6
DASHED
 62
6
 10
777.0143
 20
654.1576
 11
777.0143
 21
651.1576
  0
LINE
  8
0_00
  6
DASHED
 62
6
 10
777.0143
 20
649.1576
 11
777.0143
 21
651.1576
  0
LINE
  8
0_00
  6
DASHED
 62
2
 10
776.2643
 20
654.1576
 11
776.2643
 21
651.1576
  0
LINE
  8
0_00
  6
DASHED
 62
2
 10
776.2643
 20
649.1576
 11
776.2643
 21
651.1576
  0
LINE
  8
0_00
  6
CONTINUOUS
 62
6
 10
273.9619
 20
691.0287
 11
291.2960
 21
708.3628
  0
LINE
  8
0_00
  6
CONTINUOUS
 62
6
 10
273.9619
 20
691.0287
 11
280.2520
 21
695.1135
  0
LINE
  8
0_00
  6
CONTINUOUS
 62
6
 10
273.9619
 20
691.0287
 11
278.0468
 21
697.3187
  0
LINE
  8
0_00
  6
CONTINUOUS
 62
6
 10
291.2960
 20
708.3628
 11
350.6960
 21
708.3628
  0
LINE
  8
0_00
  6
CONTINUOUS
 62
4
 10
464.3535
 20
216.3843
 11
538.5518
 21
216.3843
  0
LINE
  8
0_00
  6
CENTER1
 62
6
 10
293.2259
 20
514.5209
 11
332.3480
 21
514.5209
  0
LINE
  8
0_00
  6
CENTER1
 62
6
 10
384.9072
 20
514.5209
 11
442.4106
 21
514.5209
  0
LINE
  8
0_00
  6
CONTINUOUS
 62
4
 10
303.5518
 20
517.7310
 11
303.5518
 21
515.7084
  0
LINE
  8
0_00
  6
CONTINUOUS
 62
4
 10
303.7562
 20
519.2840
 11
305.2336
 21
524.7974
  0
LINE
  8
0_00
  6
CONTINUOUS
 62
4
 10
308.1314
 20
527.0209
 11
318.9723
 21
527.0209
  0
LINE
  8
0_00
  6
CONTINUOUS
 62
4
 10
321.8700
 20
524.7974
 11
323.3474
 21
519.2840
  0
LINE
  8
0_00
  6
CONTINUOUS
 62
4
 10
308.1314
 20
526.3209
 11
318.9723
 21
526.3209
  0
LINE
  8
0_00
  6
CONTINUOUS
 62
4
 10
321.1939
 20
524.6162
 11
322.6712
 21
519.1028
  0
LINE
  8
0_00
  6
CONTINUOUS
 62
4
 10
305.9097
 20
524.6162
 11
304.4324
 21
519.1028
  0
LINE
  8
0_00
  6
CONTINUOUS
 62
4
 10
304.2518
 20
515.6300
 11
304.2518
 21
517.7310
  0
LINE
  8
0_00
  6
CONTINUOUS
 62
4
 10
303.5518
 20
511.3109
 11
303.5518
 21
513.3335
  0
LINE
  8
0_00
  6
CONTINUOUS
 62
4
 10
303.7562
 20
509.7579
 11
305.2336
 21
504.2445
  0
LINE
  8
0_00
  6
CONTINUOUS
 62
4
 10
308.1314
 20
502.0210
 11
318.9723
 21
502.0210
  0
LINE
  8
0_00
  6
CONTINUOUS
 62
4
 10
321.8700
 20
504.2445
 11
323.3474
 21
509.7579
  0
LINE
  8
0_00
  6
CONTINUOUS
 62
4
 10
308.1314
 20
502.7209
 11
318.9723
 21
502.7209
  0
LINE
  8
0_00
  6
CONTINUOUS
 62
4
 10
321.1939
 20
504.4257
 11
322.6712
 21
509.9391
  0
LINE
  8
0_00
  6
CONTINUOUS
 62
4
 10
305.9097
 20
504.4257
 11
304.4324
 21
509.9391
  0
LINE
  8
0_00
  6
CONTINUOUS
 62
4
 10
304.2518
 20
513.4118
 11
304.2518
 21
511.3109
  0
LINE
  8
0_00
  6
CONTINUOUS
 62
4
 10
323.5518
 20
515.7084
 11
323.5518
 21
517.7310
  0
LINE
  8
0_00
  6
CONTINUOUS
 62
4
 10
319.2518
 20
516.0209
 11
319.2518
 21
516.5166
  0
LINE
  8
0_00
  6
CONTINUOUS
 62
4
 10
320.8518
 20
516.0209
 11
320.8518
 21
516.5166
  0
LINE
  8
0_00
  6
CONTINUOUS
 62
4
 10
318.2518
 20
515.7046
 11
318.2518
 21
515.9210
  0
LINE
  8
0_00
  6
CONTINUOUS
 62
4
 10
321.7643
 20
515.5096
 11
322.1225
 21
515.7164
  0
LINE
  8
0_00
  6
CONTINUOUS
 62
4
 10
323.5518
 20
513.3335
 11
323.5518
 21
511.3109
  0
LINE
  8
0_00
  6
CONTINUOUS
 62
4
 10
322.8518
 20
517.4192
 11
322.8518
 21
517.7310
  0
LINE
  8
0_00
  6
CONTINUOUS
 62
4
 10
322.8518
 20
511.6227
 11
322.8518
 21
511.3109
  0
LINE
  8
0_00
  6
CONTINUOUS
 62
4
 10
319.2518
 20
513.0210
 11
319.2518
 21
512.5253
  0
LINE
  8
0_00
  6
CONTINUOUS
 62
4
 10
320.8518
 20
513.0210
 11
320.8518
 21
512.5253
  0
LINE
  8
0_00
  6
CONTINUOUS
 62
4
 10
318.2518
 20
513.3373
 11
318.2518
 21
513.1210
  0
LINE
  8
0_00
  6
CONTINUOUS
 62
4
 10
321.7643
 20
513.5323
 11
322.1225
 21
513.3255
  0
LINE
  8
0_00
  6
CONTINUOUS
 62
4
 10
395.5518
 20
512.0209
 11
395.5518
 21
517.0210
  0
LINE
  8
0_00
  6
CONTINUOUS
 62
4
 10
413.2518
 20
489.5209
 11
396.0518
 21
489.5209
  0
LINE
  8
0_00
  6
CONTINUOUS
 62
4
 10
394.7518
 20
499.8107
 11
394.7518
 21
511.2209
  0
LINE
  8
0_00
  6
CONTINUOUS
 62
4
 10
394.7518
 20
511.2209
 11
395.5518
 21
512.0209
  0
LINE
  8
0_00
  6
CONTINUOUS
 62
4
 10
395.3518
 20
491.5210
 11
404.0518
 21
491.5210
  0
LINE
  8
0_00
  6
CONTINUOUS
 62
4
 10
423.0518
 20
491.5210
 11
431.7518
 21
491.5210
  0
LINE
  8
0_00
  6
CONTINUOUS
 62
4
 10
432.3518
 20
499.8107
 11
432.3518
 21
511.2209
  0
LINE
  8
0_00
  6
CONTINUOUS
 62
4
 10
432.3518
 20
511.2209
 11
431.5518
 21
512.0209
  0
LINE
  8
0_00
  6
CONTINUOUS
 62
4
 10
431.5518
 20
517.0210
 11
431.5518
 21
512.0209
  0
LINE
  8
0_00
  6
CONTINUOUS
 62
4
 10
393.5518
 20
492.0209
 11
393.5518
 21
514.2209
  0
LINE
  8
0_00
  6
CONTINUOUS
 62
4
 10
393.5518
 20
514.8209
 11
393.5518
 21
537.0209
  0
LINE
  8
0_00
  6
CONTINUOUS
 62
4
 10
433.5518
 20
492.0209
 11
433.5518
 21
514.2209
  0
LINE
  8
0_00
  6
CONTINUOUS
 62
4
 10
433.5518
 20
514.8209
 11
433.5518
 21
537.0209
  0
LINE
  8
0_00
  6
CONTINUOUS
 62
4
 10
398.9018
 20
495.2854
 11
398.9018
 21
494.1843
  0
LINE
  8
0_00
  6
CONTINUOUS
 62
4
 10
396.2518
 20
494.5253
 11
396.2518
 21
495.0209
  0
LINE
  8
0_00
  6
CONTINUOUS
 62
4
 10
397.8518
 20
494.5253
 11
397.8518
 21
495.0209
  0
LINE
  8
0_00
  6
CONTINUOUS
 62
4
 10
394.9018
 20
495.7993
 11
394.9018
 21
497.2427
  0
LINE
  8
0_00
  6
CONTINUOUS
 62
4
 10
395.5796
 20
495.6709
 11
395.3518
 21
495.5395
  0
LINE
  8
0_00
  6
CONTINUOUS
 62
4
 10
398.9018
 20
497.7565
 11
398.9018
 21
498.8576
  0
LINE
  8
0_00
  6
CONTINUOUS
 62
4
 10
396.2518
 20
498.5166
 11
396.2518
 21
498.0209
  0
LINE
  8
0_00
  6
CONTINUOUS
 62
4
 10
397.8518
 20
498.5166
 11
397.8518
 21
498.0209
  0
LINE
  8
0_00
  6
CONTINUOUS
 62
4
 10
395.5796
 20
497.3709
 11
395.3518
 21
497.5024
  0
LINE
  8
0_00
  6
CONTINUOUS
 62
4
 10
428.2018
 20
495.2854
 11
428.2018
 21
494.1843
  0
LINE
  8
0_00
  6
CONTINUOUS
 62
4
 10
430.8518
 20
494.5253
 11
430.8518
 21
495.0209
  0
LINE
  8
0_00
  6
CONTINUOUS
 62
4
 10
429.2518
 20
494.5253
 11
429.2518
 21
495.0209
  0
LINE
  8
0_00
  6
CONTINUOUS
 62
4
 10
432.2018
 20
495.7993
 11
432.2018
 21
497.2427
  0
LINE
  8
0_00
  6
CONTINUOUS
 62
4
 10
431.5240
 20
495.6709
 11
431.7518
 21
495.5395
  0
LINE
  8
0_00
  6
CONTINUOUS
 62
4
 10
428.2018
 20
497.7565
 11
428.2018
 21
498.8576
  0
LINE
  8
0_00
  6
CONTINUOUS
 62
4
 10
430.8518
 20
498.5166
 11
430.8518
 21
498.0209
  0
LINE
  8
0_00
  6
CONTINUOUS
 62
4
 10
429.2518
 20
498.5166
 11
429.2518
 21
498.0209
  0
LINE
  8
0_00
  6
CONTINUOUS
 62
4
 10
431.5240
 20
497.3709
 11
431.7518
 21
497.5024
  0
LINE
  8
0_00
  6
CONTINUOUS
 62
4
 10
394.8518
 20
493.1784
 11
394.8518
 21
492.0209
  0
LINE
  8
0_00
  6
CONTINUOUS
 62
4
 10
432.2519
 20
493.1784
 11
432.2519
 21
492.0209
  0
LINE
  8
0_00
  6
CONTINUOUS
 62
4
 10
410.2518
 20
490.8209
 11
404.8518
 21
490.8209
  0
LINE
  8
0_00
  6
CONTINUOUS
 62
4
 10
404.0518
 20
491.5210
 11
404.8518
 21
490.8209
  0
LINE
  8
0_00
  6
CONTINUOUS
 62
4
 10
410.2518
 20
490.8209
 11
411.0518
 21
491.5210
  0
LINE
  8
0_00
  6
CONTINUOUS
 62
4
 10
416.8518
 20
490.8209
 11
422.2518
 21
490.8209
  0
LINE
  8
0_00
  6
CONTINUOUS
 62
4
 10
423.0518
 20
491.5210
 11
422.2518
 21
490.8209
  0
LINE
  8
0_00
  6
CONTINUOUS
 62
4
 10
416.8518
 20
490.8209
 11
416.0518
 21
491.5210
  0
LINE
  8
0_00
  6
CONTINUOUS
 62
4
 10
416.0518
 20
491.5210
 11
411.0518
 21
491.5210
  0
LINE
  8
0_00
  6
CONTINUOUS
 62
4
 10
413.8518
 20
489.5209
 11
413.5518
 21
489.8210
  0
LINE
  8
0_00
  6
CONTINUOUS
 62
4
 10
413.2518
 20
489.5209
 11
413.5518
 21
489.8210
  0
LINE
  8
0_00
  6
CONTINUOUS
 62
4
 10
433.5518
 20
514.8209
 11
433.2518
 21
514.5209
  0
LINE
  8
0_00
  6
CONTINUOUS
 62
4
 10
433.5518
 20
514.2209
 11
433.2518
 21
514.5209
  0
LINE
  8
0_00
  6
CONTINUOUS
 62
4
 10
393.5518
 20
514.8209
 11
393.8518
 21
514.5209
  0
LINE
  8
0_00
  6
CONTINUOUS
 62
4
 10
393.5518
 20
514.2209
 11
393.8518
 21
514.5209
  0
LINE
  8
0_00
  6
CONTINUOUS
 62
4
 10
431.0518
 20
489.5209
 11
413.8518
 21
489.5209
  0
LINE
  8
0_00
  6
CONTINUOUS
 62
4
 10
413.2518
 20
539.5210
 11
396.0518
 21
539.5210
  0
LINE
  8
0_00
  6
CONTINUOUS
 62
4
 10
394.7518
 20
529.2312
 11
394.7518
 21
517.8209
  0
LINE
  8
0_00
  6
CONTINUOUS
 62
4
 10
394.7518
 20
517.8209
 11
395.5518
 21
517.0210
  0
LINE
  8
0_00
  6
CONTINUOUS
 62
4
 10
395.3518
 20
537.5209
 11
404.0518
 21
537.5209
  0
LINE
  8
0_00
  6
CONTINUOUS
 62
4
 10
423.0518
 20
537.5209
 11
431.7518
 21
537.5209
  0
LINE
  8
0_00
  6
CONTINUOUS
 62
4
 10
432.3518
 20
529.2312
 11
432.3518
 21
517.8209
  0
LINE
  8
0_00
  6
CONTINUOUS
 62
4
 10
432.3518
 20
517.8209
 11
431.5518
 21
517.0210
  0
LINE
  8
0_00
  6
CONTINUOUS
 62
4
 10
398.9018
 20
533.7565
 11
398.9018
 21
534.8576
  0
LINE
  8
0_00
  6
CONTINUOUS
 62
4
 10
396.2518
 20
534.5166
 11
396.2518
 21
534.0210
  0
LINE
  8
0_00
  6
CONTINUOUS
 62
4
 10
397.8518
 20
534.5166
 11
397.8518
 21
534.0210
  0
LINE
  8
0_00
  6
CONTINUOUS
 62
4
 10
394.9018
 20
533.2426
 11
394.9018
 21
531.7993
  0
LINE
  8
0_00
  6
CONTINUOUS
 62
4
 10
395.5796
 20
533.3710
 11
395.3518
 21
533.5025
  0
LINE
  8
0_00
  6
CONTINUOUS
 62
4
 10
398.9018
 20
531.2854
 11
398.9018
 21
530.1843
  0
LINE
  8
0_00
  6
CONTINUOUS
 62
4
 10
396.2518
 20
530.5253
 11
396.2518
 21
531.0209
  0
LINE
  8
0_00
  6
CONTINUOUS
 62
4
 10
397.8518
 20
530.5253
 11
397.8518
 21
531.0209
  0
LINE
  8
0_00
  6
CONTINUOUS
 62
4
 10
395.5796
 20
531.6709
 11
395.3518
 21
531.5394
  0
LINE
  8
0_00
  6
CONTINUOUS
 62
4
 10
428.2018
 20
533.7565
 11
428.2018
 21
534.8576
  0
LINE
  8
0_00
  6
CONTINUOUS
 62
4
 10
430.8518
 20
534.5166
 11
430.8518
 21
534.0210
  0
LINE
  8
0_00
  6
CONTINUOUS
 62
4
 10
429.2518
 20
534.5166
 11
429.2518
 21
534.0210
  0
LINE
  8
0_00
  6
CONTINUOUS
 62
4
 10
432.2018
 20
533.2426
 11
432.2018
 21
531.7993
  0
LINE
  8
0_00
  6
CONTINUOUS
 62
4
 10
431.5240
 20
533.3710
 11
431.7518
 21
533.5025
  0
LINE
  8
0_00
  6
CONTINUOUS
 62
4
 10
428.2018
 20
531.2854
 11
428.2018
 21
530.1843
  0
LINE
  8
0_00
  6
CONTINUOUS
 62
4
 10
430.8518
 20
530.5253
 11
430.8518
 21
531.0209
  0
LINE
  8
0_00
  6
CONTINUOUS
 62
4
 10
429.2518
 20
530.5253
 11
429.2518
 21
531.0209
  0
LINE
  8
0_00
  6
CONTINUOUS
 62
4
 10
431.5240
 20
531.6709
 11
431.7518
 21
531.5394
  0
LINE
  8
0_00
  6
CONTINUOUS
 62
4
 10
394.8518
 20
535.8635
 11
394.8518
 21
537.0209
  0
LINE
  8
0_00
  6
CONTINUOUS
 62
4
 10
432.2519
 20
535.8635
 11
432.2519
 21
537.0209
  0
LINE
  8
0_00
  6
CONTINUOUS
 62
4
 10
410.2518
 20
538.2209
 11
404.8518
 21
538.2209
  0
LINE
  8
0_00
  6
CONTINUOUS
 62
4
 10
404.0518
 20
537.5209
 11
404.8518
 21
538.2209
  0
LINE
  8
0_00
  6
CONTINUOUS
 62
4
 10
410.2518
 20
538.2209
 11
411.0518
 21
537.5209
  0
LINE
  8
0_00
  6
CONTINUOUS
 62
4
 10
416.8518
 20
538.2209
 11
422.2518
 21
538.2209
  0
LINE
  8
0_00
  6
CONTINUOUS
 62
4
 10
423.0518
 20
537.5209
 11
422.2518
 21
538.2209
  0
LINE
  8
0_00
  6
CONTINUOUS
 62
4
 10
416.8518
 20
538.2209
 11
416.0518
 21
537.5209
  0
LINE
  8
0_00
  6
CONTINUOUS
 62
4
 10
416.0518
 20
537.5209
 11
411.0518
 21
537.5209
  0
LINE
  8
0_00
  6
CONTINUOUS
 62
4
 10
413.8518
 20
539.5210
 11
413.5518
 21
539.2209
  0
LINE
  8
0_00
  6
CONTINUOUS
 62
4
 10
413.2518
 20
539.5210
 11
413.5518
 21
539.2209
  0
LINE
  8
0_00
  6
CONTINUOUS
 62
4
 10
431.0518
 20
539.5210
 11
413.8518
 21
539.5210
  0
LINE
  8
0_00
  6
CONTINUOUS
 62
6
 10
387.5734
 20
261.7008
 11
366.5710
 21
282.7032
  0
LINE
  8
0_00
  6
CONTINUOUS
 62
6
 10
387.5734
 20
261.7008
 11
383.4887
 21
267.9908
  0
LINE
  8
0_00
  6
CONTINUOUS
 62
6
 10
387.5734
 20
261.7008
 11
381.2834
 21
265.7856
  0
LINE
  8
0_00
  6
CONTINUOUS
 62
6
 10
366.5710
 20
282.7032
 11
314.3710
 21
282.7032
  0
LINE
  8
0_00
  6
CONTINUOUS
 62
6
 10
774.6352
 20
643.7731
 11
741.0482
 21
585.5988
  0
LINE
  8
0_00
  6
CONTINUOUS
 62
6
 10
774.6352
 20
643.7731
 11
769.6166
 21
638.1995
  0
LINE
  8
0_00
  6
CONTINUOUS
 62
6
 10
774.6352
 20
643.7731
 11
772.3174
 21
636.6401
  0
LINE
  8
0_00
  6
CONTINUOUS
 62
6
 10
741.0482
 20
585.5988
 11
703.2482
 21
585.5988
  0
LINE
  8
0_00
  6
CONTINUOUS
 62
6
 10
756.7657
 20
612.8224
 11
695.5879
 21
612.8224
  0
LINE
  8
0_00
  6
CONTINUOUS
 62
6
 10
817.2643
 20
677.5596
 11
826.3125
 21
693.2317
  0
LINE
  8
0_00
  6
CONTINUOUS
 62
6
 10
817.2643
 20
677.5596
 11
822.2827
 21
683.1331
  0
LINE
  8
0_00
  6
CONTINUOUS
 62
6
 10
817.2643
 20
677.5596
 11
819.5819
 21
684.6926
  0
LINE
  8
0_00
  6
CONTINUOUS
 62
6
 10
826.3125
 20
693.2317
 11
885.7125
 21
693.2317
  0
LINE
  8
0_00
  6
CONTINUOUS
 62
6
 10
1143.5517
 20
702.1199
 11
1069.7519
 21
702.1199
  0
LINE
  8
0_00
  6
CONTINUOUS
 62
6
 10
855.2642
 20
235.5510
 11
874.9865
 21
269.7109
  0
LINE
  8
0_00
  6
CONTINUOUS
 62
6
 10
855.2642
 20
235.5510
 11
860.2828
 21
241.1246
  0
LINE
  8
0_00
  6
CONTINUOUS
 62
6
 10
855.2642
 20
235.5510
 11
857.5820
 21
242.6839
  0
LINE
  8
0_00
  6
CONTINUOUS
 62
6
 10
874.9865
 20
269.7109
 11
934.3866
 21
269.7109
  0
LINE
  8
0_00
  6
CONTINUOUS
 62
6
 10
833.0728
 20
251.6279
 11
858.7395
 21
296.0838
  0
LINE
  8
0_00
  6
CONTINUOUS
 62
6
 10
833.0728
 20
251.6279
 11
838.0913
 21
257.2015
  0
LINE
  8
0_00
  6
CONTINUOUS
 62
6
 10
833.0728
 20
251.6279
 11
835.3905
 21
258.7608
  0
LINE
  8
0_00
  6
CONTINUOUS
 62
6
 10
858.7395
 20
296.0838
 11
918.1395
 21
296.0838
  0
LINE
  8
0_00
  6
CONTINUOUS
 62
6
 10
517.9421
 20
242.4843
 11
552.4909
 21
182.6440
  0
LINE
  8
0_00
  6
CONTINUOUS
 62
6
 10
517.9421
 20
242.4843
 11
520.2597
 21
235.3513
  0
LINE
  8
0_00
  6
CONTINUOUS
 62
6
 10
517.9421
 20
242.4843
 11
522.9606
 21
236.9107
  0
LINE
  8
0_00
  6
CONTINUOUS
 62
6
 10
552.4909
 20
182.6440
 11
611.8909
 21
182.6440
  0
LINE
  8
0_00
  6
CONTINUOUS
 62
6
 10
791.4716
 20
654.0042
 11
812.0389
 21
618.3806
  0
LINE
  8
0_00
  6
CONTINUOUS
 62
6
 10
791.4716
 20
654.0042
 11
793.7892
 21
646.8713
  0
LINE
  8
0_00
  6
CONTINUOUS
 62
6
 10
791.4716
 20
654.0042
 11
796.4901
 21
648.4307
  0
LINE
  8
0_00
  6
CONTINUOUS
 62
6
 10
885.8388
 20
618.3806
 11
812.0389
 21
618.3806
  0
LINE
  8
0_00
  6
CONTINUOUS
 62
6
 10
381.0518
 20
539.5210
 11
347.2151
 21
539.5210
  0
LINE
  8
0_00
  6
CONTINUOUS
 62
6
 10
381.0518
 20
489.5209
 11
347.2151
 21
489.5209
  0
LINE
  8
0_00
  6
CONTINUOUS
 62
6
 10
352.1036
 20
539.5210
 11
352.1036
 21
489.5209
  0
LINE
  8
0_00
  6
CONTINUOUS
 62
6
 10
352.1036
 20
539.5210
 11
350.5443
 21
532.1848
  0
LINE
  8
0_00
  6
CONTINUOUS
 62
6
 10
352.1036
 20
539.5210
 11
353.6630
 21
532.1848
  0
LINE
  8
0_00
  6
CONTINUOUS
 62
6
 10
352.1036
 20
489.5209
 11
353.6630
 21
496.8571
  0
LINE
  8
0_00
  6
CONTINUOUS
 62
6
 10
352.1036
 20
489.5209
 11
350.5443
 21
496.8571
  0
LINE
  8
0_00
  6
CONTINUOUS
 62
6
 10
293.1314
 20
502.0210
 11
261.1036
 21
502.0210
  0
LINE
  8
0_00
  6
CONTINUOUS
 62
6
 10
293.1314
 20
527.0209
 11
261.1036
 21
527.0209
  0
LINE
  8
0_00
  6
CONTINUOUS
 62
6
 10
267.1036
 20
527.0209
 11
267.1036
 21
502.0210
  0
LINE
  8
0_00
  6
CONTINUOUS
 62
6
 10
267.1036
 20
556.4209
 11
267.1036
 21
527.0209
  0
LINE
  8
0_00
  6
CONTINUOUS
 62
6
 10
267.1036
 20
527.0209
 11
268.6630
 21
534.3571
  0
LINE
  8
0_00
  6
CONTINUOUS
 62
6
 10
267.1036
 20
527.0209
 11
265.5443
 21
534.3571
  0
LINE
  8
0_00
  6
CONTINUOUS
 62
6
 10
267.1036
 20
484.0210
 11
267.1036
 21
502.0210
  0
LINE
  8
0_00
  6
CONTINUOUS
 62
6
 10
267.1036
 20
502.0210
 11
265.5443
 21
494.6848
  0
LINE
  8
0_00
  6
CONTINUOUS
 62
6
 10
267.1036
 20
502.0210
 11
268.6630
 21
494.6848
  0
LINE
  8
0_00
  6
CONTINUOUS
 62
6
 10
819.8292
 20
725.2252
 11
900.8292
 21
725.2252
  0
LINE
  8
0_00
  6
CONTINUOUS
 62
6
 10
788.6266
 20
671.1809
 11
819.8292
 21
725.2252
  0
LINE
  8
0_00
  6
CONTINUOUS
 62
6
 10
788.6266
 20
671.1809
 11
793.6451
 21
676.7545
  0
LINE
  8
0_00
  6
CONTINUOUS
 62
6
 10
788.6266
 20
671.1809
 11
790.9444
 21
678.3138
  0
LINE
  8
0_00
  6
CONTINUOUS
 62
6
 10
772.8913
 20
669.1536
 11
720.1320
 21
760.5355
  0
LINE
  8
0_00
  6
CONTINUOUS
 62
6
 10
772.8913
 20
669.1536
 11
770.5737
 21
676.2865
  0
LINE
  8
0_00
  6
CONTINUOUS
 62
6
 10
772.8913
 20
669.1536
 11
767.8728
 21
674.7272
  0
LINE
  8
0_00
  6
CONTINUOUS
 62
6
 10
734.1891
 20
736.1879
 11
664.5039
 21
736.1879
  0
LINE
  8
0_00
  6
CONTINUOUS
 62
6
 10
720.1320
 20
760.5355
 11
637.6047
 21
760.5355
  0
LINE
  8
0_00
  6
CONTINUOUS
 62
6
 10
748.2463
 20
711.8400
 11
659.4425
 21
711.8400
  0
LINE
  8
0_00
  6
CONTINUOUS
 62
4
 10
798.2643
 20
651.1576
 11
798.2643
 21
678.1576
  0
LINE
  8
2_02
  6
CONTINUOUS
 62
4
 10
798.2643
 20
651.1576
 11
762.2643
 21
651.1576
  0
LINE
  8
0_00
  6
CONTINUOUS
 62
4
 10
792.0143
 20
651.1576
 11
792.0143
 21
654.1576
  0
LINE
  8
2_02
  6
CONTINUOUS
 62
4
 10
792.0143
 20
654.1576
 11
768.5143
 21
654.1576
  0
LINE
  8
0_00
  6
CONTINUOUS
 62
4
 10
768.5143
 20
651.1576
 11
768.5143
 21
654.1576
  0
LINE
  8
2_02
  6
DASHED
 62
2
 10
775.7643
 20
651.1576
 11
775.7643
 21
654.1576
  0
LINE
  8
2_02
  6
DASHED
 62
2
 10
784.7642
 20
651.1576
 11
784.7642
 21
654.1576
  0
LINE
  8
2_02
  6
CONTINUOUS
 62
4
 10
798.2643
 20
678.1576
 11
762.2643
 21
678.1576
  0
LINE
  8
0_00
  6
CONTINUOUS
 62
4
 10
762.2643
 20
651.1576
 11
762.2643
 21
678.1576
  0
LINE
  8
2_02
  6
CENTER1
 62
6
 10
796.2611
 20
669.6576
 11
765.5624
 21
669.6576
  0
LINE
  8
0_00
  6
CONTINUOUS
 62
2
 10
778.6499
 20
672.3020
 11
779.7493
 21
671.2408
  0
LINE
  8
0_00
  6
CONTINUOUS
 62
2
 10
779.7493
 20
671.2408
 11
780.2643
 21
671.0528
  0
LINE
  8
0_00
  6
CONTINUOUS
 62
2
 10
780.2643
 20
671.0528
 11
780.7514
 21
671.2303
  0
LINE
  8
0_00
  6
CONTINUOUS
 62
2
 10
780.7514
 20
671.2303
 11
781.8857
 21
672.2985
  0
LINE
  8
0_00
  6
CONTINUOUS
 62
2
 10
777.6199
 20
671.2721
 11
778.6812
 21
670.1726
  0
LINE
  8
0_00
  6
CONTINUOUS
 62
2
 10
781.8370
 20
670.1447
 11
782.9052
 21
671.2790
  0
LINE
  8
0_00
  6
CONTINUOUS
 62
2
 10
778.6812
 20
670.1726
 11
778.8690
 21
669.6576
  0
LINE
  8
0_00
  6
CONTINUOUS
 62
2
 10
778.8690
 20
669.6576
 11
778.6915
 21
669.1706
  0
LINE
  8
0_00
  6
CONTINUOUS
 62
2
 10
781.8474
 20
669.1427
 11
781.6596
 21
669.6576
  0
LINE
  8
0_00
  6
CONTINUOUS
 62
2
 10
781.6596
 20
669.6576
 11
781.8370
 21
670.1447
  0
LINE
  8
0_00
  6
CONTINUOUS
 62
2
 10
778.6915
 20
669.1706
 11
778.6794
 21
669.1576
  0
LINE
  8
0_00
  6
CONTINUOUS
 62
2
 10
534.5518
 20
678.1576
 11
534.5518
 21
661.1576
  0
LINE
  8
0_00
  6
CONTINUOUS
 62
2
 10
533.5518
 20
661.1576
 11
534.5518
 21
661.1576
  0
LINE
  8
0_00
  6
CONTINUOUS
 62
2
 10
533.5518
 20
678.1576
 11
534.5518
 21
678.1576
  0
LINE
  8
0_00
  6
CONTINUOUS
 62
2
 10
535.5518
 20
662.6576
 11
534.5518
 21
662.6576
  0
LINE
  8
0_00
  6
CONTINUOUS
 62
2
 10
535.5518
 20
676.6576
 11
534.5518
 21
676.6576
  0
LINE
  8
0_00
  6
CONTINUOUS
 62
2
 10
535.5518
 20
675.8292
 11
534.5518
 21
674.8292
  0
LINE
  8
0_00
  6
CONTINUOUS
 62
2
 10
535.5518
 20
673.0007
 11
534.5518
 21
672.0007
  0
LINE
  8
0_00
  6
CONTINUOUS
 62
2
 10
535.5518
 20
670.1724
 11
534.5518
 21
669.1723
  0
LINE
  8
0_00
  6
CONTINUOUS
 62
2
 10
535.5518
 20
667.3439
 11
534.5518
 21
666.3439
  0
LINE
  8
0_00
  6
CONTINUOUS
 62
2
 10
535.5518
 20
664.5155
 11
534.5518
 21
663.5155
  0
LINE
  8
2_02
  6
CONTINUOUS
 62
4
 10
538.5518
 20
678.1576
 11
535.5518
 21
678.1576
  0
LINE
  8
0_00
  6
CENTER1
 62
6
 10
588.9475
 20
669.6576
 11
526.3934
 21
669.6576
  0
LINE
  8
0_00
  6
CONTINUOUS
 62
2
 10
538.5518
 20
664.6576
 11
535.5518
 21
664.6576
  0
LINE
  8
0_00
  6
CONTINUOUS
 62
2
 10
538.5518
 20
674.6575
 11
535.5518
 21
674.6575
  0
LINE
  8
2_02
  6
CONTINUOUS
 62
4
 10
535.5518
 20
651.1576
 11
535.5518
 21
678.1576
  0
LINE
  8
2_02
  6
CONTINUOUS
 62
4
 10
535.5518
 20
654.1576
 11
493.5518
 21
654.1576
  0
LINE
  8
2_02
  6
CONTINUOUS
 62
4
 10
538.5518
 20
651.1576
 11
493.5518
 21
651.1576
  0
LINE
  8
2_02
  6
CONTINUOUS
 62
2
 10
500.5518
 20
651.1576
 11
500.5518
 21
654.1576
  0
LINE
  8
2_02
  6
CONTINUOUS
 62
4
 10
493.5518
 20
651.1576
 11
493.5518
 21
654.1576
  0
LINE
  8
0_00
  6
CONTINUOUS
 62
2
 10
515.5518
 20
654.1576
 11
515.5518
 21
651.1576
  0
LINE
  8
0_00
  6
CONTINUOUS
 62
2
 10
496.5518
 20
654.1576
 11
496.5518
 21
651.1576
  0
LINE
  8
0_00
  6
CONTINUOUS
 62
6
 10
176.9257
 20
240.9289
 11
191.3890
 21
265.9801
  0
LINE
  8
0_00
  6
CONTINUOUS
 62
6
 10
176.9257
 20
240.9289
 11
181.9442
 21
246.5024
  0
LINE
  8
0_00
  6
CONTINUOUS
 62
6
 10
176.9257
 20
240.9289
 11
179.2433
 21
248.0618
  0
LINE
  8
0_00
  6
CONTINUOUS
 62
6
 10
191.3890
 20
265.9801
 11
214.7890
 21
265.9801
  0
LINE
  8
0_00
  6
CONTINUOUS
 62
4
 10
1044.7687
 20
659.2015
 11
1044.4688
 21
658.9016
  0
LINE
  8
0_00
  6
CONTINUOUS
 62
4
 10
1044.7687
 20
659.2015
 11
1045.0687
 21
658.9016
  0
LINE
  8
14_0E
  6
CONTINUOUS
 62
4
 10
1057.8449
 20
660.5113
 11
1048.7687
 21
660.9017
  0
LINE
  8
0_00
  6
CONTINUOUS
 62
4
 10
1044.7687
 20
659.2015
 11
1045.0687
 21
658.9016
  0
LINE
  8
0_00
  6
CONTINUOUS
 62
4
 10
1044.7687
 20
659.2015
 11
1044.4688
 21
658.9016
  0
LINE
  8
14_0E
  6
CONTINUOUS
 62
4
 10
1031.6925
 20
660.5113
 11
1040.7687
 21
660.9017
  0
LINE
  8
0_00
  6
CONTINUOUS
 62
4
 10
1048.7687
 20
660.9017
 11
1040.7687
 21
660.9017
  0
LINE
  8
0_00
  6
CONTINUOUS
 62
4
 10
1060.2687
 20
659.1016
 11
1065.2687
 21
659.1016
  0
LINE
  8
0_00
  6
CONTINUOUS
 62
4
 10
1059.9687
 20
658.9016
 11
1058.7810
 21
658.9016
  0
LINE
  8
0_00
  6
CONTINUOUS
 62
4
 10
1060.2687
 20
659.1016
 11
1059.9687
 21
658.9016
  0
LINE
  8
0_00
  6
CONTINUOUS
 62
4
 10
1058.1230
 20
660.2843
 11
1058.3929
 21
659.2046
  0
LINE
  8
0_00
  6
CONTINUOUS
 62
4
 10
1029.2687
 20
659.1016
 11
1024.2686
 21
659.1016
  0
LINE
  8
0_00
  6
CONTINUOUS
 62
4
 10
1024.2686
 20
659.1016
 11
1023.9687
 21
658.9016
  0
LINE
  8
0_00
  6
CONTINUOUS
 62
4
 10
1029.5687
 20
658.9016
 11
1030.7563
 21
658.9016
  0
LINE
  8
0_00
  6
CONTINUOUS
 62
4
 10
1029.2687
 20
659.1016
 11
1029.5687
 21
658.9016
  0
LINE
  8
0_00
  6
CONTINUOUS
 62
4
 10
1031.4143
 20
660.2843
 11
1031.1443
 21
659.2046
  0
LINE
  8
0_00
  6
CONTINUOUS
 62
4
 10
1044.7687
 20
659.2015
 11
1044.4688
 21
658.9016
  0
LINE
  8
0_00
  6
CONTINUOUS
 62
4
 10
1057.0687
 20
658.9016
 11
1045.0687
 21
658.9016
  0
LINE
  8
0_00
  6
CONTINUOUS
 62
4
 10
1044.7687
 20
659.2015
 11
1045.0687
 21
658.9016
  0
LINE
  8
14_0E
  6
CONTINUOUS
 62
4
 10
1057.8449
 20
660.5113
 11
1048.7687
 21
660.9017
  0
LINE
  8
0_00
  6
CONTINUOUS
 62
4
 10
1044.7687
 20
659.2015
 11
1045.0687
 21
658.9016
  0
LINE
  8
0_00
  6
CONTINUOUS
 62
4
 10
1032.4688
 20
658.9016
 11
1044.4688
 21
658.9016
  0
LINE
  8
0_00
  6
CONTINUOUS
 62
4
 10
1044.7687
 20
659.2015
 11
1044.4688
 21
658.9016
  0
LINE
  8
14_0E
  6
CONTINUOUS
 62
4
 10
1031.6925
 20
660.5113
 11
1040.7687
 21
660.9017
  0
LINE
  8
0_00
  6
CONTINUOUS
 62
4
 10
1048.7687
 20
660.9017
 11
1040.7687
 21
660.9017
  0
LINE
  8
0_00
  6
CONTINUOUS
 62
4
 10
1057.4688
 20
657.4016
 11
1062.4688
 21
657.4016
  0
LINE
  8
0_00
  6
CONTINUOUS
 62
4
 10
1057.0687
 20
658.9016
 11
1057.4688
 21
657.4016
  0
LINE
  8
0_00
  6
CONTINUOUS
 62
4
 10
1060.2687
 20
659.1016
 11
1065.2687
 21
659.1016
  0
LINE
  8
0_00
  6
CONTINUOUS
 62
4
 10
1063.0687
 20
657.4016
 11
1072.1687
 21
657.4016
  0
LINE
  8
0_00
  6
CONTINUOUS
 62
4
 10
1062.7687
 20
657.7015
 11
1062.4688
 21
657.4016
  0
LINE
  8
0_00
  6
CONTINUOUS
 62
4
 10
1062.7687
 20
657.7015
 11
1063.0687
 21
657.4016
  0
LINE
  8
0_00
  6
CONTINUOUS
 62
4
 10
1070.0964
 20
658.9016
 11
1065.5687
 21
658.9016
  0
LINE
  8
0_00
  6
CONTINUOUS
 62
4
 10
1065.2687
 20
659.1016
 11
1065.5687
 21
658.9016
  0
LINE
  8
0_00
  6
CONTINUOUS
 62
4
 10
1059.9687
 20
658.9016
 11
1058.7810
 21
658.9016
  0
LINE
  8
0_00
  6
CONTINUOUS
 62
4
 10
1060.2687
 20
659.1016
 11
1059.9687
 21
658.9016
  0
LINE
  8
0_00
  6
CONTINUOUS
 62
4
 10
1058.1230
 20
660.2843
 11
1058.3929
 21
659.2046
  0
LINE
  8
0_00
  6
CONTINUOUS
 62
4
 10
1072.1687
 20
657.4016
 11
1073.1687
 21
658.4016
  0
LINE
  8
0_00
  6
CONTINUOUS
 62
4
 10
1073.1687
 20
658.4016
 11
1073.1687
 21
659.7015
  0
LINE
  8
0_00
  6
CONTINUOUS
 62
4
 10
1073.1687
 20
658.9016
 11
1073.1687
 21
658.4016
  0
LINE
  8
0_00
  6
CONTINUOUS
 62
4
 10
1072.1883
 20
661.7795
 11
1073.0448
 21
661.8545
  0
LINE
  8
0_00
  6
CONTINUOUS
 62
4
 10
1071.0816
 20
662.7869
 11
1071.9197
 21
662.8602
  0
LINE
  8
0_00
  6
CONTINUOUS
 62
4
 10
1070.1687
 20
661.7907
 11
1070.1687
 21
661.3578
  0
LINE
  8
0_00
  6
CONTINUOUS
 62
4
 10
1073.3125
 20
662.2136
 11
1072.2270
 21
667.5016
  0
LINE
  8
0_00
  6
CONTINUOUS
 62
4
 10
1071.4810
 20
666.6609
 11
1072.1873
 21
663.2194
  0
LINE
  8
0_00
  6
CONTINUOUS
 62
4
 10
1072.1666
 20
667.5016
 11
1072.2270
 21
667.5016
  0
LINE
  8
0_00
  6
CONTINUOUS
 62
4
 10
1074.7693
 20
667.6480
 11
1074.7691
 21
658.4404
  0
LINE
  8
0_00
  6
CONTINUOUS
 62
4
 10
1073.3691
 20
659.7981
 11
1073.3691
 21
657.4577
  0
LINE
  8
0_00
  6
CONTINUOUS
 62
4
 10
1073.3693
 20
664.8481
 11
1073.3693
 21
667.2442
  0
LINE
  8
0_00
  6
CONTINUOUS
 62
4
 10
1070.6693
 20
667.6481
 11
1072.9693
 21
667.6481
  0
LINE
  8
0_00
  6
CONTINUOUS
 62
4
 10
1069.8692
 20
667.9481
 11
1069.8692
 21
667.0481
  0
LINE
  8
0_00
  6
CONTINUOUS
 62
4
 10
1070.6693
 20
667.6481
 11
1070.6693
 21
667.4481
  0
LINE
  8
0_00
  6
CONTINUOUS
 62
4
 10
1072.2887
 20
661.7536
 11
1073.0042
 21
661.8162
  0
LINE
  8
0_00
  6
CONTINUOUS
 62
4
 10
1073.3613
 20
662.2937
 11
1072.8947
 21
664.6086
  0
LINE
  8
0_00
  6
CONTINUOUS
 62
4
 10
1073.0907
 20
664.8481
 11
1073.3693
 21
664.8481
  0
LINE
  8
0_00
  6
CONTINUOUS
 62
4
 10
1070.8693
 20
668.9481
 11
1073.4692
 21
668.9481
  0
LINE
  8
0_00
  6
CONTINUOUS
 62
4
 10
1032.0688
 20
657.4016
 11
1027.0688
 21
657.4016
  0
LINE
  8
0_00
  6
CONTINUOUS
 62
4
 10
1032.4688
 20
658.9016
 11
1032.0688
 21
657.4016
  0
LINE
  8
0_00
  6
CONTINUOUS
 62
4
 10
1029.2687
 20
659.1016
 11
1024.2686
 21
659.1016
  0
LINE
  8
0_00
  6
CONTINUOUS
 62
4
 10
1026.4688
 20
657.4016
 11
1017.3687
 21
657.4016
  0
LINE
  8
0_00
  6
CONTINUOUS
 62
4
 10
1026.7687
 20
657.7015
 11
1027.0688
 21
657.4016
  0
LINE
  8
0_00
  6
CONTINUOUS
 62
4
 10
1026.7687
 20
657.7015
 11
1026.4688
 21
657.4016
  0
LINE
  8
0_00
  6
CONTINUOUS
 62
4
 10
1019.4409
 20
658.9016
 11
1023.9687
 21
658.9016
  0
LINE
  8
0_00
  6
CONTINUOUS
 62
4
 10
1024.2686
 20
659.1016
 11
1023.9687
 21
658.9016
  0
LINE
  8
0_00
  6
CONTINUOUS
 62
4
 10
1029.5687
 20
658.9016
 11
1030.7563
 21
658.9016
  0
LINE
  8
0_00
  6
CONTINUOUS
 62
4
 10
1029.2687
 20
659.1016
 11
1029.5687
 21
658.9016
  0
LINE
  8
0_00
  6
CONTINUOUS
 62
4
 10
1031.4143
 20
660.2843
 11
1031.1443
 21
659.2046
  0
LINE
  8
0_00
  6
CONTINUOUS
 62
4
 10
1017.3687
 20
657.4016
 11
1016.3687
 21
658.4016
  0
LINE
  8
0_00
  6
CONTINUOUS
 62
4
 10
1016.3687
 20
658.4016
 11
1016.3687
 21
659.7015
  0
LINE
  8
0_00
  6
CONTINUOUS
 62
4
 10
1016.3687
 20
658.9016
 11
1016.3687
 21
658.4016
  0
LINE
  8
0_00
  6
CONTINUOUS
 62
4
 10
1017.3492
 20
661.7795
 11
1016.4925
 21
661.8545
  0
LINE
  8
0_00
  6
CONTINUOUS
 62
4
 10
1018.4559
 20
662.7869
 11
1017.6178
 21
662.8602
  0
LINE
  8
0_00
  6
CONTINUOUS
 62
4
 10
1019.3687
 20
661.7907
 11
1019.3687
 21
661.3578
  0
LINE
  8
0_00
  6
CONTINUOUS
 62
4
 10
1016.2249
 20
662.2136
 11
1017.3103
 21
667.5016
  0
LINE
  8
0_00
  6
CONTINUOUS
 62
4
 10
1018.0565
 20
666.6609
 11
1017.3500
 21
663.2194
  0
LINE
  8
0_00
  6
CONTINUOUS
 62
4
 10
1017.3707
 20
667.5016
 11
1017.3103
 21
667.5016
  0
LINE
  8
0_00
  6
CONTINUOUS
 62
4
 10
1014.7680
 20
667.6480
 11
1014.7682
 21
658.4404
  0
LINE
  8
0_00
  6
CONTINUOUS
 62
4
 10
1016.1682
 20
659.7981
 11
1016.1682
 21
657.4577
  0
LINE
  8
0_00
  6
CONTINUOUS
 62
4
 10
1016.1681
 20
664.8481
 11
1016.1681
 21
667.2442
  0
LINE
  8
0_00
  6
CONTINUOUS
 62
4
 10
1018.8680
 20
667.6481
 11
1016.5681
 21
667.6481
  0
LINE
  8
0_00
  6
CONTINUOUS
 62
4
 10
1019.6681
 20
667.9481
 11
1019.6681
 21
667.0481
  0
LINE
  8
0_00
  6
CONTINUOUS
 62
4
 10
1018.8680
 20
667.6481
 11
1018.8680
 21
667.4481
  0
LINE
  8
0_00
  6
CONTINUOUS
 62
4
 10
1017.2487
 20
661.7536
 11
1016.5333
 21
661.8162
  0
LINE
  8
0_00
  6
CONTINUOUS
 62
4
 10
1016.1760
 20
662.2937
 11
1016.6428
 21
664.6086
  0
LINE
  8
0_00
  6
CONTINUOUS
 62
4
 10
1016.4467
 20
664.8481
 11
1016.1681
 21
664.8481
  0
LINE
  8
0_00
  6
CONTINUOUS
 62
4
 10
1018.6681
 20
668.9481
 11
1016.0681
 21
668.9481
  0
LINE
  8
0_00
  6
CONTINUOUS
 62
2
 10
1048.7687
 20
673.3966
 11
1048.7687
 21
677.7015
  0
LINE
  8
0_00
  6
CONTINUOUS
 62
2
 10
1040.7687
 20
673.3966
 11
1040.7687
 21
677.7015
  0
LINE
  8
0_00
  6
CONTINUOUS
 62
2
 10
1048.7687
 20
677.7015
 11
1047.5687
 21
678.9016
  0
LINE
  8
0_00
  6
CONTINUOUS
 62
2
 10
1040.7687
 20
677.7015
 11
1041.9687
 21
678.9016
  0
LINE
  8
0_00
  6
CONTINUOUS
 62
2
 10
1041.9687
 20
678.9016
 11
1047.5687
 21
678.9016
  0
LINE
  8
0_00
  6
CONTINUOUS
 62
2
 10
1040.7687
 20
677.7015
 11
1048.7687
 21
677.7015
  0
LINE
  8
0_00
  6
CONTINUOUS
 62
6
 10
1048.0186
 20
673.3966
 11
1048.0186
 21
678.4515
  0
LINE
  8
0_00
  6
CONTINUOUS
 62
6
 10
1041.5186
 20
673.3966
 11
1041.5186
 21
678.4515
  0
LINE
  8
0_00
  6
CONTINUOUS
 62
2
 10
1052.4688
 20
666.8967
 11
1037.0687
 21
666.8967
  0
LINE
  8
0_00
  6
CONTINUOUS
 62
2
 10
1037.0687
 20
666.8967
 11
1037.0687
 21
664.8967
  0
LINE
  8
0_00
  6
CONTINUOUS
 62
2
 10
1052.4688
 20
666.8967
 11
1052.4688
 21
664.8967
  0
LINE
  8
0_00
  6
CONTINUOUS
 62
2
 10
1052.4688
 20
664.8967
 11
1037.0687
 21
664.8967
  0
LINE
  8
0_00
  6
CONTINUOUS
 62
2
 10
1044.5007
 20
666.8967
 11
1045.0366
 21
664.8967
  0
LINE
  8
0_00
  6
CONTINUOUS
 62
2
 10
1052.2742
 20
666.8967
 11
1037.2632
 21
666.8967
  0
LINE
  8
0_00
  6
CONTINUOUS
 62
2
 10
1037.2632
 20
666.8967
 11
1037.2632
 21
672.6718
  0
LINE
  8
0_00
  6
CONTINUOUS
 62
2
 10
1052.2742
 20
666.8967
 11
1052.2742
 21
672.6718
  0
LINE
  8
0_00
  6
CONTINUOUS
 62
2
 10
1037.2632
 20
672.6718
 11
1038.5186
 21
673.3966
  0
LINE
  8
0_00
  6
CONTINUOUS
 62
2
 10
1052.2742
 20
672.6718
 11
1051.0186
 21
673.3966
  0
LINE
  8
0_00
  6
CONTINUOUS
 62
2
 10
1051.0186
 20
673.3966
 11
1038.5186
 21
673.3966
  0
LINE
  8
0_00
  6
CONTINUOUS
 62
2
 10
1041.0159
 20
666.8967
 11
1041.0159
 21
672.6718
  0
LINE
  8
0_00
  6
CONTINUOUS
 62
2
 10
1048.5215
 20
666.8967
 11
1048.5215
 21
672.6718
  0
LINE
  8
2_02
  6
CENTER1
 62
6
 10
1060.7655
 20
679.4016
 11
1030.0668
 21
679.4016
  0
LINE
  8
2_02
  6
CENTER1
 62
6
 10
1051.4264
 20
679.4016
 11
1038.6798
 21
679.4016
  0
LINE
  8
0_00
  6
CONTINUOUS
 62
4
 10
1056.5186
 20
664.8967
 11
1033.0187
 21
664.8967
  0
LINE
  8
2_02
  6
CONTINUOUS
 62
4
 10
1062.7687
 20
687.9016
 11
1045.7688
 21
687.9016
  0
LINE
  8
2_02
  6
CONTINUOUS
 62
4
 10
1043.8364
 20
687.9016
 11
1026.7687
 21
687.9016
  0
LINE
  8
0_00
  6
CONTINUOUS
 62
4
 10
1062.7687
 20
660.9017
 11
1062.7687
 21
687.9016
  0
LINE
  8
2_02
  6
CONTINUOUS
 62
4
 10
1062.7687
 20
660.9017
 11
1026.7687
 21
660.9017
  0
LINE
  8
0_00
  6
CONTINUOUS
 62
4
 10
1056.5186
 20
660.9017
 11
1056.5186
 21
664.8967
  0
LINE
  8
0_00
  6
CONTINUOUS
 62
4
 10
1033.0187
 20
660.9017
 11
1033.0187
 21
664.8967
  0
LINE
  8
0_00
  6
CONTINUOUS
 62
4
 10
1026.7687
 20
660.9017
 11
1026.7687
 21
687.9016
  0
LINE
  8
0_00
  6
CONTINUOUS
 62
2
 10
1037.2632
 20
658.9016
 11
1052.2742
 21
658.9016
  0
LINE
  8
0_00
  6
CONTINUOUS
 62
2
 10
1052.2742
 20
656.0481
 11
1052.2742
 21
654.0976
  0
LINE
  8
0_00
  6
CONTINUOUS
 62
2
 10
1052.2742
 20
658.9016
 11
1052.2742
 21
656.0481
  0
LINE
  8
0_00
  6
CONTINUOUS
 62
2
 10
1037.2632
 20
656.0481
 11
1037.2632
 21
654.0976
  0
LINE
  8
0_00
  6
CONTINUOUS
 62
2
 10
1037.2632
 20
658.9016
 11
1037.2632
 21
656.0481
  0
LINE
  8
0_00
  6
CONTINUOUS
 62
2
 10
1052.2742
 20
654.0976
 11
1051.0688
 21
653.4016
  0
LINE
  8
0_00
  6
CONTINUOUS
 62
2
 10
1037.2632
 20
654.0976
 11
1038.4688
 21
653.4016
  0
LINE
  8
0_00
  6
CONTINUOUS
 62
2
 10
1038.4688
 20
653.4016
 11
1051.0688
 21
653.4016
  0
LINE
  8
0_00
  6
CONTINUOUS
 62
2
 10
1048.5215
 20
656.0481
 11
1048.5215
 21
654.0976
  0
LINE
  8
0_00
  6
CONTINUOUS
 62
2
 10
1048.5215
 20
658.9016
 11
1048.5215
 21
656.0481
  0
LINE
  8
0_00
  6
CONTINUOUS
 62
2
 10
1041.0159
 20
656.0481
 11
1041.0159
 21
654.0976
  0
LINE
  8
0_00
  6
CONTINUOUS
 62
2
 10
1041.0159
 20
658.9016
 11
1041.0159
 21
656.0481
  0
LINE
  8
0_00
  6
DASHED
 62
2
 10
1048.7687
 20
664.8967
 11
1048.7687
 21
660.9017
  0
LINE
  8
0_00
  6
DASHED
 62
2
 10
1048.7687
 20
658.9016
 11
1048.7687
 21
660.9017
  0
LINE
  8
0_00
  6
DASHED
 62
2
 10
1040.7687
 20
664.8967
 11
1040.7687
 21
660.9017
  0
LINE
  8
0_00
  6
DASHED
 62
2
 10
1040.7687
 20
658.9016
 11
1040.7687
 21
660.9017
  0
LINE
  8
2_02
  6
DASHED
 62
2
 10
1040.2687
 20
660.9017
 11
1040.2687
 21
664.8967
  0
LINE
  8
2_02
  6
DASHED
 62
2
 10
1049.2687
 20
660.9017
 11
1049.2687
 21
664.8967
  0
LINE
  8
0_00
  6
DASHED
 62
6
 10
1048.0186
 20
664.8967
 11
1048.0186
 21
660.9017
  0
LINE
  8
0_00
  6
DASHED
 62
6
 10
1041.5186
 20
664.8967
 11
1041.5186
 21
660.9017
  0
LINE
  8
0_00
  6
DASHED
 62
6
 10
1048.0186
 20
658.9016
 11
1048.0186
 21
660.9017
  0
LINE
  8
0_00
  6
DASHED
 62
6
 10
1041.5186
 20
658.9016
 11
1041.5186
 21
660.9017
  0
LINE
  8
0_00
  6
CONTINUOUS
 62
6
 10
1061.5428
 20
687.9016
 11
1069.7519
 21
702.1199
  0
LINE
  8
0_00
  6
CONTINUOUS
 62
6
 10
1061.5428
 20
687.9016
 11
1066.5612
 21
693.4752
  0
LINE
  8
0_00
  6
CONTINUOUS
 62
6
 10
1061.5428
 20
687.9016
 11
1063.8604
 21
695.0344
  0
LINE
  8
2_02
  6
CENTER1
 62
6
 10
1044.7687
 20
593.5148
 11
1044.7687
 21
711.6807
  0
LINE
  8
0_00
  6
CONTINUOUS
 62
6
 10
1084.7250
 20
671.5167
 11
1091.3308
 21
682.9581
  0
LINE
  8
0_00
  6
CONTINUOUS
 62
6
 10
1084.7250
 20
671.5167
 11
1089.7437
 21
677.0904
  0
LINE
  8
0_00
  6
CONTINUOUS
 62
6
 10
1084.7250
 20
671.5167
 11
1087.0428
 21
678.6497
  0
LINE
  8
0_00
  6
CONTINUOUS
 62
6
 10
1091.3308
 20
682.9581
 11
1150.7309
 21
682.9581
  0
LINE
  8
0_00
  6
CONTINUOUS
 62
2
 10
458.1975
 20
723.5904
 11
474.2149
 21
723.5904
  0
LINE
  8
0_00
  6
CONTINUOUS
 62
2
 10
474.2149
 20
723.5904
 11
466.8788
 21
725.1498
  0
LINE
  8
0_00
  6
CONTINUOUS
 62
2
 10
474.2149
 20
723.5904
 11
466.8788
 21
722.0311
  0
LINE
  8
0_00
  6
CONTINUOUS
 62
2
 10
458.1975
 20
723.5904
 11
458.1975
 21
162.0566
  0
LINE
  8
0_00
  6
CONTINUOUS
 62
2
 10
458.1975
 20
162.0566
 11
474.2149
 21
162.0566
  0
LINE
  8
0_00
  6
CONTINUOUS
 62
2
 10
474.2149
 20
162.0566
 11
466.8788
 21
163.6159
  0
LINE
  8
0_00
  6
CONTINUOUS
 62
2
 10
474.2149
 20
162.0566
 11
466.8788
 21
160.4972
  0
LINE
  8
0_00
  6
CONTINUOUS
 62
4
 10
880.2643
 20
783.5297
 11
911.4643
 21
783.5297
  0
LINE
  8
0_00
  6
CONTINUOUS
 62
4
 10
911.4643
 20
783.5297
 11
911.4643
 21
797.9297
  0
LINE
  8
0_00
  6
CONTINUOUS
 62
4
 10
880.2643
 20
797.9297
 11
911.4643
 21
797.9297
  0
LINE
  8
0_00
  6
CONTINUOUS
 62
4
 10
880.2643
 20
783.5297
 11
880.2643
 21
797.9297
  0
LINE
  8
0_00
  6
CONTINUOUS
 62
4
 10
649.0643
 20
783.5297
 11
680.2643
 21
783.5297
  0
LINE
  8
0_00
  6
CONTINUOUS
 62
4
 10
680.2643
 20
783.5297
 11
680.2643
 21
797.9297
  0
LINE
  8
0_00
  6
CONTINUOUS
 62
4
 10
649.0643
 20
797.9297
 11
680.2643
 21
797.9297
  0
LINE
  8
0_00
  6
CONTINUOUS
 62
4
 10
649.0643
 20
783.5297
 11
649.0643
 21
797.9297
  0
LINE
  8
0_00
  6
CONTINUOUS
 62
3
 10
547.4110
 20
97.2001
 11
547.4110
 21
37.2000
  0
LINE
  8
0_00
  6
CONTINUOUS
 62
7
 10
54.6905
 20
112.2001
 11
1218.5110
 21
112.2001
  0
LINE
  8
0_00
  6
CONTINUOUS
 62
3
 10
1218.5110
 20
851.7001
 11
1218.5110
 21
865.2001
  0
LINE
  8
0_00
  6
CONTINUOUS
 62
7
 10
1218.5110
 20
37.2000
 11
1218.5110
 21
851.7001
  0
LINE
  8
0_00
  6
CONTINUOUS
 62
3
 10
54.6905
 20
851.7001
 11
54.6905
 21
865.2001
  0
LINE
  8
0_00
  6
CONTINUOUS
 62
7
 10
54.6905
 20
37.2000
 11
54.6905
 21
851.7001
  0
LINE
  8
0_00
  6
CONTINUOUS
 62
7
 10
54.6905
 20
851.7001
 11
1218.5110
 21
851.7001
  0
LINE
  8
0_00
  6
CONTINUOUS
 62
7
 10
54.6905
 20
37.2000
 11
1218.5110
 21
37.2000
  0
LINE
  8
0_00
  6
CONTINUOUS
 62
3
 10
39.6905
 20
22.2000
 11
39.6905
 21
865.2001
  0
LINE
  8
0_00
  6
CONTINUOUS
 62
3
 10
1233.5110
 20
22.2000
 11
1233.5110
 21
865.2001
  0
LINE
  8
0_00
  6
CONTINUOUS
 62
3
 10
39.6905
 20
865.2001
 11
1233.5110
 21
865.2001
  0
LINE
  8
0_00
  6
CONTINUOUS
 62
3
 10
1070.6111
 20
37.2000
 11
1070.6111
 21
112.2001
  0
LINE
  8
0_00
  6
CONTINUOUS
 62
3
 10
54.6905
 20
97.2001
 11
812.7610
 21
97.2001
  0
LINE
  8
0_00
  6
CONTINUOUS
 62
7
 10
812.7610
 20
97.2001
 11
1218.5110
 21
97.2001
  0
LINE
  8
0_00
  6
CONTINUOUS
 62
3
 10
1070.6111
 20
67.2000
 11
1218.5110
 21
67.2000
  0
LINE
  8
0_00
  6
CONTINUOUS
 62
3
 10
1100.6111
 20
112.2001
 11
1100.6111
 21
97.2001
  0
LINE
  8
0_00
  6
CONTINUOUS
 62
3
 10
812.7610
 20
37.2000
 11
812.7610
 21
97.2001
  0
LINE
  8
0_00
  6
CONTINUOUS
 62
7
 10
812.7610
 20
97.2001
 11
812.7610
 21
112.2001
  0
LINE
  8
0_00
  6
CONTINUOUS
 62
3
 10
836.7610
 20
97.2001
 11
836.7610
 21
112.2001
  0
LINE
  8
0_00
  6
CONTINUOUS
 62
3
 10
912.5110
 20
37.2000
 11
912.5110
 21
112.2001
  0
LINE
  8
0_00
  6
CONTINUOUS
 62
3
 10
1004.6111
 20
97.2001
 11
1004.6111
 21
112.2001
  0
LINE
  8
0_00
  6
CONTINUOUS
 62
3
 10
1032.2110
 20
37.2000
 11
1032.2110
 21
97.2001
  0
LINE
  8
0_00
  6
CONTINUOUS
 62
3
 10
995.9110
 20
37.2000
 11
995.9110
 21
97.2001
  0
LINE
  8
0_00
  6
CONTINUOUS
 62
3
 10
959.6110
 20
37.2000
 11
959.6110
 21
97.2001
  0
LINE
  8
0_00
  6
CONTINUOUS
 62
3
 10
468.6610
 20
37.2000
 11
468.6610
 21
112.2001
  0
LINE
  8
0_00
  6
CONTINUOUS
 62
3
 10
626.1610
 20
37.2000
 11
626.1610
 21
97.2001
  0
LINE
  8
0_00
  6
CONTINUOUS
 62
3
 10
54.6905
 20
82.2001
 11
468.6610
 21
82.2001
  0
LINE
  8
0_00
  6
CONTINUOUS
 62
3
 10
54.6905
 20
67.2000
 11
912.5110
 21
67.2000
  0
LINE
  8
0_00
  6
CONTINUOUS
 62
3
 10
174.6905
 20
52.2000
 11
468.6610
 21
52.2000
  0
LINE
  8
0_00
  6
CONTINUOUS
 62
7
 10
54.6905
 20
52.2000
 11
174.6905
 21
52.2000
  0
LINE
  8
0_00
  6
CONTINUOUS
 62
3
 10
818.0110
 20
851.7001
 11
818.0110
 21
865.2001
  0
LINE
  8
0_00
  6
CONTINUOUS
 62
3
 10
788.0110
 20
851.7001
 11
788.0110
 21
865.2001
  0
LINE
  8
0_00
  6
CONTINUOUS
 62
3
 10
204.6905
 20
851.7001
 11
204.6905
 21
865.2001
  0
LINE
  8
0_00
  6
CONTINUOUS
 62
3
 10
854.0110
 20
851.7001
 11
854.0110
 21
865.2001
  0
LINE
  8
0_00
  6
CONTINUOUS
 62
3
 10
915.5110
 20
851.7001
 11
915.5110
 21
865.2001
  0
LINE
  8
0_00
  6
CONTINUOUS
 62
3
 10
1146.5110
 20
851.7001
 11
1146.5110
 21
865.2001
  0
LINE
  8
0_00
  6
CONTINUOUS
 62
3
 10
114.6905
 20
112.2001
 11
114.6905
 21
37.2000
  0
LINE
  8
0_00
  6
CONTINUOUS
 62
7
 10
174.6905
 20
112.2001
 11
174.6905
 21
37.2000
  0
LINE
  8
0_00
  6
CONTINUOUS
 62
3
 10
869.7610
 20
67.2000
 11
869.7610
 21
97.2001
  0
LINE
  8
0_00
  6
CONTINUOUS
 62
3
 10
893.7610
 20
112.2001
 11
893.7610
 21
97.2001
  0
LINE
  8
0_00
  6
CONTINUOUS
 62
3
 10
912.5110
 20
82.2001
 11
1070.6111
 21
82.2001
  0
LINE
  8
0_00
  6
CONTINUOUS
 62
3
 10
1076.6111
 20
71.7000
 11
1078.5610
 21
71.7000
  0
LINE
  8
0_00
  6
CONTINUOUS
 62
3
 10
1078.5610
 20
71.7000
 11
1078.5610
 21
91.2000
  0
LINE
  8
0_00
  6
CONTINUOUS
 62
3
 10
1078.5610
 20
91.2000
 11
1076.6111
 21
91.2000
  0
LINE
  8
0_00
  6
CONTINUOUS
 62
3
 10
1076.6111
 20
71.7000
 11
1076.6111
 21
91.2000
  0
LINE
  8
0_00
  6
CONTINUOUS
 62
3
 10
1079.3410
 20
71.7000
 11
1081.2911
 21
71.7000
  0
LINE
  8
0_00
  6
CONTINUOUS
 62
3
 10
1081.2911
 20
71.7000
 11
1081.2911
 21
91.2000
  0
LINE
  8
0_00
  6
CONTINUOUS
 62
3
 10
1081.2911
 20
91.2000
 11
1079.3410
 21
91.2000
  0
LINE
  8
0_00
  6
CONTINUOUS
 62
3
 10
1079.3410
 20
71.7000
 11
1079.3410
 21
91.2000
  0
LINE
  8
0_00
  6
CONTINUOUS
 62
3
 10
1082.0711
 20
71.7000
 11
1084.0210
 21
71.7000
  0
LINE
  8
0_00
  6
CONTINUOUS
 62
3
 10
1084.0210
 20
71.7000
 11
1084.0210
 21
91.2000
  0
LINE
  8
0_00
  6
CONTINUOUS
 62
3
 10
1084.0210
 20
91.2000
 11
1082.0711
 21
91.2000
  0
LINE
  8
0_00
  6
CONTINUOUS
 62
3
 10
1082.0711
 20
71.7000
 11
1082.0711
 21
91.2000
  0
LINE
  8
0_00
  6
CONTINUOUS
 62
3
 10
1084.8010
 20
71.7000
 11
1086.7511
 21
71.7000
  0
LINE
  8
0_00
  6
CONTINUOUS
 62
3
 10
1086.7511
 20
91.2000
 11
1084.8010
 21
91.2000
  0
LINE
  8
0_00
  6
CONTINUOUS
 62
3
 10
1084.8010
 20
71.7000
 11
1084.8010
 21
91.2000
  0
LINE
  8
0_00
  6
CONTINUOUS
 62
3
 10
1092.4061
 20
71.7000
 11
1100.0110
 21
71.7000
  0
LINE
  8
0_00
  6
CONTINUOUS
 62
3
 10
1100.0110
 20
71.7000
 11
1100.0110
 21
73.4550
  0
LINE
  8
0_00
  6
CONTINUOUS
 62
3
 10
1100.0110
 20
73.4550
 11
1092.4061
 21
73.4550
  0
LINE
  8
0_00
  6
CONTINUOUS
 62
3
 10
1092.4061
 20
73.4550
 11
1092.4061
 21
71.7000
  0
LINE
  8
0_00
  6
CONTINUOUS
 62
3
 10
1092.4061
 20
74.2350
 11
1100.0110
 21
74.2350
  0
LINE
  8
0_00
  6
CONTINUOUS
 62
3
 10
1100.0110
 20
74.2350
 11
1100.0110
 21
75.9900
  0
LINE
  8
0_00
  6
CONTINUOUS
 62
3
 10
1100.0110
 20
75.9900
 11
1092.4061
 21
75.9900
  0
LINE
  8
0_00
  6
CONTINUOUS
 62
3
 10
1092.4061
 20
75.9900
 11
1092.4061
 21
74.2350
  0
LINE
  8
0_00
  6
CONTINUOUS
 62
3
 10
1092.4061
 20
76.7700
 11
1100.0110
 21
76.7700
  0
LINE
  8
0_00
  6
CONTINUOUS
 62
3
 10
1100.0110
 20
76.7700
 11
1100.0110
 21
78.5250
  0
LINE
  8
0_00
  6
CONTINUOUS
 62
3
 10
1100.0110
 20
78.5250
 11
1092.4061
 21
78.5250
  0
LINE
  8
0_00
  6
CONTINUOUS
 62
3
 10
1092.4061
 20
78.5250
 11
1092.4061
 21
76.7700
  0
LINE
  8
0_00
  6
CONTINUOUS
 62
3
 10
1092.4061
 20
79.3050
 11
1100.0110
 21
79.3050
  0
LINE
  8
0_00
  6
CONTINUOUS
 62
3
 10
1100.0110
 20
79.3050
 11
1100.0110
 21
81.0600
  0
LINE
  8
0_00
  6
CONTINUOUS
 62
3
 10
1100.0110
 20
81.0600
 11
1092.4061
 21
81.0600
  0
LINE
  8
0_00
  6
CONTINUOUS
 62
3
 10
1092.4061
 20
81.0600
 11
1092.4061
 21
79.3050
  0
LINE
  8
0_00
  6
CONTINUOUS
 62
3
 10
1092.4061
 20
81.8401
 11
1100.0110
 21
81.8401
  0
LINE
  8
0_00
  6
CONTINUOUS
 62
3
 10
1100.0110
 20
81.8401
 11
1100.0110
 21
83.5950
  0
LINE
  8
0_00
  6
CONTINUOUS
 62
3
 10
1100.0110
 20
83.5950
 11
1092.4061
 21
83.5950
  0
LINE
  8
0_00
  6
CONTINUOUS
 62
3
 10
1092.4061
 20
83.5950
 11
1092.4061
 21
81.8401
  0
LINE
  8
0_00
  6
CONTINUOUS
 62
3
 10
1092.4061
 20
84.3751
 11
1100.0110
 21
84.3751
  0
LINE
  8
0_00
  6
CONTINUOUS
 62
3
 10
1100.0110
 20
84.3751
 11
1100.0110
 21
86.1300
  0
LINE
  8
0_00
  6
CONTINUOUS
 62
3
 10
1100.0110
 20
86.1300
 11
1092.4061
 21
86.1300
  0
LINE
  8
0_00
  6
CONTINUOUS
 62
3
 10
1092.4061
 20
86.1300
 11
1092.4061
 21
84.3751
  0
LINE
  8
0_00
  6
CONTINUOUS
 62
3
 10
1092.4061
 20
86.9101
 11
1100.0110
 21
86.9101
  0
LINE
  8
0_00
  6
CONTINUOUS
 62
3
 10
1100.0110
 20
86.9101
 11
1100.0110
 21
88.6650
  0
LINE
  8
0_00
  6
CONTINUOUS
 62
3
 10
1100.0110
 20
88.6650
 11
1092.4061
 21
88.6650
  0
LINE
  8
0_00
  6
CONTINUOUS
 62
3
 10
1092.4061
 20
88.6650
 11
1092.4061
 21
86.9101
  0
LINE
  8
0_00
  6
CONTINUOUS
 62
3
 10
1092.4061
 20
89.4451
 11
1100.0110
 21
89.4451
  0
LINE
  8
0_00
  6
CONTINUOUS
 62
3
 10
1100.0110
 20
89.4451
 11
1100.0110
 21
91.2000
  0
LINE
  8
0_00
  6
CONTINUOUS
 62
3
 10
1100.0110
 20
91.2000
 11
1092.4061
 21
91.2000
  0
LINE
  8
0_00
  6
CONTINUOUS
 62
3
 10
1092.4061
 20
91.2000
 11
1092.4061
 21
89.4451
  0
LINE
  8
0_00
  6
CONTINUOUS
 62
3
 10
1087.5311
 20
71.7000
 11
1087.5311
 21
77.0626
  0
LINE
  8
0_00
  6
CONTINUOUS
 62
3
 10
1088.8375
 20
72.7725
 11
1088.8375
 21
77.0626
  0
LINE
  8
0_00
  6
CONTINUOUS
 62
3
 10
1087.5311
 20
71.7000
 11
1089.6760
 21
71.7000
  0
LINE
  8
0_00
  6
CONTINUOUS
 62
3
 10
1088.8375
 20
72.7725
 11
1089.6760
 21
72.7725
  0
LINE
  8
0_00
  6
CONTINUOUS
 62
3
 10
1089.6050
 20
79.8056
 11
1090.4561
 21
78.1351
  0
LINE
  8
0_00
  6
CONTINUOUS
 62
3
 10
1090.9410
 20
82.5453
 11
1089.6047
 21
79.8055
  0
LINE
  8
0_00
  6
CONTINUOUS
 62
3
 10
1086.7511
 20
85.3501
 11
1086.7511
 21
91.2000
  0
LINE
  8
0_00
  6
CONTINUOUS
 62
3
 10
1086.7511
 20
85.3501
 11
1089.1886
 21
85.3501
  0
LINE
  8
0_00
  6
CONTINUOUS
 62
3
 10
1086.7511
 20
84.1801
 11
1087.8333
 21
84.1801
  0
LINE
  8
0_00
  6
CONTINUOUS
 62
3
 10
1086.7511
 20
78.1351
 11
1090.4561
 21
78.1351
  0
LINE
  8
0_00
  6
CONTINUOUS
 62
3
 10
1086.7511
 20
81.9611
 11
1087.8334
 21
84.1801
  0
LINE
  8
0_00
  6
CONTINUOUS
 62
3
 10
1086.7511
 20
81.9613
 11
1086.7511
 21
84.1801
  0
LINE
  8
0_00
  6
CONTINUOUS
 62
3
 10
1086.7511
 20
78.1351
 11
1086.7511
 21
71.7000
  0
LINE
  8
0_00
  6
CONTINUOUS
 62
3
 10
1076.9110
 20
91.2000
 11
1076.9110
 21
71.7000
  0
LINE
  8
0_00
  6
CONTINUOUS
 62
3
 10
1077.2110
 20
91.2000
 11
1077.2110
 21
71.7000
  0
LINE
  8
0_00
  6
CONTINUOUS
 62
3
 10
1077.5110
 20
91.2000
 11
1077.5110
 21
71.7000
  0
LINE
  8
0_00
  6
CONTINUOUS
 62
3
 10
1077.8109
 20
91.2000
 11
1077.8109
 21
71.7000
  0
LINE
  8
0_00
  6
CONTINUOUS
 62
3
 10
1078.1111
 20
91.2000
 11
1078.1111
 21
71.7000
  0
LINE
  8
0_00
  6
CONTINUOUS
 62
3
 10
1079.6411
 20
91.2000
 11
1079.6411
 21
71.7000
  0
LINE
  8
0_00
  6
CONTINUOUS
 62
3
 10
1079.9410
 20
91.2000
 11
1079.9410
 21
71.7000
  0
LINE
  8
0_00
  6
CONTINUOUS
 62
3
 10
1080.2410
 20
91.2000
 11
1080.2410
 21
71.7000
  0
LINE
  8
0_00
  6
CONTINUOUS
 62
3
 10
1080.5410
 20
91.2000
 11
1080.5410
 21
71.7000
  0
LINE
  8
0_00
  6
CONTINUOUS
 62
3
 10
1080.8410
 20
91.2000
 11
1080.8410
 21
71.7000
  0
LINE
  8
0_00
  6
CONTINUOUS
 62
3
 10
1081.1411
 20
91.2000
 11
1081.1411
 21
71.7000
  0
LINE
  8
0_00
  6
CONTINUOUS
 62
3
 10
1082.3709
 20
91.2000
 11
1082.3709
 21
71.7000
  0
LINE
  8
0_00
  6
CONTINUOUS
 62
3
 10
1082.6711
 20
91.2000
 11
1082.6711
 21
71.7000
  0
LINE
  8
0_00
  6
CONTINUOUS
 62
3
 10
1082.9711
 20
91.2000
 11
1082.9711
 21
71.7000
  0
LINE
  8
0_00
  6
CONTINUOUS
 62
3
 10
1083.2710
 20
91.2000
 11
1083.2710
 21
71.7000
  0
LINE
  8
0_00
  6
CONTINUOUS
 62
3
 10
1083.5711
 20
91.2000
 11
1083.5711
 21
71.7000
  0
LINE
  8
0_00
  6
CONTINUOUS
 62
3
 10
1083.8709
 20
91.2000
 11
1083.8709
 21
71.7000
  0
LINE
  8
0_00
  6
CONTINUOUS
 62
3
 10
1092.4061
 20
72.0001
 11
1100.0110
 21
72.0001
  0
LINE
  8
0_00
  6
CONTINUOUS
 62
3
 10
1092.4061
 20
72.3001
 11
1100.0110
 21
72.3001
  0
LINE
  8
0_00
  6
CONTINUOUS
 62
3
 10
1092.4061
 20
72.6000
 11
1100.0110
 21
72.6000
  0
LINE
  8
0_00
  6
CONTINUOUS
 62
3
 10
1092.4061
 20
72.9000
 11
1100.0110
 21
72.9000
  0
LINE
  8
0_00
  6
CONTINUOUS
 62
3
 10
1092.4061
 20
73.2000
 11
1100.0110
 21
73.2000
  0
LINE
  8
0_00
  6
CONTINUOUS
 62
3
 10
1092.4061
 20
74.5351
 11
1100.0110
 21
74.5351
  0
LINE
  8
0_00
  6
CONTINUOUS
 62
3
 10
1092.4061
 20
74.8351
 11
1100.0110
 21
74.8351
  0
LINE
  8
0_00
  6
CONTINUOUS
 62
3
 10
1092.4061
 20
75.1350
 11
1100.0110
 21
75.1350
  0
LINE
  8
0_00
  6
CONTINUOUS
 62
3
 10
1092.4061
 20
75.4350
 11
1100.0110
 21
75.4350
  0
LINE
  8
0_00
  6
CONTINUOUS
 62
3
 10
1092.4061
 20
75.7350
 11
1100.0110
 21
75.7350
  0
LINE
  8
0_00
  6
CONTINUOUS
 62
3
 10
1092.4061
 20
77.0701
 11
1100.0110
 21
77.0701
  0
LINE
  8
0_00
  6
CONTINUOUS
 62
3
 10
1092.4061
 20
77.3701
 11
1100.0110
 21
77.3701
  0
LINE
  8
0_00
  6
CONTINUOUS
 62
3
 10
1092.4061
 20
77.6700
 11
1100.0110
 21
77.6700
  0
LINE
  8
0_00
  6
CONTINUOUS
 62
3
 10
1092.4061
 20
77.9700
 11
1100.0110
 21
77.9700
  0
LINE
  8
0_00
  6
CONTINUOUS
 62
3
 10
1092.4061
 20
78.2701
 11
1100.0110
 21
78.2701
  0
LINE
  8
0_00
  6
CONTINUOUS
 62
3
 10
1092.4061
 20
79.6051
 11
1100.0110
 21
79.6051
  0
LINE
  8
0_00
  6
CONTINUOUS
 62
3
 10
1092.4061
 20
79.9051
 11
1100.0110
 21
79.9051
  0
LINE
  8
0_00
  6
CONTINUOUS
 62
3
 10
1092.4061
 20
80.2050
 11
1100.0110
 21
80.2050
  0
LINE
  8
0_00
  6
CONTINUOUS
 62
3
 10
1092.4061
 20
80.5050
 11
1100.0110
 21
80.5050
  0
LINE
  8
0_00
  6
CONTINUOUS
 62
3
 10
1092.4061
 20
80.8051
 11
1100.0110
 21
80.8051
  0
LINE
  8
0_00
  6
CONTINUOUS
 62
3
 10
1092.4061
 20
82.1401
 11
1100.0110
 21
82.1401
  0
LINE
  8
0_00
  6
CONTINUOUS
 62
3
 10
1092.4061
 20
82.4401
 11
1100.0110
 21
82.4401
  0
LINE
  8
0_00
  6
CONTINUOUS
 62
3
 10
1092.4061
 20
82.7400
 11
1100.0110
 21
82.7400
  0
LINE
  8
0_00
  6
CONTINUOUS
 62
3
 10
1092.4061
 20
83.0400
 11
1100.0110
 21
83.0400
  0
LINE
  8
0_00
  6
CONTINUOUS
 62
3
 10
1092.4061
 20
83.3401
 11
1100.0110
 21
83.3401
  0
LINE
  8
0_00
  6
CONTINUOUS
 62
3
 10
1100.0110
 20
84.6751
 11
1092.4061
 21
84.6751
  0
LINE
  8
0_00
  6
CONTINUOUS
 62
3
 10
1100.0110
 20
84.9751
 11
1092.4061
 21
84.9751
  0
LINE
  8
0_00
  6
CONTINUOUS
 62
3
 10
1100.0110
 20
85.2750
 11
1092.4061
 21
85.2750
  0
LINE
  8
0_00
  6
CONTINUOUS
 62
3
 10
1100.0110
 20
85.5750
 11
1092.4061
 21
85.5750
  0
LINE
  8
0_00
  6
CONTINUOUS
 62
3
 10
1100.0110
 20
85.8751
 11
1092.4061
 21
85.8751
  0
LINE
  8
0_00
  6
CONTINUOUS
 62
3
 10
1092.4061
 20
87.2101
 11
1100.0110
 21
87.2101
  0
LINE
  8
0_00
  6
CONTINUOUS
 62
3
 10
1092.4061
 20
87.5101
 11
1100.0110
 21
87.5101
  0
LINE
  8
0_00
  6
CONTINUOUS
 62
3
 10
1092.4061
 20
87.8100
 11
1100.0110
 21
87.8100
  0
LINE
  8
0_00
  6
CONTINUOUS
 62
3
 10
1092.4061
 20
88.1100
 11
1100.0110
 21
88.1100
  0
LINE
  8
0_00
  6
CONTINUOUS
 62
3
 10
1092.4061
 20
88.4101
 11
1100.0110
 21
88.4101
  0
LINE
  8
0_00
  6
CONTINUOUS
 62
3
 10
1092.4061
 20
89.7451
 11
1100.0110
 21
89.7451
  0
LINE
  8
0_00
  6
CONTINUOUS
 62
3
 10
1092.4061
 20
90.0451
 11
1100.0110
 21
90.0451
  0
LINE
  8
0_00
  6
CONTINUOUS
 62
3
 10
1092.4061
 20
90.3450
 11
1100.0110
 21
90.3450
  0
LINE
  8
0_00
  6
CONTINUOUS
 62
3
 10
1092.4061
 20
90.6450
 11
1100.0110
 21
90.6450
  0
LINE
  8
0_00
  6
CONTINUOUS
 62
3
 10
1092.4061
 20
90.9451
 11
1100.0110
 21
90.9451
  0
LINE
  8
0_00
  6
CONTINUOUS
 62
3
 10
1085.1010
 20
91.2000
 11
1085.1010
 21
71.7000
  0
LINE
  8
0_00
  6
CONTINUOUS
 62
3
 10
1085.4011
 20
91.2000
 11
1085.4011
 21
71.7000
  0
LINE
  8
0_00
  6
CONTINUOUS
 62
3
 10
1085.7009
 20
91.2000
 11
1085.7009
 21
71.7000
  0
LINE
  8
0_00
  6
CONTINUOUS
 62
3
 10
1086.0008
 20
91.2000
 11
1086.0008
 21
71.7000
  0
LINE
  8
0_00
  6
CONTINUOUS
 62
3
 10
1086.3010
 20
91.2000
 11
1086.3010
 21
71.7000
  0
LINE
  8
0_00
  6
CONTINUOUS
 62
3
 10
1086.6010
 20
91.2000
 11
1086.6010
 21
71.7000
  0
LINE
  8
0_00
  6
CONTINUOUS
 62
3
 10
1087.8311
 20
71.7000
 11
1087.8311
 21
77.0626
  0
LINE
  8
0_00
  6
CONTINUOUS
 62
3
 10
1088.1312
 20
71.7000
 11
1088.1312
 21
77.0626
  0
LINE
  8
0_00
  6
CONTINUOUS
 62
3
 10
1088.4310
 20
71.7000
 11
1088.4310
 21
77.0626
  0
LINE
  8
0_00
  6
CONTINUOUS
 62
3
 10
1088.7309
 20
71.7000
 11
1088.7309
 21
77.0626
  0
LINE
  8
0_00
  6
CONTINUOUS
 62
3
 10
1088.8375
 20
72.4725
 11
1089.6760
 21
72.4725
  0
LINE
  8
0_00
  6
CONTINUOUS
 62
3
 10
1088.8375
 20
72.1725
 11
1089.6760
 21
72.1725
  0
LINE
  8
0_00
  6
CONTINUOUS
 62
3
 10
1088.8375
 20
71.8725
 11
1089.6760
 21
71.8725
  0
LINE
  8
0_00
  6
CONTINUOUS
 62
3
 10
1090.2825
 20
78.4758
 11
1086.7853
 21
78.4758
  0
LINE
  8
0_00
  6
CONTINUOUS
 62
3
 10
1090.1032
 20
78.8278
 11
1086.7853
 21
78.8278
  0
LINE
  8
0_00
  6
CONTINUOUS
 62
3
 10
1089.8939
 20
79.2384
 11
1086.7779
 21
79.2384
  0
LINE
  8
0_00
  6
CONTINUOUS
 62
3
 10
1089.7204
 20
79.5787
 11
1086.7744
 21
79.5787
  0
LINE
  8
0_00
  6
CONTINUOUS
 62
3
 10
1091.0859
 20
83.5262
 11
1089.1502
 21
79.5579
  0
LINE
  8
0_00
  6
CONTINUOUS
 62
3
 10
1090.9896
 20
84.0133
 11
1088.8107
 21
79.5458
  0
LINE
  8
0_00
  6
CONTINUOUS
 62
3
 10
1090.8083
 20
84.3258
 11
1088.4914
 21
79.5758
  0
LINE
  8
0_00
  6
CONTINUOUS
 62
3
 10
1090.6029
 20
84.5893
 11
1088.1454
 21
79.5508
  0
LINE
  8
0_00
  6
CONTINUOUS
 62
3
 10
1090.4008
 20
84.8596
 11
1087.8790
 21
79.6887
  0
LINE
  8
0_00
  6
CONTINUOUS
 62
3
 10
1090.1371
 20
85.0026
 11
1087.4908
 21
79.5774
  0
LINE
  8
0_00
  6
CONTINUOUS
 62
3
 10
1089.8761
 20
85.1521
 11
1087.1534
 21
79.5697
  0
LINE
  8
0_00
  6
CONTINUOUS
 62
3
 10
1089.5665
 20
85.2017
 11
1086.8386
 21
79.6087
  0
LINE
  8
0_00
  6
CONTINUOUS
 62
3
 10
1089.2498
 20
85.2367
 11
1086.7053
 21
80.0197
  0
LINE
  8
0_00
  6
CONTINUOUS
 62
3
 10
1088.9374
 20
85.2802
 11
1086.7329
 21
80.7607
  0
LINE
  8
0_00
  6
CONTINUOUS
 62
3
 10
1088.5957
 20
85.2643
 11
1086.6388
 21
81.2521
  0
LINE
  8
0_00
  6
CONTINUOUS
 62
3
 10
1087.9926
 20
84.4801
 11
1086.7511
 21
84.4801
  0
LINE
  8
0_00
  6
CONTINUOUS
 62
3
 10
1088.2355
 20
84.7801
 11
1086.7511
 21
84.7801
  0
LINE
  8
0_00
  6
CONTINUOUS
 62
3
 10
1088.3496
 20
85.0800
 11
1086.7511
 21
85.0800
  0
LINE
  8
0_00
  6
CONTINUOUS
 62
3
 10
796.2610
 20
852.4893
 11
809.7610
 21
852.4893
  0
LINE
  8
0_00
  6
CONTINUOUS
 62
3
 10
797.1685
 20
854.0609
 11
796.2610
 21
852.4893
  0
LINE
  8
0_00
  6
CONTINUOUS
 62
3
 10
800.8929
 20
860.5119
 11
803.0110
 21
864.1806
  0
LINE
  8
0_00
  6
CONTINUOUS
 62
3
 10
808.8538
 20
854.0609
 11
809.7610
 21
852.4893
  0
LINE
  8
0_00
  6
CONTINUOUS
 62
3
 10
805.1292
 20
860.5119
 11
803.0110
 21
864.1806
  0
LINE
  8
0_00
  6
CONTINUOUS
 62
3
 10
1218.5110
 20
154.2001
 11
1221.5110
 21
154.2001
  0
LINE
  8
0_00
  6
CONTINUOUS
 62
3
 10
1218.5110
 20
175.2001
 11
1221.5110
 21
175.2001
  0
LINE
  8
0_00
  6
CONTINUOUS
 62
3
 10
1218.5110
 20
196.2001
 11
1221.5110
 21
196.2001
  0
LINE
  8
0_00
  6
CONTINUOUS
 62
3
 10
1218.5110
 20
217.2001
 11
1221.5110
 21
217.2001
  0
LINE
  8
0_00
  6
CONTINUOUS
 62
3
 10
1218.5110
 20
238.2001
 11
1221.5110
 21
238.2001
  0
LINE
  8
0_00
  6
CONTINUOUS
 62
3
 10
1218.5110
 20
259.2001
 11
1221.5110
 21
259.2001
  0
LINE
  8
0_00
  6
CONTINUOUS
 62
3
 10
1218.5110
 20
280.2001
 11
1221.5110
 21
280.2001
  0
LINE
  8
0_00
  6
CONTINUOUS
 62
3
 10
1218.5110
 20
301.2001
 11
1221.5110
 21
301.2001
  0
LINE
  8
0_00
  6
CONTINUOUS
 62
3
 10
1218.5110
 20
322.2001
 11
1221.5110
 21
322.2001
  0
LINE
  8
0_00
  6
CONTINUOUS
 62
3
 10
1218.5110
 20
343.2001
 11
1221.5110
 21
343.2001
  0
LINE
  8
0_00
  6
CONTINUOUS
 62
3
 10
1218.5110
 20
364.2001
 11
1221.5110
 21
364.2001
  0
LINE
  8
0_00
  6
CONTINUOUS
 62
3
 10
1218.5110
 20
385.2001
 11
1221.5110
 21
385.2001
  0
LINE
  8
0_00
  6
CONTINUOUS
 62
3
 10
1218.5110
 20
406.2001
 11
1221.5110
 21
406.2001
  0
LINE
  8
0_00
  6
CONTINUOUS
 62
3
 10
1218.5110
 20
427.2001
 11
1221.5110
 21
427.2001
  0
LINE
  8
0_00
  6
CONTINUOUS
 62
3
 10
1218.5110
 20
448.2001
 11
1221.5110
 21
448.2001
  0
LINE
  8
0_00
  6
CONTINUOUS
 62
3
 10
1218.5110
 20
469.2001
 11
1221.5110
 21
469.2001
  0
LINE
  8
0_00
  6
CONTINUOUS
 62
3
 10
1218.5110
 20
490.2001
 11
1221.5110
 21
490.2001
  0
LINE
  8
0_00
  6
CONTINUOUS
 62
3
 10
1218.5110
 20
833.7001
 11
1221.5110
 21
833.7001
  0
LINE
  8
0_00
  6
CONTINUOUS
 62
3
 10
1218.5110
 20
815.7001
 11
1221.5110
 21
815.7001
  0
LINE
  8
0_00
  6
CONTINUOUS
 62
3
 10
1218.5110
 20
797.7001
 11
1221.5110
 21
797.7001
  0
LINE
  8
0_00
  6
CONTINUOUS
 62
3
 10
1218.5110
 20
779.7001
 11
1221.5110
 21
779.7001
  0
LINE
  8
0_00
  6
CONTINUOUS
 62
3
 10
1218.5110
 20
761.7001
 11
1221.5110
 21
761.7001
  0
LINE
  8
0_00
  6
CONTINUOUS
 62
3
 10
1218.5110
 20
743.7001
 11
1221.5110
 21
743.7001
  0
LINE
  8
0_00
  6
CONTINUOUS
 62
3
 10
1218.5110
 20
511.2001
 11
1221.5110
 21
511.2001
  0
LINE
  8
0_00
  6
CONTINUOUS
 62
3
 10
1218.5110
 20
532.2001
 11
1221.5110
 21
532.2001
  0
LINE
  8
0_00
  6
CONTINUOUS
 62
3
 10
1218.5110
 20
553.2001
 11
1221.5110
 21
553.2001
  0
LINE
  8
0_00
  6
CONTINUOUS
 62
3
 10
1218.5110
 20
574.2001
 11
1221.5110
 21
574.2001
  0
LINE
  8
0_00
  6
CONTINUOUS
 62
3
 10
1218.5110
 20
595.2001
 11
1221.5110
 21
595.2001
  0
LINE
  8
0_00
  6
CONTINUOUS
 62
3
 10
1218.5110
 20
616.2001
 11
1221.5110
 21
616.2001
  0
LINE
  8
0_00
  6
CONTINUOUS
 62
3
 10
1218.5110
 20
637.2000
 11
1221.5110
 21
637.2000
  0
LINE
  8
0_00
  6
CONTINUOUS
 62
3
 10
1218.5110
 20
658.2000
 11
1221.5110
 21
658.2000
  0
LINE
  8
0_00
  6
CONTINUOUS
 62
3
 10
1218.5110
 20
679.2000
 11
1221.5110
 21
679.2000
  0
LINE
  8
0_00
  6
CONTINUOUS
 62
3
 10
1218.5110
 20
700.2001
 11
1221.5110
 21
700.2001
  0
LINE
  8
0_00
  6
CONTINUOUS
 62
3
 10
1218.5110
 20
721.2001
 11
1221.5110
 21
721.2001
  0
LINE
  8
0_00
  6
CENTER1
 62
3
 10
881.0410
 20
73.2001
 11
881.0410
 21
91.2001
  0
LINE
  8
0_00
  6
CONTINUOUS
 62
4
 10
891.5411
 20
78.4501
 11
891.5411
 21
85.9501
  0
LINE
  8
0_00
  6
CONTINUOUS
 62
4
 10
905.0410
 20
76.2001
 11
905.0410
 21
88.2001
  0
LINE
  8
0_00
  6
CONTINUOUS
 62
4
 10
891.5411
 20
85.9501
 11
905.0410
 21
88.2001
  0
LINE
  8
0_00
  6
CONTINUOUS
 62
4
 10
891.5411
 20
78.4501
 11
905.0410
 21
76.2001
  0
LINE
  8
0_00
  6
CENTER1
 62
3
 10
872.0411
 20
82.2001
 11
907.3555
 21
82.2001
  0
LINE
  8
0_00
  6
CONTINUOUS
 62
3
 10
1191.5110
 20
37.2000
 11
1191.5110
 21
67.2000
  0
LINE
  8
0_00
  6
CONTINUOUS
 62
3
 10
39.6905
 20
22.2000
 11
1233.5110
 21
22.2000
  0
LINE
  8
0_00
  6
CONTINUOUS
 62
3
 10
1182.5110
 20
865.2001
 11
1182.5110
 21
851.7001
  0
LINE
  8
0_00
  6
CONTINUOUS
 62
3
 10
0.0000
 20
443.7000
 11
39.6905
 21
443.7000
  0
LINE
  8
0_00
  6
CONTINUOUS
 62
3
 10
626.1610
 20
22.2000
 11
626.1610
 21
0.0000
  0
LINE
  8
0_00
  6
CONTINUOUS
 62
3
 10
626.1610
 20
865.2001
 11
626.1610
 21
891.0000
  0
LINE
  8
0_00
  6
CONTINUOUS
 62
3
 10
1233.5110
 20
443.7000
 11
1260.0000
 21
443.7000
  0
LINE
  8
0_00
  6
CONTINUOUS
 62
2
 10
785.1722
 20
253.2246
 11
778.3942
 21
246.4466
  0
LINE
  8
0_00
  6
CONTINUOUS
 62
2
 10
775.5919
 20
253.5439
 11
768.8140
 21
246.7660
  0
LINE
  8
0_00
  6
CONTINUOUS
 62
2
 10
766.0118
 20
253.8633
 11
759.2338
 21
247.0853
  0
LINE
  8
0_00
  6
CONTINUOUS
 62
2
 10
756.4316
 20
254.1826
 11
749.6537
 21
247.4046
  0
LINE
  8
0_00
  6
CONTINUOUS
 62
2
 10
746.8515
 20
254.5019
 11
740.0735
 21
247.7240
  0
LINE
  8
0_00
  6
CONTINUOUS
 62
2
 10
737.2713
 20
254.8213
 11
730.4934
 21
248.0433
  0
LINE
  8
0_00
  6
CONTINUOUS
 62
2
 10
727.6912
 20
255.1406
 11
720.9132
 21
248.3627
  0
LINE
  8
0_00
  6
CONTINUOUS
 62
2
 10
718.1109
 20
255.4599
 11
711.3330
 21
248.6820
  0
LINE
  8
0_00
  6
CONTINUOUS
 62
2
 10
708.5308
 20
255.7793
 11
701.7529
 21
249.0013
  0
LINE
  8
0_00
  6
CONTINUOUS
 62
2
 10
698.9507
 20
256.0986
 11
691.6859
 21
248.8338
  0
LINE
  8
0_00
  6
CONTINUOUS
 62
2
 10
690.7131
 20
247.8611
 11
690.2643
 21
247.4122
  0
LINE
  8
0_00
  6
CONTINUOUS
 62
2
 10
794.7523
 20
252.9052
 11
787.9743
 21
246.1273
  0
LINE
  8
0_00
  6
CONTINUOUS
 62
2
 10
804.3324
 20
252.5859
 11
797.5544
 21
245.8079
  0
LINE
  8
0_00
  6
CONTINUOUS
 62
2
 10
813.9125
 20
252.2666
 11
807.1346
 21
245.4886
  0
LINE
  8
0_00
  6
CONTINUOUS
 62
2
 10
823.4927
 20
251.9472
 11
816.7148
 21
245.1693
  0
LINE
  8
0_00
  6
CONTINUOUS
 62
2
 10
833.0728
 20
251.6279
 11
826.2949
 21
244.8499
  0
LINE
  8
0_00
  6
CONTINUOUS
 62
2
 10
842.6530
 20
251.3085
 11
835.8751
 21
244.5306
  0
LINE
  8
0_00
  6
CONTINUOUS
 62
2
 10
852.2332
 20
250.9892
 11
845.4552
 21
244.2112
  0
LINE
  8
0_00
  6
CONTINUOUS
 62
2
 10
861.8134
 20
250.6699
 11
855.0354
 21
243.8919
  0
LINE
  8
0_00
  6
CONTINUOUS
 62
2
 10
868.8626
 20
247.8197
 11
864.6155
 21
243.5726
  0
LINE
  8
0_00
  6
CONTINUOUS
 62
2
 10
805.7069
 20
698.6002
 11
799.3580
 21
692.2514
  0
LINE
  8
0_00
  6
CONTINUOUS
 62
2
 10
796.7151
 20
699.5080
 11
790.1235
 21
692.9164
  0
LINE
  8
0_00
  6
CONTINUOUS
 62
2
 10
750.2644
 20
653.0572
 11
743.3648
 21
646.1576
  0
LINE
  8
0_00
  6
CONTINUOUS
 62
2
 10
787.3451
 20
700.0374
 11
780.4652
 21
693.1575
  0
LINE
  8
0_00
  6
CONTINUOUS
 62
2
 10
750.2644
 20
662.9567
 11
743.2644
 21
655.9567
  0
LINE
  8
0_00
  6
CONTINUOUS
 62
2
 10
777.5481
 20
700.1400
 11
770.3204
 21
692.9122
  0
LINE
  8
0_00
  6
CONTINUOUS
 62
2
 10
750.2643
 20
672.8562
 11
743.2644
 21
665.8561
  0
LINE
  8
0_00
  6
CONTINUOUS
 62
2
 10
767.2607
 20
699.7519
 11
759.6050
 21
692.0963
  0
LINE
  8
0_00
  6
CONTINUOUS
 62
2
 10
750.2643
 20
682.7556
 11
743.2643
 21
675.7556
  0
LINE
  8
0_00
  6
CONTINUOUS
 62
2
 10
756.3969
 20
698.7877
 11
743.2643
 21
685.6551
  0
LINE
  8
0_00
  6
CONTINUOUS
 62
2
 10
812.6335
 20
695.6273
 11
807.6436
 21
690.6375
  0
LINE
  8
0_00
  6
CONTINUOUS
 62
2
 10
816.6217
 20
689.7160
 11
810.2642
 21
683.3587
  0
LINE
  8
0_00
  6
CONTINUOUS
 62
2
 10
817.2643
 20
680.4591
 11
810.2642
 21
673.4591
  0
LINE
  8
0_00
  6
CONTINUOUS
 62
2
 10
817.2643
 20
670.5596
 11
810.2642
 21
663.5596
  0
LINE
  8
0_00
  6
CONTINUOUS
 62
2
 10
817.2643
 20
660.6601
 11
810.2642
 21
653.6600
  0
LINE
  8
0_00
  6
CONTINUOUS
 62
2
 10
817.2643
 20
650.7606
 11
812.6613
 21
646.1576
  0
LINE
  8
0_00
  6
CONTINUOUS
 62
6
 10
413.5518
 20
708.1576
 11
413.5518
 21
766.0000
  0
LINE
  8
0_00
  6
CONTINUOUS
 62
6
 10
129.4597
 20
760.0000
 11
413.5518
 21
760.0000
  0
LINE
  8
0_00
  6
CONTINUOUS
 62
6
 10
413.5518
 20
760.0000
 11
406.2157
 21
761.5594
  0
LINE
  8
0_00
  6
CONTINUOUS
 62
6
 10
413.5518
 20
760.0000
 11
406.2157
 21
758.4407
  0
LINE
  8
0_00
  6
CONTINUOUS
 62
6
 10
413.5518
 20
760.0000
 11
538.5518
 21
760.0000
  0
LINE
  8
0_00
  6
CONTINUOUS
 62
6
 10
413.5518
 20
760.0000
 11
420.8879
 21
758.4407
  0
LINE
  8
0_00
  6
CONTINUOUS
 62
6
 10
413.5518
 20
760.0000
 11
420.8879
 21
761.5594
  0
LINE
  8
0_00
  6
CONTINUOUS
 62
6
 10
538.5518
 20
760.0000
 11
531.2157
 21
761.5594
  0
LINE
  8
0_00
  6
CONTINUOUS
 62
6
 10
538.5518
 20
760.0000
 11
531.2157
 21
758.4407
  0
LINE
  8
0_00
  6
CONTINUOUS
 62
6
 10
548.5518
 20
226.3843
 11
646.0000
 21
226.3843
  0
LINE
  8
0_00
  6
CONTINUOUS
 62
6
 10
548.5518
 20
246.3843
 11
646.0000
 21
246.3843
  0
LINE
  8
0_00
  6
CONTINUOUS
 62
6
 10
640.0000
 20
226.3843
 11
640.0000
 21
246.3843
  0
LINE
  8
0_00
  6
CONTINUOUS
 62
6
 10
548.5518
 20
693.1576
 11
646.0000
 21
693.1576
  0
LINE
  8
0_00
  6
CONTINUOUS
 62
6
 10
640.0000
 20
246.3843
 11
640.0000
 21
693.1576
  0
LINE
  8
0_00
  6
CONTINUOUS
 62
6
 10
640.0000
 20
246.3843
 11
641.5593
 21
253.7204
  0
LINE
  8
0_00
  6
CONTINUOUS
 62
6
 10
640.0000
 20
246.3843
 11
638.4407
 21
253.7204
  0
LINE
  8
0_00
  6
CONTINUOUS
 62
6
 10
640.0000
 20
693.1576
 11
638.4407
 21
685.8215
  0
LINE
  8
0_00
  6
CONTINUOUS
 62
6
 10
640.0000
 20
693.1576
 11
641.5593
 21
685.8215
  0
LINE
  8
0_00
  6
CONTINUOUS
 62
6
 10
640.0000
 20
196.4906
 11
640.0000
 21
226.3843
  0
LINE
  8
0_00
  6
CONTINUOUS
 62
6
 10
640.0000
 20
226.3843
 11
638.4407
 21
219.0482
  0
LINE
  8
0_00
  6
CONTINUOUS
 62
6
 10
640.0000
 20
226.3843
 11
641.5593
 21
219.0482
  0
LINE
  8
0_00
  6
CONTINUOUS
 62
6
 10
456.4570
 20
381.3843
 11
606.0000
 21
381.3843
  0
LINE
  8
0_00
  6
CONTINUOUS
 62
6
 10
456.4570
 20
346.3843
 11
606.0000
 21
346.3843
  0
LINE
  8
0_00
  6
CONTINUOUS
 62
6
 10
600.0000
 20
346.3843
 11
600.0000
 21
381.3843
  0
LINE
  8
0_00
  6
CONTINUOUS
 62
6
 10
600.0000
 20
346.3843
 11
601.5593
 21
353.7204
  0
LINE
  8
0_00
  6
CONTINUOUS
 62
6
 10
600.0000
 20
346.3843
 11
598.4407
 21
353.7204
  0
LINE
  8
0_00
  6
CONTINUOUS
 62
6
 10
600.0000
 20
381.3843
 11
598.4407
 21
374.0482
  0
LINE
  8
0_00
  6
CONTINUOUS
 62
6
 10
600.0000
 20
381.3843
 11
601.5593
 21
374.0482
  0
LINE
  8
0_00
  6
CONTINUOUS
 62
6
 10
735.9638
 20
646.1576
 11
654.0000
 21
646.1576
  0
LINE
  8
0_00
  6
CONTINUOUS
 62
6
 10
735.2077
 20
693.1576
 11
654.0000
 21
693.1576
  0
LINE
  8
0_00
  6
CONTINUOUS
 62
6
 10
660.0000
 20
693.1576
 11
660.0000
 21
646.1576
  0
LINE
  8
0_00
  6
CONTINUOUS
 62
6
 10
660.0000
 20
693.1576
 11
658.4407
 21
685.8215
  0
LINE
  8
0_00
  6
CONTINUOUS
 62
6
 10
660.0000
 20
693.1576
 11
661.5593
 21
685.8215
  0
LINE
  8
0_00
  6
CONTINUOUS
 62
6
 10
660.0000
 20
646.1576
 11
661.5593
 21
653.4938
  0
LINE
  8
0_00
  6
CONTINUOUS
 62
6
 10
660.0000
 20
646.1576
 11
658.4407
 21
653.4938
  0
LINE
  8
0_00
  6
CONTINUOUS
 62
6
 10
563.5518
 20
693.1576
 11
606.0000
 21
693.1576
  0
LINE
  8
0_00
  6
CONTINUOUS
 62
6
 10
600.0000
 20
693.1576
 11
600.0000
 21
669.6576
  0
LINE
  8
0_00
  6
CONTINUOUS
 62
6
 10
600.0000
 20
730.8968
 11
600.0000
 21
693.1576
  0
LINE
  8
0_00
  6
CONTINUOUS
 62
6
 10
600.0000
 20
693.1576
 11
601.5593
 21
700.4937
  0
LINE
  8
0_00
  6
CONTINUOUS
 62
6
 10
600.0000
 20
693.1576
 11
598.4407
 21
700.4937
  0
LINE
  8
0_00
  6
CONTINUOUS
 62
6
 10
600.0000
 20
651.6576
 11
600.0000
 21
669.6576
  0
LINE
  8
0_00
  6
CONTINUOUS
 62
6
 10
600.0000
 20
669.6576
 11
598.4407
 21
662.3215
  0
LINE
  8
0_00
  6
CONTINUOUS
 62
6
 10
600.0000
 20
669.6576
 11
601.5593
 21
662.3215
  0
LINE
  8
0_00
  6
CONTINUOUS
 62
6
 10
595.6599
 20
669.6576
 11
635.1985
 21
669.6576
  0
LINE
  8
0_00
  6
CONTINUOUS
 62
6
 10
669.1033
 20
669.6576
 11
727.7717
 21
669.6576
  0
LINE
  8
0_00
  6
CONTINUOUS
 62
6
 10
533.5518
 20
708.1576
 11
533.5518
 21
746.0000
  0
LINE
  8
0_00
  6
CONTINUOUS
 62
6
 10
533.5518
 20
740.0000
 11
538.5518
 21
740.0000
  0
LINE
  8
0_00
  6
CONTINUOUS
 62
6
 10
560.7518
 20
740.0000
 11
538.5518
 21
740.0000
  0
LINE
  8
0_00
  6
CONTINUOUS
 62
6
 10
538.5518
 20
740.0000
 11
545.8879
 21
738.4407
  0
LINE
  8
0_00
  6
CONTINUOUS
 62
6
 10
538.5518
 20
740.0000
 11
545.8879
 21
741.5593
  0
LINE
  8
0_00
  6
CONTINUOUS
 62
6
 10
515.5518
 20
740.0000
 11
533.5518
 21
740.0000
  0
LINE
  8
0_00
  6
CONTINUOUS
 62
6
 10
533.5518
 20
740.0000
 11
526.2157
 21
741.5593
  0
LINE
  8
0_00
  6
CONTINUOUS
 62
6
 10
533.5518
 20
740.0000
 11
526.2157
 21
738.4407
  0
LINE
  8
0_00
  6
CONTINUOUS
 62
6
 10
506.0518
 20
631.1575
 11
506.0518
 21
574.0000
  0
LINE
  8
0_00
  6
CONTINUOUS
 62
6
 10
533.5518
 20
631.1575
 11
533.5518
 21
574.0000
  0
LINE
  8
0_00
  6
CONTINUOUS
 62
6
 10
533.5518
 20
580.0000
 11
506.0518
 21
580.0000
  0
LINE
  8
0_00
  6
CONTINUOUS
 62
6
 10
465.2519
 20
580.0000
 11
506.0518
 21
580.0000
  0
LINE
  8
0_00
  6
CONTINUOUS
 62
6
 10
506.0518
 20
580.0000
 11
498.7157
 21
581.5594
  0
LINE
  8
0_00
  6
CONTINUOUS
 62
6
 10
506.0518
 20
580.0000
 11
498.7157
 21
578.4407
  0
LINE
  8
0_00
  6
CONTINUOUS
 62
6
 10
551.5518
 20
580.0000
 11
533.5518
 21
580.0000
  0
LINE
  8
0_00
  6
CONTINUOUS
 62
6
 10
533.5518
 20
580.0000
 11
540.8879
 21
578.4407
  0
LINE
  8
0_00
  6
CONTINUOUS
 62
6
 10
533.5518
 20
580.0000
 11
540.8879
 21
581.5594
  0
LINE
  8
0_00
  6
CONTINUOUS
 62
6
 10
533.5518
 20
261.3843
 11
533.5518
 21
286.0000
  0
LINE
  8
0_00
  6
CONTINUOUS
 62
6
 10
533.5518
 20
280.0000
 11
538.5518
 21
280.0000
  0
LINE
  8
0_00
  6
CONTINUOUS
 62
6
 10
511.3518
 20
280.0000
 11
533.5518
 21
280.0000
  0
LINE
  8
0_00
  6
CONTINUOUS
 62
6
 10
533.5518
 20
280.0000
 11
526.2157
 21
281.5593
  0
LINE
  8
0_00
  6
CONTINUOUS
 62
6
 10
533.5518
 20
280.0000
 11
526.2157
 21
278.4407
  0
LINE
  8
0_00
  6
CONTINUOUS
 62
6
 10
556.5518
 20
280.0000
 11
538.5518
 21
280.0000
  0
LINE
  8
0_00
  6
CONTINUOUS
 62
6
 10
538.5518
 20
280.0000
 11
545.8879
 21
278.4407
  0
LINE
  8
0_00
  6
CONTINUOUS
 62
6
 10
538.5518
 20
280.0000
 11
545.8879
 21
281.5593
  0
LINE
  8
0_00
  6
CONTINUOUS
 62
6
 10
501.5518
 20
211.3843
 11
501.5518
 21
154.0000
  0
LINE
  8
0_00
  6
CONTINUOUS
 62
6
 10
538.5518
 20
222.9843
 11
538.5518
 21
154.0000
  0
LINE
  8
0_00
  6
CONTINUOUS
 62
6
 10
501.5518
 20
160.0000
 11
538.5518
 21
160.0000
  0
LINE
  8
0_00
  6
CONTINUOUS
 62
6
 10
501.5518
 20
160.0000
 11
508.8880
 21
158.4407
  0
LINE
  8
0_00
  6
CONTINUOUS
 62
6
 10
501.5518
 20
160.0000
 11
508.8880
 21
161.5593
  0
LINE
  8
0_00
  6
CONTINUOUS
 62
6
 10
538.5518
 20
160.0000
 11
531.2157
 21
161.5593
  0
LINE
  8
0_00
  6
CONTINUOUS
 62
6
 10
538.5518
 20
160.0000
 11
531.2157
 21
158.4407
  0
LINE
  8
0_00
  6
CONTINUOUS
 62
6
 10
922.0281
 20
486.4179
 11
922.0281
 21
526.0000
  0
LINE
  8
0_00
  6
CONTINUOUS
 62
6
 10
883.0394
 20
520.0000
 11
922.0281
 21
520.0000
  0
LINE
  8
0_00
  6
CONTINUOUS
 62
6
 10
922.0281
 20
520.0000
 11
914.6920
 21
521.5593
  0
LINE
  8
0_00
  6
CONTINUOUS
 62
6
 10
922.0281
 20
520.0000
 11
914.6920
 21
518.4407
  0
LINE
  8
0_00
  6
CONTINUOUS
 62
6
 10
1025.3616
 20
486.4179
 11
1025.3616
 21
526.0000
  0
LINE
  8
0_00
  6
CONTINUOUS
 62
6
 10
922.0281
 20
520.0000
 11
1025.3616
 21
520.0000
  0
LINE
  8
0_00
  6
CONTINUOUS
 62
6
 10
922.0281
 20
520.0000
 11
929.3643
 21
518.4407
  0
LINE
  8
0_00
  6
CONTINUOUS
 62
6
 10
922.0281
 20
520.0000
 11
929.3643
 21
521.5593
  0
LINE
  8
0_00
  6
CONTINUOUS
 62
6
 10
1025.3616
 20
520.0000
 11
1018.0254
 21
521.5593
  0
LINE
  8
0_00
  6
CONTINUOUS
 62
6
 10
1025.3616
 20
520.0000
 11
1018.0254
 21
518.4407
  0
LINE
  8
0_00
  6
CONTINUOUS
 62
6
 10
1128.6948
 20
486.4179
 11
1128.6948
 21
526.0000
  0
LINE
  8
0_00
  6
CONTINUOUS
 62
6
 10
1025.3616
 20
520.0000
 11
1128.6948
 21
520.0000
  0
LINE
  8
0_00
  6
CONTINUOUS
 62
6
 10
1025.3616
 20
520.0000
 11
1032.6976
 21
518.4407
  0
LINE
  8
0_00
  6
CONTINUOUS
 62
6
 10
1025.3616
 20
520.0000
 11
1032.6976
 21
521.5593
  0
LINE
  8
0_00
  6
CONTINUOUS
 62
6
 10
1128.6948
 20
520.0000
 11
1121.3588
 21
521.5593
  0
LINE
  8
0_00
  6
CONTINUOUS
 62
6
 10
1128.6948
 20
520.0000
 11
1121.3588
 21
518.4407
  0
LINE
  8
0_00
  6
CONTINUOUS
 62
6
 10
1141.1948
 20
500.3655
 11
1141.1948
 21
526.0000
  0
LINE
  8
0_00
  6
CONTINUOUS
 62
6
 10
1128.6948
 20
520.0000
 11
1141.1948
 21
520.0000
  0
LINE
  8
0_00
  6
CONTINUOUS
 62
6
 10
1177.7950
 20
520.0000
 11
1141.1948
 21
520.0000
  0
LINE
  8
0_00
  6
CONTINUOUS
 62
6
 10
1141.1948
 20
520.0000
 11
1148.5310
 21
518.4407
  0
LINE
  8
0_00
  6
CONTINUOUS
 62
6
 10
1141.1948
 20
520.0000
 11
1148.5310
 21
521.5593
  0
LINE
  8
0_00
  6
CONTINUOUS
 62
6
 10
973.6948
 20
486.4179
 11
973.6948
 21
506.0000
  0
LINE
  8
0_00
  6
CONTINUOUS
 62
6
 10
986.3949
 20
486.4179
 11
986.3949
 21
506.0000
  0
LINE
  8
0_00
  6
CONTINUOUS
 62
6
 10
973.6948
 20
500.0000
 11
986.3949
 21
500.0000
  0
LINE
  8
0_00
  6
CONTINUOUS
 62
6
 10
937.0949
 20
500.0000
 11
973.6948
 21
500.0000
  0
LINE
  8
0_00
  6
CONTINUOUS
 62
6
 10
973.6948
 20
500.0000
 11
966.3588
 21
501.5593
  0
LINE
  8
0_00
  6
CONTINUOUS
 62
6
 10
973.6948
 20
500.0000
 11
966.3588
 21
498.4407
  0
LINE
  8
0_00
  6
CONTINUOUS
 62
6
 10
1004.3949
 20
500.0000
 11
986.3949
 21
500.0000
  0
LINE
  8
0_00
  6
CONTINUOUS
 62
6
 10
986.3949
 20
500.0000
 11
993.7310
 21
498.4407
  0
LINE
  8
0_00
  6
CONTINUOUS
 62
6
 10
986.3949
 20
500.0000
 11
993.7310
 21
501.5593
  0
LINE
  8
0_00
  6
CONTINUOUS
 62
6
 10
750.2643
 20
708.1576
 11
750.2643
 21
745.0000
  0
LINE
  8
0_00
  6
CONTINUOUS
 62
6
 10
750.2643
 20
739.0000
 11
810.2642
 21
739.0000
  0
LINE
  8
0_00
  6
CONTINUOUS
 62
6
 10
750.2643
 20
739.0000
 11
757.6004
 21
737.4407
  0
LINE
  8
0_00
  6
CONTINUOUS
 62
6
 10
750.2643
 20
739.0000
 11
757.6004
 21
740.5594
  0
LINE
  8
0_00
  6
CONTINUOUS
 62
6
 10
810.2642
 20
739.0000
 11
802.9281
 21
740.5594
  0
LINE
  8
0_00
  6
CONTINUOUS
 62
6
 10
810.2642
 20
739.0000
 11
802.9281
 21
737.4407
  0
LINE
  8
0_00
  6
CONTINUOUS
 62
6
 10
810.2642
 20
708.1576
 11
810.2642
 21
733.8512
  0
LINE
  8
0_00
  6
CONTINUOUS
 62
6
 10
810.2642
 20
734.7546
 11
810.2642
 21
745.0000
  0
LINE
  8
0_00
  6
CONTINUOUS
 62
6
 10
1155.6948
 20
471.4179
 11
1206.0000
 21
471.4179
  0
LINE
  8
0_00
  6
CONTINUOUS
 62
6
 10
1155.6948
 20
383.4179
 11
1206.0000
 21
383.4179
  0
LINE
  8
0_00
  6
CONTINUOUS
 62
6
 10
1200.0000
 20
471.4179
 11
1200.0000
 21
383.4179
  0
LINE
  8
0_00
  6
CONTINUOUS
 62
6
 10
1200.0000
 20
471.4179
 11
1198.4407
 21
464.0818
  0
LINE
  8
0_00
  6
CONTINUOUS
 62
6
 10
1200.0000
 20
471.4179
 11
1201.5593
 21
464.0818
  0
LINE
  8
0_00
  6
CONTINUOUS
 62
6
 10
1200.0000
 20
383.4179
 11
1201.5593
 21
390.7540
  0
LINE
  8
0_00
  6
CONTINUOUS
 62
6
 10
1200.0000
 20
383.4179
 11
1198.4407
 21
390.7540
  0
LINE
  8
0_00
  6
CONTINUOUS
 62
6
 10
1155.6948
 20
391.4179
 11
1186.0000
 21
391.4179
  0
LINE
  8
0_00
  6
CONTINUOUS
 62
6
 10
1170.6948
 20
383.4179
 11
1186.0000
 21
383.4179
  0
LINE
  8
0_00
  6
CONTINUOUS
 62
6
 10
1180.0000
 20
383.4179
 11
1180.0000
 21
391.4179
  0
LINE
  8
0_00
  6
CONTINUOUS
 62
6
 10
1180.0000
 20
361.2179
 11
1180.0000
 21
383.4179
  0
LINE
  8
0_00
  6
CONTINUOUS
 62
6
 10
1180.0000
 20
383.4179
 11
1178.4407
 21
376.0818
  0
LINE
  8
0_00
  6
CONTINUOUS
 62
6
 10
1180.0000
 20
383.4179
 11
1181.5594
 21
376.0818
  0
LINE
  8
0_00
  6
CONTINUOUS
 62
6
 10
1155.6948
 20
471.4179
 11
1186.0000
 21
471.4179
  0
LINE
  8
0_00
  6
CONTINUOUS
 62
6
 10
1180.0000
 20
391.4179
 11
1180.0000
 21
471.4179
  0
LINE
  8
0_00
  6
CONTINUOUS
 62
6
 10
1180.0000
 20
391.4179
 11
1181.5594
 21
398.7540
  0
LINE
  8
0_00
  6
CONTINUOUS
 62
6
 10
1180.0000
 20
391.4179
 11
1178.4407
 21
398.7540
  0
LINE
  8
0_00
  6
CONTINUOUS
 62
6
 10
1180.0000
 20
471.4179
 11
1178.4407
 21
464.0818
  0
LINE
  8
0_00
  6
CONTINUOUS
 62
6
 10
1180.0000
 20
471.4179
 11
1181.5594
 21
464.0818
  0
LINE
  8
0_00
  6
CONTINUOUS
 62
4
 10
1086.4709
 20
320.0511
 11
1160.2709
 21
320.0511
  0
LINE
  8
0_00
  6
CONTINUOUS
 62
6
 10
882.2643
 20
183.3843
 11
916.0000
 21
183.3843
  0
LINE
  8
0_00
  6
CONTINUOUS
 62
6
 10
882.2643
 20
243.3843
 11
916.0000
 21
243.3843
  0
LINE
  8
0_00
  6
CONTINUOUS
 62
6
 10
910.0000
 20
243.3843
 11
910.0000
 21
183.3843
  0
LINE
  8
0_00
  6
CONTINUOUS
 62
6
 10
910.0000
 20
243.3843
 11
908.4407
 21
236.0482
  0
LINE
  8
0_00
  6
CONTINUOUS
 62
6
 10
910.0000
 20
243.3843
 11
911.5594
 21
236.0482
  0
LINE
  8
0_00
  6
CONTINUOUS
 62
6
 10
910.0000
 20
183.3843
 11
911.5594
 21
190.7204
  0
LINE
  8
0_00
  6
CONTINUOUS
 62
6
 10
910.0000
 20
183.3843
 11
908.4407
 21
190.7204
  0
LINE
  8
0_00
  6
CONTINUOUS
 62
6
 10
685.6592
 20
249.2826
 11
654.0000
 21
249.2826
  0
LINE
  8
0_00
  6
CONTINUOUS
 62
6
 10
685.6592
 20
184.3843
 11
654.0000
 21
184.3843
  0
LINE
  8
0_00
  6
CONTINUOUS
 62
6
 10
660.0000
 20
249.2826
 11
660.0000
 21
184.3843
  0
LINE
  8
0_00
  6
CONTINUOUS
 62
6
 10
660.0000
 20
249.2826
 11
658.4407
 21
241.9465
  0
LINE
  8
0_00
  6
CONTINUOUS
 62
6
 10
660.0000
 20
249.2826
 11
661.5593
 21
241.9465
  0
LINE
  8
0_00
  6
CONTINUOUS
 62
6
 10
660.0000
 20
184.3843
 11
661.5593
 21
191.7204
  0
LINE
  8
0_00
  6
CONTINUOUS
 62
6
 10
660.0000
 20
184.3843
 11
658.4407
 21
191.7204
  0
LINE
  8
0_00
  6
CONTINUOUS
 62
6
 10
303.5518
 20
580.0000
 11
323.5518
 21
580.0000
  0
LINE
  8
0_00
  6
CONTINUOUS
 62
6
 10
274.1518
 20
580.0000
 11
303.5518
 21
580.0000
  0
LINE
  8
0_00
  6
CONTINUOUS
 62
6
 10
303.5518
 20
580.0000
 11
296.2157
 21
581.5594
  0
LINE
  8
0_00
  6
CONTINUOUS
 62
6
 10
303.5518
 20
580.0000
 11
296.2157
 21
578.4407
  0
LINE
  8
0_00
  6
CONTINUOUS
 62
6
 10
341.5518
 20
580.0000
 11
323.5518
 21
580.0000
  0
LINE
  8
0_00
  6
CONTINUOUS
 62
6
 10
323.5518
 20
580.0000
 11
330.8879
 21
578.4407
  0
LINE
  8
0_00
  6
CONTINUOUS
 62
6
 10
323.5518
 20
580.0000
 11
330.8879
 21
581.5594
  0
LINE
  8
0_00
  6
CONTINUOUS
 62
6
 10
393.5518
 20
580.0000
 11
433.5518
 21
580.0000
  0
LINE
  8
0_00
  6
CONTINUOUS
 62
6
 10
393.5518
 20
580.0000
 11
400.8880
 21
578.4407
  0
LINE
  8
0_00
  6
CONTINUOUS
 62
6
 10
393.5518
 20
580.0000
 11
400.8880
 21
581.5594
  0
LINE
  8
0_00
  6
CONTINUOUS
 62
6
 10
433.5518
 20
580.0000
 11
426.2157
 21
581.5594
  0
LINE
  8
0_00
  6
CONTINUOUS
 62
6
 10
433.5518
 20
580.0000
 11
426.2157
 21
578.4407
  0
LINE
  8
0_00
  6
CONTINUOUS
 62
4
 10
890.4141
 20
145.4676
 11
935.4141
 21
145.4676
  0
LINE
  8
0_00
  6
DASHED
 62
2
 10
533.5518
 20
672.6576
 11
578.3557
 21
672.6576
  0
LINE
  8
0_00
  6
CONTINUOUS
 62
2
 10
533.5518
 20
662.6576
 11
533.5518
 21
676.6576
  0
LINE
  8
0_00
  6
DASHED
 62
2
 10
583.5518
 20
669.6576
 11
578.3557
 21
672.6576
  0
LINE
  8
0_00
  6
DASHED
 62
2
 10
533.5518
 20
666.6576
 11
578.3557
 21
666.6576
  0
LINE
  8
0_00
  6
DASHED
 62
2
 10
583.5518
 20
669.6576
 11
578.3557
 21
666.6576
  0
LINE
  8
0_00
  6
CONTINUOUS
 62
2
 10
533.1372
 20
676.6576
 11
533.5518
 21
676.6576
  0
LINE
  8
0_00
  6
CONTINUOUS
 62
2
 10
533.1372
 20
662.6576
 11
533.1372
 21
676.6576
  0
LINE
  8
0_00
  6
CONTINUOUS
 62
2
 10
533.1372
 20
662.6576
 11
533.5518
 21
662.6576
  0
LINE
  8
0_00
  6
DASHED
 62
2
 10
533.5518
 20
671.8076
 11
579.8279
 21
671.8076
  0
LINE
  8
0_00
  6
DASHED
 62
2
 10
533.5518
 20
667.5076
 11
579.8279
 21
667.5076
  0
LINE
  8
0_00
  6
CONTINUOUS
 62
6
 10
456.4570
 20
346.3843
 11
626.0000
 21
346.3843
  0
LINE
  8
0_00
  6
CONTINUOUS
 62
6
 10
563.5518
 20
246.3843
 11
626.0000
 21
246.3843
  0
LINE
  8
0_00
  6
CONTINUOUS
 62
6
 10
620.0000
 20
246.3843
 11
620.0000
 21
346.3843
  0
LINE
  8
0_00
  6
CONTINUOUS
 62
6
 10
620.0000
 20
246.3843
 11
621.5593
 21
253.7204
  0
LINE
  8
0_00
  6
CONTINUOUS
 62
6
 10
620.0000
 20
246.3843
 11
618.4407
 21
253.7204
  0
LINE
  8
0_00
  6
CONTINUOUS
 62
6
 10
620.0000
 20
346.3843
 11
618.4407
 21
339.0481
  0
LINE
  8
0_00
  6
CONTINUOUS
 62
6
 10
620.0000
 20
346.3843
 11
621.5593
 21
339.0481
  0
LINE
  8
0_00
  6
CONTINUOUS
 62
6
 10
563.5518
 20
693.1576
 11
626.0000
 21
693.1576
  0
LINE
  8
0_00
  6
CONTINUOUS
 62
6
 10
620.0000
 20
346.3843
 11
620.0000
 21
693.1576
  0
LINE
  8
0_00
  6
CONTINUOUS
 62
6
 10
620.0000
 20
346.3843
 11
621.5593
 21
353.7204
  0
LINE
  8
0_00
  6
CONTINUOUS
 62
6
 10
620.0000
 20
346.3843
 11
618.4407
 21
353.7204
  0
LINE
  8
0_00
  6
CONTINUOUS
 62
6
 10
620.0000
 20
637.4158
 11
620.0000
 21
693.1576
  0
LINE
  8
0_00
  6
CONTINUOUS
 62
6
 10
620.0000
 20
693.1576
 11
618.4407
 21
685.8215
  0
LINE
  8
0_00
  6
CONTINUOUS
 62
6
 10
620.0000
 20
693.1576
 11
621.5593
 21
685.8215
  0
LINE
  8
12_0C
  6
DASHED
 62
2
 10
538.5518
 20
665.6576
 11
550.4848
 21
665.6576
  0
LINE
  8
12_0C
  6
DASHED
 62
2
 10
553.6206
 20
665.0258
 11
555.6600
 21
664.8474
  0
LINE
  8
12_0C
  6
DASHED
 62
2
 10
558.6015
 20
664.5900
 11
560.6409
 21
664.4116
  0
LINE
  8
12_0C
  6
DASHED
 62
2
 10
563.5824
 20
664.1543
 11
565.6219
 21
663.9758
  0
LINE
  8
12_0C
  6
DASHED
 62
2
 10
568.5635
 20
663.7185
 11
570.6029
 21
663.5401
  0
LINE
  8
12_0C
  6
DASHED
 62
2
 10
573.5445
 20
663.2827
 11
575.3766
 21
663.1225
  0
LINE
  8
12_0C
  6
DASHED
 62
2
 10
538.5518
 20
673.6576
 11
550.4848
 21
673.6576
  0
LINE
  8
12_0C
  6
DASHED
 62
2
 10
553.6206
 20
674.2895
 11
555.6600
 21
674.4678
  0
LINE
  8
12_0C
  6
DASHED
 62
2
 10
558.6015
 20
674.7252
 11
560.6409
 21
674.9036
  0
LINE
  8
12_0C
  6
DASHED
 62
2
 10
563.5824
 20
675.1610
 11
565.6219
 21
675.3394
  0
LINE
  8
12_0C
  6
DASHED
 62
2
 10
568.5635
 20
675.5967
 11
570.6029
 21
675.7751
  0
LINE
  8
12_0C
  6
DASHED
 62
2
 10
573.5445
 20
676.0326
 11
575.3766
 21
676.1928
  0
LINE
  8
12_0C
  6
DASHED
 62
2
 10
538.5518
 20
665.6576
 11
538.5518
 21
673.6576
  0
LINE
  8
12_0C
  6
DASHED
 62
2
 10
546.5518
 20
669.1576
 11
546.5518
 21
670.1576
  0
LINE
  8
12_0C
  6
DASHED
 62
2
 10
546.5518
 20
670.1576
 11
578.4300
 21
672.9466
  0
LINE
  8
12_0C
  6
DASHED
 62
2
 10
578.4300
 20
666.3687
 11
546.5518
 21
669.1576
  0
LINE
  8
12_0C
  6
DASHED
 62
2
 10
578.2557
 20
664.3762
 11
578.4300
 21
666.3687
  0
LINE
  8
12_0C
  6
DASHED
 62
2
 10
578.4300
 20
672.9466
 11
578.2557
 21
674.9390
  0
LINE
  8
12_0C
  6
DASHED
 62
2
 10
578.2557
 20
674.9390
 11
575.6825
 21
676.1389
  0
LINE
  8
12_0C
  6
DASHED
 62
2
 10
578.2557
 20
664.3762
 11
575.6825
 21
663.1763
  0
LINE
  8
12_0C
  6
DASHED
 62
2
 10
575.5368
 20
663.1084
 11
575.8418
 21
666.5951
  0
LINE
  8
12_0C
  6
DASHED
 62
2
 10
575.8418
 20
672.7202
 11
575.5368
 21
676.2068
  0
LINE
  8
12_0C
  6
DASHED
 62
2
 10
573.5445
 20
663.2827
 11
573.7361
 21
665.4743
  0
LINE
  8
12_0C
  6
DASHED
 62
2
 10
573.7361
 20
673.8409
 11
573.5445
 21
676.0326
  0
LINE
  8
12_0C
  6
DASHED
 62
2
 10
568.5635
 20
663.7185
 11
568.7552
 21
665.9100
  0
LINE
  8
12_0C
  6
DASHED
 62
2
 10
568.7552
 20
673.4051
 11
568.5635
 21
675.5967
  0
LINE
  8
12_0C
  6
DASHED
 62
2
 10
563.5824
 20
664.1543
 11
563.7742
 21
666.3459
  0
LINE
  8
12_0C
  6
DASHED
 62
2
 10
563.7742
 20
672.9694
 11
563.5824
 21
675.1610
  0
LINE
  8
12_0C
  6
DASHED
 62
2
 10
558.6015
 20
664.5900
 11
558.7932
 21
666.7817
  0
LINE
  8
12_0C
  6
DASHED
 62
2
 10
558.7932
 20
672.5336
 11
558.6015
 21
674.7252
  0
LINE
  8
12_0C
  6
DASHED
 62
2
 10
553.6206
 20
665.0258
 11
553.7600
 21
666.6197
  0
LINE
  8
12_0C
  6
DASHED
 62
2
 10
553.7600
 20
672.6955
 11
553.6206
 21
674.2895
  0
LINE
  8
12_0C
  6
DASHED
 62
2
 10
556.4674
 20
666.5836
 11
558.7584
 21
666.3831
  0
LINE
  8
12_0C
  6
DASHED
 62
2
 10
561.4483
 20
666.1479
 11
563.7393
 21
665.9474
  0
LINE
  8
12_0C
  6
DASHED
 62
2
 10
566.4293
 20
665.7120
 11
568.7203
 21
665.5116
  0
LINE
  8
12_0C
  6
DASHED
 62
2
 10
571.4103
 20
665.2763
 11
573.7013
 21
665.0759
  0
LINE
  8
12_0C
  6
DASHED
 62
2
 10
573.7013
 20
674.2394
 11
571.4103
 21
674.0389
  0
LINE
  8
12_0C
  6
DASHED
 62
2
 10
568.7203
 20
673.8036
 11
566.4293
 21
673.6032
  0
LINE
  8
12_0C
  6
DASHED
 62
2
 10
563.7393
 20
673.3678
 11
561.4483
 21
673.1673
  0
LINE
  8
12_0C
  6
DASHED
 62
2
 10
558.7584
 20
672.9321
 11
556.4674
 21
672.7316
  0
LINE
  8
12_0C
  6
DASHED
 62
2
 10
571.4811
 20
673.7747
 11
571.0241
 21
675.4802
  0
LINE
  8
12_0C
  6
DASHED
 62
2
 10
571.5245
 20
665.7027
 11
571.0241
 21
663.8350
  0
LINE
  8
12_0C
  6
DASHED
 62
2
 10
566.5001
 20
673.3388
 11
566.0432
 21
675.0444
  0
LINE
  8
12_0C
  6
DASHED
 62
2
 10
566.5001
 20
665.9764
 11
566.0432
 21
664.2708
  0
LINE
  8
12_0C
  6
DASHED
 62
2
 10
561.5191
 20
672.9031
 11
561.0621
 21
674.6087
  0
LINE
  8
12_0C
  6
DASHED
 62
2
 10
561.5191
 20
666.4121
 11
561.0621
 21
664.7065
  0
LINE
  8
12_0C
  6
DASHED
 62
2
 10
556.5382
 20
672.4673
 11
556.0811
 21
674.1729
  0
LINE
  8
12_0C
  6
DASHED
 62
2
 10
556.5382
 20
666.8479
 11
556.0811
 21
665.1424
  0
LINE
  8
12_0C
  6
DASHED
 62
2
 10
553.7426
 20
666.4205
 11
550.6668
 21
666.6896
  0
LINE
  8
12_0C
  6
DASHED
 62
2
 10
553.7426
 20
672.8948
 11
550.6668
 21
672.6257
  0
LINE
  8
12_0C
  6
DASHED
 62
2
 10
556.9594
 20
667.1429
 11
558.6115
 21
666.9984
  0
LINE
  8
12_0C
  6
DASHED
 62
2
 10
561.9404
 20
666.7071
 11
563.5924
 21
666.5626
  0
LINE
  8
12_0C
  6
DASHED
 62
2
 10
566.9214
 20
666.2713
 11
568.5733
 21
666.1268
  0
LINE
  8
12_0C
  6
DASHED
 62
2
 10
571.7352
 20
665.8502
 11
573.5544
 21
665.6910
  0
LINE
  8
12_0C
  6
DASHED
 62
2
 10
573.5544
 20
673.6242
 11
571.9024
 21
673.4797
  0
LINE
  8
12_0C
  6
DASHED
 62
2
 10
568.5733
 20
673.1885
 11
566.9214
 21
673.0439
  0
LINE
  8
12_0C
  6
DASHED
 62
2
 10
563.5924
 20
672.7527
 11
561.9404
 21
672.6082
  0
LINE
  8
12_0C
  6
DASHED
 62
2
 10
558.6115
 20
672.3169
 11
556.9594
 21
672.1723
  0
LINE
  8
12_0C
  6
DASHED
 62
2
 10
550.6729
 20
666.7240
 11
550.4848
 21
665.6576
  0
LINE
  8
12_0C
  6
DASHED
 62
2
 10
550.6729
 20
672.5912
 11
550.4848
 21
673.6576
  0
LINE
  8
12_0C
  6
DASHED
 62
2
 10
558.6015
 20
674.7252
 11
552.6199
 21
677.5145
  0
LINE
  8
12_0C
  6
DASHED
 62
2
 10
552.1973
 20
676.6082
 11
558.7021
 21
673.5749
  0
LINE
  8
12_0C
  6
DASHED
 62
2
 10
558.6015
 20
664.5900
 11
552.6199
 21
661.8008
  0
LINE
  8
12_0C
  6
DASHED
 62
2
 10
552.1973
 20
662.7070
 11
558.7021
 21
665.7404
  0
LINE
  8
12_0C
  6
DASHED
 62
2
 10
552.0883
 20
677.3210
 11
552.0038
 21
677.1398
  0
LINE
  8
12_0C
  6
DASHED
 62
2
 10
552.0883
 20
661.9942
 11
552.0038
 21
662.1755
  0
LINE
  8
12_0C
  6
DASHED
 62
2
 10
551.1017
 20
667.0530
 11
553.5782
 21
666.8364
  0
LINE
  8
12_0C
  6
DASHED
 62
2
 10
551.1017
 20
672.2622
 11
556.4674
 21
672.7316
  0
LINE
  8
0_00
  6
CONTINUOUS
 62
2
 10
1043.1646
 20
678.9192
 11
1043.3525
 21
679.4342
  0
LINE
  8
0_00
  6
CONTINUOUS
 62
2
 10
1043.3525
 20
679.4342
 11
1043.1751
 21
679.9213
  0
LINE
  8
0_00
  6
CONTINUOUS
 62
2
 10
1043.1751
 20
679.9213
 11
1042.1070
 21
681.0555
  0
LINE
  8
0_00
  6
CONTINUOUS
 62
2
 10
1046.3622
 20
682.0784
 11
1045.2627
 21
681.0173
  0
LINE
  8
0_00
  6
CONTINUOUS
 62
2
 10
1045.2627
 20
681.0173
 11
1044.7478
 21
680.8293
  0
LINE
  8
0_00
  6
CONTINUOUS
 62
2
 10
1044.7478
 20
680.8293
 11
1044.2607
 21
681.0069
  0
LINE
  8
0_00
  6
CONTINUOUS
 62
2
 10
1044.2607
 20
681.0069
 11
1043.1263
 21
682.0751
  0
LINE
  8
0_00
  6
CONTINUOUS
 62
2
 10
1047.3921
 20
681.0486
 11
1046.3308
 21
679.9491
  0
LINE
  8
0_00
  6
CONTINUOUS
 62
2
 10
1046.3308
 20
679.9491
 11
1046.1430
 21
679.4342
  0
LINE
  8
0_00
  6
CONTINUOUS
 62
2
 10
1046.1430
 20
679.4342
 11
1046.3204
 21
678.9471
  0
LINE
  8
0_00
  6
CONTINUOUS
 62
2
 10
1046.3204
 20
678.9471
 11
1046.3633
 21
678.9016
  0
LINE
  8
0_00
  6
CONTINUOUS
 62
2
 10
1043.1476
 20
678.9016
 11
1043.1646
 21
678.9192
  0
LINE
  8
0_00
  6
CONTINUOUS
 62
6
 10
999.7587
 20
656.0481
 11
945.1041
 21
656.0481
  0
LINE
  8
0_00
  6
CONTINUOUS
 62
6
 10
1029.7687
 20
693.1576
 11
945.1041
 21
693.1576
  0
LINE
  8
0_00
  6
CONTINUOUS
 62
6
 10
951.1042
 20
693.1576
 11
951.1042
 21
656.0481
  0
LINE
  8
0_00
  6
CONTINUOUS
 62
6
 10
951.1042
 20
693.1576
 11
949.5448
 21
685.8215
  0
LINE
  8
0_00
  6
CONTINUOUS
 62
6
 10
951.1042
 20
693.1576
 11
952.6635
 21
685.8215
  0
LINE
  8
0_00
  6
CONTINUOUS
 62
6
 10
951.1042
 20
656.0481
 11
952.6635
 21
663.3842
  0
LINE
  8
0_00
  6
CONTINUOUS
 62
6
 10
951.1042
 20
656.0481
 11
949.5448
 21
663.3842
  0
LINE
  8
0_00
  6
CONTINUOUS
 62
6
 10
1014.7687
 20
693.1576
 11
965.1042
 21
693.1576
  0
LINE
  8
0_00
  6
CONTINUOUS
 62
6
 10
1015.0668
 20
679.4016
 11
965.1042
 21
679.4016
  0
LINE
  8
0_00
  6
CONTINUOUS
 62
6
 10
971.1041
 20
693.1576
 11
971.1041
 21
679.4016
  0
LINE
  8
0_00
  6
CONTINUOUS
 62
6
 10
971.1041
 20
732.2901
 11
971.1041
 21
693.1576
  0
LINE
  8
0_00
  6
CONTINUOUS
 62
6
 10
971.1041
 20
693.1576
 11
972.6634
 21
700.4937
  0
LINE
  8
0_00
  6
CONTINUOUS
 62
6
 10
971.1041
 20
693.1576
 11
969.5447
 21
700.4937
  0
LINE
  8
0_00
  6
CONTINUOUS
 62
6
 10
971.1041
 20
662.5763
 11
971.1041
 21
679.4016
  0
LINE
  8
0_00
  6
CONTINUOUS
 62
6
 10
971.1041
 20
679.4016
 11
969.5447
 21
672.0655
  0
LINE
  8
0_00
  6
CONTINUOUS
 62
6
 10
971.1041
 20
679.4016
 11
972.6634
 21
672.0655
  0
LINE
  8
0_00
  6
CONTINUOUS
 62
6
 10
1004.7686
 20
685.3597
 11
1004.7686
 21
737.1849
  0
LINE
  8
0_00
  6
CONTINUOUS
 62
6
 10
1004.7686
 20
731.1849
 11
1084.7686
 21
731.1849
  0
LINE
  8
0_00
  6
CONTINUOUS
 62
6
 10
1004.7686
 20
731.1849
 11
1012.1048
 21
729.6255
  0
LINE
  8
0_00
  6
CONTINUOUS
 62
6
 10
1004.7686
 20
731.1849
 11
1012.1048
 21
732.7442
  0
LINE
  8
0_00
  6
CONTINUOUS
 62
6
 10
1084.7686
 20
731.1849
 11
1077.4326
 21
732.7442
  0
LINE
  8
0_00
  6
CONTINUOUS
 62
6
 10
1084.7686
 20
731.1849
 11
1077.4326
 21
729.6255
  0
LINE
  8
0_00
  6
CONTINUOUS
 62
6
 10
1084.7686
 20
685.3597
 11
1084.7686
 21
697.7711
  0
LINE
  8
0_00
  6
CONTINUOUS
 62
6
 10
1084.7686
 20
718.9077
 11
1084.7686
 21
737.1849
  0
LINE
  8
0_00
  6
CONTINUOUS
 62
6
 10
762.2643
 20
636.1576
 11
762.2643
 21
574.0000
  0
LINE
  8
0_00
  6
CONTINUOUS
 62
6
 10
798.2643
 20
636.1576
 11
798.2643
 21
574.0000
  0
LINE
  8
0_00
  6
CONTINUOUS
 62
6
 10
762.2643
 20
580.0000
 11
798.2643
 21
580.0000
  0
LINE
  8
0_00
  6
CONTINUOUS
 62
6
 10
827.6643
 20
580.0000
 11
798.2643
 21
580.0000
  0
LINE
  8
0_00
  6
CONTINUOUS
 62
6
 10
798.2643
 20
580.0000
 11
805.6004
 21
578.4407
  0
LINE
  8
0_00
  6
CONTINUOUS
 62
6
 10
798.2643
 20
580.0000
 11
805.6004
 21
581.5594
  0
LINE
  8
0_00
  6
CONTINUOUS
 62
6
 10
744.2643
 20
580.0000
 11
762.2643
 21
580.0000
  0
LINE
  8
0_00
  6
CONTINUOUS
 62
6
 10
762.2643
 20
580.0000
 11
754.9281
 21
581.5594
  0
LINE
  8
0_00
  6
CONTINUOUS
 62
6
 10
762.2643
 20
580.0000
 11
754.9281
 21
578.4407
  0
LINE
  8
0_00
  6
CONTINUOUS
 62
4
 10
948.4353
 20
347.1339
 11
1087.0354
 21
347.1339
  0
ARC
  8
0_00
  6
CONTINUOUS
 62
2
 10
728.2643
 20
208.3843
 40
8.0000
 50
90.0000
 51
180.0000
  0
ARC
  8
0_00
  6
CONTINUOUS
 62
2
 10
832.2643
 20
208.3843
 40
4.0000
 50
0.0000
 51
90.0000
  0
ARC
  8
0_00
  6
CONTINUOUS
 62
4
 10
832.2643
 20
208.3843
 40
8.0000
 50
0.0000
 51
90.0000
  0
CIRCLE
  8
0_00
  6
CONTINUOUS
 62
2
 10
844.0477
 20
223.9305
 40
0.1000
  0
CIRCLE
  8
0_00
  6
CONTINUOUS
 62
2
 10
845.4888
 20
221.2543
 40
0.1000
  0
CIRCLE
  8
0_00
  6
CONTINUOUS
 62
2
 10
848.0620
 20
219.4016
 40
0.1000
  0
CIRCLE
  8
0_00
  6
CONTINUOUS
 62
2
 10
841.7833
 20
217.0342
 40
0.1000
  0
CIRCLE
  8
0_00
  6
CONTINUOUS
 62
2
 10
840.6511
 20
221.2543
 40
0.1000
  0
CIRCLE
  8
0_00
  6
CONTINUOUS
 62
2
 10
835.6076
 20
218.8869
 40
0.1000
  0
CIRCLE
  8
0_00
  6
CONTINUOUS
 62
2
 10
838.9013
 20
217.5489
 40
0.1000
  0
CIRCLE
  8
0_00
  6
CONTINUOUS
 62
2
 10
844.6653
 20
214.2551
 40
0.1000
  0
CIRCLE
  8
0_00
  6
CONTINUOUS
 62
2
 10
841.2686
 20
214.1522
 40
0.1000
  0
CIRCLE
  8
0_00
  6
CONTINUOUS
 62
2
 10
850.9440
 20
215.5932
 40
0.1000
  0
CIRCLE
  8
0_00
  6
CONTINUOUS
 62
2
 10
851.8704
 20
217.4459
 40
0.1000
  0
CIRCLE
  8
0_00
  6
CONTINUOUS
 62
2
 10
854.7523
 20
213.2258
 40
0.1000
  0
CIRCLE
  8
0_00
  6
CONTINUOUS
 62
2
 10
833.9171
 20
223.7371
 40
0.1000
  0
CIRCLE
  8
0_00
  6
CONTINUOUS
 62
2
 10
832.1883
 20
220.8969
 40
0.1000
  0
CIRCLE
  8
0_00
  6
CONTINUOUS
 62
2
 10
838.6095
 20
223.4901
 40
0.1000
  0
CIRCLE
  8
0_00
  6
CONTINUOUS
 62
2
 10
826.8784
 20
219.4151
 40
0.1000
  0
CIRCLE
  8
0_00
  6
CONTINUOUS
 62
2
 10
827.6194
 20
222.9961
 40
0.1000
  0
CIRCLE
  8
0_00
  6
CONTINUOUS
 62
2
 10
817.9876
 20
222.8727
 40
0.1000
  0
CIRCLE
  8
0_00
  6
CONTINUOUS
 62
2
 10
818.6049
 20
220.0325
 40
0.1000
  0
CIRCLE
  8
0_00
  6
CONTINUOUS
 62
2
 10
823.7913
 20
222.2552
 40
0.1000
  0
CIRCLE
  8
0_00
  6
CONTINUOUS
 62
2
 10
822.3095
 20
219.4151
 40
0.1000
  0
CIRCLE
  8
0_00
  6
CONTINUOUS
 62
2
 10
830.5831
 20
218.4272
 40
0.1000
  0
CIRCLE
  8
0_00
  6
CONTINUOUS
 62
2
 10
811.6898
 20
217.6863
 40
0.1000
  0
CIRCLE
  8
0_00
  6
CONTINUOUS
 62
2
 10
814.2830
 20
220.6499
 40
0.1000
  0
CIRCLE
  8
0_00
  6
CONTINUOUS
 62
2
 10
811.3193
 20
222.7492
 40
0.1000
  0
CIRCLE
  8
0_00
  6
CONTINUOUS
 62
2
 10
806.1330
 20
221.3908
 40
0.1000
  0
CIRCLE
  8
0_00
  6
CONTINUOUS
 62
2
 10
805.1451
 20
218.5507
 40
0.1000
  0
CIRCLE
  8
0_00
  6
CONTINUOUS
 62
2
 10
810.8254
 20
220.1560
 40
0.1000
  0
CIRCLE
  8
0_00
  6
CONTINUOUS
 62
2
 10
805.6390
 20
224.1075
 40
0.1000
  0
CIRCLE
  8
0_00
  6
CONTINUOUS
 62
2
 10
798.6005
 20
222.5022
 40
0.1000
  0
CIRCLE
  8
0_00
  6
CONTINUOUS
 62
2
 10
797.6125
 20
220.0325
 40
0.1000
  0
CIRCLE
  8
0_00
  6
CONTINUOUS
 62
2
 10
803.0458
 20
221.1439
 40
0.1000
  0
CIRCLE
  8
0_00
  6
CONTINUOUS
 62
2
 10
799.9587
 20
218.7977
 40
0.1000
  0
CIRCLE
  8
0_00
  6
CONTINUOUS
 62
2
 10
791.1913
 20
218.7977
 40
0.1000
  0
CIRCLE
  8
0_00
  6
CONTINUOUS
 62
2
 10
793.0435
 20
221.2673
 40
0.1000
  0
CIRCLE
  8
0_00
  6
CONTINUOUS
 62
2
 10
792.5497
 20
223.6136
 40
0.1000
  0
CIRCLE
  8
0_00
  6
CONTINUOUS
 62
2
 10
786.1284
 20
222.7492
 40
0.1000
  0
CIRCLE
  8
0_00
  6
CONTINUOUS
 62
2
 10
786.3755
 20
220.5264
 40
0.1000
  0
CIRCLE
  8
0_00
  6
CONTINUOUS
 62
2
 10
781.8065
 20
219.1681
 40
0.1000
  0
CIRCLE
  8
0_00
  6
CONTINUOUS
 62
2
 10
781.0656
 20
221.7613
 40
0.1000
  0
CIRCLE
  8
0_00
  6
CONTINUOUS
 62
2
 10
776.2497
 20
224.8484
 40
0.1000
  0
CIRCLE
  8
0_00
  6
CONTINUOUS
 62
2
 10
774.8914
 20
221.3908
 40
0.1000
  0
CIRCLE
  8
0_00
  6
CONTINUOUS
 62
2
 10
771.5573
 20
220.4030
 40
0.1000
  0
CIRCLE
  8
0_00
  6
CONTINUOUS
 62
2
 10
776.2497
 20
218.5507
 40
0.1000
  0
CIRCLE
  8
0_00
  6
CONTINUOUS
 62
2
 10
764.3952
 20
218.5507
 40
0.1000
  0
CIRCLE
  8
0_00
  6
CONTINUOUS
 62
2
 10
768.8406
 20
223.2431
 40
0.1000
  0
CIRCLE
  8
0_00
  6
CONTINUOUS
 62
2
 10
769.3346
 20
219.9090
 40
0.1000
  0
CIRCLE
  8
0_00
  6
CONTINUOUS
 62
2
 10
763.6542
 20
222.9961
 40
0.1000
  0
CIRCLE
  8
0_00
  6
CONTINUOUS
 62
2
 10
758.9618
 20
220.5264
 40
0.1000
  0
CIRCLE
  8
0_00
  6
CONTINUOUS
 62
2
 10
757.4800
 20
224.1075
 40
0.1000
  0
CIRCLE
  8
0_00
  6
CONTINUOUS
 62
2
 10
773.6565
 20
224.7249
 40
0.1000
  0
CIRCLE
  8
0_00
  6
CONTINUOUS
 62
2
 10
751.4002
 20
223.0682
 40
0.1000
  0
CIRCLE
  8
0_00
  6
CONTINUOUS
 62
2
 10
748.8753
 20
219.7017
 40
0.1000
  0
CIRCLE
  8
0_00
  6
CONTINUOUS
 62
2
 10
753.5885
 20
218.8601
 40
0.1000
  0
CIRCLE
  8
0_00
  6
CONTINUOUS
 62
2
 10
741.4689
 20
218.5234
 40
0.1000
  0
CIRCLE
  8
0_00
  6
CONTINUOUS
 62
2
 10
742.6472
 20
222.3949
 40
0.1000
  0
CIRCLE
  8
0_00
  6
CONTINUOUS
 62
2
 10
734.5675
 20
222.5633
 40
0.1000
  0
CIRCLE
  8
0_00
  6
CONTINUOUS
 62
2
 10
730.1911
 20
219.1967
 40
0.1000
  0
CIRCLE
  8
0_00
  6
CONTINUOUS
 62
2
 10
737.4291
 20
218.6917
 40
0.1000
  0
CIRCLE
  8
0_00
  6
CONTINUOUS
 62
2
 10
729.5177
 20
223.2366
 40
0.1000
  0
CIRCLE
  8
0_00
  6
CONTINUOUS
 62
2
 10
726.4879
 20
221.0483
 40
0.1000
  0
CIRCLE
  8
0_00
  6
CONTINUOUS
 62
2
 10
723.7946
 20
218.5234
 40
0.1000
  0
CIRCLE
  8
0_00
  6
CONTINUOUS
 62
2
 10
719.2497
 20
225.2565
 40
0.1000
  0
CIRCLE
  8
0_00
  6
CONTINUOUS
 62
2
 10
717.5665
 20
220.8800
 40
0.1000
  0
CIRCLE
  8
0_00
  6
CONTINUOUS
 62
2
 10
724.1313
 20
222.2266
 40
0.1000
  0
CIRCLE
  8
0_00
  6
CONTINUOUS
 62
2
 10
712.0117
 20
216.6718
 40
0.1000
  0
CIRCLE
  8
0_00
  6
CONTINUOUS
 62
2
 10
713.8633
 20
218.8601
 40
0.1000
  0
CIRCLE
  8
0_00
  6
CONTINUOUS
 62
2
 10
717.2299
 20
215.4935
 40
0.1000
  0
CIRCLE
  8
0_00
  6
CONTINUOUS
 62
2
 10
719.9231
 20
216.6718
 40
0.1000
  0
CIRCLE
  8
0_00
  6
CONTINUOUS
 62
2
 10
716.3882
 20
211.1170
 40
0.1000
  0
CIRCLE
  8
0_00
  6
CONTINUOUS
 62
2
 10
709.9918
 20
213.1370
 40
0.1000
  0
CIRCLE
  8
0_00
  6
CONTINUOUS
 62
2
 10
707.9719
 20
214.8202
 40
0.1000
  0
CIRCLE
  8
0_00
  6
CONTINUOUS
 62
2
 10
708.1402
 20
205.8989
 40
0.1000
  0
CIRCLE
  8
0_00
  6
CONTINUOUS
 62
2
 10
715.7149
 20
204.2156
 40
0.1000
  0
CIRCLE
  8
0_00
  6
CONTINUOUS
 62
2
 10
712.6850
 20
208.7605
 40
0.1000
  0
CIRCLE
  8
0_00
  6
CONTINUOUS
 62
2
 10
711.0017
 20
203.7106
 40
0.1000
  0
CIRCLE
  8
0_00
  6
CONTINUOUS
 62
2
 10
707.6353
 20
198.9975
 40
0.1000
  0
CIRCLE
  8
0_00
  6
CONTINUOUS
 62
2
 10
714.7050
 20
196.3043
 40
0.1000
  0
CIRCLE
  8
0_00
  6
CONTINUOUS
 62
2
 10
715.8832
 20
199.8391
 40
0.1000
  0
CIRCLE
  8
0_00
  6
CONTINUOUS
 62
2
 10
712.0117
 20
199.1658
 40
0.1000
  0
CIRCLE
  8
0_00
  6
CONTINUOUS
 62
2
 10
708.9818
 20
190.7495
 40
0.1000
  0
CIRCLE
  8
0_00
  6
CONTINUOUS
 62
2
 10
718.5764
 20
203.5423
 40
0.1000
  0
CIRCLE
  8
0_00
  6
CONTINUOUS
 62
2
 10
716.5565
 20
193.9477
 40
0.1000
  0
CIRCLE
  8
0_00
  6
CONTINUOUS
 62
2
 10
716.2199
 20
186.0363
 40
0.1000
  0
CIRCLE
  8
0_00
  6
CONTINUOUS
 62
2
 10
712.3484
 20
193.7794
 40
0.1000
  0
CIRCLE
  8
0_00
  6
CONTINUOUS
 62
2
 10
709.3185
 20
185.6997
 40
0.1000
  0
CIRCLE
  8
0_00
  6
CONTINUOUS
 62
2
 10
711.8434
 20
186.8780
 40
0.1000
  0
CIRCLE
  8
0_00
  6
CONTINUOUS
 62
2
 10
712.5168
 20
179.8082
 40
0.1000
  0
CIRCLE
  8
0_00
  6
CONTINUOUS
 62
2
 10
718.5764
 20
183.8481
 40
0.1000
  0
CIRCLE
  8
0_00
  6
CONTINUOUS
 62
2
 10
718.0714
 20
189.2345
 40
0.1000
  0
CIRCLE
  8
0_00
  6
CONTINUOUS
 62
2
 10
716.7249
 20
176.4417
 40
0.1000
  0
CIRCLE
  8
0_00
  6
CONTINUOUS
 62
2
 10
709.6552
 20
177.9566
 40
0.1000
  0
CIRCLE
  8
0_00
  6
CONTINUOUS
 62
2
 10
708.4769
 20
173.5801
 40
0.1000
  0
CIRCLE
  8
0_00
  6
CONTINUOUS
 62
2
 10
712.8534
 20
170.7186
 40
0.1000
  0
CIRCLE
  8
0_00
  6
CONTINUOUS
 62
2
 10
713.4235
 20
174.4744
 40
0.1000
  0
CIRCLE
  8
0_00
  6
CONTINUOUS
 62
2
 10
852.3884
 20
205.8989
 40
0.1000
  0
CIRCLE
  8
0_00
  6
CONTINUOUS
 62
2
 10
844.8137
 20
204.2156
 40
0.1000
  0
CIRCLE
  8
0_00
  6
CONTINUOUS
 62
2
 10
849.5268
 20
203.7106
 40
0.1000
  0
CIRCLE
  8
0_00
  6
CONTINUOUS
 62
2
 10
852.8934
 20
198.9975
 40
0.1000
  0
CIRCLE
  8
0_00
  6
CONTINUOUS
 62
2
 10
845.8236
 20
196.3043
 40
0.1000
  0
CIRCLE
  8
0_00
  6
CONTINUOUS
 62
2
 10
844.6453
 20
199.8391
 40
0.1000
  0
CIRCLE
  8
0_00
  6
CONTINUOUS
 62
2
 10
848.5169
 20
199.1658
 40
0.1000
  0
CIRCLE
  8
0_00
  6
CONTINUOUS
 62
2
 10
851.5467
 20
190.7495
 40
0.1000
  0
CIRCLE
  8
0_00
  6
CONTINUOUS
 62
2
 10
841.9521
 20
203.5423
 40
0.1000
  0
CIRCLE
  8
0_00
  6
CONTINUOUS
 62
2
 10
843.9720
 20
193.9477
 40
0.1000
  0
CIRCLE
  8
0_00
  6
CONTINUOUS
 62
2
 10
844.3087
 20
186.0363
 40
0.1000
  0
CIRCLE
  8
0_00
  6
CONTINUOUS
 62
2
 10
848.1801
 20
193.7794
 40
0.1000
  0
CIRCLE
  8
0_00
  6
CONTINUOUS
 62
2
 10
851.2101
 20
185.6997
 40
0.1000
  0
CIRCLE
  8
0_00
  6
CONTINUOUS
 62
2
 10
848.6852
 20
186.8780
 40
0.1000
  0
CIRCLE
  8
0_00
  6
CONTINUOUS
 62
2
 10
848.0119
 20
179.8082
 40
0.1000
  0
CIRCLE
  8
0_00
  6
CONTINUOUS
 62
2
 10
841.9521
 20
183.8481
 40
0.1000
  0
CIRCLE
  8
0_00
  6
CONTINUOUS
 62
2
 10
842.4571
 20
189.2345
 40
0.1000
  0
CIRCLE
  8
0_00
  6
CONTINUOUS
 62
2
 10
843.8037
 20
176.4417
 40
0.1000
  0
CIRCLE
  8
0_00
  6
CONTINUOUS
 62
2
 10
850.8734
 20
177.9566
 40
0.1000
  0
CIRCLE
  8
0_00
  6
CONTINUOUS
 62
2
 10
852.0517
 20
173.5801
 40
0.1000
  0
CIRCLE
  8
0_00
  6
CONTINUOUS
 62
2
 10
847.6752
 20
170.7186
 40
0.1000
  0
CIRCLE
  8
0_00
  6
CONTINUOUS
 62
2
 10
847.1051
 20
174.4744
 40
0.1000
  0
CIRCLE
  8
0_00
  6
CONTINUOUS
 62
2
 10
845.0113
 20
211.1779
 40
0.1000
  0
CIRCLE
  8
0_00
  6
CONTINUOUS
 62
2
 10
844.0225
 20
207.2837
 40
0.1000
  0
CIRCLE
  8
0_00
  6
CONTINUOUS
 62
2
 10
849.8946
 20
210.3743
 40
0.1000
  0
CIRCLE
  8
0_00
  6
CONTINUOUS
 62
2
 10
848.4728
 20
207.4074
 40
0.1000
  0
CIRCLE
  8
0_00
  6
CONTINUOUS
 62
2
 10
852.4905
 20
212.2905
 40
0.1000
  0
CIRCLE
  8
0_00
  6
CONTINUOUS
 62
2
 10
845.9386
 20
217.0500
 40
0.1000
  0
ARC
  8
0_00
  6
CONTINUOUS
 62
2
 10
832.2643
 20
208.3843
 40
2.0000
 50
0.0000
 51
90.0000
  0
ARC
  8
0_00
  6
CONTINUOUS
 62
2
 10
832.2643
 20
208.3843
 40
6.0000
 50
0.0000
 51
90.0000
  0
ARC
  8
0_00
  6
CONTINUOUS
 62
4
 10
919.6163
 20
384.4472
 40
0.2000
 50
90.0000
 51
175.6347
  0
ARC
  8
0_00
  6
CONTINUOUS
 62
4
 10
919.6208
 20
385.8214
 40
0.1000
 50
90.0000
 51
175.6347
  0
ARC
  8
0_00
  6
CONTINUOUS
 62
4
 10
924.4402
 20
384.4472
 40
0.2000
 50
4.3652
 51
90.0000
  0
ARC
  8
0_00
  6
CONTINUOUS
 62
4
 10
924.4355
 20
385.8214
 40
0.1000
 50
4.3652
 51
90.0000
  0
ARC
  8
0_00
  6
CONTINUOUS
 62
4
 10
1022.9496
 20
384.4472
 40
0.2000
 50
90.0000
 51
175.6347
  0
ARC
  8
0_00
  6
CONTINUOUS
 62
4
 10
1022.9542
 20
385.8214
 40
0.1000
 50
90.0000
 51
175.6347
  0
ARC
  8
0_00
  6
CONTINUOUS
 62
4
 10
1027.7735
 20
384.4472
 40
0.2000
 50
4.3652
 51
90.0000
  0
ARC
  8
0_00
  6
CONTINUOUS
 62
4
 10
1027.7688
 20
385.8214
 40
0.1000
 50
4.3652
 51
90.0000
  0
CIRCLE
  8
3_03
  6
CONTINUOUS
 62
2
 10
922.0281
 20
385.3882
 40
0.4000
  0
ARC
  8
3_03
  6
CONTINUOUS
 62
2
 10
922.0281
 20
385.3882
 40
0.2000
 50
36.1800
 51
53.8200
  0
ARC
  8
3_03
  6
CONTINUOUS
 62
2
 10
922.0281
 20
385.3882
 40
0.2000
 50
126.2068
 51
143.6799
  0
ARC
  8
3_03
  6
CONTINUOUS
 62
2
 10
922.0281
 20
385.3882
 40
0.2000
 50
216.1800
 51
233.7058
  0
ARC
  8
3_03
  6
CONTINUOUS
 62
2
 10
922.0281
 20
385.3882
 40
0.2000
 50
306.2068
 51
323.7932
  0
CIRCLE
  8
3_03
  6
CONTINUOUS
 62
2
 10
1025.3616
 20
385.3882
 40
0.4000
  0
ARC
  8
3_03
  6
CONTINUOUS
 62
2
 10
1025.3616
 20
385.3882
 40
0.2000
 50
36.1800
 51
53.8200
  0
ARC
  8
3_03
  6
CONTINUOUS
 62
2
 10
1025.3616
 20
385.3882
 40
0.2000
 50
126.2068
 51
143.6799
  0
ARC
  8
3_03
  6
CONTINUOUS
 62
2
 10
1025.3616
 20
385.3882
 40
0.2000
 50
216.1800
 51
233.7058
  0
ARC
  8
3_03
  6
CONTINUOUS
 62
2
 10
1025.3616
 20
385.3882
 40
0.2000
 50
306.2068
 51
323.7932
  0
ARC
  8
0_00
  6
CONTINUOUS
 62
2
 10
922.0281
 20
391.9179
 40
0.2450
 50
45.0000
 51
58.5444
  0
ARC
  8
0_00
  6
CONTINUOUS
 62
2
 10
922.0281
 20
391.9179
 40
0.2450
 50
121.3667
 51
135.0000
  0
ARC
  8
0_00
  6
CONTINUOUS
 62
2
 10
922.0281
 20
391.9179
 40
0.2450
 50
211.4556
 51
225.0000
  0
ARC
  8
0_00
  6
CONTINUOUS
 62
2
 10
922.0281
 20
391.9179
 40
0.2450
 50
135.0000
 51
148.6333
  0
ARC
  8
0_00
  6
CONTINUOUS
 62
2
 10
922.0281
 20
391.9179
 40
0.2450
 50
31.4556
 51
45.0000
  0
ARC
  8
0_00
  6
CONTINUOUS
 62
2
 10
922.0281
 20
391.9179
 40
0.2450
 50
315.0000
 51
328.6334
  0
ARC
  8
0_00
  6
CONTINUOUS
 62
2
 10
922.0281
 20
391.9179
 40
0.2450
 50
225.0000
 51
238.5444
  0
ARC
  8
0_00
  6
CONTINUOUS
 62
2
 10
922.0281
 20
391.9179
 40
0.2450
 50
301.3667
 51
315.0000
  0
CIRCLE
  8
0_00
  6
CONTINUOUS
 62
2
 10
922.0281
 20
391.9179
 40
0.5900
  0
ARC
  8
0_00
  6
CONTINUOUS
 62
2
 10
1025.3616
 20
391.9179
 40
0.2450
 50
45.0000
 51
58.5444
  0
ARC
  8
0_00
  6
CONTINUOUS
 62
2
 10
1025.3616
 20
391.9179
 40
0.2450
 50
121.3667
 51
135.0000
  0
ARC
  8
0_00
  6
CONTINUOUS
 62
2
 10
1025.3616
 20
391.9179
 40
0.2450
 50
211.4556
 51
225.0000
  0
ARC
  8
0_00
  6
CONTINUOUS
 62
2
 10
1025.3616
 20
391.9179
 40
0.2450
 50
135.0000
 51
148.6333
  0
ARC
  8
0_00
  6
CONTINUOUS
 62
2
 10
1025.3616
 20
391.9179
 40
0.2450
 50
31.4556
 51
45.0000
  0
ARC
  8
0_00
  6
CONTINUOUS
 62
2
 10
1025.3616
 20
391.9179
 40
0.2450
 50
315.0000
 51
328.6334
  0
ARC
  8
0_00
  6
CONTINUOUS
 62
2
 10
1025.3616
 20
391.9179
 40
0.2450
 50
225.0000
 51
238.5444
  0
ARC
  8
0_00
  6
CONTINUOUS
 62
2
 10
1025.3616
 20
391.9179
 40
0.2450
 50
301.3667
 51
315.0000
  0
CIRCLE
  8
0_00
  6
CONTINUOUS
 62
2
 10
1025.3616
 20
391.9179
 40
0.5900
  0
ARC
  8
0_00
  6
CONTINUOUS
 62
4
 10
1131.1068
 20
384.4472
 40
0.2000
 50
4.3652
 51
90.0000
  0
ARC
  8
0_00
  6
CONTINUOUS
 62
4
 10
1131.1022
 20
385.8214
 40
0.1000
 50
4.3652
 51
90.0000
  0
ARC
  8
0_00
  6
CONTINUOUS
 62
4
 10
1126.2829
 20
384.4472
 40
0.2000
 50
90.0000
 51
175.6347
  0
ARC
  8
0_00
  6
CONTINUOUS
 62
4
 10
1126.2875
 20
385.8214
 40
0.1000
 50
90.0000
 51
175.6347
  0
CIRCLE
  8
0_00
  6
CONTINUOUS
 62
2
 10
1128.6948
 20
385.3882
 40
0.4000
  0
ARC
  8
0_00
  6
CONTINUOUS
 62
2
 10
1128.6948
 20
385.3882
 40
0.2000
 50
126.1800
 51
143.8200
  0
ARC
  8
0_00
  6
CONTINUOUS
 62
2
 10
1128.6948
 20
385.3882
 40
0.2000
 50
36.3200
 51
53.7932
  0
ARC
  8
0_00
  6
CONTINUOUS
 62
2
 10
1128.6948
 20
385.3882
 40
0.2000
 50
306.2942
 51
323.8200
  0
ARC
  8
0_00
  6
CONTINUOUS
 62
2
 10
1128.6948
 20
385.3882
 40
0.2000
 50
216.2068
 51
233.7932
  0
ARC
  8
0_00
  6
CONTINUOUS
 62
2
 10
1128.6948
 20
391.9179
 40
0.2450
 50
121.4556
 51
135.0000
  0
ARC
  8
0_00
  6
CONTINUOUS
 62
2
 10
1128.6948
 20
391.9179
 40
0.2450
 50
45.0000
 51
58.6333
  0
ARC
  8
0_00
  6
CONTINUOUS
 62
2
 10
1128.6948
 20
391.9179
 40
0.2450
 50
315.0000
 51
328.5444
  0
ARC
  8
0_00
  6
CONTINUOUS
 62
2
 10
1128.6948
 20
391.9179
 40
0.2450
 50
31.3667
 51
45.0000
  0
ARC
  8
0_00
  6
CONTINUOUS
 62
2
 10
1128.6948
 20
391.9179
 40
0.2450
 50
135.0000
 51
148.5444
  0
ARC
  8
0_00
  6
CONTINUOUS
 62
2
 10
1128.6948
 20
391.9179
 40
0.2450
 50
211.3667
 51
225.0000
  0
ARC
  8
0_00
  6
CONTINUOUS
 62
2
 10
1128.6948
 20
391.9179
 40
0.2450
 50
301.4556
 51
315.0000
  0
ARC
  8
0_00
  6
CONTINUOUS
 62
2
 10
1128.6948
 20
391.9179
 40
0.2450
 50
225.0000
 51
238.6333
  0
CIRCLE
  8
0_00
  6
CONTINUOUS
 62
2
 10
1128.6948
 20
391.9179
 40
0.5900
  0
ARC
  8
0_00
  6
CONTINUOUS
 62
4
 10
780.2643
 20
491.5576
 40
201.6000
 50
82.9521
 51
97.0479
  0
ARC
  8
0_00
  6
CONTINUOUS
 62
4
 10
756.2643
 20
685.6796
 40
6.0000
 50
97.0479
 51
180.0001
  0
ARC
  8
0_00
  6
CONTINUOUS
 62
4
 10
804.2643
 20
685.6796
 40
6.0000
 50
359.9999
 51
442.9521
  0
ARC
  8
14_0E
  6
CONTINUOUS
 62
4
 10
780.2643
 20
491.5576
 40
200.0000
 50
82.8930
 51
97.1069
  0
ARC
  8
14_0E
  6
CONTINUOUS
 62
4
 10
756.0643
 20
685.6548
 40
4.4000
 50
97.1069
 51
180.0000
  0
ARC
  8
14_0E
  6
CONTINUOUS
 62
4
 10
804.4643
 20
685.6548
 40
4.4000
 50
0.0000
 51
82.8930
  0
ARC
  8
0_00
  6
CONTINUOUS
 62
4
 10
809.5642
 20
646.8576
 40
0.7000
 50
179.9999
 51
359.9999
  0
ARC
  8
0_00
  6
CONTINUOUS
 62
4
 10
750.9638
 20
646.8576
 40
0.7000
 50
177.6832
 51
360.0001
  0
ARC
  8
0_00
  6
CONTINUOUS
 62
4
 10
805.5920
 20
649.7576
 40
0.6000
 50
270.0000
 51
388.8667
  0
ARC
  8
0_00
  6
CONTINUOUS
 62
4
 10
794.2766
 20
649.5576
 40
0.4000
 50
194.0363
 51
270.0000
  0
ARC
  8
0_00
  6
CONTINUOUS
 62
4
 10
793.3276
 20
650.4675
 40
0.3000
 50
14.0362
 51
87.5372
  0
ARC
  8
0_00
  6
CONTINUOUS
 62
4
 10
766.2520
 20
649.5576
 40
0.4000
 50
270.0000
 51
345.9637
  0
ARC
  8
0_00
  6
CONTINUOUS
 62
4
 10
767.2010
 20
650.4675
 40
0.3000
 50
92.4628
 51
165.9637
  0
ARC
  8
0_00
  6
CONTINUOUS
 62
4
 10
808.5143
 20
652.4094
 40
0.3000
 50
275.0000
 51
371.6000
  0
ARC
  8
0_00
  6
CONTINUOUS
 62
4
 10
807.7143
 20
651.6869
 40
0.3500
 50
95.0000
 51
185.0988
  0
ARC
  8
0_00
  6
CONTINUOUS
 62
4
 10
806.6643
 20
652.0467
 40
1.0000
 50
95.0000
 51
180.0000
  0
ARC
  8
0_00
  6
CONTINUOUS
 62
4
 10
807.3890
 20
653.4151
 40
0.3000
 50
275.0000
 51
371.6000
  0
ARC
  8
0_00
  6
CONTINUOUS
 62
4
 10
807.6622
 20
657.0576
 40
0.7000
 50
90.0000
 51
191.6000
  0
ARC
  8
0_00
  6
CONTINUOUS
 62
4
 10
809.3578
 20
651.8335
 40
2.0000
 50
185.0988
 51
249.7122
  0
ARC
  8
0_00
  6
CONTINUOUS
 62
4
 10
809.3578
 20
651.8335
 40
3.7000
 50
183.4043
 51
208.8667
  0
ARC
  8
0_00
  6
CONTINUOUS
 62
4
 10
754.9365
 20
649.7576
 40
0.6000
 50
151.1333
 51
270.0000
  0
ARC
  8
0_00
  6
CONTINUOUS
 62
4
 10
752.0143
 20
652.4094
 40
0.3000
 50
168.4000
 51
265.0000
  0
ARC
  8
0_00
  6
CONTINUOUS
 62
4
 10
752.8143
 20
651.6869
 40
0.3500
 50
354.9012
 51
445.0000
  0
ARC
  8
0_00
  6
CONTINUOUS
 62
4
 10
753.8643
 20
652.0467
 40
1.0000
 50
0.0000
 51
85.0000
  0
ARC
  8
0_00
  6
CONTINUOUS
 62
4
 10
753.1395
 20
653.4151
 40
0.3000
 50
168.4000
 51
265.0000
  0
ARC
  8
0_00
  6
CONTINUOUS
 62
4
 10
752.8663
 20
657.0576
 40
0.7000
 50
348.4000
 51
450.0000
  0
ARC
  8
0_00
  6
CONTINUOUS
 62
4
 10
751.1708
 20
651.8335
 40
2.0000
 50
290.2878
 51
354.9012
  0
ARC
  8
0_00
  6
CONTINUOUS
 62
4
 10
751.1708
 20
651.8335
 40
3.7000
 50
331.1333
 51
356.5957
  0
ARC
  8
0_00
  6
CONTINUOUS
 62
4
 10
808.4642
 20
657.4815
 40
0.4000
 50
0.0000
 51
90.0000
  0
ARC
  8
0_00
  6
CONTINUOUS
 62
4
 10
808.4642
 20
659.2814
 40
0.4000
 50
270.0000
 51
359.9999
  0
ARC
  8
0_00
  6
CONTINUOUS
 62
4
 10
805.8642
 20
658.3815
 40
0.5000
 50
90.0000
 51
180.0000
  0
ARC
  8
0_00
  6
CONTINUOUS
 62
4
 10
805.5642
 20
657.2814
 40
0.2000
 50
180.0000
 51
270.0000
  0
ARC
  8
0_00
  6
CONTINUOUS
 62
4
 10
805.5642
 20
657.6815
 40
0.6000
 50
270.0000
 51
360.0000
  0
ARC
  8
0_00
  6
CONTINUOUS
 62
4
 10
807.8143
 20
651.6382
 40
0.3500
 50
95.0000
 51
190.8317
  0
ARC
  8
14_0E
  6
CONTINUOUS
 62
4
 10
809.4348
 20
651.9483
 40
2.0000
 50
190.8317
 51
253.4226
  0
ARC
  8
0_00
  6
CONTINUOUS
 62
4
 10
808.4642
 20
652.4480
 40
0.4000
 50
275.0000
 51
371.4000
  0
ARC
  8
0_00
  6
CONTINUOUS
 62
4
 10
808.5857
 20
654.8815
 40
0.2000
 50
90.0000
 51
191.4000
  0
ARC
  8
0_00
  6
CONTINUOUS
 62
4
 10
752.0638
 20
657.4815
 40
0.4000
 50
90.0000
 51
180.0000
  0
ARC
  8
0_00
  6
CONTINUOUS
 62
4
 10
752.0638
 20
659.2814
 40
0.4000
 50
183.0566
 51
270.0000
  0
ARC
  8
0_00
  6
CONTINUOUS
 62
4
 10
754.6638
 20
658.3815
 40
0.5000
 50
0.0000
 51
90.0000
  0
ARC
  8
0_00
  6
CONTINUOUS
 62
4
 10
754.9638
 20
657.2814
 40
0.2000
 50
270.0000
 51
360.0000
  0
ARC
  8
0_00
  6
CONTINUOUS
 62
4
 10
754.9638
 20
657.6815
 40
0.6000
 50
180.0000
 51
270.0000
  0
ARC
  8
0_00
  6
CONTINUOUS
 62
4
 10
752.7137
 20
651.6382
 40
0.3500
 50
349.1683
 51
445.0000
  0
ARC
  8
14_0E
  6
CONTINUOUS
 62
4
 10
751.0931
 20
651.9483
 40
2.0000
 50
286.5774
 51
349.1683
  0
ARC
  8
0_00
  6
CONTINUOUS
 62
4
 10
752.0638
 20
652.4480
 40
0.4000
 50
168.6000
 51
265.0000
  0
ARC
  8
0_00
  6
CONTINUOUS
 62
4
 10
751.9424
 20
654.8815
 40
0.2000
 50
348.6000
 51
450.0000
  0
CIRCLE
  8
3_03
  6
CONTINUOUS
 62
2
 10
413.5518
 20
268.9873
 40
4.0000
  0
ARC
  8
3_03
  6
CONTINUOUS
 62
2
 10
413.5518
 20
268.9873
 40
2.0000
 50
36.1800
 51
53.8200
  0
ARC
  8
3_03
  6
CONTINUOUS
 62
2
 10
413.5518
 20
268.9873
 40
2.0000
 50
126.2068
 51
143.6799
  0
ARC
  8
3_03
  6
CONTINUOUS
 62
2
 10
413.5518
 20
268.9873
 40
2.0000
 50
216.1800
 51
233.7058
  0
ARC
  8
3_03
  6
CONTINUOUS
 62
2
 10
413.5518
 20
268.9873
 40
2.0000
 50
306.2068
 51
323.7932
  0
ARC
  8
0_00
  6
CONTINUOUS
 62
2
 10
413.5518
 20
334.2843
 40
2.4500
 50
45.0000
 51
58.5444
  0
ARC
  8
0_00
  6
CONTINUOUS
 62
2
 10
413.5518
 20
334.2843
 40
2.4500
 50
121.3667
 51
135.0000
  0
ARC
  8
0_00
  6
CONTINUOUS
 62
2
 10
413.5518
 20
334.2843
 40
2.4500
 50
211.4556
 51
225.0000
  0
ARC
  8
0_00
  6
CONTINUOUS
 62
2
 10
413.5518
 20
334.2843
 40
2.4500
 50
135.0000
 51
148.6333
  0
ARC
  8
0_00
  6
CONTINUOUS
 62
2
 10
413.5518
 20
334.2843
 40
2.4500
 50
31.4556
 51
45.0000
  0
ARC
  8
0_00
  6
CONTINUOUS
 62
2
 10
413.5518
 20
334.2843
 40
2.4500
 50
315.0000
 51
328.6334
  0
ARC
  8
0_00
  6
CONTINUOUS
 62
2
 10
413.5518
 20
334.2843
 40
2.4500
 50
225.0000
 51
238.5444
  0
ARC
  8
0_00
  6
CONTINUOUS
 62
2
 10
413.5518
 20
334.2843
 40
2.4500
 50
301.3667
 51
315.0000
  0
CIRCLE
  8
0_00
  6
CONTINUOUS
 62
2
 10
413.5518
 20
334.2843
 40
5.9000
  0
ARC
  8
0_00
  6
CONTINUOUS
 62
4
 10
389.4784
 20
273.5176
 40
1.0000
 50
90.0000
 51
175.6347
  0
ARC
  8
0_00
  6
CONTINUOUS
 62
4
 10
437.6252
 20
273.5176
 40
1.0000
 50
4.3652
 51
90.0000
  0
ARC
  8
0_00
  6
CONTINUOUS
 62
4
 10
437.9563
 20
256.0418
 40
2.0000
 50
4.3652
 51
90.0000
  0
ARC
  8
0_00
  6
CONTINUOUS
 62
4
 10
389.1473
 20
256.0418
 40
2.0000
 50
90.0000
 51
175.6347
  0
ARC
  8
12_0C
  6
CONTINUOUS
 62
2
 10
363.5518
 20
378.5237
 40
5.1605
 50
39.1846
 51
140.8154
  0
ARC
  8
0_00
  6
CONTINUOUS
 62
2
 10
506.0518
 20
656.1926
 40
12.4195
 50
252.4122
 51
287.5878
  0
ARC
  8
0_00
  6
CONTINUOUS
 62
2
 10
500.4227
 20
647.0957
 40
3.3226
 50
235.6160
 51
304.3840
  0
ARC
  8
0_00
  6
CONTINUOUS
 62
2
 10
511.6810
 20
647.0957
 40
3.3226
 50
235.6160
 51
304.3840
  0
ARC
  8
0_00
  6
CONTINUOUS
 62
2
 10
506.0518
 20
652.5811
 40
10.0765
 50
68.1346
 51
111.8654
  0
ARC
  8
0_00
  6
CONTINUOUS
 62
2
 10
511.6810
 20
658.6828
 40
3.7528
 50
60.0000
 51
120.0000
  0
ARC
  8
0_00
  6
CONTINUOUS
 62
2
 10
500.4227
 20
658.6828
 40
3.7528
 50
60.0000
 51
120.0000
  0
ARC
  8
0_00
  6
CONTINUOUS
 62
2
 10
536.0518
 20
693.6470
 40
2.9020
 50
210.5189
 51
329.4811
  0
ARC
  8
0_00
  6
CONTINUOUS
 62
2
 10
536.0518
 20
246.8737
 40
2.9020
 50
210.5189
 51
329.4811
  0
ARC
  8
0_00
  6
CONTINUOUS
 62
4
 10
693.2643
 20
246.2826
 40
3.0000
 50
88.0908
 51
180.0000
  0
ARC
  8
0_00
  6
CONTINUOUS
 62
4
 10
867.2643
 20
240.4826
 40
3.0000
 50
0.0000
 51
88.0908
  0
ARC
  8
0_00
  6
CONTINUOUS
 62
4
 10
693.2643
 20
187.3843
 40
3.0000
 50
180.0000
 51
270.0000
  0
ARC
  8
0_00
  6
CONTINUOUS
 62
4
 10
867.2643
 20
186.3843
 40
3.0000
 50
270.0000
 51
360.0000
  0
ARC
  8
0_00
  6
CONTINUOUS
 62
4
 10
693.2643
 20
187.3843
 40
1.5000
 50
180.0000
 51
268.7569
  0
ARC
  8
0_00
  6
CONTINUOUS
 62
4
 10
693.2643
 20
246.2826
 40
1.5000
 50
88.0908
 51
180.0000
  0
ARC
  8
0_00
  6
CONTINUOUS
 62
4
 10
867.2643
 20
240.4826
 40
1.5000
 50
0.0000
 51
88.0908
  0
ARC
  8
0_00
  6
CONTINUOUS
 62
4
 10
867.2643
 20
186.3843
 40
1.5000
 50
271.2431
 51
360.0000
  0
ARC
  8
0_00
  6
CONTINUOUS
 62
4
 10
697.0139
 20
185.3318
 40
0.7500
 50
273.0000
 51
453.0000
  0
ARC
  8
0_00
  6
CONTINUOUS
 62
4
 10
863.5147
 20
184.3318
 40
0.7500
 50
87.0000
 51
267.0000
  0
ARC
  8
0_00
  6
CONTINUOUS
 62
6
 10
694.7643
 20
244.9635
 40
2.8000
 50
88.0908
 51
180.0000
  0
ARC
  8
0_00
  6
CONTINUOUS
 62
2
 10
694.7643
 20
244.9635
 40
2.0000
 50
88.0908
 51
180.0000
  0
ARC
  8
0_00
  6
CONTINUOUS
 62
2
 10
865.7643
 20
239.2002
 40
2.0000
 50
0.0000
 51
88.0908
  0
ARC
  8
0_00
  6
CONTINUOUS
 62
6
 10
865.7643
 20
239.2002
 40
2.8000
 50
0.0000
 51
88.0908
  0
ARC
  8
2_02
  6
CONTINUOUS
 62
2
 10
694.7643
 20
244.9635
 40
0.5000
 50
88.0908
 51
180.0000
  0
ARC
  8
2_02
  6
CONTINUOUS
 62
2
 10
865.7643
 20
239.2002
 40
0.5000
 50
0.0000
 51
88.0908
  0
ARC
  8
0_00
  6
CONTINUOUS
 62
2
 10
524.5518
 20
241.9843
 40
2.0000
 50
0.0000
 51
90.0000
  0
ARC
  8
0_00
  6
CONTINUOUS
 62
2
 10
529.0257
 20
255.9104
 40
9.8553
 50
284.8517
 51
345.1483
  0
ARC
  8
0_00
  6
CONTINUOUS
 62
2
 10
529.7281
 20
701.9813
 40
9.0102
 50
281.6774
 51
348.3226
  0
ARC
  8
0_00
  6
CONTINUOUS
 62
2
 10
756.2643
 20
685.6796
 40
13.0000
 50
97.0479
 51
180.0001
  0
ARC
  8
0_00
  6
CONTINUOUS
 62
2
 10
780.2643
 20
491.5576
 40
208.6000
 50
82.9521
 51
97.0479
  0
ARC
  8
0_00
  6
CONTINUOUS
 62
2
 10
804.2643
 20
685.6796
 40
13.0000
 50
0.0000
 51
82.9521
  0
ARC
  8
0_00
  6
CONTINUOUS
 62
2
 10
863.2643
 20
243.6176
 40
7.0000
 50
0.0000
 51
88.0908
  0
ARC
  8
0_00
  6
CONTINUOUS
 62
2
 10
697.2643
 20
249.1509
 40
7.0000
 50
88.0908
 51
180.0000
  0
ARC
  8
0_00
  6
CONTINUOUS
 62
2
 10
780.2643
 20
656.1926
 40
12.4195
 50
252.4122
 51
287.5878
  0
ARC
  8
0_00
  6
CONTINUOUS
 62
2
 10
774.6352
 20
647.0957
 40
3.3226
 50
235.6160
 51
304.3840
  0
ARC
  8
0_00
  6
CONTINUOUS
 62
2
 10
785.8934
 20
647.0957
 40
3.3226
 50
235.6160
 51
304.3840
  0
ARC
  8
0_00
  6
CONTINUOUS
 62
2
 10
780.2643
 20
652.5811
 40
10.0765
 50
68.1346
 51
111.8654
  0
ARC
  8
0_00
  6
CONTINUOUS
 62
2
 10
785.8934
 20
658.6828
 40
3.7528
 50
60.0000
 51
120.0000
  0
ARC
  8
0_00
  6
CONTINUOUS
 62
2
 10
774.6352
 20
658.6828
 40
3.7528
 50
60.0000
 51
120.0000
  0
ARC
  8
0_00
  6
CONTINUOUS
 62
4
 10
309.5518
 20
517.7310
 40
6.0000
 50
165.0000
 51
180.0000
  0
ARC
  8
0_00
  6
CONTINUOUS
 62
4
 10
308.1314
 20
524.0209
 40
3.0000
 50
90.0000
 51
165.0000
  0
ARC
  8
0_00
  6
CONTINUOUS
 62
4
 10
318.9723
 20
524.0209
 40
3.0000
 50
15.0000
 51
90.0000
  0
ARC
  8
0_00
  6
CONTINUOUS
 62
4
 10
304.5518
 20
515.7084
 40
1.0000
 50
180.0000
 51
208.3576
  0
ARC
  8
0_00
  6
CONTINUOUS
 62
4
 10
302.3518
 20
514.5209
 40
1.5000
 50
331.6424
 51
388.3576
  0
ARC
  8
0_00
  6
CONTINUOUS
 62
4
 10
318.9723
 20
524.0209
 40
2.3000
 50
15.0000
 51
90.0000
  0
ARC
  8
0_00
  6
CONTINUOUS
 62
4
 10
308.1314
 20
524.0209
 40
2.3000
 50
90.0000
 51
165.0000
  0
ARC
  8
0_00
  6
CONTINUOUS
 62
4
 10
309.5518
 20
517.7310
 40
5.3000
 50
165.0000
 51
180.0000
  0
ARC
  8
0_00
  6
CONTINUOUS
 62
4
 10
309.5518
 20
511.3109
 40
6.0000
 50
180.0000
 51
195.0000
  0
ARC
  8
0_00
  6
CONTINUOUS
 62
4
 10
308.1314
 20
505.0210
 40
3.0000
 50
195.0000
 51
270.0000
  0
ARC
  8
0_00
  6
CONTINUOUS
 62
4
 10
318.9723
 20
505.0210
 40
3.0000
 50
270.0000
 51
345.0000
  0
ARC
  8
0_00
  6
CONTINUOUS
 62
4
 10
304.5518
 20
513.3335
 40
1.0000
 50
151.6424
 51
180.0000
  0
ARC
  8
0_00
  6
CONTINUOUS
 62
4
 10
302.3518
 20
514.5209
 40
1.5000
 50
331.6424
 51
388.3576
  0
ARC
  8
0_00
  6
CONTINUOUS
 62
4
 10
318.9723
 20
505.0210
 40
2.3000
 50
270.0000
 51
345.0000
  0
ARC
  8
0_00
  6
CONTINUOUS
 62
4
 10
308.1314
 20
505.0210
 40
2.3000
 50
195.0000
 51
270.0000
  0
ARC
  8
0_00
  6
CONTINUOUS
 62
4
 10
309.5518
 20
511.3109
 40
5.3000
 50
180.0000
 51
195.0000
  0
ARC
  8
0_00
  6
CONTINUOUS
 62
4
 10
302.3518
 20
514.5209
 40
2.2000
 50
329.7274
 51
390.2726
  0
ARC
  8
0_00
  6
CONTINUOUS
 62
4
 10
322.5518
 20
515.7084
 40
1.0000
 50
331.6424
 51
360.0000
  0
ARC
  8
0_00
  6
CONTINUOUS
 62
4
 10
317.5518
 20
517.7310
 40
6.0000
 50
0.0000
 51
15.0000
  0
ARC
  8
0_00
  6
CONTINUOUS
 62
4
 10
324.7518
 20
514.5209
 40
1.5000
 50
151.6424
 51
208.3576
  0
ARC
  8
0_00
  6
CONTINUOUS
 62
4
 10
320.0518
 20
514.5209
 40
2.1500
 50
68.1552
 51
111.8448
  0
ARC
  8
0_00
  6
CONTINUOUS
 62
4
 10
320.0518
 20
514.5209
 40
1.7000
 50
118.0725
 51
142.6303
  0
ARC
  8
0_00
  6
CONTINUOUS
 62
4
 10
320.0518
 20
514.5209
 40
1.7000
 50
38.6269
 51
61.9275
  0
ARC
  8
0_00
  6
CONTINUOUS
 62
4
 10
321.6143
 20
515.7694
 40
0.3000
 50
218.6269
 51
300.0000
  0
ARC
  8
0_00
  6
CONTINUOUS
 62
4
 10
320.0518
 20
514.5209
 40
3.2000
 50
51.5653
 51
90.0000
  0
ARC
  8
0_00
  6
CONTINUOUS
 62
4
 10
320.0518
 20
515.9210
 40
1.8000
 50
90.0000
 51
180.0000
  0
ARC
  8
0_00
  6
CONTINUOUS
 62
4
 10
322.3518
 20
517.4192
 40
0.5000
 50
231.5654
 51
360.0000
  0
ARC
  8
0_00
  6
CONTINUOUS
 62
4
 10
318.5020
 20
515.7046
 40
0.2501
 50
180.0000
 51
322.6303
  0
ARC
  8
0_00
  6
CONTINUOUS
 62
4
 10
322.2725
 20
515.4566
 40
0.3000
 50
339.3231
 51
480.0000
  0
ARC
  8
0_00
  6
CONTINUOUS
 62
4
 10
322.5518
 20
513.3335
 40
1.0000
 50
0.0000
 51
28.3576
  0
ARC
  8
0_00
  6
CONTINUOUS
 62
4
 10
317.5518
 20
511.3109
 40
6.0000
 50
345.0000
 51
360.0000
  0
ARC
  8
0_00
  6
CONTINUOUS
 62
4
 10
322.2725
 20
513.5852
 40
0.3000
 50
240.0000
 51
380.6769
  0
ARC
  8
0_00
  6
CONTINUOUS
 62
4
 10
317.5518
 20
517.7310
 40
5.3000
 50
0.0000
 51
15.0000
  0
ARC
  8
0_00
  6
CONTINUOUS
 62
4
 10
322.3518
 20
511.6227
 40
0.5000
 50
0.0000
 51
128.4346
  0
ARC
  8
0_00
  6
CONTINUOUS
 62
4
 10
317.5518
 20
511.3109
 40
5.3000
 50
345.0000
 51
360.0000
  0
ARC
  8
0_00
  6
CONTINUOUS
 62
4
 10
324.7518
 20
514.5209
 40
2.3500
 50
159.3231
 51
200.6769
  0
ARC
  8
0_00
  6
CONTINUOUS
 62
4
 10
320.0518
 20
514.5209
 40
2.1500
 50
248.1552
 51
291.8448
  0
ARC
  8
0_00
  6
CONTINUOUS
 62
4
 10
320.0518
 20
514.5209
 40
1.7000
 50
217.3697
 51
241.9275
  0
ARC
  8
0_00
  6
CONTINUOUS
 62
4
 10
320.0518
 20
514.5209
 40
1.7000
 50
298.0725
 51
321.3731
  0
ARC
  8
0_00
  6
CONTINUOUS
 62
4
 10
321.6143
 20
513.2725
 40
0.3000
 50
60.0000
 51
141.3731
  0
ARC
  8
0_00
  6
CONTINUOUS
 62
4
 10
320.0518
 20
514.5209
 40
3.2000
 50
270.0000
 51
308.4347
  0
ARC
  8
0_00
  6
CONTINUOUS
 62
4
 10
320.0518
 20
513.1210
 40
1.8000
 50
180.0000
 51
270.0000
  0
ARC
  8
0_00
  6
CONTINUOUS
 62
4
 10
318.5020
 20
513.3373
 40
0.2501
 50
37.3697
 51
180.0000
  0
ARC
  8
0_00
  6
CONTINUOUS
 62
4
 10
396.0518
 20
492.0209
 40
2.5000
 50
180.0000
 51
270.0000
  0
ARC
  8
0_00
  6
CONTINUOUS
 62
4
 10
397.0518
 20
496.5209
 40
1.7000
 50
298.0725
 51
321.6204
  0
ARC
  8
0_00
  6
CONTINUOUS
 62
4
 10
397.0518
 20
496.5209
 40
3.2500
 50
243.0423
 51
298.1446
  0
ARC
  8
0_00
  6
CONTINUOUS
 62
4
 10
395.3518
 20
493.1784
 40
0.5000
 50
63.0423
 51
180.0000
  0
ARC
  8
0_00
  6
CONTINUOUS
 62
4
 10
398.3018
 20
494.1843
 40
0.6000
 50
298.1446
 51
360.0000
  0
ARC
  8
0_00
  6
CONTINUOUS
 62
4
 10
397.0518
 20
496.5209
 40
1.7000
 50
210.0000
 51
241.9275
  0
ARC
  8
0_00
  6
CONTINUOUS
 62
4
 10
431.0518
 20
492.0209
 40
2.5000
 50
270.0000
 51
360.0000
  0
ARC
  8
0_00
  6
CONTINUOUS
 62
4
 10
398.6118
 20
495.2854
 40
0.2900
 50
0.0000
 51
141.6204
  0
ARC
  8
0_00
  6
CONTINUOUS
 62
4
 10
395.2018
 20
495.7993
 40
0.3000
 50
180.0000
 51
300.0000
  0
ARC
  8
0_00
  6
CONTINUOUS
 62
4
 10
397.0518
 20
496.5209
 40
2.1500
 50
248.1552
 51
291.8448
  0
ARC
  8
0_00
  6
CONTINUOUS
 62
4
 10
397.0518
 20
496.5209
 40
1.7000
 50
38.3796
 51
61.9275
  0
ARC
  8
0_00
  6
CONTINUOUS
 62
4
 10
397.0518
 20
496.5209
 40
3.2500
 50
61.8554
 51
118.6854
  0
ARC
  8
0_00
  6
CONTINUOUS
 62
4
 10
398.3018
 20
498.8576
 40
0.6000
 50
0.0000
 51
61.8554
  0
ARC
  8
0_00
  6
CONTINUOUS
 62
4
 10
395.2518
 20
499.8107
 40
0.5000
 50
180.0000
 51
298.6854
  0
ARC
  8
0_00
  6
CONTINUOUS
 62
4
 10
397.0518
 20
496.5209
 40
1.7000
 50
118.0725
 51
150.0000
  0
ARC
  8
0_00
  6
CONTINUOUS
 62
4
 10
398.6118
 20
497.7565
 40
0.2900
 50
218.3796
 51
360.0000
  0
ARC
  8
0_00
  6
CONTINUOUS
 62
4
 10
395.2018
 20
497.2427
 40
0.3000
 50
60.0000
 51
180.0000
  0
ARC
  8
0_00
  6
CONTINUOUS
 62
4
 10
397.0518
 20
496.5209
 40
2.1500
 50
68.1552
 51
111.8448
  0
ARC
  8
0_00
  6
CONTINUOUS
 62
4
 10
430.0518
 20
496.5209
 40
1.7000
 50
218.3796
 51
241.9275
  0
ARC
  8
0_00
  6
CONTINUOUS
 62
4
 10
430.0518
 20
496.5209
 40
3.2500
 50
241.8554
 51
296.9578
  0
ARC
  8
0_00
  6
CONTINUOUS
 62
4
 10
428.8018
 20
494.1843
 40
0.6000
 50
180.0000
 51
241.8554
  0
ARC
  8
0_00
  6
CONTINUOUS
 62
4
 10
430.0518
 20
496.5209
 40
1.7000
 50
298.0725
 51
330.0000
  0
ARC
  8
0_00
  6
CONTINUOUS
 62
4
 10
428.4918
 20
495.2854
 40
0.2900
 50
38.3796
 51
180.0000
  0
ARC
  8
0_00
  6
CONTINUOUS
 62
4
 10
431.9018
 20
495.7993
 40
0.3000
 50
240.0000
 51
360.0000
  0
ARC
  8
0_00
  6
CONTINUOUS
 62
4
 10
430.0518
 20
496.5209
 40
2.1500
 50
248.1552
 51
291.8448
  0
ARC
  8
0_00
  6
CONTINUOUS
 62
4
 10
430.0518
 20
496.5209
 40
1.7000
 50
118.0725
 51
141.6204
  0
ARC
  8
0_00
  6
CONTINUOUS
 62
4
 10
430.0518
 20
496.5209
 40
3.2500
 50
61.3146
 51
118.1446
  0
ARC
  8
0_00
  6
CONTINUOUS
 62
4
 10
428.8018
 20
498.8576
 40
0.6000
 50
118.1446
 51
180.0000
  0
ARC
  8
0_00
  6
CONTINUOUS
 62
4
 10
431.8518
 20
499.8107
 40
0.5000
 50
241.3146
 51
360.0000
  0
ARC
  8
0_00
  6
CONTINUOUS
 62
4
 10
430.0518
 20
496.5209
 40
1.7000
 50
30.0000
 51
61.9275
  0
ARC
  8
0_00
  6
CONTINUOUS
 62
4
 10
428.4918
 20
497.7565
 40
0.2900
 50
180.0000
 51
321.6204
  0
ARC
  8
0_00
  6
CONTINUOUS
 62
4
 10
431.9018
 20
497.2427
 40
0.3000
 50
0.0000
 51
120.0000
  0
ARC
  8
0_00
  6
CONTINUOUS
 62
4
 10
430.0518
 20
496.5209
 40
2.1500
 50
68.1552
 51
111.8448
  0
ARC
  8
0_00
  6
CONTINUOUS
 62
4
 10
395.3518
 20
492.0209
 40
0.5000
 50
180.0000
 51
270.0000
  0
ARC
  8
0_00
  6
CONTINUOUS
 62
4
 10
431.7518
 20
493.1784
 40
0.5000
 50
0.0000
 51
116.9577
  0
ARC
  8
0_00
  6
CONTINUOUS
 62
4
 10
431.7518
 20
492.0209
 40
0.5000
 50
270.0000
 51
360.0000
  0
ARC
  8
0_00
  6
CONTINUOUS
 62
4
 10
396.0518
 20
537.0209
 40
2.5000
 50
90.0000
 51
180.0000
  0
ARC
  8
0_00
  6
CONTINUOUS
 62
4
 10
397.0518
 20
532.5209
 40
1.7000
 50
38.3796
 51
61.9275
  0
ARC
  8
0_00
  6
CONTINUOUS
 62
4
 10
397.0518
 20
532.5209
 40
3.2500
 50
61.8554
 51
116.9577
  0
ARC
  8
0_00
  6
CONTINUOUS
 62
4
 10
395.3518
 20
535.8635
 40
0.5000
 50
180.0000
 51
296.9578
  0
ARC
  8
0_00
  6
CONTINUOUS
 62
4
 10
398.3018
 20
534.8576
 40
0.6000
 50
0.0000
 51
61.8554
  0
ARC
  8
0_00
  6
CONTINUOUS
 62
4
 10
397.0518
 20
532.5209
 40
1.7000
 50
118.0725
 51
150.0000
  0
ARC
  8
0_00
  6
CONTINUOUS
 62
4
 10
431.0518
 20
537.0209
 40
2.5000
 50
0.0000
 51
90.0000
  0
ARC
  8
0_00
  6
CONTINUOUS
 62
4
 10
398.6118
 20
533.7565
 40
0.2900
 50
218.3796
 51
360.0000
  0
ARC
  8
0_00
  6
CONTINUOUS
 62
4
 10
395.2018
 20
533.2426
 40
0.3000
 50
60.0000
 51
180.0000
  0
ARC
  8
0_00
  6
CONTINUOUS
 62
4
 10
397.0518
 20
532.5209
 40
2.1500
 50
68.1552
 51
111.8448
  0
ARC
  8
0_00
  6
CONTINUOUS
 62
4
 10
397.0518
 20
532.5209
 40
1.7000
 50
298.0725
 51
321.6204
  0
ARC
  8
0_00
  6
CONTINUOUS
 62
4
 10
397.0518
 20
532.5209
 40
3.2500
 50
241.3146
 51
298.1446
  0
ARC
  8
0_00
  6
CONTINUOUS
 62
4
 10
398.3018
 20
530.1843
 40
0.6000
 50
298.1446
 51
360.0000
  0
ARC
  8
0_00
  6
CONTINUOUS
 62
4
 10
395.2518
 20
529.2312
 40
0.5000
 50
61.3146
 51
180.0000
  0
ARC
  8
0_00
  6
CONTINUOUS
 62
4
 10
397.0518
 20
532.5209
 40
1.7000
 50
210.0000
 51
241.9275
  0
ARC
  8
0_00
  6
CONTINUOUS
 62
4
 10
398.6118
 20
531.2854
 40
0.2900
 50
0.0000
 51
141.6204
  0
ARC
  8
0_00
  6
CONTINUOUS
 62
4
 10
395.2018
 20
531.7993
 40
0.3000
 50
180.0000
 51
300.0000
  0
ARC
  8
0_00
  6
CONTINUOUS
 62
4
 10
397.0518
 20
532.5209
 40
2.1500
 50
248.1552
 51
291.8448
  0
ARC
  8
0_00
  6
CONTINUOUS
 62
4
 10
430.0518
 20
532.5209
 40
1.7000
 50
118.0725
 51
141.6204
  0
ARC
  8
0_00
  6
CONTINUOUS
 62
4
 10
430.0518
 20
532.5209
 40
3.2500
 50
63.0423
 51
118.1446
  0
ARC
  8
0_00
  6
CONTINUOUS
 62
4
 10
428.8018
 20
534.8576
 40
0.6000
 50
118.1446
 51
180.0000
  0
ARC
  8
0_00
  6
CONTINUOUS
 62
4
 10
430.0518
 20
532.5209
 40
1.7000
 50
30.0000
 51
61.9275
  0
ARC
  8
0_00
  6
CONTINUOUS
 62
4
 10
428.4918
 20
533.7565
 40
0.2900
 50
180.0000
 51
321.6204
  0
ARC
  8
0_00
  6
CONTINUOUS
 62
4
 10
431.9018
 20
533.2426
 40
0.3000
 50
0.0000
 51
120.0000
  0
ARC
  8
0_00
  6
CONTINUOUS
 62
4
 10
430.0518
 20
532.5209
 40
2.1500
 50
68.1552
 51
111.8448
  0
ARC
  8
0_00
  6
CONTINUOUS
 62
4
 10
430.0518
 20
532.5209
 40
1.7000
 50
218.3796
 51
241.9275
  0
ARC
  8
0_00
  6
CONTINUOUS
 62
4
 10
430.0518
 20
532.5209
 40
3.2500
 50
241.8554
 51
298.6854
  0
ARC
  8
0_00
  6
CONTINUOUS
 62
4
 10
428.8018
 20
530.1843
 40
0.6000
 50
180.0000
 51
241.8554
  0
ARC
  8
0_00
  6
CONTINUOUS
 62
4
 10
431.8518
 20
529.2312
 40
0.5000
 50
0.0000
 51
118.6854
  0
ARC
  8
0_00
  6
CONTINUOUS
 62
4
 10
430.0518
 20
532.5209
 40
1.7000
 50
298.0725
 51
330.0000
  0
ARC
  8
0_00
  6
CONTINUOUS
 62
4
 10
428.4918
 20
531.2854
 40
0.2900
 50
38.3796
 51
180.0000
  0
ARC
  8
0_00
  6
CONTINUOUS
 62
4
 10
431.9018
 20
531.7993
 40
0.3000
 50
240.0000
 51
360.0000
  0
ARC
  8
0_00
  6
CONTINUOUS
 62
4
 10
430.0518
 20
532.5209
 40
2.1500
 50
248.1552
 51
291.8448
  0
ARC
  8
0_00
  6
CONTINUOUS
 62
4
 10
395.3518
 20
537.0209
 40
0.5000
 50
90.0000
 51
180.0000
  0
ARC
  8
0_00
  6
CONTINUOUS
 62
4
 10
431.7518
 20
535.8635
 40
0.5000
 50
243.0423
 51
360.0000
  0
ARC
  8
0_00
  6
CONTINUOUS
 62
4
 10
431.7518
 20
537.0209
 40
0.5000
 50
0.0000
 51
90.0000
  0
ARC
  8
0_00
  6
CONTINUOUS
 62
2
 10
780.2643
 20
669.6576
 40
8.5000
 50
304.5603
 51
499.8808
  0
ARC
  8
0_00
  6
CONTINUOUS
 62
2
 10
780.2643
 20
669.6576
 40
7.0000
 50
304.8499
 51
595.1501
  0
ARC
  8
0_00
  6
CONTINUOUS
 62
2
 10
780.2643
 20
669.6576
 40
8.5000
 50
139.8808
 51
235.4397
  0
ARC
  8
0_00
  6
CONTINUOUS
 62
2
 10
780.2643
 20
669.6576
 40
3.1000
 50
45.0000
 51
58.5444
  0
ARC
  8
0_00
  6
CONTINUOUS
 62
2
 10
780.2643
 20
669.6576
 40
3.1000
 50
121.3667
 51
135.0000
  0
ARC
  8
0_00
  6
CONTINUOUS
 62
2
 10
780.2643
 20
669.6576
 40
3.1000
 50
135.0000
 51
148.6333
  0
ARC
  8
0_00
  6
CONTINUOUS
 62
2
 10
780.2643
 20
669.6576
 40
3.1000
 50
31.4556
 51
45.0000
  0
ARC
  8
0_00
  6
CONTINUOUS
 62
4
 10
1058.7810
 20
659.3016
 40
0.4000
 50
194.0363
 51
270.0000
  0
ARC
  8
0_00
  6
CONTINUOUS
 62
4
 10
1057.8321
 20
660.2115
 40
0.3000
 50
14.0362
 51
87.5372
  0
ARC
  8
0_00
  6
CONTINUOUS
 62
4
 10
1030.7563
 20
659.3016
 40
0.4000
 50
270.0000
 51
345.9637
  0
ARC
  8
0_00
  6
CONTINUOUS
 62
4
 10
1031.7054
 20
660.2115
 40
0.3000
 50
92.4628
 51
165.9637
  0
ARC
  8
0_00
  6
CONTINUOUS
 62
4
 10
1058.7810
 20
659.3016
 40
0.4000
 50
194.0363
 51
270.0000
  0
ARC
  8
0_00
  6
CONTINUOUS
 62
4
 10
1057.8321
 20
660.2115
 40
0.3000
 50
14.0362
 51
87.5372
  0
ARC
  8
0_00
  6
CONTINUOUS
 62
4
 10
1070.0964
 20
659.5015
 40
0.6000
 50
270.0000
 51
388.8667
  0
ARC
  8
0_00
  6
CONTINUOUS
 62
4
 10
1073.0187
 20
662.1533
 40
0.3000
 50
275.0000
 51
371.6000
  0
ARC
  8
0_00
  6
CONTINUOUS
 62
4
 10
1072.2188
 20
661.4308
 40
0.3500
 50
95.0000
 51
185.0988
  0
ARC
  8
0_00
  6
CONTINUOUS
 62
4
 10
1071.1687
 20
661.7907
 40
1.0000
 50
95.0000
 51
180.0000
  0
ARC
  8
0_00
  6
CONTINUOUS
 62
4
 10
1071.8935
 20
663.1590
 40
0.3000
 50
275.0000
 51
371.6000
  0
ARC
  8
0_00
  6
CONTINUOUS
 62
4
 10
1072.1666
 20
666.8016
 40
0.7000
 50
90.0000
 51
191.6000
  0
ARC
  8
0_00
  6
CONTINUOUS
 62
4
 10
1073.8622
 20
661.5775
 40
2.0000
 50
185.0988
 51
249.7122
  0
ARC
  8
0_00
  6
CONTINUOUS
 62
4
 10
1073.8622
 20
661.5775
 40
3.7000
 50
183.4043
 51
208.8667
  0
ARC
  8
0_00
  6
CONTINUOUS
 62
4
 10
1075.2692
 20
658.4404
 40
0.5000
 50
179.9995
 51
296.3368
  0
ARC
  8
0_00
  6
CONTINUOUS
 62
4
 10
1072.9693
 20
667.2481
 40
0.4000
 50
359.4403
 51
449.9995
  0
ARC
  8
0_00
  6
CONTINUOUS
 62
4
 10
1070.0693
 20
667.0481
 40
0.2000
 50
179.9995
 51
269.9996
  0
ARC
  8
0_00
  6
CONTINUOUS
 62
4
 10
1070.0693
 20
667.4481
 40
0.6000
 50
269.9996
 51
359.9996
  0
ARC
  8
0_00
  6
CONTINUOUS
 62
4
 10
1072.3192
 20
661.4049
 40
0.3500
 50
94.9995
 51
190.8312
  0
ARC
  8
14_0E
  6
CONTINUOUS
 62
4
 10
1073.9398
 20
661.7150
 40
2.0000
 50
190.8312
 51
253.4221
  0
ARC
  8
0_00
  6
CONTINUOUS
 62
4
 10
1072.9693
 20
662.2147
 40
0.4000
 50
274.9996
 51
371.3995
  0
ARC
  8
0_00
  6
CONTINUOUS
 62
4
 10
1073.0907
 20
664.6481
 40
0.2000
 50
89.9995
 51
191.3996
  0
ARC
  8
0_00
  6
CONTINUOUS
 62
4
 10
1070.8693
 20
667.9481
 40
1.0000
 50
89.9995
 51
179.9995
  0
ARC
  8
0_00
  6
CONTINUOUS
 62
4
 10
1073.4692
 20
667.6481
 40
1.3000
 50
359.9996
 51
449.9995
  0
ARC
  8
0_00
  6
CONTINUOUS
 62
4
 10
1044.7687
 20
633.1576
 40
60.0000
 50
56.5252
 51
123.4747
  0
ARC
  8
0_00
  6
CONTINUOUS
 62
4
 10
1069.3686
 20
670.3597
 40
15.4000
 50
292.7488
 51
416.5252
  0
ARC
  8
0_00
  6
CONTINUOUS
 62
4
 10
1074.7787
 20
657.4576
 40
1.4095
 50
179.9994
 51
292.7488
  0
ARC
  8
0_00
  6
CONTINUOUS
 62
4
 10
1069.3686
 20
670.3597
 40
13.8000
 50
296.3368
 51
416.5252
  0
ARC
  8
0_00
  6
CONTINUOUS
 62
4
 10
1044.7687
 20
633.1576
 40
58.4000
 50
56.5252
 51
123.4747
  0
ARC
  8
0_00
  6
CONTINUOUS
 62
4
 10
1030.7563
 20
659.3016
 40
0.4000
 50
270.0000
 51
345.9637
  0
ARC
  8
0_00
  6
CONTINUOUS
 62
4
 10
1031.7054
 20
660.2115
 40
0.3000
 50
92.4628
 51
165.9637
  0
ARC
  8
0_00
  6
CONTINUOUS
 62
4
 10
1019.4409
 20
659.5015
 40
0.6000
 50
151.1333
 51
270.0000
  0
ARC
  8
0_00
  6
CONTINUOUS
 62
4
 10
1016.5187
 20
662.1533
 40
0.3000
 50
168.4000
 51
265.0000
  0
ARC
  8
0_00
  6
CONTINUOUS
 62
4
 10
1017.3188
 20
661.4308
 40
0.3500
 50
354.9012
 51
445.0000
  0
ARC
  8
0_00
  6
CONTINUOUS
 62
4
 10
1018.3686
 20
661.7907
 40
1.0000
 50
0.0000
 51
85.0000
  0
ARC
  8
0_00
  6
CONTINUOUS
 62
4
 10
1017.6439
 20
663.1590
 40
0.3000
 50
168.4000
 51
265.0000
  0
ARC
  8
0_00
  6
CONTINUOUS
 62
4
 10
1017.3707
 20
666.8016
 40
0.7000
 50
348.4000
 51
450.0000
  0
ARC
  8
0_00
  6
CONTINUOUS
 62
4
 10
1015.6752
 20
661.5775
 40
2.0000
 50
290.2878
 51
354.9012
  0
ARC
  8
0_00
  6
CONTINUOUS
 62
4
 10
1015.6752
 20
661.5775
 40
3.7000
 50
331.1333
 51
356.5957
  0
ARC
  8
0_00
  6
CONTINUOUS
 62
4
 10
1014.2682
 20
658.4404
 40
0.5000
 50
243.6632
 51
360.0004
  0
ARC
  8
0_00
  6
CONTINUOUS
 62
4
 10
1016.5681
 20
667.2481
 40
0.4000
 50
89.9999
 51
180.5597
  0
ARC
  8
0_00
  6
CONTINUOUS
 62
4
 10
1019.4681
 20
667.0481
 40
0.2000
 50
270.0005
 51
360.0004
  0
ARC
  8
0_00
  6
CONTINUOUS
 62
4
 10
1019.4681
 20
667.4481
 40
0.6000
 50
180.0005
 51
270.0005
  0
ARC
  8
0_00
  6
CONTINUOUS
 62
4
 10
1017.2182
 20
661.4049
 40
0.3500
 50
349.1688
 51
445.0004
  0
ARC
  8
14_0E
  6
CONTINUOUS
 62
4
 10
1015.5975
 20
661.7150
 40
2.0000
 50
286.5779
 51
349.1688
  0
ARC
  8
0_00
  6
CONTINUOUS
 62
4
 10
1016.5681
 20
662.2147
 40
0.4000
 50
168.6004
 51
265.0005
  0
ARC
  8
0_00
  6
CONTINUOUS
 62
4
 10
1016.4467
 20
664.6481
 40
0.2000
 50
348.6005
 51
450.0004
  0
ARC
  8
0_00
  6
CONTINUOUS
 62
4
 10
1018.6681
 20
667.9481
 40
1.0000
 50
0.0004
 51
90.0004
  0
ARC
  8
0_00
  6
CONTINUOUS
 62
4
 10
1016.0681
 20
667.6481
 40
1.3000
 50
90.0004
 51
180.0005
  0
ARC
  8
0_00
  6
CONTINUOUS
 62
4
 10
1020.1686
 20
670.3597
 40
15.4000
 50
123.4747
 51
247.2512
  0
ARC
  8
0_00
  6
CONTINUOUS
 62
4
 10
1014.7586
 20
657.4576
 40
1.4095
 50
247.2512
 51
360.0006
  0
ARC
  8
0_00
  6
CONTINUOUS
 62
4
 10
1020.1686
 20
670.3597
 40
13.8000
 50
123.4747
 51
243.6632
  0
ARC
  8
0_00
  6
CONTINUOUS
 62
2
 10
1044.7687
 20
663.3201
 40
10.0765
 50
68.1346
 51
111.8654
  0
ARC
  8
0_00
  6
CONTINUOUS
 62
2
 10
1050.3979
 20
669.4218
 40
3.7528
 50
60.0000
 51
120.0000
  0
ARC
  8
0_00
  6
CONTINUOUS
 62
2
 10
1039.1396
 20
669.4218
 40
3.7528
 50
60.0000
 51
120.0000
  0
ARC
  8
0_00
  6
CONTINUOUS
 62
2
 10
1044.7152
 20
679.4133
 40
8.5000
 50
314.9416
 51
585.0584
  0
ARC
  8
0_00
  6
CONTINUOUS
 62
2
 10
1044.7687
 20
665.9366
 40
12.4195
 50
252.4122
 51
287.5878
  0
ARC
  8
0_00
  6
CONTINUOUS
 62
2
 10
1039.1396
 20
656.8396
 40
3.3226
 50
235.6160
 51
304.3840
  0
ARC
  8
0_00
  6
CONTINUOUS
 62
2
 10
1050.3979
 20
656.8396
 40
3.3226
 50
235.6160
 51
304.3840
  0
ARC
  8
0_00
  6
CONTINUOUS
 62
3
 10
1089.6760
 20
72.2363
 40
0.5362
 50
270.0000
 51
450.0000
  0
ARC
  8
0_00
  6
CONTINUOUS
 62
3
 10
1088.1842
 20
77.0626
 40
0.6532
 50
0.0000
 51
180.0000
  0
ARC
  8
0_00
  6
CONTINUOUS
 62
3
 10
1089.1886
 20
83.4001
 40
1.9500
 50
333.9999
 51
450.0000
  0
CIRCLE
  8
0_00
  6
CONTINUOUS
 62
3
 10
1090.0660
 20
87.3000
 40
1.5600
  0
ARC
  8
0_00
  6
CONTINUOUS
 62
3
 10
1088.2811
 20
77.0626
 40
0.4500
 50
0.0000
 51
180.0000
  0
ARC
  8
0_00
  6
CONTINUOUS
 62
3
 10
1088.2811
 20
77.0626
 40
0.1500
 50
0.0000
 51
180.0000
  0
ARC
  8
0_00
  6
CONTINUOUS
 62
3
 10
1089.6760
 20
72.1725
 40
0.3000
 50
270.0000
 51
450.0000
  0
CIRCLE
  8
0_00
  6
CONTINUOUS
 62
3
 10
1090.0660
 20
87.3000
 40
1.3244
  0
CIRCLE
  8
0_00
  6
CONTINUOUS
 62
3
 10
1090.0660
 20
87.3000
 40
1.0256
  0
CIRCLE
  8
0_00
  6
CONTINUOUS
 62
3
 10
1090.0660
 20
87.3000
 40
0.7027
  0
CIRCLE
  8
0_00
  6
CONTINUOUS
 62
3
 10
1090.0660
 20
87.3000
 40
0.3440
  0
CIRCLE
  8
0_00
  6
CONTINUOUS
 62
3
 10
1090.0660
 20
87.3000
 40
0.1699
  0
CIRCLE
  8
0_00
  6
CONTINUOUS
 62
4
 10
881.0410
 20
82.2001
 40
3.7500
  0
CIRCLE
  8
0_00
  6
CONTINUOUS
 62
4
 10
881.0410
 20
82.2001
 40
6.0000
  0
ARC
  8
0_00
  6
CONTINUOUS
 62
2
 10
538.9518
 20
669.6576
 40
9.1000
 50
129.7151
 51
230.2849
  0
ARC
  8
12_0C
  6
DASHED
 62
2
 10
555.6948
 20
665.2458
 40
0.4000
 50
265.0000
 51
345.0000
  0
ARC
  8
12_0C
  6
DASHED
 62
2
 10
560.6758
 20
664.8100
 40
0.4000
 50
265.0000
 51
345.0000
  0
ARC
  8
12_0C
  6
DASHED
 62
2
 10
565.6567
 20
664.3743
 40
0.4000
 50
265.0000
 51
345.0000
  0
ARC
  8
12_0C
  6
DASHED
 62
2
 10
570.6378
 20
663.9386
 40
0.4000
 50
265.0000
 51
345.0000
  0
ARC
  8
12_0C
  6
DASHED
 62
2
 10
575.4290
 20
663.7201
 40
0.6000
 50
265.0000
 51
295.0000
  0
ARC
  8
12_0C
  6
DASHED
 62
2
 10
555.6948
 20
674.0694
 40
0.4000
 50
15.0000
 51
95.0000
  0
ARC
  8
12_0C
  6
DASHED
 62
2
 10
560.6758
 20
674.5051
 40
0.4000
 50
15.0000
 51
95.0000
  0
ARC
  8
12_0C
  6
DASHED
 62
2
 10
565.6567
 20
674.9409
 40
0.4000
 50
15.0000
 51
95.0000
  0
ARC
  8
12_0C
  6
DASHED
 62
2
 10
570.6378
 20
675.3767
 40
0.4000
 50
15.0000
 51
95.0000
  0
ARC
  8
12_0C
  6
DASHED
 62
2
 10
575.4290
 20
675.5951
 40
0.6000
 50
65.0000
 51
95.0000
  0
ARC
  8
12_0C
  6
DASHED
 62
2
 10
573.5369
 20
665.4918
 40
0.2000
 50
355.0000
 51
445.0000
  0
ARC
  8
12_0C
  6
DASHED
 62
2
 10
573.5369
 20
673.8235
 40
0.2000
 50
275.0000
 51
365.0000
  0
ARC
  8
12_0C
  6
DASHED
 62
2
 10
568.5560
 20
665.9275
 40
0.2000
 50
355.0000
 51
445.0000
  0
ARC
  8
12_0C
  6
DASHED
 62
2
 10
568.5560
 20
673.3877
 40
0.2000
 50
275.0000
 51
365.0000
  0
ARC
  8
12_0C
  6
DASHED
 62
2
 10
563.5750
 20
666.3632
 40
0.2000
 50
355.0000
 51
445.0000
  0
ARC
  8
12_0C
  6
DASHED
 62
2
 10
563.5750
 20
672.9519
 40
0.2000
 50
275.0000
 51
365.0000
  0
ARC
  8
12_0C
  6
DASHED
 62
2
 10
558.5940
 20
666.7991
 40
0.2000
 50
355.0000
 51
445.0000
  0
ARC
  8
12_0C
  6
DASHED
 62
2
 10
558.5940
 20
672.5161
 40
0.2000
 50
275.0000
 51
365.0000
  0
ARC
  8
12_0C
  6
DASHED
 62
2
 10
553.5607
 20
666.6372
 40
0.2000
 50
355.0000
 51
445.0000
  0
ARC
  8
12_0C
  6
DASHED
 62
2
 10
553.5607
 20
672.6781
 40
0.2000
 50
275.0000
 51
365.0000
  0
ARC
  8
12_0C
  6
DASHED
 62
2
 10
571.8675
 20
673.8782
 40
0.4000
 50
195.0000
 51
275.0000
  0
ARC
  8
12_0C
  6
DASHED
 62
2
 10
571.7177
 20
665.6509
 40
0.2000
 50
85.0000
 51
165.0000
  0
ARC
  8
12_0C
  6
DASHED
 62
2
 10
566.8866
 20
673.4424
 40
0.4000
 50
195.0000
 51
275.0000
  0
ARC
  8
12_0C
  6
DASHED
 62
2
 10
566.8866
 20
665.8728
 40
0.4000
 50
85.0000
 51
165.0000
  0
ARC
  8
12_0C
  6
DASHED
 62
2
 10
561.9055
 20
673.0066
 40
0.4000
 50
195.0000
 51
275.0000
  0
ARC
  8
12_0C
  6
DASHED
 62
2
 10
561.9055
 20
666.3086
 40
0.4000
 50
85.0000
 51
165.0000
  0
ARC
  8
12_0C
  6
DASHED
 62
2
 10
556.9245
 20
672.5708
 40
0.4000
 50
195.0000
 51
275.0000
  0
ARC
  8
12_0C
  6
DASHED
 62
2
 10
556.9245
 20
666.7444
 40
0.4000
 50
85.0000
 51
165.0000
  0
ARC
  8
12_0C
  6
DASHED
 62
2
 10
551.0668
 20
666.6546
 40
0.4000
 50
85.0000
 51
170.0000
  0
ARC
  8
12_0C
  6
DASHED
 62
2
 10
551.0668
 20
672.6606
 40
0.4000
 50
190.0000
 51
275.0000
  0
ARC
  8
12_0C
  6
DASHED
 62
2
 10
552.4508
 20
677.1520
 40
0.4000
 50
65.0000
 51
155.0000
  0
ARC
  8
12_0C
  6
DASHED
 62
2
 10
552.3663
 20
676.9707
 40
0.4000
 50
155.0000
 51
245.0000
  0
ARC
  8
12_0C
  6
DASHED
 62
2
 10
552.4508
 20
662.1633
 40
0.4000
 50
205.0000
 51
295.0000
  0
ARC
  8
12_0C
  6
DASHED
 62
2
 10
552.3663
 20
662.3446
 40
0.4000
 50
115.0000
 51
205.0000
  0
ARC
  8
0_00
  6
CONTINUOUS
 62
2
 10
1044.7478
 20
679.4342
 40
3.1000
 50
135.0000
 51
148.5444
  0
ARC
  8
0_00
  6
CONTINUOUS
 62
2
 10
1044.7478
 20
679.4342
 40
3.1000
 50
121.4556
 51
135.0000
  0
ARC
  8
0_00
  6
CONTINUOUS
 62
2
 10
1044.7478
 20
679.4342
 40
3.1000
 50
45.0000
 51
58.6333
  0
ARC
  8
0_00
  6
CONTINUOUS
 62
2
 10
1044.7478
 20
679.4342
 40
3.1000
 50
31.3667
 51
45.0000
  0
ARC
  8
0_00
  6
CONTINUOUS
 62
2
 10
1044.7478
 20
679.4342
 40
7.0000
 50
305.0590
 51
595.3587
  0
TEXT
  8
15_0F
 62
7
 10
204.6905
 20
100.2001
 40
7.50
 41
1.00
 50
0.0000
  1
１）［　］内寸法は標準寸法とする。
  0
TEXT
  8
15_0F
 62
7
 10
204.6905
 20
85.2001
 40
7.50
 41
1.00
 50
0.0000
  1
２）Ｈ、Ｈ１、Ｌ、ＬＷ１は発注寸法とする。
  0
TEXT
  8
0_00
 62
7
 10
452.7987
 20
463.3924
 40
7.50
 41
1.00
 50
0.0000
  1
間柱
  0
TEXT
  8
0_00
 62
7
 10
295.7960
 20
710.7628
 40
7.50
 41
1.00
 50
0.0000
  1
Ｋ型笠木カバー
  0
TEXT
  8
0_00
 62
7
 10
318.8710
 20
285.1032
 40
7.50
 41
1.00
 50
0.0000
  1
間柱基礎金具
  0
TEXT
  8
0_00
 62
7
 10
707.7482
 20
587.9989
 40
7.50
 41
1.00
 50
0.0000
  1
ばね座金
  0
TEXT
  8
0_00
 62
7
 10
716.2971
 20
574.8997
 40
7.50
 41
1.00
 50
0.0000
  1
φ８
  0
TEXT
  8
0_00
 62
7
 10
700.0879
 20
615.2224
 40
7.50
 41
1.00
 50
0.0000
  1
ボルト・ナット
  0
TEXT
  8
0_00
 62
7
 10
708.6367
 20
602.1232
 40
7.50
 41
1.00
 50
0.0000
  1
Ｍ８×２０
  0
TEXT
  8
0_00
 62
7
 10
830.8126
 20
695.6317
 40
7.50
 41
1.00
 50
0.0000
  1
コーキング処理
  0
TEXT
  8
0_00
 62
7
 10
1074.2519
 20
704.5199
 40
7.50
 41
1.00
 50
0.0000
  1
後付用壁支持金具３
  0
TEXT
  8
0_00
 62
7
 10
879.4865
 20
272.1109
 40
7.50
 41
1.00
 50
0.0000
  1
コーキング受け
  0
TEXT
  8
0_00
 62
7
 10
863.2395
 20
298.4838
 40
7.50
 41
1.00
 50
0.0000
  1
コーキング処理
  0
TEXT
  8
0_00
 62
7
 10
556.9909
 20
185.0440
 40
7.50
 41
1.00
 50
0.0000
  1
コーキング受け
  0
TEXT
  8
0_00
 62
7
 10
816.5389
 20
620.7806
 40
7.50
 41
1.00
 50
0.0000
  1
後付用壁支持金具３
  0
TEXT
  8
0_00
 62
7
 10
349.1036
 20
507.3209
 40
6.75
 41
0.75
 50
90.0000
  1
50
  0
TEXT
  8
0_00
 62
7
 10
264.1036
 20
536.0209
 40
6.75
 41
0.75
 50
90.0000
  1
25
  0
TEXT
  8
0_00
 62
7
 10
824.3292
 20
727.6252
 40
7.50
 41
1.00
 50
0.0000
  1
シーリングワッシャー
  0
TEXT
  8
0_00
 62
7
 10
839.4553
 20
714.3284
 40
7.50
 41
1.00
 50
0.0000
  1
φ６×１７
  0
TEXT
  8
0_00
 62
7
 10
667.9184
 20
737.6879
 40
7.50
 41
1.00
 50
0.0000
  1
ナイロンアンカー
  0
TEXT
  8
0_00
 62
7
 10
686.1184
 20
725.6879
 40
7.50
 41
1.00
 50
0.0000
  1
φ８
  0
TEXT
  8
0_00
 62
7
 10
641.4026
 20
762.0355
 40
7.50
 41
1.00
 50
0.0000
  1
タッピンねじ・トラス
  0
TEXT
  8
0_00
 62
7
 10
648.6025
 20
750.0355
 40
7.50
 41
1.00
 50
0.0000
  1
φ６×５０（１種）
  0
TEXT
  8
0_00
 62
7
 10
663.9425
 20
713.3400
 40
7.50
 41
1.00
 50
0.0000
  1
下穴（φ８）現場加工
  0
TEXT
  8
0_00
 62
7
 10
667.1425
 20
701.3400
 40
7.50
 41
1.00
 50
0.0000
  1
下穴コーキング処理
  0
TEXT
  8
15_0F
 62
7
 10
824.1611
 20
70.2000
 40
7.50
 41
1.00
 50
0.0000
  1
１
  0
TEXT
  8
15_0F
 62
7
 10
704.3110
 20
74.7000
 40
7.50
 41
1.00
 50
0.0000
  1
納まり図
  0
TEXT
  8
15_0F
 62
7
 10
508.1110
 20
41.7000
 40
7.50
 41
1.00
 50
0.0000
  1
ＲＣ造
  0
TEXT
  8
15_0F
 62
7
 10
497.3110
 20
71.7000
 40
7.50
 41
1.00
 50
0.0000
  1
低・中・高層
  0
TEXT
  8
15_0F
 62
7
 10
576.0610
 20
71.7000
 40
7.50
 41
1.00
 50
0.0000
  1
手すり付笠木
  0
TEXT
  8
15_0F
 62
7
 10
563.6610
 20
42.4500
 40
6.00
 41
1.00
 50
0.0000
  1
ＫＯＡ、ＤＯＡ型
  0
TEXT
  8
15_0F
 62
7
 10
628.7110
 20
44.7000
 40
7.50
 41
1.00
 50
0.0000
  1
床支持標準手すり［壁付部］（直線格子）納まり図－２
  0
TEXT
  8
15_0F
 62
7
 10
852.6611
 20
70.2000
 40
7.50
 41
1.00
 50
0.0000
  1
３
  0
TEXT
  8
0_00
 62
7
 10
195.8890
 20
268.3801
 40
7.50
 41
1.00
 50
0.0000
  1
笠木
  0
TEXT
  8
15_0F
 62
7
 10
1022.5356
 20
782.8496
 40
7.50
 41
1.00
 50
0.0000
  1
［ＤＯＡ型］
  0
TEXT
  8
0_00
 62
7
 10
1095.8308
 20
685.3582
 40
7.50
 41
1.00
 50
0.0000
  1
Ｄ型笠木カバー
  0
TEXT
  8
15_0F
 62
7
 10
758.0312
 20
782.8496
 40
7.50
 41
1.00
 50
0.0000
  1
［ＫＯＡ型］
  0
TEXT
  8
0_00
 62
7
 10
475.6704
 20
720.0718
 40
7.50
 41
1.00
 50
0.0000
  1
Ａ
  0
TEXT
  8
0_00
 62
7
 10
475.6704
 20
158.5379
 40
7.50
 41
1.00
 50
0.0000
  1
Ａ
  0
TEXT
  8
0_00
 62
2
 10
881.4642
 20
784.7296
 40
12.00
 41
1.00
 50
0.0000
  1
建物側
  0
TEXT
  8
0_00
 62
2
 10
650.2643
 20
784.7296
 40
12.00
 41
1.00
 50
0.0000
  1
屋外側
  0
TEXT
  8
0_00
 62
7
 10
70.2905
 20
40.2001
 40
7.50
 41
1.00
 50
0.0000
  1
適用製品
  0
TEXT
  8
0_00
 62
7
 10
130.2905
 20
40.2001
 40
7.50
 41
1.00
 50
0.0000
  1
適用日付
  0
TEXT
  8
0_00
 62
7
 10
178.5905
 20
100.2001
 40
7.50
 41
1.00
 50
0.0000
  1
記事
  0
TEXT
  8
0_00
 62
7
 10
472.5611
 20
85.2001
 40
7.50
 41
1.00
 50
0.0000
  1
階層仕様
  0
TEXT
  8
0_00
 62
7
 10
472.5611
 20
55.2000
 40
7.50
 41
1.00
 50
0.0000
  1
適用躯体
  0
TEXT
  8
0_00
 62
7
 10
630.0610
 20
85.2001
 40
7.50
 41
1.00
 50
0.0000
  1
名　称
  0
TEXT
  8
0_00
 62
7
 10
630.0610
 20
55.2000
 40
7.50
 41
1.00
 50
0.0000
  1
図　名
  0
TEXT
  8
0_00
 62
7
 10
814.9368
 20
100.2458
 40
7.50
 41
1.00
 50
0.0000
  1
Ｎｏ．
  0
TEXT
  8
0_00
 62
7
 10
1123.5610
 20
100.2001
 40
7.50
 41
1.00
 50
0.0000
  1
適　　　　　　　　用
  0
TEXT
  8
0_00
 62
7
 10
1078.4111
 20
100.2001
 40
7.50
 41
1.00
 50
0.0000
  1
個数
  0
TEXT
  8
0_00
 62
7
 10
1023.2110
 20
100.2001
 40
7.50
 41
1.00
 50
0.0000
  1
材　　質
  0
TEXT
  8
0_00
 62
7
 10
926.1610
 20
100.2001
 40
7.50
 41
1.00
 50
0.0000
  1
部　　　品　　　名
  0
TEXT
  8
0_00
 62
7
 10
895.9360
 20
100.2001
 40
7.50
 41
1.00
 50
0.0000
  1
品番
  0
TEXT
  8
0_00
 62
7
 10
850.8611
 20
100.2001
 40
7.50
 41
1.00
 50
0.0000
  1
図　　番
  0
TEXT
  8
0_00
 62
7
 10
816.6610
 20
85.2001
 40
7.50
 41
1.00
 50
0.0000
  1
尺度
  0
TEXT
  8
0_00
 62
7
 10
816.6610
 20
55.2000
 40
7.50
 41
1.00
 50
0.0000
  1
日付
  0
TEXT
  8
0_00
 62
7
 10
928.3942
 20
85.2001
 40
7.50
 41
1.00
 50
0.0000
  1
承認
  0
TEXT
  8
0_00
 62
7
 10
970.5611
 20
85.2001
 40
7.50
 41
1.00
 50
0.0000
  1
検図
  0
TEXT
  8
0_00
 62
7
 10
1006.8610
 20
85.2001
 40
7.50
 41
1.00
 50
0.0000
  1
設計
  0
TEXT
  8
0_00
 62
7
 10
1044.2110
 20
85.2001
 40
7.50
 41
1.00
 50
0.0000
  1
製図
  0
TEXT
  8
0_00
 62
7
 10
1074.5110
 20
55.2000
 40
7.50
 41
1.00
 50
0.0000
  1
図番
  0
TEXT
  8
0_00
 62
2
 10
1103.9219
 20
74.2350
 40
12.00
 41
1.00
 50
0.0000
  1
文化シヤッター株式会社
  0
TEXT
  8
0_00
 62
7
 10
200.7905
 20
862.9501
 40
7.50
 41
1.00
 50
180.0000
  1
図番
  0
TEXT
  8
0_00
 62
7
 10
799.0510
 20
854.0169
 40
6.00
 41
1.00
 50
0.0000
  1
ＮＯ
  0
TEXT
  8
0_00
 62
7
 10
825.2111
 20
853.9501
 40
7.50
 41
1.00
 50
0.0000
  1
個　数
  0
TEXT
  8
0_00
 62
7
 10
870.3611
 20
853.9501
 40
7.50
 41
1.00
 50
0.0000
  1
日　　付
  0
TEXT
  8
0_00
 62
7
 10
984.2111
 20
853.9501
 40
7.50
 41
1.00
 50
0.0000
  1
訂　　　正　　　記　　　事
  0
TEXT
  8
0_00
 62
7
 10
838.4111
 20
70.2000
 40
6.75
 41
0.75
 50
0.0000
  1
:
  0
TEXT
  8
0_00
 62
7
 10
1137.8712
 20
26.7000
 40
6.00
 41
1.00
 50
0.0000
  1
ＪＩＳ　Ａ－３
  0
TEXT
  8
0_00
 62
7
 10
1179.4986
 20
26.6983
 40
6.00
 41
1.00
 50
0.0000
  1
（２９７×４２０）
  0
TEXT
  8
0_00
 62
7
 10
1153.1111
 20
853.9501
 40
7.50
 41
1.00
 50
0.0000
  1
担　当
  0
TEXT
  8
0_00
 62
7
 10
1189.1111
 20
853.9501
 40
7.50
 41
1.00
 50
0.0000
  1
承　認
  0
TEXT
  8
0_00
 62
7
 10
551.3111
 20
85.2001
 40
7.50
 41
1.00
 50
0.0000
  1
機種名
  0
TEXT
  8
0_00
 62
7
 10
551.3111
 20
55.2000
 40
7.50
 41
1.00
 50
0.0000
  1
型　式
  0
TEXT
  8
0_00
 62
7
 10
186.0592
 20
763.0000
 40
7.50
 41
1.00
 50
0.0000
  1
２５０≦Ｌ（柱スパン寸法）≦１８２０
  0
TEXT
  8
0_00
 62
7
 10
418.4518
 20
763.0000
 40
7.50
 41
1.00
 50
0.0000
  1
８５≦ＬＷ１（壁付寸法）≦１２５
  0
TEXT
  8
0_00
 62
7
 10
637.0000
 20
202.4906
 40
6.75
 41
0.75
 50
90.0000
  1
20
  0
TEXT
  8
0_00
 62
7
 10
637.0000
 20
401.3709
 40
7.50
 41
1.00
 50
90.0000
  1
３０１≦Ｈ（手すり高さ寸法）≦１２００
  0
TEXT
  8
0_00
 62
7
 10
597.0000
 20
356.6843
 40
6.75
 41
0.75
 50
90.0000
  1
35
  0
TEXT
  8
0_00
 62
7
 10
657.0000
 20
662.4576
 40
6.75
 41
0.75
 50
90.0000
  1
47
  0
TEXT
  8
0_00
 62
7
 10
597.0000
 20
702.1576
 40
6.75
 41
0.75
 50
90.0000
  1
23.5
  0
TEXT
  8
0_00
 62
7
 10
547.5518
 20
743.0000
 40
6.75
 41
0.75
 50
0.0000
  1
5
  0
TEXT
  8
0_00
 62
7
 10
471.2518
 20
583.0000
 40
6.75
 41
0.75
 50
0.0000
  1
27.5
  0
TEXT
  8
0_00
 62
7
 10
517.3518
 20
283.0000
 40
6.75
 41
0.75
 50
0.0000
  1
5
  0
TEXT
  8
0_00
 62
7
 10
512.8518
 20
163.0000
 40
6.75
 41
0.75
 50
0.0000
  1
37
  0
TEXT
  8
0_00
 62
7
 10
892.0952
 20
523.0000
 40
6.75
 41
0.75
 50
0.0000
  1
L
  0
TEXT
  8
0_00
 62
7
 10
970.0949
 20
523.0000
 40
6.75
 41
0.75
 50
0.0000
  1
L
  0
TEXT
  8
0_00
 62
7
 10
1073.4283
 20
523.0000
 40
6.75
 41
0.75
 50
0.0000
  1
L
  0
TEXT
  8
0_00
 62
7
 10
1150.1949
 20
523.0000
 40
6.75
 41
0.75
 50
0.0000
  1
LW1
  0
TEXT
  8
0_00
 62
7
 10
943.0948
 20
503.0000
 40
6.75
 41
0.75
 50
0.0000
  1
127
  0
TEXT
  8
0_00
 62
7
 10
773.0642
 20
742.0000
 40
6.75
 41
0.75
 50
0.0000
  1
60
  0
TEXT
  8
0_00
 62
7
 10
1197.0000
 20
423.8179
 40
6.75
 41
0.75
 50
90.0000
  1
H
  0
TEXT
  8
0_00
 62
7
 10
1177.0000
 20
367.2179
 40
6.75
 41
0.75
 50
90.0000
  1
g
  0
TEXT
  8
0_00
 62
7
 10
1177.0000
 20
424.2179
 40
6.75
 41
0.75
 50
90.0000
  1
H1
  0
TEXT
  8
0_00
 62
7
 10
1087.3708
 20
320.9511
 40
7.50
 41
1.00
 50
0.0000
  1
外観姿図（１：３０）
  0
TEXT
  8
0_00
 62
7
 10
907.0000
 20
206.1843
 40
6.75
 41
0.75
 50
90.0000
  1
60
  0
TEXT
  8
0_00
 62
7
 10
657.0000
 20
209.6334
 40
6.75
 41
0.75
 50
90.0000
  1
65
  0
TEXT
  8
0_00
 62
7
 10
280.1518
 20
583.0000
 40
6.75
 41
0.75
 50
0.0000
  1
20
  0
TEXT
  8
0_00
 62
7
 10
406.3518
 20
583.0000
 40
6.75
 41
0.75
 50
0.0000
  1
40
  0
TEXT
  8
0_00
 62
7
 10
891.3141
 20
146.3676
 40
7.50
 41
1.00
 50
0.0000
  1
Ａ－Ａ断面図
  0
TEXT
  8
0_00
 62
7
 10
617.0000
 20
249.5843
 40
7.50
 41
1.00
 50
90.0000
  1
３０≦ｇ［１００］≦１００
  0
TEXT
  8
0_00
 62
7
 10
617.0000
 20
512.5709
 40
7.50
 41
1.00
 50
90.0000
  1
Ｈ１
  0
TEXT
  8
0_00
 62
7
 10
948.1042
 20
667.4028
 40
6.75
 41
0.75
 50
90.0000
  1
37
  0
TEXT
  8
0_00
 62
7
 10
968.1041
 20
702.1576
 40
6.75
 41
0.75
 50
90.0000
  1
13.5
  0
TEXT
  8
0_00
 62
7
 10
1037.5687
 20
734.1849
 40
6.75
 41
0.75
 50
0.0000
  1
80
  0
TEXT
  8
0_00
 62
7
 10
807.2642
 20
583.0000
 40
6.75
 41
0.75
 50
0.0000
  1
36
  0
TEXT
  8
0_00
 62
7
 10
949.3354
 20
348.0339
 40
7.50
 41
1.00
 50
0.0000
  1
二段手すりの場合はＬ≦１３６５とする。
  0
POINT
  8
0_00
 62
2
 10
922.0281
 20
385.3882
  0
POINT
  8
0_00
 62
2
 10
1025.3616
 20
385.3882
  0
POINT
  8
0_00
 62
2
 10
922.0281
 20
391.9179
  0
POINT
  8
0_00
 62
2
 10
1025.3616
 20
391.9179
  0
POINT
  8
0_00
 62
2
 10
1128.6948
 20
385.3882
  0
POINT
  8
0_00
 62
2
 10
1128.6948
 20
391.9179
  0
POINT
  8
0_00
 62
2
 10
413.5518
 20
268.9873
  0
POINT
  8
0_00
 62
2
 10
413.5518
 20
334.2843
  0
POINT
  8
0_00
 62
5
 10
870.2643
 20
243.3843
  0
POINT
  8
0_00
 62
5
 10
780.2433
 20
669.6902
  0
POINT
  8
0_00
 62
2
 10
530.5518
 20
669.6576
  0
POINT
  8
0_00
 62
2
 10
530.5518
 20
669.6576
  0
POINT
  8
0_00
 62
5
 10
1044.7478
 20
679.4342
  0
POINT
  8
0_00
 62
2
 10
24.0905
 20
14.9991
  0
POINT
  8
0_00
 62
2
 10
24.0905
 20
14.9991
  0
POINT
  8
0_00
 62
2
 10
84.6905
 20
59.7001
  0
POINT
  8
0_00
 62
2
 10
84.6905
 20
74.7001
  0
POINT
  8
0_00
 62
2
 10
84.6905
 20
89.7001
  0
POINT
  8
0_00
 62
2
 10
84.6905
 20
104.7001
  0
POINT
  8
0_00
 62
2
 10
518.9110
 20
76.2000
  0
POINT
  8
0_00
 62
2
 10
518.9110
 20
46.2000
  0
POINT
  8
0_00
 62
2
 10
718.7110
 20
79.2000
  0
POINT
  8
0_00
 62
2
 10
718.7110
 20
49.2000
  0
POINT
  8
0_00
 62
2
 10
1097.7610
 20
52.2000
  0
POINT
  8
0_00
 62
2
 10
1014.0610
 20
59.7001
  0
POINT
  8
0_00
 62
2
 10
144.6905
 20
59.7001
  0
POINT
  8
0_00
 62
2
 10
144.6905
 20
74.7001
  0
POINT
  8
0_00
 62
2
 10
144.6905
 20
89.7001
  0
POINT
  8
0_00
 62
2
 10
144.6905
 20
104.7001
  0
POINT
  8
0_00
 62
2
 10
856.2610
 20
74.7000
  0
POINT
  8
0_00
 62
2
 10
827.7610
 20
74.7000
  0
POINT
  8
0_00
 62
2
 10
204.6905
 20
104.7001
  0
POINT
  8
0_00
 62
2
 10
204.6905
 20
89.7001
  0
POINT
  8
0_00
 62
2
 10
204.6905
 20
74.7001
  0
POINT
  8
0_00
 62
2
 10
204.6905
 20
59.7001
  0
POINT
  8
0_00
 62
2
 10
204.6905
 20
44.7001
  0
POINT
  8
0_00
 62
2
 10
1051.4110
 20
59.7001
  0
POINT
  8
0_00
 62
2
 10
84.6905
 20
44.7001
  0
POINT
  8
0_00
 62
2
 10
144.6905
 20
44.7001
  0
POINT
  8
0_00
 62
2
 10
174.6905
 20
858.4501
  0
POINT
  8
0_00
 62
2
 10
862.6360
 20
49.2000
  0
POINT
  8
0_00
 62
2
 10
597.6610
 20
76.2000
  0
POINT
  8
0_00
 62
2
 10
597.6610
 20
46.2000
  0
POINT
  8
0_00
 62
2
 10
533.5518
 20
669.6576
  0
POINT
  8
0_00
 62
5
 10
1044.7152
 20
679.4133
  0
ENDSEC
  0
EOF
