999
  
  0
SECTION
  2
HEADER
  9
$EXTMIN
 10
0
 20
0
  9
$EXTMAX
 10
1260
 20
888
  9
$LTSCALE
 40
3.00
  9
$PDMODE
 70
33
  9
$PDSIZE
 40
1.80
  0
ENDSEC
  0
SECTION
  2
TABLES
  0
TABLE
  2
LTYPE
 70
9
  0
LTYPE
  2
CONTINUOUS
 70
64
  3
実線
 72
65
 73
0
 40
0.00
  0
LTYPE
  2
DASHED
 70
64
  3
__  __  __  __  __  __  __ 
 72
65
 73
2
 40
1.00
 49
0.50
 49
-0.50
  0
LTYPE
  2
HIDDEN1
 70
64
  3
____    ____    ____    ___
 72
65
 73
2
 40
2.20
 49
1.20
 49
-1.00
  0
LTYPE
  2
HIDDEN2
 70
64
  3
______  ______  ______  ___
 72
65
 73
2
 40
4.50
 49
3.50
 49
-1.00
  0
LTYPE
  2
CENTER1
 70
64
  3
_______ _ _______ _ _______
 72
65
 73
4
 40
20.00
 49
17.00
 49
-1.00
 49
1.00
 49
-1.00
  0
LTYPE
  2
CENTER2
 70
64
  3
___________  __  __________
 72
65
 73
4
 40
40.00
 49
34.00
 49
-2.00
 49
2.00
 49
-2.00
  0
LTYPE
  2
PHANTOM1
 70
64
  3
______ _ _ ______ _ _ _____
 72
65
 73
6
 40
20.00
 49
15.00
 49
-1.00
 49
1.00
 49
-1.00
 49
1.00
 49
-1.00
  0
LTYPE
  2
PHANTOM2
 70
64
  3
__________  _  _  _________
 72
65
 73
6
 40
40.00
 49
30.00
 49
-2.00
 49
2.00
 49
-2.00
 49
2.00
 49
-2.00
  0
LTYPE
  2
DOT
 70
64
  3
 .  .  .  .  .  .  .  .  . 
 72
65
 73
2
 40
1.00
 49
0.00
 49
-1.00
  0
ENDTAB
  0
TABLE
  2
STYLE
 70
1
  0
STYLE
  2
STANDARD
 70
64
 40
0.0
 41
1.0
 42
0.0
 50
0.0
 71
0
  3
ROMANS
  4
BIGFONT
  0
ENDTAB
  0
TABLE
  2
LAYER
 70
7
  0
LAYER
  2
0_00
 70
64
 62
7
  6
CONTINUOUS
  0
LAYER
  2
2_02
 70
64
 62
7
  6
CONTINUOUS
  0
LAYER
  2
3_03
 70
64
 62
7
  6
CONTINUOUS
  0
LAYER
  2
12_0C
 70
64
 62
7
  6
CONTINUOUS
  0
LAYER
  2
13_0D
 70
64
 62
7
  6
CONTINUOUS
  0
LAYER
  2
14_0E
 70
64
 62
7
  6
CONTINUOUS
  0
LAYER
  2
15_0F
 70
64
 62
7
  6
CONTINUOUS
  0
ENDTAB
  0
ENDSEC
  0
SECTION
  2
ENTITIES
  0
LINE
  8
0_00
  6
CONTINUOUS
 62
4
 10
562.0036
 20
729.3087
 11
1092.7036
 21
729.3087
  0
LINE
  8
0_00
  6
CONTINUOUS
 62
4
 10
548.3536
 20
565.4436
 11
1106.3536
 21
565.4436
  0
LINE
  8
0_00
  6
CENTER1
 62
6
 10
557.3536
 20
736.3988
 11
557.3536
 21
685.1174
  0
LINE
  8
0_00
  6
CENTER1
 62
6
 10
302.2830
 20
692.1629
 11
302.2828
 21
347.8312
  0
LINE
  8
0_00
  6
CENTER1
 62
6
 10
554.0137
 20
316.0623
 11
1168.8980
 21
316.0623
  0
LINE
  8
0_00
  6
CENTER1
 62
6
 10
680.5040
 20
402.0761
 11
680.5040
 21
226.9312
  0
LINE
  8
0_00
  6
CONTINUOUS
 62
2
 10
891.6892
 20
441.0623
 11
859.3913
 21
320.5252
  0
LINE
  8
0_00
  6
CONTINUOUS
 62
2
 10
887.0304
 20
441.0623
 11
853.8799
 21
317.3432
  0
LINE
  8
0_00
  6
CONTINUOUS
 62
2
 10
877.7682
 20
310.9424
 11
845.6464
 21
191.0623
  0
LINE
  8
0_00
  6
CONTINUOUS
 62
2
 10
850.3051
 20
191.0623
 11
883.2794
 21
314.1244
  0
LINE
  8
0_00
  6
CONTINUOUS
 62
2
 10
859.3913
 20
320.5252
 11
883.2794
 21
314.1244
  0
LINE
  8
0_00
  6
CONTINUOUS
 62
2
 10
877.7682
 20
310.9424
 11
853.8799
 21
317.3432
  0
LINE
  8
3_03
  6
CONTINUOUS
 62
4
 10
546.1036
 20
690.8936
 11
546.1036
 21
699.7283
  0
LINE
  8
0_00
  6
CENTER1
 62
6
 10
1097.3536
 20
736.3988
 11
1097.3536
 21
685.1174
  0
LINE
  8
0_00
  6
CENTER1
 62
6
 10
1065.9841
 20
346.9744
 11
1065.9841
 21
282.0330
  0
LINE
  8
0_00
  6
CONTINUOUS
 62
4
 10
672.3536
 20
700.5835
 11
672.3536
 21
690.0387
  0
LINE
  8
0_00
  6
CONTINUOUS
 62
4
 10
674.9786
 20
700.3884
 11
674.9786
 21
690.0387
  0
LINE
  8
0_00
  6
CONTINUOUS
 62
4
 10
669.7286
 20
700.3884
 11
669.7286
 21
690.0387
  0
LINE
  8
0_00
  6
CONTINUOUS
 62
4
 10
672.3536
 20
700.5835
 11
669.7286
 21
700.3884
  0
LINE
  8
0_00
  6
CONTINUOUS
 62
4
 10
672.3536
 20
700.5835
 11
674.9786
 21
700.3884
  0
LINE
  8
0_00
  6
CONTINUOUS
 62
4
 10
546.5536
 20
700.1784
 11
669.7286
 21
700.1784
  0
LINE
  8
0_00
  6
CONTINUOUS
 62
4
 10
669.7286
 20
690.0387
 11
674.9786
 21
690.0387
  0
LINE
  8
0_00
  6
CONTINUOUS
 62
4
 10
546.5536
 20
690.4437
 11
669.7286
 21
690.4437
  0
LINE
  8
0_00
  6
CENTER1
 62
6
 10
330.2828
 20
476.7692
 11
330.2828
 21
424.1807
  0
LINE
  8
0_00
  6
CONTINUOUS
 62
2
 10
310.0313
 20
651.6918
 11
310.0313
 21
641.9067
  0
LINE
  8
0_00
  6
CONTINUOUS
 62
2
 10
294.5313
 20
651.6918
 11
294.5313
 21
641.9067
  0
LINE
  8
0_00
  6
CENTER1
 62
6
 10
297.7813
 20
660.7187
 11
297.7813
 21
621.1918
  0
LINE
  8
0_00
  6
CENTER1
 62
6
 10
306.7813
 20
660.7187
 11
306.7813
 21
621.1918
  0
LINE
  8
0_00
  6
CENTER1
 62
6
 10
284.2813
 20
652.8762
 11
284.2813
 21
636.6310
  0
LINE
  8
0_00
  6
CENTER1
 62
6
 10
320.2813
 20
652.8762
 11
320.2813
 21
636.6310
  0
LINE
  8
0_00
  6
CONTINUOUS
 62
4
 10
284.2830
 20
636.2917
 11
284.2830
 21
625.9884
  0
LINE
  8
0_00
  6
CONTINUOUS
 62
4
 10
284.2830
 20
624.5678
 11
284.2828
 21
481.8328
  0
LINE
  8
0_00
  6
CONTINUOUS
 62
4
 10
320.2830
 20
636.2917
 11
320.2830
 21
625.9913
  0
LINE
  8
0_00
  6
CONTINUOUS
 62
4
 10
320.2830
 20
624.5705
 11
320.2828
 21
481.8328
  0
LINE
  8
0_00
  6
CONTINUOUS
 62
2
 10
279.9690
 20
456.3068
 11
348.2828
 21
456.3068
  0
LINE
  8
12_0C
  6
CONTINUOUS
 62
2
 10
296.0578
 20
465.3068
 11
308.5077
 21
465.3068
  0
LINE
  8
0_00
  6
DASHED
 62
2
 10
294.5328
 20
471.2615
 11
294.5330
 21
641.9067
  0
LINE
  8
0_00
  6
CONTINUOUS
 62
2
 10
294.5328
 20
467.5068
 11
294.5328
 21
471.2615
  0
LINE
  8
0_00
  6
DASHED
 62
2
 10
310.0330
 20
641.9067
 11
310.0328
 21
470.7203
  0
LINE
  8
0_00
  6
CONTINUOUS
 62
2
 10
310.0328
 20
470.7203
 11
310.0328
 21
467.5068
  0
LINE
  8
0_00
  6
CONTINUOUS
 62
2
 10
345.6286
 20
472.9794
 11
345.5064
 21
469.4815
  0
LINE
  8
0_00
  6
CONTINUOUS
 62
4
 10
281.7828
 20
481.8328
 11
321.7828
 21
481.8328
  0
LINE
  8
0_00
  6
CONTINUOUS
 62
4
 10
322.2828
 20
481.3328
 11
322.2828
 21
476.1328
  0
LINE
  8
0_00
  6
CONTINUOUS
 62
4
 10
281.2828
 20
481.3328
 11
281.2828
 21
477.5159
  0
LINE
  8
0_00
  6
CONTINUOUS
 62
4
 10
281.7655
 20
477.0162
 11
321.7655
 21
475.6331
  0
LINE
  8
0_00
  6
CONTINUOUS
 62
4
 10
322.7828
 20
470.3669
 11
322.7828
 21
465.3068
  0
LINE
  8
0_00
  6
CONTINUOUS
 62
4
 10
281.7828
 20
471.7467
 11
281.7828
 21
465.3068
  0
LINE
  8
0_00
  6
CONTINUOUS
 62
4
 10
301.9828
 20
463.0067
 11
302.2828
 21
462.7067
  0
LINE
  8
0_00
  6
CONTINUOUS
 62
4
 10
302.2828
 20
462.7067
 11
302.5827
 21
463.0067
  0
LINE
  8
0_00
  6
CONTINUOUS
 62
4
 10
282.2828
 20
467.5068
 11
297.2779
 21
467.5068
  0
LINE
  8
0_00
  6
CONTINUOUS
 62
4
 10
307.2879
 20
467.5068
 11
322.2828
 21
467.5068
  0
LINE
  8
0_00
  6
CONTINUOUS
 62
4
 10
282.2828
 20
467.5068
 11
282.2828
 21
465.3068
  0
LINE
  8
0_00
  6
CONTINUOUS
 62
4
 10
322.2828
 20
467.5068
 11
322.2828
 21
465.3068
  0
LINE
  8
0_00
  6
CONTINUOUS
 62
4
 10
264.7828
 20
465.3068
 11
339.7828
 21
465.3068
  0
LINE
  8
0_00
  6
CONTINUOUS
 62
4
 10
339.7828
 20
465.3068
 11
339.7828
 21
463.0469
  0
LINE
  8
0_00
  6
CONTINUOUS
 62
4
 10
264.7828
 20
465.3068
 11
264.7828
 21
463.0067
  0
LINE
  8
0_00
  6
CONTINUOUS
 62
4
 10
250.2828
 20
459.8068
 11
354.2828
 21
459.8068
  0
LINE
  8
0_00
  6
CONTINUOUS
 62
2
 10
259.1813
 20
475.9981
 11
259.0591
 21
472.5003
  0
LINE
  8
0_00
  6
CONTINUOUS
 62
2
 10
345.5064
 20
469.4815
 11
259.0591
 21
472.5003
  0
LINE
  8
0_00
  6
CONTINUOUS
 62
2
 10
345.6181
 20
472.6795
 11
259.1708
 21
475.6983
  0
LINE
  8
0_00
  6
CONTINUOUS
 62
2
 10
345.6286
 20
472.9794
 11
259.1813
 21
475.9981
  0
LINE
  8
0_00
  6
CONTINUOUS
 62
4
 10
250.2828
 20
472.8067
 11
250.2828
 21
459.8068
  0
LINE
  8
0_00
  6
CONTINUOUS
 62
4
 10
354.2828
 20
469.3068
 11
354.2828
 21
459.8068
  0
LINE
  8
0_00
  6
CONTINUOUS
 62
4
 10
250.2828
 20
463.0067
 11
354.2828
 21
463.0067
  0
LINE
  8
14_0E
  6
CONTINUOUS
 62
4
 10
250.2828
 20
472.8067
 11
281.7828
 21
471.7467
  0
LINE
  8
0_00
  6
CONTINUOUS
 62
4
 10
322.7828
 20
470.3669
 11
354.2828
 21
469.3068
  0
LINE
  8
12_0C
  6
CONTINUOUS
 62
2
 10
305.7813
 20
642.8767
 11
305.7813
 21
641.9067
  0
LINE
  8
12_0C
  6
CONTINUOUS
 62
2
 10
298.7813
 20
642.8767
 11
298.7813
 21
641.9067
  0
LINE
  8
12_0C
  6
DASHED
 62
2
 10
300.2813
 20
641.9067
 11
300.2813
 21
621.7267
  0
LINE
  8
12_0C
  6
DASHED
 62
2
 10
300.7813
 20
641.9067
 11
300.7813
 21
611.9068
  0
LINE
  8
12_0C
  6
DASHED
 62
2
 10
304.2813
 20
641.9067
 11
304.2813
 21
621.7267
  0
LINE
  8
12_0C
  6
DASHED
 62
2
 10
303.7813
 20
641.9067
 11
303.7813
 21
611.9068
  0
LINE
  8
12_0C
  6
DASHED
 62
2
 10
300.2813
 20
621.7267
 11
300.7813
 21
617.3449
  0
LINE
  8
12_0C
  6
DASHED
 62
2
 10
304.2813
 20
621.7267
 11
303.7813
 21
617.3449
  0
LINE
  8
12_0C
  6
DASHED
 62
2
 10
300.7813
 20
611.9068
 11
303.7813
 21
611.9068
  0
LINE
  8
12_0C
  6
CONTINUOUS
 62
2
 10
298.7813
 20
641.9067
 11
305.7813
 21
641.9067
  0
LINE
  8
12_0C
  6
DASHED
 62
2
 10
304.2813
 20
621.7267
 11
300.7813
 21
617.3449
  0
LINE
  8
12_0C
  6
CONTINUOUS
 62
2
 10
301.2813
 20
655.1617
 11
301.2813
 21
654.1918
  0
LINE
  8
12_0C
  6
CONTINUOUS
 62
2
 10
294.2813
 20
655.1617
 11
294.2813
 21
654.1918
  0
LINE
  8
12_0C
  6
DASHED
 62
2
 10
295.7813
 20
654.1918
 11
295.7813
 21
634.0118
  0
LINE
  8
12_0C
  6
DASHED
 62
2
 10
296.2813
 20
654.1918
 11
296.2813
 21
624.1918
  0
LINE
  8
12_0C
  6
DASHED
 62
2
 10
299.7813
 20
654.1918
 11
299.7813
 21
634.0118
  0
LINE
  8
12_0C
  6
DASHED
 62
2
 10
299.2813
 20
654.1918
 11
299.2813
 21
624.1918
  0
LINE
  8
12_0C
  6
DASHED
 62
2
 10
295.7813
 20
634.0118
 11
296.2813
 21
629.6299
  0
LINE
  8
12_0C
  6
DASHED
 62
2
 10
299.7813
 20
634.0118
 11
299.2813
 21
629.6299
  0
LINE
  8
12_0C
  6
DASHED
 62
2
 10
296.2813
 20
624.1918
 11
299.2813
 21
624.1918
  0
LINE
  8
12_0C
  6
CONTINUOUS
 62
2
 10
294.2813
 20
654.1918
 11
301.2813
 21
654.1918
  0
LINE
  8
12_0C
  6
DASHED
 62
2
 10
299.7813
 20
634.0118
 11
296.2813
 21
629.6299
  0
LINE
  8
12_0C
  6
CONTINUOUS
 62
2
 10
310.2813
 20
655.1617
 11
310.2813
 21
654.1918
  0
LINE
  8
12_0C
  6
CONTINUOUS
 62
2
 10
303.2813
 20
655.1617
 11
303.2813
 21
654.1918
  0
LINE
  8
12_0C
  6
DASHED
 62
2
 10
304.7813
 20
654.1918
 11
304.7813
 21
634.0118
  0
LINE
  8
12_0C
  6
DASHED
 62
2
 10
305.2813
 20
654.1918
 11
305.2813
 21
624.1918
  0
LINE
  8
12_0C
  6
DASHED
 62
2
 10
308.7813
 20
654.1918
 11
308.7813
 21
634.0118
  0
LINE
  8
12_0C
  6
DASHED
 62
2
 10
308.2813
 20
654.1918
 11
308.2813
 21
624.1918
  0
LINE
  8
12_0C
  6
DASHED
 62
2
 10
304.7813
 20
634.0118
 11
305.2813
 21
629.6299
  0
LINE
  8
12_0C
  6
DASHED
 62
2
 10
308.7813
 20
634.0118
 11
308.2813
 21
629.6299
  0
LINE
  8
12_0C
  6
DASHED
 62
2
 10
305.2813
 20
624.1918
 11
308.2813
 21
624.1918
  0
LINE
  8
12_0C
  6
CONTINUOUS
 62
2
 10
303.2813
 20
654.1918
 11
310.2813
 21
654.1918
  0
LINE
  8
12_0C
  6
DASHED
 62
2
 10
308.7813
 20
634.0118
 11
305.2813
 21
629.6299
  0
LINE
  8
12_0C
  6
CONTINUOUS
 62
2
 10
284.7828
 20
470.5098
 11
284.7828
 21
471.4797
  0
LINE
  8
12_0C
  6
CONTINUOUS
 62
2
 10
291.7828
 20
470.5098
 11
291.7828
 21
471.4797
  0
LINE
  8
12_0C
  6
DASHED
 62
2
 10
290.2828
 20
471.4797
 11
290.2828
 21
491.6597
  0
LINE
  8
12_0C
  6
DASHED
 62
2
 10
289.7828
 20
471.4797
 11
289.7828
 21
501.4798
  0
LINE
  8
12_0C
  6
DASHED
 62
2
 10
286.2828
 20
471.4797
 11
286.2828
 21
491.6597
  0
LINE
  8
12_0C
  6
DASHED
 62
2
 10
286.7828
 20
471.4797
 11
286.7828
 21
501.4798
  0
LINE
  8
12_0C
  6
DASHED
 62
2
 10
290.2828
 20
491.6597
 11
289.7828
 21
496.0416
  0
LINE
  8
12_0C
  6
DASHED
 62
2
 10
286.2828
 20
491.6597
 11
286.7828
 21
496.0416
  0
LINE
  8
12_0C
  6
DASHED
 62
2
 10
289.7828
 20
501.4798
 11
286.7828
 21
501.4798
  0
LINE
  8
12_0C
  6
CONTINUOUS
 62
2
 10
291.7828
 20
471.4797
 11
284.7828
 21
471.4797
  0
LINE
  8
12_0C
  6
DASHED
 62
2
 10
286.2828
 20
491.6597
 11
289.7828
 21
496.0416
  0
LINE
  8
12_0C
  6
CONTINUOUS
 62
2
 10
312.7828
 20
469.5320
 11
312.7828
 21
470.5020
  0
LINE
  8
12_0C
  6
CONTINUOUS
 62
2
 10
319.7828
 20
469.5320
 11
319.7828
 21
470.5020
  0
LINE
  8
12_0C
  6
DASHED
 62
2
 10
318.2828
 20
470.5020
 11
318.2828
 21
490.6820
  0
LINE
  8
12_0C
  6
DASHED
 62
2
 10
317.7828
 20
470.5020
 11
317.7828
 21
500.5020
  0
LINE
  8
12_0C
  6
DASHED
 62
2
 10
314.2828
 20
470.5020
 11
314.2828
 21
490.6820
  0
LINE
  8
12_0C
  6
DASHED
 62
2
 10
314.7828
 20
470.5020
 11
314.7828
 21
500.5020
  0
LINE
  8
12_0C
  6
DASHED
 62
2
 10
318.2828
 20
490.6820
 11
317.7828
 21
495.0638
  0
LINE
  8
12_0C
  6
DASHED
 62
2
 10
314.2828
 20
490.6820
 11
314.7828
 21
495.0638
  0
LINE
  8
12_0C
  6
DASHED
 62
2
 10
317.7828
 20
500.5020
 11
314.7828
 21
500.5020
  0
LINE
  8
12_0C
  6
CONTINUOUS
 62
2
 10
319.7828
 20
470.5020
 11
312.7828
 21
470.5020
  0
LINE
  8
12_0C
  6
DASHED
 62
2
 10
314.2828
 20
490.6820
 11
317.7828
 21
495.0638
  0
LINE
  8
0_00
  6
CONTINUOUS
 62
4
 10
362.2828
 20
444.3068
 11
362.2828
 21
355.5395
  0
LINE
  8
0_00
  6
CONTINUOUS
 62
4
 10
242.2829
 20
436.3068
 11
251.2829
 21
445.3068
  0
LINE
  8
0_00
  6
CONTINUOUS
 62
4
 10
280.2118
 20
448.2357
 11
283.2829
 21
451.3068
  0
LINE
  8
0_00
  6
CONTINUOUS
 62
4
 10
273.1407
 20
450.3067
 11
256.0966
 21
450.3067
  0
LINE
  8
0_00
  6
CONTINUOUS
 62
2
 10
256.0966
 20
450.3067
 11
256.0966
 21
445.3068
  0
LINE
  8
0_00
  6
CONTINUOUS
 62
2
 10
256.0966
 20
449.0568
 11
273.1407
 21
449.0568
  0
LINE
  8
0_00
  6
CONTINUOUS
 62
2
 10
280.0506
 20
451.6100
 11
278.4440
 21
450.0034
  0
LINE
  8
0_00
  6
CONTINUOUS
 62
2
 10
273.1407
 20
447.8068
 11
256.0966
 21
447.8068
  0
LINE
  8
0_00
  6
CONTINUOUS
 62
2
 10
256.0966
 20
446.5567
 11
273.1407
 21
446.5567
  0
LINE
  8
0_00
  6
CONTINUOUS
 62
2
 10
279.3279
 20
449.1196
 11
280.9345
 21
450.7262
  0
LINE
  8
0_00
  6
CONTINUOUS
 62
4
 10
242.2829
 20
356.3068
 11
242.2829
 21
436.3068
  0
LINE
  8
0_00
  6
CONTINUOUS
 62
2
 10
279.5671
 20
445.3068
 11
242.2829
 21
408.0225
  0
LINE
  8
0_00
  6
CONTINUOUS
 62
2
 10
282.3956
 20
445.3068
 11
242.2829
 21
405.1941
  0
LINE
  8
0_00
  6
CONTINUOUS
 62
2
 10
337.5377
 20
441.0519
 11
252.7925
 21
356.3068
  0
LINE
  8
0_00
  6
CONTINUOUS
 62
2
 10
336.1235
 20
442.4661
 11
249.9641
 21
356.3068
  0
LINE
  8
0_00
  6
CONTINUOUS
 62
4
 10
347.2829
 20
356.3068
 11
347.2829
 21
376.1646
  0
LINE
  8
0_00
  6
CONTINUOUS
 62
4
 10
345.2118
 20
383.2357
 11
348.2829
 21
386.3068
  0
LINE
  8
0_00
  6
CONTINUOUS
 62
4
 10
350.3539
 20
381.3067
 11
348.7473
 21
379.7001
  0
LINE
  8
0_00
  6
CONTINUOUS
 62
2
 10
349.4700
 20
382.1906
 11
347.8634
 21
380.5840
  0
LINE
  8
0_00
  6
CONTINUOUS
 62
2
 10
346.0329
 20
376.1646
 11
346.0329
 21
356.3068
  0
LINE
  8
0_00
  6
CONTINUOUS
 62
2
 10
344.7829
 20
356.3068
 11
344.7829
 21
376.1646
  0
LINE
  8
0_00
  6
CONTINUOUS
 62
2
 10
346.9796
 20
381.4679
 11
348.5862
 21
383.0745
  0
LINE
  8
0_00
  6
CONTINUOUS
 62
2
 10
347.7023
 20
383.9584
 11
346.0957
 21
382.3518
  0
LINE
  8
0_00
  6
CONTINUOUS
 62
2
 10
343.5329
 20
376.1646
 11
343.5329
 21
356.3068
  0
LINE
  8
0_00
  6
CONTINUOUS
 62
2
 10
342.2829
 20
389.2285
 11
309.3611
 21
356.3068
  0
LINE
  8
0_00
  6
CONTINUOUS
 62
2
 10
342.2829
 20
386.4001
 11
312.1895
 21
356.3068
  0
LINE
  8
0_00
  6
CONTINUOUS
 62
4
 10
342.2829
 20
356.3068
 11
342.2829
 21
436.3068
  0
LINE
  8
0_00
  6
CONTINUOUS
 62
4
 10
342.2829
 20
436.3068
 11
333.2829
 21
445.3068
  0
LINE
  8
0_00
  6
CONTINUOUS
 62
4
 10
348.2829
 20
386.3068
 11
348.2829
 21
451.3068
  0
LINE
  8
0_00
  6
CONTINUOUS
 62
4
 10
333.2829
 20
445.3068
 11
336.2829
 21
445.3068
  0
LINE
  8
0_00
  6
CONTINUOUS
 62
4
 10
342.2829
 20
436.3068
 11
342.2829
 21
439.3068
  0
LINE
  8
0_00
  6
CONTINUOUS
 62
4
 10
353.2829
 20
388.3778
 11
353.2829
 21
451.3068
  0
LINE
  8
0_00
  6
CONTINUOUS
 62
2
 10
352.0329
 20
451.3068
 11
352.0329
 21
388.3778
  0
LINE
  8
0_00
  6
CONTINUOUS
 62
2
 10
350.7829
 20
388.3778
 11
350.7829
 21
451.3068
  0
LINE
  8
0_00
  6
CONTINUOUS
 62
2
 10
349.5329
 20
451.3068
 11
349.5329
 21
388.3778
  0
LINE
  8
0_00
  6
PHANTOM1
 62
2
 10
367.2829
 20
452.0893
 11
367.2829
 21
356.3068
  0
LINE
  8
0_00
  6
CONTINUOUS
 62
4
 10
333.2829
 20
445.3068
 11
251.2829
 21
445.3068
  0
LINE
  8
0_00
  6
CONTINUOUS
 62
4
 10
283.2829
 20
451.3068
 11
348.2829
 21
451.3068
  0
LINE
  8
0_00
  6
CONTINUOUS
 62
4
 10
278.2829
 20
453.3778
 11
276.6762
 21
451.7712
  0
LINE
  8
0_00
  6
CONTINUOUS
 62
2
 10
277.5602
 20
450.8873
 11
279.1668
 21
452.4939
  0
LINE
  8
0_00
  6
CONTINUOUS
 62
2
 10
285.3539
 20
455.0567
 11
348.2829
 21
455.0567
  0
LINE
  8
0_00
  6
CONTINUOUS
 62
2
 10
348.2829
 20
453.8068
 11
285.3539
 21
453.8068
  0
LINE
  8
0_00
  6
CONTINUOUS
 62
2
 10
285.3539
 20
452.5567
 11
348.2829
 21
452.5567
  0
LINE
  8
0_00
  6
CONTINUOUS
 62
4
 10
285.3539
 20
456.3068
 11
348.2829
 21
456.3068
  0
LINE
  8
0_00
  6
CONTINUOUS
 62
4
 10
353.2829
 20
451.3068
 11
355.2829
 21
451.3068
  0
LINE
  8
0_00
  6
CONTINUOUS
 62
4
 10
362.2828
 20
444.3068
 11
355.2829
 21
451.3068
  0
LINE
  8
0_00
  6
PHANTOM1
 62
2
 10
237.2829
 20
452.0893
 11
237.2829
 21
356.3068
  0
LINE
  8
12_0C
  6
CONTINUOUS
 62
2
 10
316.2813
 20
648.2917
 11
324.2813
 21
648.2917
  0
LINE
  8
15_0F
  6
CONTINUOUS
 62
6
 10
237.2829
 20
344.1664
 11
237.2829
 21
291.5000
  0
LINE
  8
15_0F
  6
CONTINUOUS
 62
6
 10
227.2828
 20
396.9406
 11
227.2828
 21
291.5000
  0
LINE
  8
15_0F
  6
CONTINUOUS
 62
6
 10
227.2828
 20
296.0000
 11
237.2829
 21
296.0000
  0
LINE
  8
15_0F
  6
CONTINUOUS
 62
6
 10
197.8827
 20
296.0000
 11
227.2828
 21
296.0000
  0
LINE
  8
15_0F
  6
CONTINUOUS
 62
6
 10
227.2828
 20
296.0000
 11
219.9467
 21
297.5593
  0
LINE
  8
15_0F
  6
CONTINUOUS
 62
6
 10
227.2828
 20
296.0000
 11
219.9467
 21
294.4407
  0
LINE
  8
15_0F
  6
CONTINUOUS
 62
6
 10
237.2829
 20
296.0000
 11
242.2829
 21
296.0000
  0
LINE
  8
15_0F
  6
CONTINUOUS
 62
6
 10
362.2828
 20
344.1664
 11
362.2828
 21
291.5000
  0
LINE
  8
15_0F
  6
CONTINUOUS
 62
6
 10
242.2829
 20
296.0000
 11
362.2828
 21
296.0000
  0
LINE
  8
15_0F
  6
CONTINUOUS
 62
6
 10
362.2828
 20
296.0000
 11
354.9467
 21
297.5593
  0
LINE
  8
15_0F
  6
CONTINUOUS
 62
6
 10
362.2828
 20
296.0000
 11
354.9467
 21
294.4407
  0
LINE
  8
15_0F
  6
CONTINUOUS
 62
6
 10
367.2829
 20
347.0983
 11
367.2829
 21
291.5000
  0
LINE
  8
15_0F
  6
CONTINUOUS
 62
6
 10
362.2828
 20
296.0000
 11
367.2829
 21
296.0000
  0
LINE
  8
15_0F
  6
CONTINUOUS
 62
6
 10
377.2828
 20
396.9406
 11
377.2828
 21
291.5000
  0
LINE
  8
15_0F
  6
CONTINUOUS
 62
6
 10
367.2829
 20
296.0000
 11
377.2828
 21
296.0000
  0
LINE
  8
15_0F
  6
CONTINUOUS
 62
6
 10
406.6827
 20
296.0000
 11
377.2828
 21
296.0000
  0
LINE
  8
15_0F
  6
CONTINUOUS
 62
6
 10
377.2828
 20
296.0000
 11
384.6189
 21
294.4407
  0
LINE
  8
15_0F
  6
CONTINUOUS
 62
6
 10
377.2828
 20
296.0000
 11
384.6189
 21
297.5593
  0
LINE
  8
15_0F
  6
CONTINUOUS
 62
6
 10
242.2829
 20
344.1664
 11
242.2829
 21
291.5000
  0
LINE
  8
15_0F
  6
CONTINUOUS
 62
6
 10
242.2829
 20
294.3347
 11
242.2829
 21
291.5000
  0
LINE
  8
0_00
  6
DASHED
 62
2
 10
333.2828
 20
465.3068
 11
333.2828
 21
435.5029
  0
LINE
  8
0_00
  6
CONTINUOUS
 62
2
 10
323.2828
 20
465.3068
 11
337.2828
 21
465.3068
  0
LINE
  8
0_00
  6
DASHED
 62
2
 10
330.2828
 20
430.3068
 11
333.2828
 21
435.5029
  0
LINE
  8
0_00
  6
DASHED
 62
2
 10
327.2828
 20
465.3068
 11
327.2828
 21
435.5029
  0
LINE
  8
0_00
  6
DASHED
 62
2
 10
330.2828
 20
430.3068
 11
327.2828
 21
435.5029
  0
LINE
  8
0_00
  6
CONTINUOUS
 62
2
 10
337.2828
 20
465.7213
 11
337.2828
 21
465.3068
  0
LINE
  8
0_00
  6
CONTINUOUS
 62
2
 10
323.2828
 20
465.7213
 11
337.2828
 21
465.7213
  0
LINE
  8
0_00
  6
CONTINUOUS
 62
2
 10
323.2828
 20
465.7213
 11
323.2828
 21
465.3068
  0
LINE
  8
0_00
  6
DASHED
 62
2
 10
332.4328
 20
465.3068
 11
332.4328
 21
434.0307
  0
LINE
  8
0_00
  6
DASHED
 62
2
 10
328.1327
 20
465.3068
 11
328.1327
 21
434.0307
  0
LINE
  8
0_00
  6
DASHED
 62
2
 10
305.2829
 20
465.3068
 11
305.2829
 21
435.5029
  0
LINE
  8
0_00
  6
CONTINUOUS
 62
2
 10
295.2829
 20
465.3068
 11
309.2829
 21
465.3068
  0
LINE
  8
0_00
  6
DASHED
 62
2
 10
302.2829
 20
430.3068
 11
305.2829
 21
435.5029
  0
LINE
  8
0_00
  6
DASHED
 62
2
 10
299.2829
 20
465.3068
 11
299.2829
 21
435.5029
  0
LINE
  8
0_00
  6
DASHED
 62
2
 10
302.2829
 20
430.3068
 11
299.2829
 21
435.5029
  0
LINE
  8
0_00
  6
CONTINUOUS
 62
2
 10
309.2829
 20
465.7213
 11
309.2829
 21
465.3068
  0
LINE
  8
0_00
  6
CONTINUOUS
 62
2
 10
295.2829
 20
465.7213
 11
309.2829
 21
465.7213
  0
LINE
  8
0_00
  6
CONTINUOUS
 62
2
 10
295.2829
 20
465.7213
 11
295.2829
 21
465.3068
  0
LINE
  8
0_00
  6
DASHED
 62
2
 10
304.4328
 20
465.3068
 11
304.4328
 21
434.0307
  0
LINE
  8
0_00
  6
DASHED
 62
2
 10
300.1329
 20
465.3068
 11
300.1329
 21
434.0307
  0
LINE
  8
0_00
  6
CONTINUOUS
 62
4
 10
562.0036
 20
729.4287
 11
562.0036
 21
720.4887
  0
LINE
  8
0_00
  6
CONTINUOUS
 62
4
 10
557.3536
 20
729.4287
 11
562.0036
 21
729.4287
  0
LINE
  8
0_00
  6
CONTINUOUS
 62
4
 10
557.3536
 20
720.4887
 11
562.0036
 21
720.4887
  0
LINE
  8
0_00
  6
CONTINUOUS
 62
4
 10
548.3536
 20
690.4437
 11
548.3536
 21
565.4436
  0
LINE
  8
0_00
  6
CONTINUOUS
 62
4
 10
597.5537
 20
720.9753
 11
597.5537
 21
700.6476
  0
LINE
  8
0_00
  6
CONTINUOUS
 62
4
 10
592.1536
 20
720.9753
 11
592.1536
 21
700.6476
  0
LINE
  8
0_00
  6
CONTINUOUS
 62
4
 10
597.9286
 20
700.5726
 11
597.9286
 21
700.1784
  0
LINE
  8
0_00
  6
CONTINUOUS
 62
4
 10
591.7787
 20
700.5726
 11
591.7787
 21
700.1784
  0
LINE
  8
0_00
  6
CONTINUOUS
 62
4
 10
591.8536
 20
700.6476
 11
597.8536
 21
700.6476
  0
LINE
  8
0_00
  6
CENTER1
 62
6
 10
1059.8536
 20
736.3988
 11
1059.8536
 21
685.1174
  0
LINE
  8
0_00
  6
CENTER1
 62
6
 10
904.8537
 20
736.3988
 11
904.8537
 21
685.1174
  0
LINE
  8
0_00
  6
CENTER1
 62
6
 10
749.8537
 20
736.3988
 11
749.8537
 21
685.1174
  0
LINE
  8
0_00
  6
CONTINUOUS
 62
4
 10
752.5537
 20
720.9753
 11
752.5537
 21
700.6476
  0
LINE
  8
0_00
  6
CONTINUOUS
 62
4
 10
747.1536
 20
720.9753
 11
747.1536
 21
700.6476
  0
LINE
  8
0_00
  6
CONTINUOUS
 62
4
 10
752.9286
 20
700.5726
 11
752.9286
 21
700.1784
  0
LINE
  8
0_00
  6
CONTINUOUS
 62
4
 10
746.7787
 20
700.5726
 11
746.7787
 21
700.1784
  0
LINE
  8
0_00
  6
CONTINUOUS
 62
4
 10
746.8536
 20
700.6476
 11
752.8537
 21
700.6476
  0
LINE
  8
0_00
  6
CONTINUOUS
 62
4
 10
907.5536
 20
720.9753
 11
907.5536
 21
700.6476
  0
LINE
  8
0_00
  6
CONTINUOUS
 62
4
 10
902.1536
 20
720.9753
 11
902.1536
 21
700.6476
  0
LINE
  8
0_00
  6
CONTINUOUS
 62
4
 10
907.9286
 20
700.5726
 11
907.9286
 21
700.1784
  0
LINE
  8
0_00
  6
CONTINUOUS
 62
4
 10
901.7786
 20
700.5726
 11
901.7786
 21
700.1784
  0
LINE
  8
0_00
  6
CONTINUOUS
 62
4
 10
901.8537
 20
700.6476
 11
907.8537
 21
700.6476
  0
LINE
  8
0_00
  6
CONTINUOUS
 62
4
 10
1062.5535
 20
720.9753
 11
1062.5535
 21
700.6476
  0
LINE
  8
0_00
  6
CONTINUOUS
 62
4
 10
1057.1536
 20
720.9753
 11
1057.1536
 21
700.6476
  0
LINE
  8
0_00
  6
CONTINUOUS
 62
4
 10
1062.9286
 20
700.5726
 11
1062.9286
 21
700.1784
  0
LINE
  8
0_00
  6
CONTINUOUS
 62
4
 10
1056.7786
 20
700.5726
 11
1056.7786
 21
700.1784
  0
LINE
  8
0_00
  6
CONTINUOUS
 62
4
 10
1056.8536
 20
700.6476
 11
1062.8536
 21
700.6476
  0
LINE
  8
0_00
  6
CENTER1
 62
6
 10
594.8536
 20
736.3988
 11
594.8536
 21
685.1174
  0
LINE
  8
0_00
  6
CONTINUOUS
 62
4
 10
982.3537
 20
700.5835
 11
982.3537
 21
690.0387
  0
LINE
  8
0_00
  6
CONTINUOUS
 62
4
 10
979.7287
 20
700.3884
 11
979.7287
 21
690.0387
  0
LINE
  8
0_00
  6
CONTINUOUS
 62
4
 10
984.9786
 20
700.3884
 11
984.9786
 21
690.0387
  0
LINE
  8
0_00
  6
CONTINUOUS
 62
4
 10
982.3537
 20
700.5835
 11
984.9786
 21
700.3884
  0
LINE
  8
0_00
  6
CONTINUOUS
 62
4
 10
982.3537
 20
700.5835
 11
979.7287
 21
700.3884
  0
LINE
  8
0_00
  6
CONTINUOUS
 62
4
 10
984.9786
 20
690.0387
 11
979.7287
 21
690.0387
  0
LINE
  8
0_00
  6
CONTINUOUS
 62
4
 10
674.9786
 20
700.1784
 11
979.7287
 21
700.1784
  0
LINE
  8
0_00
  6
CONTINUOUS
 62
4
 10
984.9786
 20
700.1784
 11
1108.1536
 21
700.1784
  0
LINE
  8
0_00
  6
CONTINUOUS
 62
4
 10
674.9786
 20
690.4437
 11
979.7287
 21
690.4437
  0
LINE
  8
0_00
  6
CONTINUOUS
 62
4
 10
984.9786
 20
690.4437
 11
1108.1536
 21
690.4437
  0
LINE
  8
0_00
  6
CONTINUOUS
 62
4
 10
560.0537
 20
720.4887
 11
560.0537
 21
700.6476
  0
LINE
  8
0_00
  6
CONTINUOUS
 62
4
 10
554.6537
 20
721.3962
 11
554.6537
 21
700.6476
  0
LINE
  8
0_00
  6
CONTINUOUS
 62
4
 10
560.4287
 20
700.5726
 11
560.4287
 21
700.1784
  0
LINE
  8
0_00
  6
CONTINUOUS
 62
4
 10
554.2786
 20
700.5726
 11
554.2786
 21
700.1784
  0
LINE
  8
0_00
  6
CONTINUOUS
 62
4
 10
554.3536
 20
700.6476
 11
560.3536
 21
700.6476
  0
LINE
  8
3_03
  6
CONTINUOUS
 62
4
 10
1108.6036
 20
690.8936
 11
1108.6036
 21
699.7283
  0
LINE
  8
0_00
  6
CONTINUOUS
 62
4
 10
1092.7036
 20
729.4287
 11
1092.7036
 21
720.4887
  0
LINE
  8
0_00
  6
CONTINUOUS
 62
4
 10
1097.3536
 20
729.4287
 11
1092.7036
 21
729.4287
  0
LINE
  8
0_00
  6
CONTINUOUS
 62
4
 10
1097.3536
 20
720.4887
 11
1092.7036
 21
720.4887
  0
LINE
  8
0_00
  6
CONTINUOUS
 62
4
 10
1106.3536
 20
690.4437
 11
1106.3536
 21
565.4436
  0
LINE
  8
0_00
  6
CONTINUOUS
 62
4
 10
1094.6536
 20
720.4887
 11
1094.6536
 21
700.6476
  0
LINE
  8
0_00
  6
CONTINUOUS
 62
4
 10
1100.0536
 20
721.3962
 11
1100.0536
 21
700.6476
  0
LINE
  8
0_00
  6
CONTINUOUS
 62
4
 10
1094.2786
 20
700.5726
 11
1094.2786
 21
700.1784
  0
LINE
  8
0_00
  6
CONTINUOUS
 62
4
 10
1100.4286
 20
700.5726
 11
1100.4286
 21
700.1784
  0
LINE
  8
0_00
  6
CONTINUOUS
 62
4
 10
1100.3536
 20
700.6476
 11
1094.3536
 21
700.6476
  0
LINE
  8
0_00
  6
CONTINUOUS
 62
4
 10
878.2917
 20
391.0623
 11
1146.3537
 21
391.0623
  0
LINE
  8
0_00
  6
CONTINUOUS
 62
4
 10
1146.3537
 20
241.0623
 11
863.7025
 21
241.0623
  0
LINE
  8
0_00
  6
CONTINUOUS
 62
4
 10
859.0439
 20
241.0623
 11
560.5806
 21
241.0623
  0
LINE
  8
0_00
  6
CONTINUOUS
 62
4
 10
873.6330
 20
391.0623
 11
560.5806
 21
391.0623
  0
LINE
  8
0_00
  6
CONTINUOUS
 62
4
 10
560.5806
 20
389.6624
 11
873.2578
 21
389.6624
  0
LINE
  8
0_00
  6
CONTINUOUS
 62
4
 10
560.5806
 20
242.4623
 11
859.4190
 21
242.4623
  0
LINE
  8
0_00
  6
CONTINUOUS
 62
2
 10
710.5040
 20
374.3623
 11
650.5040
 21
374.3623
  0
LINE
  8
0_00
  6
CONTINUOUS
 62
2
 10
710.5040
 20
369.3623
 11
650.5040
 21
369.3623
  0
LINE
  8
0_00
  6
CONTINUOUS
 62
2
 10
710.5040
 20
262.7623
 11
650.5040
 21
262.7623
  0
LINE
  8
0_00
  6
CONTINUOUS
 62
2
 10
710.5040
 20
257.7623
 11
650.5040
 21
257.7623
  0
LINE
  8
0_00
  6
CONTINUOUS
 62
2
 10
684.8038
 20
323.8123
 11
680.7040
 21
323.8123
  0
LINE
  8
0_00
  6
CONTINUOUS
 62
2
 10
680.3039
 20
323.8123
 11
676.2041
 21
323.8123
  0
LINE
  8
0_00
  6
CONTINUOUS
 62
2
 10
687.5040
 20
317.5623
 11
687.5040
 21
316.2623
  0
LINE
  8
0_00
  6
CONTINUOUS
 62
2
 10
687.5040
 20
315.8624
 11
687.5040
 21
314.5623
  0
LINE
  8
0_00
  6
CONTINUOUS
 62
2
 10
676.1723
 20
322.7623
 11
677.5052
 21
322.7623
  0
LINE
  8
0_00
  6
CONTINUOUS
 62
2
 10
684.8357
 20
322.7623
 11
683.5027
 21
322.7623
  0
LINE
  8
0_00
  6
CONTINUOUS
 62
2
 10
682.5039
 20
321.3123
 11
682.5039
 21
319.8123
  0
LINE
  8
0_00
  6
CONTINUOUS
 62
2
 10
678.5040
 20
321.3123
 11
678.5040
 21
319.8123
  0
LINE
  8
0_00
  6
CONTINUOUS
 62
2
 10
679.7540
 20
322.5623
 11
681.2540
 21
322.5623
  0
LINE
  8
0_00
  6
CONTINUOUS
 62
2
 10
681.2540
 20
322.5623
 11
681.2540
 21
322.0880
  0
LINE
  8
0_00
  6
CONTINUOUS
 62
2
 10
679.7540
 20
322.5623
 11
679.7540
 21
322.0880
  0
LINE
  8
0_00
  6
CONTINUOUS
 62
2
 10
682.0296
 20
321.3123
 11
682.5039
 21
321.3123
  0
LINE
  8
0_00
  6
CONTINUOUS
 62
2
 10
682.0296
 20
319.8123
 11
682.5039
 21
319.8123
  0
LINE
  8
0_00
  6
CONTINUOUS
 62
2
 10
678.5040
 20
321.3123
 11
678.9784
 21
321.3123
  0
LINE
  8
0_00
  6
CONTINUOUS
 62
2
 10
678.5040
 20
319.8123
 11
678.9784
 21
319.8123
  0
LINE
  8
0_00
  6
CONTINUOUS
 62
2
 10
678.8269
 20
318.5623
 11
679.1114
 21
318.5623
  0
LINE
  8
0_00
  6
CONTINUOUS
 62
2
 10
681.8966
 20
318.5623
 11
682.1810
 21
318.5623
  0
LINE
  8
0_00
  6
CONTINUOUS
 62
2
 10
686.4040
 20
317.5623
 11
686.4040
 21
314.5623
  0
LINE
  8
0_00
  6
CONTINUOUS
 62
2
 10
687.3040
 20
316.0623
 11
687.5040
 21
316.2623
  0
LINE
  8
0_00
  6
CONTINUOUS
 62
2
 10
687.3040
 20
316.0623
 11
687.5040
 21
315.8624
  0
LINE
  8
0_00
  6
CONTINUOUS
 62
2
 10
680.3039
 20
323.8123
 11
680.5040
 21
323.6123
  0
LINE
  8
0_00
  6
CONTINUOUS
 62
2
 10
680.7040
 20
323.8123
 11
680.5040
 21
323.6123
  0
LINE
  8
0_00
  6
CONTINUOUS
 62
2
 10
673.5040
 20
317.5623
 11
673.5040
 21
316.2623
  0
LINE
  8
0_00
  6
CONTINUOUS
 62
2
 10
673.5040
 20
315.8624
 11
673.5040
 21
314.5623
  0
LINE
  8
0_00
  6
CONTINUOUS
 62
2
 10
674.6040
 20
317.5623
 11
674.6040
 21
314.5623
  0
LINE
  8
0_00
  6
CONTINUOUS
 62
2
 10
673.7040
 20
316.0623
 11
673.5040
 21
316.2623
  0
LINE
  8
0_00
  6
CONTINUOUS
 62
2
 10
673.7040
 20
316.0623
 11
673.5040
 21
315.8624
  0
LINE
  8
0_00
  6
CONTINUOUS
 62
2
 10
684.8038
 20
308.3123
 11
680.7040
 21
308.3123
  0
LINE
  8
0_00
  6
CONTINUOUS
 62
2
 10
680.3039
 20
308.3123
 11
676.2041
 21
308.3123
  0
LINE
  8
0_00
  6
CONTINUOUS
 62
2
 10
676.1723
 20
309.3623
 11
677.5052
 21
309.3623
  0
LINE
  8
0_00
  6
CONTINUOUS
 62
2
 10
684.8357
 20
309.3623
 11
683.5027
 21
309.3623
  0
LINE
  8
0_00
  6
CONTINUOUS
 62
2
 10
682.5039
 20
310.8123
 11
682.5039
 21
312.3123
  0
LINE
  8
0_00
  6
CONTINUOUS
 62
2
 10
678.5040
 20
310.8123
 11
678.5040
 21
312.3123
  0
LINE
  8
0_00
  6
CONTINUOUS
 62
2
 10
679.7540
 20
309.5623
 11
681.2540
 21
309.5623
  0
LINE
  8
0_00
  6
CONTINUOUS
 62
2
 10
681.2540
 20
309.5623
 11
681.2540
 21
310.0367
  0
LINE
  8
0_00
  6
CONTINUOUS
 62
2
 10
679.7540
 20
309.5623
 11
679.7540
 21
310.0367
  0
LINE
  8
0_00
  6
CONTINUOUS
 62
2
 10
682.0296
 20
310.8123
 11
682.5039
 21
310.8123
  0
LINE
  8
0_00
  6
CONTINUOUS
 62
2
 10
682.0296
 20
312.3123
 11
682.5039
 21
312.3123
  0
LINE
  8
0_00
  6
CONTINUOUS
 62
2
 10
678.5040
 20
310.8123
 11
678.9784
 21
310.8123
  0
LINE
  8
0_00
  6
CONTINUOUS
 62
2
 10
678.5040
 20
312.3123
 11
678.9784
 21
312.3123
  0
LINE
  8
0_00
  6
CONTINUOUS
 62
2
 10
678.8269
 20
313.5623
 11
679.1114
 21
313.5623
  0
LINE
  8
0_00
  6
CONTINUOUS
 62
2
 10
681.8966
 20
313.5623
 11
682.1810
 21
313.5623
  0
LINE
  8
0_00
  6
CONTINUOUS
 62
2
 10
680.3039
 20
308.3123
 11
680.5040
 21
308.5123
  0
LINE
  8
0_00
  6
CONTINUOUS
 62
2
 10
680.7040
 20
308.3123
 11
680.5040
 21
308.5123
  0
LINE
  8
0_00
  6
CONTINUOUS
 62
4
 10
690.7040
 20
336.5623
 11
690.7040
 21
368.0623
  0
LINE
  8
0_00
  6
CONTINUOUS
 62
4
 10
670.3039
 20
336.5623
 11
670.3039
 21
368.0623
  0
LINE
  8
0_00
  6
CONTINUOUS
 62
4
 10
702.5040
 20
320.3123
 11
701.0250
 21
320.3123
  0
LINE
  8
0_00
  6
CONTINUOUS
 62
4
 10
707.5039
 20
368.0623
 11
653.5040
 21
368.0623
  0
LINE
  8
0_00
  6
CONTINUOUS
 62
4
 10
707.5039
 20
264.0623
 11
653.5040
 21
264.0623
  0
LINE
  8
0_00
  6
CONTINUOUS
 62
4
 10
710.5040
 20
267.0623
 11
710.5040
 21
365.0623
  0
LINE
  8
0_00
  6
CONTINUOUS
 62
4
 10
650.5040
 20
267.0623
 11
650.5040
 21
365.0623
  0
LINE
  8
0_00
  6
CONTINUOUS
 62
4
 10
693.5040
 20
295.5623
 11
667.5040
 21
295.5623
  0
LINE
  8
0_00
  6
CONTINUOUS
 62
4
 10
693.5040
 20
336.5623
 11
667.5040
 21
336.5623
  0
LINE
  8
0_00
  6
CONTINUOUS
 62
4
 10
690.7040
 20
295.5623
 11
690.7040
 21
264.0623
  0
LINE
  8
0_00
  6
CONTINUOUS
 62
4
 10
670.3039
 20
295.5623
 11
670.3039
 21
264.0623
  0
LINE
  8
0_00
  6
CONTINUOUS
 62
4
 10
680.8040
 20
363.0623
 11
680.2039
 21
363.0623
  0
LINE
  8
0_00
  6
CONTINUOUS
 62
4
 10
680.8040
 20
363.0623
 11
680.8040
 21
368.0623
  0
LINE
  8
0_00
  6
CONTINUOUS
 62
4
 10
680.5040
 20
363.0623
 11
680.5040
 21
368.0623
  0
LINE
  8
0_00
  6
CONTINUOUS
 62
4
 10
680.2039
 20
363.0623
 11
680.2039
 21
368.0623
  0
LINE
  8
0_00
  6
CONTINUOUS
 62
4
 10
680.8040
 20
269.0623
 11
680.2039
 21
269.0623
  0
LINE
  8
0_00
  6
CONTINUOUS
 62
4
 10
680.8040
 20
269.0623
 11
680.8040
 21
264.0623
  0
LINE
  8
0_00
  6
CONTINUOUS
 62
4
 10
680.5040
 20
269.0623
 11
680.5040
 21
264.0623
  0
LINE
  8
0_00
  6
CONTINUOUS
 62
4
 10
680.2039
 20
269.0623
 11
680.2039
 21
264.0623
  0
LINE
  8
0_00
  6
CONTINUOUS
 62
4
 10
652.2862
 20
315.7623
 11
650.5040
 21
315.7623
  0
LINE
  8
0_00
  6
CONTINUOUS
 62
4
 10
652.2790
 20
316.0623
 11
650.5040
 21
316.0623
  0
LINE
  8
0_00
  6
CONTINUOUS
 62
4
 10
652.2862
 20
316.3624
 11
650.5040
 21
316.3624
  0
LINE
  8
0_00
  6
CONTINUOUS
 62
4
 10
706.9940
 20
315.7623
 11
710.5040
 21
315.7623
  0
LINE
  8
0_00
  6
CONTINUOUS
 62
4
 10
707.0040
 20
316.0623
 11
710.5040
 21
316.0623
  0
LINE
  8
0_00
  6
CONTINUOUS
 62
4
 10
706.9940
 20
316.3624
 11
710.5040
 21
316.3624
  0
LINE
  8
0_00
  6
CONTINUOUS
 62
4
 10
702.5040
 20
311.8123
 11
701.0250
 21
311.8123
  0
LINE
  8
0_00
  6
CONTINUOUS
 62
4
 10
693.0040
 20
296.0623
 11
668.0040
 21
296.0623
  0
LINE
  8
0_00
  6
CONTINUOUS
 62
4
 10
693.0040
 20
336.0623
 11
668.0040
 21
336.0623
  0
LINE
  8
0_00
  6
CONTINUOUS
 62
4
 10
680.8040
 20
326.0623
 11
680.2039
 21
326.0623
  0
LINE
  8
0_00
  6
CONTINUOUS
 62
4
 10
680.5040
 20
326.0623
 11
680.5040
 21
336.0623
  0
LINE
  8
0_00
  6
CONTINUOUS
 62
4
 10
680.8040
 20
326.0623
 11
680.8040
 21
336.0623
  0
LINE
  8
0_00
  6
CONTINUOUS
 62
4
 10
680.2039
 20
326.0623
 11
680.2039
 21
336.0623
  0
LINE
  8
0_00
  6
CONTINUOUS
 62
4
 10
680.8040
 20
306.0623
 11
680.2039
 21
306.0623
  0
LINE
  8
0_00
  6
CONTINUOUS
 62
4
 10
680.5040
 20
306.0623
 11
680.5040
 21
296.0623
  0
LINE
  8
0_00
  6
CONTINUOUS
 62
4
 10
680.8040
 20
306.0623
 11
680.8040
 21
296.0623
  0
LINE
  8
0_00
  6
CONTINUOUS
 62
4
 10
680.2039
 20
306.0623
 11
680.2039
 21
296.0623
  0
LINE
  8
0_00
  6
CONTINUOUS
 62
4
 10
692.0040
 20
336.0623
 11
692.0040
 21
296.0623
  0
LINE
  8
0_00
  6
CONTINUOUS
 62
4
 10
694.0040
 20
295.0623
 11
694.0040
 21
293.5623
  0
LINE
  8
0_00
  6
CONTINUOUS
 62
4
 10
694.0040
 20
282.5623
 11
694.0040
 21
280.5623
  0
LINE
  8
0_00
  6
CONTINUOUS
 62
4
 10
696.0040
 20
278.5623
 11
707.5039
 21
278.5623
  0
LINE
  8
0_00
  6
CONTINUOUS
 62
4
 10
694.0040
 20
337.0623
 11
694.0040
 21
338.5623
  0
LINE
  8
0_00
  6
CONTINUOUS
 62
4
 10
695.0040
 20
339.5623
 11
701.0040
 21
339.5623
  0
LINE
  8
0_00
  6
CONTINUOUS
 62
4
 10
695.0040
 20
348.5623
 11
701.0040
 21
348.5623
  0
LINE
  8
0_00
  6
CONTINUOUS
 62
4
 10
694.0040
 20
349.5623
 11
694.0040
 21
351.5623
  0
LINE
  8
0_00
  6
CONTINUOUS
 62
4
 10
696.0040
 20
353.5623
 11
707.5039
 21
353.5623
  0
LINE
  8
0_00
  6
CONTINUOUS
 62
4
 10
667.0040
 20
295.0623
 11
667.0040
 21
293.5623
  0
LINE
  8
0_00
  6
CONTINUOUS
 62
4
 10
666.0040
 20
292.5623
 11
660.0039
 21
292.5623
  0
LINE
  8
0_00
  6
CONTINUOUS
 62
4
 10
666.0040
 20
283.5623
 11
660.0039
 21
283.5623
  0
LINE
  8
0_00
  6
CONTINUOUS
 62
4
 10
667.0040
 20
282.5623
 11
667.0040
 21
280.5623
  0
LINE
  8
0_00
  6
CONTINUOUS
 62
4
 10
665.0040
 20
278.5623
 11
653.5040
 21
278.5623
  0
LINE
  8
0_00
  6
CONTINUOUS
 62
4
 10
667.0040
 20
337.0623
 11
667.0040
 21
338.5623
  0
LINE
  8
0_00
  6
CONTINUOUS
 62
4
 10
667.0040
 20
349.5623
 11
667.0040
 21
351.5623
  0
LINE
  8
0_00
  6
CONTINUOUS
 62
4
 10
665.0040
 20
353.5623
 11
653.5040
 21
353.5623
  0
LINE
  8
0_00
  6
CONTINUOUS
 62
4
 10
690.4415
 20
296.0623
 11
690.4415
 21
336.0623
  0
LINE
  8
0_00
  6
CONTINUOUS
 62
4
 10
669.0040
 20
336.0623
 11
669.0040
 21
296.0623
  0
LINE
  8
0_00
  6
CONTINUOUS
 62
4
 10
670.5664
 20
296.0623
 11
670.5664
 21
336.0623
  0
LINE
  8
0_00
  6
CONTINUOUS
 62
4
 10
697.2540
 20
339.8123
 11
701.2540
 21
339.8123
  0
LINE
  8
0_00
  6
CONTINUOUS
 62
4
 10
697.2540
 20
348.3123
 11
701.2540
 21
348.3123
  0
LINE
  8
0_00
  6
CONTINUOUS
 62
4
 10
663.7540
 20
292.3123
 11
659.7540
 21
292.3123
  0
LINE
  8
0_00
  6
CONTINUOUS
 62
4
 10
663.7540
 20
283.8123
 11
659.7540
 21
283.8123
  0
LINE
  8
0_00
  6
CENTER1
 62
6
 10
699.2540
 20
271.5209
 11
699.2540
 21
303.4259
  0
LINE
  8
0_00
  6
CENTER1
 62
6
 10
717.5362
 20
288.0623
 11
686.5299
 21
288.0623
  0
LINE
  8
0_00
  6
CENTER1
 62
6
 10
658.5039
 20
331.2867
 11
658.5039
 21
300.0557
  0
LINE
  8
0_00
  6
CONTINUOUS
 62
4
 10
666.0040
 20
339.5623
 11
660.0039
 21
339.5623
  0
LINE
  8
0_00
  6
CONTINUOUS
 62
4
 10
666.0040
 20
348.5623
 11
660.0039
 21
348.5623
  0
LINE
  8
0_00
  6
CONTINUOUS
 62
4
 10
663.7540
 20
339.8123
 11
659.7540
 21
339.8123
  0
LINE
  8
0_00
  6
CONTINUOUS
 62
4
 10
663.7540
 20
348.3123
 11
659.7540
 21
348.3123
  0
LINE
  8
0_00
  6
CONTINUOUS
 62
2
 10
657.2281
 20
318.1522
 11
658.0970
 21
317.3135
  0
LINE
  8
0_00
  6
CONTINUOUS
 62
2
 10
658.0970
 20
317.3135
 11
658.5039
 21
317.1650
  0
LINE
  8
0_00
  6
CONTINUOUS
 62
2
 10
658.5039
 20
317.1650
 11
658.8890
 21
317.3053
  0
LINE
  8
0_00
  6
CONTINUOUS
 62
2
 10
658.8890
 20
317.3053
 11
659.7854
 21
318.1495
  0
LINE
  8
0_00
  6
CONTINUOUS
 62
2
 10
656.4141
 20
317.3383
 11
657.2528
 21
316.4693
  0
LINE
  8
0_00
  6
CONTINUOUS
 62
2
 10
657.2528
 20
316.4693
 11
657.4013
 21
316.0623
  0
LINE
  8
0_00
  6
CONTINUOUS
 62
2
 10
657.4013
 20
316.0623
 11
657.2611
 21
315.6774
  0
LINE
  8
0_00
  6
CONTINUOUS
 62
2
 10
657.2611
 20
315.6774
 11
656.4169
 21
314.7809
  0
LINE
  8
0_00
  6
CONTINUOUS
 62
2
 10
660.5939
 20
314.7864
 11
659.7552
 21
315.6553
  0
LINE
  8
0_00
  6
CONTINUOUS
 62
2
 10
659.7552
 20
315.6553
 11
659.6066
 21
316.0623
  0
LINE
  8
0_00
  6
CONTINUOUS
 62
2
 10
659.6066
 20
316.0623
 11
659.7469
 21
316.4473
  0
LINE
  8
0_00
  6
CONTINUOUS
 62
2
 10
659.7469
 20
316.4473
 11
660.5911
 21
317.3438
  0
LINE
  8
0_00
  6
CONTINUOUS
 62
2
 10
659.7799
 20
313.9724
 11
658.9110
 21
314.8111
  0
LINE
  8
0_00
  6
CONTINUOUS
 62
2
 10
658.9110
 20
314.8111
 11
658.5039
 21
314.9596
  0
LINE
  8
0_00
  6
CONTINUOUS
 62
2
 10
658.5039
 20
314.9596
 11
658.1190
 21
314.8194
  0
LINE
  8
0_00
  6
CONTINUOUS
 62
2
 10
658.1190
 20
314.8194
 11
657.2226
 21
313.9752
  0
LINE
  8
0_00
  6
CONTINUOUS
 62
2
 10
697.9780
 20
290.1522
 11
698.8470
 21
289.3135
  0
LINE
  8
0_00
  6
CONTINUOUS
 62
2
 10
698.8470
 20
289.3135
 11
699.2540
 21
289.1650
  0
LINE
  8
0_00
  6
CONTINUOUS
 62
2
 10
699.2540
 20
289.1650
 11
699.6390
 21
289.3053
  0
LINE
  8
0_00
  6
CONTINUOUS
 62
2
 10
699.6390
 20
289.3053
 11
700.5354
 21
290.1495
  0
LINE
  8
0_00
  6
CONTINUOUS
 62
2
 10
697.1641
 20
289.3382
 11
698.0029
 21
288.4693
  0
LINE
  8
0_00
  6
CONTINUOUS
 62
2
 10
698.0029
 20
288.4693
 11
698.1513
 21
288.0623
  0
LINE
  8
0_00
  6
CONTINUOUS
 62
2
 10
698.1513
 20
288.0623
 11
698.0111
 21
287.6774
  0
LINE
  8
0_00
  6
CONTINUOUS
 62
2
 10
698.0111
 20
287.6774
 11
697.1668
 21
286.7809
  0
LINE
  8
0_00
  6
CONTINUOUS
 62
2
 10
701.3439
 20
286.7864
 11
700.5052
 21
287.6553
  0
LINE
  8
0_00
  6
CONTINUOUS
 62
2
 10
700.5052
 20
287.6553
 11
700.3567
 21
288.0623
  0
LINE
  8
0_00
  6
CONTINUOUS
 62
2
 10
700.3567
 20
288.0623
 11
700.4969
 21
288.4473
  0
LINE
  8
0_00
  6
CONTINUOUS
 62
2
 10
700.4969
 20
288.4473
 11
701.3411
 21
289.3437
  0
LINE
  8
0_00
  6
CONTINUOUS
 62
2
 10
700.5299
 20
285.9725
 11
699.6610
 21
286.8112
  0
LINE
  8
0_00
  6
CONTINUOUS
 62
2
 10
699.6610
 20
286.8112
 11
699.2540
 21
286.9597
  0
LINE
  8
0_00
  6
CONTINUOUS
 62
2
 10
699.2540
 20
286.9597
 11
698.8690
 21
286.8194
  0
LINE
  8
0_00
  6
CONTINUOUS
 62
2
 10
698.8690
 20
286.8194
 11
697.9725
 21
285.9752
  0
LINE
  8
0_00
  6
CONTINUOUS
 62
4
 10
560.5806
 20
256.0623
 11
650.5040
 21
256.0623
  0
LINE
  8
0_00
  6
CONTINUOUS
 62
4
 10
710.5040
 20
256.0623
 11
863.0631
 21
256.0623
  0
LINE
  8
0_00
  6
CONTINUOUS
 62
2
 10
560.5806
 20
265.0623
 11
650.5040
 21
265.0623
  0
LINE
  8
0_00
  6
CONTINUOUS
 62
2
 10
710.5040
 20
265.0623
 11
865.4746
 21
265.0623
  0
LINE
  8
0_00
  6
CONTINUOUS
 62
2
 10
867.2021
 20
367.0623
 11
710.5040
 21
367.0623
  0
LINE
  8
0_00
  6
CONTINUOUS
 62
2
 10
650.5040
 20
367.0623
 11
560.5806
 21
367.0623
  0
LINE
  8
0_00
  6
CONTINUOUS
 62
4
 10
869.6137
 20
376.0623
 11
710.5040
 21
376.0623
  0
LINE
  8
0_00
  6
CONTINUOUS
 62
4
 10
650.5040
 20
376.0623
 11
560.5806
 21
376.0623
  0
LINE
  8
0_00
  6
CONTINUOUS
 62
4
 10
1066.2841
 20
326.0623
 11
1065.6841
 21
326.0623
  0
LINE
  8
0_00
  6
CONTINUOUS
 62
4
 10
1065.9841
 20
326.0623
 11
1065.9841
 21
326.3123
  0
LINE
  8
0_00
  6
CONTINUOUS
 62
4
 10
1066.2841
 20
326.0623
 11
1066.2841
 21
326.3123
  0
LINE
  8
0_00
  6
CONTINUOUS
 62
4
 10
1065.6841
 20
326.0623
 11
1065.6841
 21
326.3123
  0
LINE
  8
0_00
  6
CONTINUOUS
 62
4
 10
1066.2841
 20
306.0623
 11
1065.6841
 21
306.0623
  0
LINE
  8
0_00
  6
CONTINUOUS
 62
4
 10
1065.9841
 20
306.0623
 11
1065.9841
 21
305.8123
  0
LINE
  8
0_00
  6
CONTINUOUS
 62
4
 10
1066.2841
 20
306.0623
 11
1066.2841
 21
305.8123
  0
LINE
  8
0_00
  6
CONTINUOUS
 62
4
 10
1065.6841
 20
306.0623
 11
1065.6841
 21
305.8123
  0
LINE
  8
0_00
  6
CONTINUOUS
 62
4
 10
1075.9216
 20
306.0457
 11
1075.9216
 21
326.0790
  0
LINE
  8
0_00
  6
CONTINUOUS
 62
4
 10
1056.0465
 20
306.0457
 11
1056.0465
 21
326.0790
  0
LINE
  8
0_00
  6
CONTINUOUS
 62
6
 10
326.1195
 20
661.0177
 11
344.0722
 21
678.9703
  0
LINE
  8
0_00
  6
CONTINUOUS
 62
6
 10
326.1195
 20
661.0177
 11
332.4095
 21
665.1024
  0
LINE
  8
0_00
  6
CONTINUOUS
 62
6
 10
326.1195
 20
661.0177
 11
330.2043
 21
667.3077
  0
LINE
  8
0_00
  6
CONTINUOUS
 62
6
 10
344.0722
 20
678.9703
 11
403.4722
 21
678.9703
  0
LINE
  8
0_00
  6
CONTINUOUS
 62
6
 10
365.8821
 20
464.2627
 11
387.5679
 21
485.9485
  0
LINE
  8
0_00
  6
CONTINUOUS
 62
6
 10
365.8821
 20
464.2627
 11
372.1721
 21
468.3475
  0
LINE
  8
0_00
  6
CONTINUOUS
 62
6
 10
365.8821
 20
464.2627
 11
369.9669
 21
470.5528
  0
LINE
  8
0_00
  6
CONTINUOUS
 62
6
 10
387.5679
 20
485.9485
 11
432.5679
 21
485.9485
  0
LINE
  8
0_00
  6
CONTINUOUS
 62
6
 10
324.2813
 20
645.7917
 11
344.0722
 21
626.0008
  0
LINE
  8
0_00
  6
CONTINUOUS
 62
6
 10
324.2813
 20
645.7917
 11
328.3661
 21
639.5017
  0
LINE
  8
0_00
  6
CONTINUOUS
 62
6
 10
324.2813
 20
645.7917
 11
330.5713
 21
641.7070
  0
LINE
  8
0_00
  6
CONTINUOUS
 62
6
 10
344.0722
 20
626.0008
 11
439.4722
 21
626.0008
  0
LINE
  8
0_00
  6
CONTINUOUS
 62
6
 10
302.2829
 20
430.3068
 11
221.8682
 21
349.8921
  0
LINE
  8
0_00
  6
CONTINUOUS
 62
6
 10
302.2829
 20
430.3068
 11
295.9928
 21
426.2219
  0
LINE
  8
0_00
  6
CONTINUOUS
 62
6
 10
302.2829
 20
430.3068
 11
298.1981
 21
424.0167
  0
LINE
  8
0_00
  6
CONTINUOUS
 62
6
 10
221.8682
 20
349.8921
 11
126.4682
 21
349.8921
  0
LINE
  8
0_00
  6
CONTINUOUS
 62
6
 10
250.9650
 20
378.9889
 11
143.4577
 21
378.9889
  0
LINE
  8
0_00
  6
CONTINUOUS
 62
6
 10
650.5040
 20
331.1262
 11
630.9692
 21
350.6610
  0
LINE
  8
0_00
  6
CONTINUOUS
 62
6
 10
650.5040
 20
331.1262
 11
646.4192
 21
337.4163
  0
LINE
  8
0_00
  6
CONTINUOUS
 62
6
 10
650.5040
 20
331.1262
 11
644.2139
 21
335.2110
  0
LINE
  8
0_00
  6
CONTINUOUS
 62
6
 10
630.9692
 20
350.6610
 11
557.1692
 21
350.6610
  0
LINE
  8
0_00
  6
CONTINUOUS
 62
6
 10
650.5040
 20
384.8623
 11
635.4692
 21
402.8971
  0
LINE
  8
0_00
  6
CONTINUOUS
 62
6
 10
650.5040
 20
384.8623
 11
647.0042
 21
391.4957
  0
LINE
  8
0_00
  6
CONTINUOUS
 62
6
 10
650.5040
 20
384.8623
 11
644.6087
 21
389.4987
  0
LINE
  8
0_00
  6
CONTINUOUS
 62
6
 10
635.4692
 20
402.8971
 11
590.4692
 21
402.8971
  0
LINE
  8
0_00
  6
CONTINUOUS
 62
2
 10
766.9135
 20
743.4427
 11
766.9135
 21
678.9467
  0
LINE
  8
0_00
  6
CONTINUOUS
 62
2
 10
766.9135
 20
743.4427
 11
751.1240
 21
743.4427
  0
LINE
  8
0_00
  6
CONTINUOUS
 62
2
 10
751.1240
 20
743.4427
 11
758.4601
 21
741.8834
  0
LINE
  8
0_00
  6
CONTINUOUS
 62
2
 10
751.1240
 20
743.4427
 11
758.4601
 21
745.0020
  0
LINE
  8
0_00
  6
CONTINUOUS
 62
2
 10
766.9135
 20
678.9467
 11
751.1240
 21
678.9467
  0
LINE
  8
0_00
  6
CONTINUOUS
 62
2
 10
751.1240
 20
678.9467
 11
758.4601
 21
677.3874
  0
LINE
  8
0_00
  6
CONTINUOUS
 62
2
 10
751.1240
 20
678.9467
 11
758.4601
 21
680.5061
  0
LINE
  8
0_00
  6
CONTINUOUS
 62
2
 10
714.3241
 20
696.1758
 11
827.2273
 21
696.1758
  0
LINE
  8
0_00
  6
CONTINUOUS
 62
2
 10
827.2273
 20
696.1758
 11
827.2273
 21
707.7874
  0
LINE
  8
0_00
  6
CONTINUOUS
 62
2
 10
827.2273
 20
707.7874
 11
943.6560
 21
707.7874
  0
LINE
  8
0_00
  6
CONTINUOUS
 62
2
 10
943.6560
 20
707.7874
 11
943.6560
 21
672.3948
  0
LINE
  8
0_00
  6
CONTINUOUS
 62
2
 10
943.6560
 20
672.3948
 11
945.2153
 21
679.7309
  0
LINE
  8
0_00
  6
CONTINUOUS
 62
2
 10
943.6560
 20
672.3948
 11
942.0966
 21
679.7309
  0
LINE
  8
0_00
  6
CONTINUOUS
 62
2
 10
714.3241
 20
696.1758
 11
714.3241
 21
672.3948
  0
LINE
  8
0_00
  6
CONTINUOUS
 62
2
 10
714.3241
 20
672.3948
 11
715.8834
 21
679.7309
  0
LINE
  8
0_00
  6
CONTINUOUS
 62
2
 10
714.3241
 20
672.3948
 11
712.7648
 21
679.7309
  0
LINE
  8
15_0F
  6
CONTINUOUS
 62
6
 10
1112.6591
 20
729.3087
 11
1172.4999
 21
729.3087
  0
LINE
  8
15_0F
  6
CONTINUOUS
 62
6
 10
1112.6591
 20
700.1784
 11
1172.4999
 21
700.1784
  0
LINE
  8
15_0F
  6
CONTINUOUS
 62
6
 10
1168.0000
 20
729.3087
 11
1168.0000
 21
700.1784
  0
LINE
  8
15_0F
  6
CONTINUOUS
 62
6
 10
1168.0000
 20
746.4443
 11
1168.0000
 21
729.3087
  0
LINE
  8
15_0F
  6
CONTINUOUS
 62
6
 10
1168.0000
 20
729.3087
 11
1169.5594
 21
736.6448
  0
LINE
  8
15_0F
  6
CONTINUOUS
 62
6
 10
1168.0000
 20
729.3087
 11
1166.4406
 21
736.6448
  0
LINE
  8
15_0F
  6
CONTINUOUS
 62
6
 10
1168.0000
 20
682.1785
 11
1168.0000
 21
700.1784
  0
LINE
  8
15_0F
  6
CONTINUOUS
 62
6
 10
1168.0000
 20
700.1784
 11
1166.4406
 21
692.8423
  0
LINE
  8
15_0F
  6
CONTINUOUS
 62
6
 10
1168.0000
 20
700.1784
 11
1169.5594
 21
692.8423
  0
LINE
  8
0_00
  6
CONTINUOUS
 62
4
 10
367.2813
 20
736.4346
 11
398.4813
 21
736.4346
  0
LINE
  8
0_00
  6
CONTINUOUS
 62
4
 10
398.4813
 20
736.4346
 11
398.4813
 21
750.8346
  0
LINE
  8
0_00
  6
CONTINUOUS
 62
4
 10
367.2813
 20
750.8346
 11
398.4813
 21
750.8346
  0
LINE
  8
0_00
  6
CONTINUOUS
 62
4
 10
367.2813
 20
736.4346
 11
367.2813
 21
750.8346
  0
LINE
  8
0_00
  6
CONTINUOUS
 62
4
 10
206.0813
 20
736.4346
 11
237.2813
 21
736.4346
  0
LINE
  8
0_00
  6
CONTINUOUS
 62
4
 10
237.2813
 20
736.4346
 11
237.2813
 21
750.8346
  0
LINE
  8
0_00
  6
CONTINUOUS
 62
4
 10
206.0813
 20
750.8346
 11
237.2813
 21
750.8346
  0
LINE
  8
0_00
  6
CONTINUOUS
 62
4
 10
206.0813
 20
736.4346
 11
206.0813
 21
750.8346
  0
LINE
  8
15_0F
  6
CONTINUOUS
 62
6
 10
265.7338
 20
491.8632
 11
191.9339
 21
491.8632
  0
LINE
  8
15_0F
  6
CONTINUOUS
 62
6
 10
290.0903
 20
467.5068
 11
265.7338
 21
491.8632
  0
LINE
  8
15_0F
  6
CONTINUOUS
 62
6
 10
290.0903
 20
467.5068
 11
286.0055
 21
473.7968
  0
LINE
  8
15_0F
  6
CONTINUOUS
 62
6
 10
290.0903
 20
467.5068
 11
283.8002
 21
471.5916
  0
LINE
  8
15_0F
  6
CONTINUOUS
 62
6
 10
284.2829
 20
552.8837
 11
269.9382
 21
567.2283
  0
LINE
  8
15_0F
  6
CONTINUOUS
 62
6
 10
284.2829
 20
552.8837
 11
280.1981
 21
559.1738
  0
LINE
  8
15_0F
  6
CONTINUOUS
 62
6
 10
284.2829
 20
552.8837
 11
277.9929
 21
556.9685
  0
LINE
  8
15_0F
  6
CONTINUOUS
 62
6
 10
269.9382
 20
567.2283
 11
152.9383
 21
567.2283
  0
LINE
  8
15_0F
  6
CONTINUOUS
 62
6
 10
227.2828
 20
255.5000
 11
377.2828
 21
255.5000
  0
LINE
  8
15_0F
  6
CONTINUOUS
 62
6
 10
227.2828
 20
255.5000
 11
234.6189
 21
253.9407
  0
LINE
  8
15_0F
  6
CONTINUOUS
 62
6
 10
227.2828
 20
255.5000
 11
234.6189
 21
257.0593
  0
LINE
  8
15_0F
  6
CONTINUOUS
 62
6
 10
377.2828
 20
255.5000
 11
369.9467
 21
257.0593
  0
LINE
  8
15_0F
  6
CONTINUOUS
 62
6
 10
377.2828
 20
255.5000
 11
369.9467
 21
253.9407
  0
LINE
  8
15_0F
  6
CONTINUOUS
 62
6
 10
377.2828
 20
396.9406
 11
377.2828
 21
251.0000
  0
LINE
  8
15_0F
  6
CONTINUOUS
 62
6
 10
377.2828
 20
255.1432
 11
377.2828
 21
251.0000
  0
LINE
  8
15_0F
  6
CONTINUOUS
 62
6
 10
227.2828
 20
255.5000
 11
227.2828
 21
251.0000
  0
LINE
  8
15_0F
  6
CONTINUOUS
 62
6
 10
227.2828
 20
396.9406
 11
227.2828
 21
271.0828
  0
LINE
  8
15_0F
  6
CONTINUOUS
 62
6
 10
227.2828
 20
257.1339
 11
227.2828
 21
251.0000
  0
LINE
  8
0_00
  6
CONTINUOUS
 62
6
 10
562.0036
 20
723.6124
 11
1092.7036
 21
723.6124
  0
LINE
  8
0_00
  6
CONTINUOUS
 62
4
 10
562.0036
 20
720.6086
 11
592.0036
 21
720.6086
  0
LINE
  8
0_00
  6
CONTINUOUS
 62
4
 10
597.7036
 20
720.6086
 11
747.0037
 21
720.6086
  0
LINE
  8
0_00
  6
CONTINUOUS
 62
4
 10
752.7036
 20
720.6086
 11
902.0036
 21
720.6086
  0
LINE
  8
0_00
  6
CONTINUOUS
 62
4
 10
907.7036
 20
720.6086
 11
1057.0037
 21
720.6086
  0
LINE
  8
0_00
  6
CONTINUOUS
 62
4
 10
1062.7036
 20
720.6086
 11
1092.7036
 21
720.6086
  0
LINE
  8
0_00
  6
CONTINUOUS
 62
2
 10
277.7813
 20
645.7917
 11
277.7813
 21
642.8917
  0
LINE
  8
0_00
  6
CONTINUOUS
 62
2
 10
278.2813
 20
642.3918
 11
279.7813
 21
642.3918
  0
LINE
  8
0_00
  6
CONTINUOUS
 62
2
 10
279.7813
 20
645.7917
 11
279.7813
 21
642.3918
  0
LINE
  8
0_00
  6
CONTINUOUS
 62
2
 10
289.2813
 20
649.6918
 11
289.2813
 21
648.2917
  0
LINE
  8
0_00
  6
CONTINUOUS
 62
2
 10
291.7813
 20
649.6918
 11
291.7813
 21
645.0918
  0
LINE
  8
0_00
  6
CONTINUOUS
 62
2
 10
289.7813
 20
645.7917
 11
289.7813
 21
645.0918
  0
LINE
  8
0_00
  6
CONTINUOUS
 62
2
 10
279.7813
 20
645.7917
 11
289.7813
 21
645.7917
  0
LINE
  8
0_00
  6
CONTINUOUS
 62
2
 10
280.2813
 20
648.2917
 11
283.9813
 21
648.2917
  0
LINE
  8
0_00
  6
CONTINUOUS
 62
2
 10
284.5813
 20
648.2917
 11
289.2813
 21
648.2917
  0
LINE
  8
0_00
  6
CONTINUOUS
 62
2
 10
293.7813
 20
654.1918
 11
297.4813
 21
654.1918
  0
LINE
  8
0_00
  6
CONTINUOUS
 62
2
 10
298.0813
 20
654.1918
 11
306.4813
 21
654.1918
  0
LINE
  8
0_00
  6
CONTINUOUS
 62
2
 10
293.7813
 20
651.6918
 11
302.2813
 21
651.6918
  0
LINE
  8
0_00
  6
CONTINUOUS
 62
2
 10
297.4813
 20
654.1918
 11
297.7813
 21
653.8917
  0
LINE
  8
0_00
  6
CONTINUOUS
 62
2
 10
297.7813
 20
653.8917
 11
298.0813
 21
654.1918
  0
LINE
  8
0_00
  6
CONTINUOUS
 62
2
 10
283.9813
 20
648.2917
 11
284.2813
 21
647.9918
  0
LINE
  8
0_00
  6
CONTINUOUS
 62
2
 10
284.2813
 20
647.9918
 11
284.5813
 21
648.2917
  0
LINE
  8
0_00
  6
CONTINUOUS
 62
2
 10
326.7813
 20
645.7917
 11
326.7813
 21
642.8917
  0
LINE
  8
0_00
  6
CONTINUOUS
 62
2
 10
326.2813
 20
642.3918
 11
324.7813
 21
642.3918
  0
LINE
  8
0_00
  6
CONTINUOUS
 62
2
 10
324.7813
 20
645.7917
 11
324.7813
 21
642.3918
  0
LINE
  8
0_00
  6
CONTINUOUS
 62
2
 10
315.2813
 20
649.6918
 11
315.2813
 21
648.2917
  0
LINE
  8
0_00
  6
CONTINUOUS
 62
2
 10
312.7813
 20
649.6918
 11
312.7813
 21
645.0918
  0
LINE
  8
0_00
  6
CONTINUOUS
 62
2
 10
314.7813
 20
645.7917
 11
314.7813
 21
645.0918
  0
LINE
  8
0_00
  6
CONTINUOUS
 62
2
 10
324.7813
 20
645.7917
 11
314.7813
 21
645.7917
  0
LINE
  8
0_00
  6
CONTINUOUS
 62
2
 10
324.2813
 20
648.2917
 11
320.5813
 21
648.2917
  0
LINE
  8
0_00
  6
CONTINUOUS
 62
2
 10
319.9813
 20
648.2917
 11
315.2813
 21
648.2917
  0
LINE
  8
0_00
  6
CONTINUOUS
 62
2
 10
310.7813
 20
654.1918
 11
307.0813
 21
654.1918
  0
LINE
  8
0_00
  6
CONTINUOUS
 62
2
 10
310.7813
 20
651.6918
 11
302.2813
 21
651.6918
  0
LINE
  8
0_00
  6
CONTINUOUS
 62
2
 10
307.0813
 20
654.1918
 11
306.7813
 21
653.8917
  0
LINE
  8
0_00
  6
CONTINUOUS
 62
2
 10
306.7813
 20
653.8917
 11
306.4813
 21
654.1918
  0
LINE
  8
0_00
  6
CONTINUOUS
 62
2
 10
320.5813
 20
648.2917
 11
320.2813
 21
647.9918
  0
LINE
  8
0_00
  6
CONTINUOUS
 62
2
 10
320.2813
 20
647.9918
 11
319.9813
 21
648.2917
  0
LINE
  8
0_00
  6
CONTINUOUS
 62
4
 10
323.8813
 20
654.5330
 11
328.4411
 21
654.5330
  0
LINE
  8
0_00
  6
CONTINUOUS
 62
4
 10
324.1813
 20
653.5251
 11
324.1813
 21
652.7330
  0
LINE
  8
0_00
  6
CONTINUOUS
 62
4
 10
323.3813
 20
654.0330
 11
323.3813
 21
652.7330
  0
LINE
  8
0_00
  6
CONTINUOUS
 62
4
 10
329.3453
 20
638.5726
 11
329.2157
 21
639.2043
  0
LINE
  8
0_00
  6
CONTINUOUS
 62
4
 10
321.3699
 20
665.6882
 11
321.9325
 21
666.2509
  0
LINE
  8
0_00
  6
CONTINUOUS
 62
4
 10
320.6627
 20
666.3952
 11
321.2254
 21
666.9579
  0
LINE
  8
0_00
  6
CONTINUOUS
 62
4
 10
329.3749
 20
653.5336
 11
324.3890
 21
653.7250
  0
LINE
  8
0_00
  6
CONTINUOUS
 62
4
 10
330.0584
 20
648.4336
 11
329.9527
 21
648.4336
  0
LINE
  8
0_00
  6
CONTINUOUS
 62
4
 10
329.9569
 20
649.9336
 11
329.7249
 21
649.9336
  0
LINE
  8
0_00
  6
CONTINUOUS
 62
4
 10
329.5291
 20
649.6931
 11
329.7568
 21
648.5932
  0
LINE
  8
0_00
  6
CONTINUOUS
 62
4
 10
330.0642
 20
646.3330
 11
328.9541
 21
646.2358
  0
LINE
  8
0_00
  6
CONTINUOUS
 62
4
 10
280.6826
 20
654.5316
 11
276.1227
 21
654.5314
  0
LINE
  8
0_00
  6
CONTINUOUS
 62
4
 10
280.3827
 20
653.5238
 11
280.3827
 21
652.7316
  0
LINE
  8
0_00
  6
CONTINUOUS
 62
4
 10
281.1826
 20
654.0317
 11
281.1827
 21
652.7317
  0
LINE
  8
0_00
  6
CONTINUOUS
 62
4
 10
275.2195
 20
638.5710
 11
275.3492
 21
639.2026
  0
LINE
  8
0_00
  6
CONTINUOUS
 62
4
 10
283.1934
 20
665.6870
 11
282.6307
 21
666.2497
  0
LINE
  8
0_00
  6
CONTINUOUS
 62
4
 10
283.9005
 20
666.3941
 11
283.3377
 21
666.9568
  0
LINE
  8
0_00
  6
CONTINUOUS
 62
4
 10
275.1890
 20
653.5320
 11
280.1749
 21
653.7236
  0
LINE
  8
0_00
  6
CONTINUOUS
 62
4
 10
274.5058
 20
648.4320
 11
274.6116
 21
648.4320
  0
LINE
  8
0_00
  6
CONTINUOUS
 62
4
 10
274.6072
 20
649.9319
 11
274.8393
 21
649.9320
  0
LINE
  8
0_00
  6
CONTINUOUS
 62
4
 10
275.0351
 20
649.6914
 11
274.8074
 21
648.5915
  0
LINE
  8
0_00
  6
CONTINUOUS
 62
4
 10
274.5002
 20
646.3313
 11
275.6104
 21
646.2342
  0
LINE
  8
12_0C
  6
CONTINUOUS
 62
2
 10
280.2813
 20
648.2917
 11
288.2813
 21
648.2917
  0
LINE
  8
12_0C
  6
CONTINUOUS
 62
2
 10
280.2813
 20
648.6917
 11
288.2813
 21
648.6917
  0
LINE
  8
12_0C
  6
CONTINUOUS
 62
2
 10
288.2813
 20
648.2917
 11
288.2813
 21
648.6917
  0
LINE
  8
12_0C
  6
CONTINUOUS
 62
2
 10
280.2813
 20
648.2917
 11
280.2813
 21
648.6917
  0
LINE
  8
12_0C
  6
CONTINUOUS
 62
2
 10
282.8313
 20
636.2917
 11
285.7313
 21
636.2917
  0
LINE
  8
0_00
  6
DASHED
 62
2
 10
286.2813
 20
648.2917
 11
286.2813
 21
645.7917
  0
LINE
  8
12_0C
  6
DASHED
 62
2
 10
285.7313
 20
648.2917
 11
285.7313
 21
645.7917
  0
LINE
  8
12_0C
  6
DASHED
 62
2
 10
282.8313
 20
648.2917
 11
282.8313
 21
645.7917
  0
LINE
  8
0_00
  6
DASHED
 62
2
 10
282.2813
 20
648.2917
 11
282.2813
 21
645.7917
  0
LINE
  8
12_0C
  6
CONTINUOUS
 62
2
 10
282.8313
 20
640.8067
 11
282.8313
 21
636.2917
  0
LINE
  8
12_0C
  6
DASHED
 62
2
 10
282.8313
 20
642.8068
 11
282.8313
 21
640.8067
  0
LINE
  8
12_0C
  6
CONTINUOUS
 62
2
 10
282.8313
 20
645.7917
 11
282.8313
 21
642.8068
  0
LINE
  8
0_00
  6
DASHED
 62
2
 10
282.2813
 20
642.8068
 11
282.2813
 21
641.1118
  0
LINE
  8
0_00
  6
CONTINUOUS
 62
2
 10
282.2813
 20
645.7917
 11
282.2813
 21
642.8068
  0
LINE
  8
12_0C
  6
CONTINUOUS
 62
2
 10
285.7313
 20
640.8067
 11
285.7313
 21
636.2917
  0
LINE
  8
12_0C
  6
DASHED
 62
2
 10
285.7313
 20
642.8068
 11
285.7313
 21
640.8067
  0
LINE
  8
12_0C
  6
CONTINUOUS
 62
2
 10
285.7313
 20
645.7917
 11
285.7313
 21
642.8068
  0
LINE
  8
0_00
  6
DASHED
 62
2
 10
286.2813
 20
642.8068
 11
286.2813
 21
641.1118
  0
LINE
  8
0_00
  6
CONTINUOUS
 62
2
 10
286.2813
 20
645.7917
 11
286.2813
 21
642.8068
  0
LINE
  8
12_0C
  6
CONTINUOUS
 62
2
 10
286.2465
 20
640.8067
 11
285.7313
 21
636.2917
  0
LINE
  8
12_0C
  6
DASHED
 62
2
 10
286.2465
 20
640.8067
 11
286.2813
 21
641.1118
  0
LINE
  8
12_0C
  6
CONTINUOUS
 62
2
 10
282.3161
 20
640.8067
 11
282.8313
 21
636.2917
  0
LINE
  8
12_0C
  6
DASHED
 62
2
 10
282.3161
 20
640.8067
 11
282.2813
 21
641.1118
  0
LINE
  8
3_03
  6
CONTINUOUS
 62
4
 10
230.6828
 20
415.4067
 11
230.2828
 21
415.4067
  0
LINE
  8
3_03
  6
CONTINUOUS
 62
4
 10
373.8827
 20
415.4067
 11
374.2828
 21
415.4067
  0
LINE
  8
3_03
  6
CONTINUOUS
 62
4
 10
230.6828
 20
415.4067
 11
236.7192
 21
455.8805
  0
LINE
  8
3_03
  6
CONTINUOUS
 62
4
 10
233.4827
 20
456.3068
 11
228.6828
 21
417.0068
  0
LINE
  8
3_03
  6
CONTINUOUS
 62
4
 10
371.0828
 20
456.3068
 11
375.8827
 21
417.0068
  0
LINE
  8
3_03
  6
CONTINUOUS
 62
4
 10
373.8827
 20
415.4067
 11
367.8463
 21
455.8805
  0
LINE
  8
3_03
  6
CONTINUOUS
 62
4
 10
237.2137
 20
456.3068
 11
367.3518
 21
456.3068
  0
LINE
  8
3_03
  6
CONTINUOUS
 62
4
 10
250.0328
 20
459.8068
 11
301.9828
 21
459.8068
  0
LINE
  8
3_03
  6
CONTINUOUS
 62
4
 10
302.5827
 20
459.8068
 11
339.2828
 21
459.8068
  0
LINE
  8
3_03
  6
CONTINUOUS
 62
4
 10
339.8828
 20
459.8068
 11
344.2828
 21
459.8068
  0
LINE
  8
3_03
  6
CONTINUOUS
 62
4
 10
344.8827
 20
459.8068
 11
354.5328
 21
459.8068
  0
LINE
  8
3_03
  6
CONTINUOUS
 62
4
 10
249.9827
 20
474.6065
 11
249.9827
 21
473.2125
  0
LINE
  8
3_03
  6
CONTINUOUS
 62
4
 10
250.0328
 20
459.6068
 11
250.0328
 21
459.8068
  0
LINE
  8
3_03
  6
CONTINUOUS
 62
4
 10
354.5328
 20
459.8068
 11
354.5328
 21
459.6068
  0
LINE
  8
3_03
  6
CONTINUOUS
 62
4
 10
354.5828
 20
469.6925
 11
354.5828
 21
471.0999
  0
LINE
  8
3_03
  6
CONTINUOUS
 62
4
 10
301.9828
 20
459.8068
 11
302.2828
 21
459.5067
  0
LINE
  8
3_03
  6
CONTINUOUS
 62
4
 10
302.2828
 20
459.5067
 11
302.5827
 21
459.8068
  0
LINE
  8
3_03
  6
CONTINUOUS
 62
4
 10
339.2828
 20
459.8068
 11
339.5828
 21
459.5067
  0
LINE
  8
3_03
  6
CONTINUOUS
 62
4
 10
339.5828
 20
459.5067
 11
339.8828
 21
459.8068
  0
LINE
  8
3_03
  6
CONTINUOUS
 62
4
 10
344.2828
 20
459.8068
 11
344.5828
 21
459.5067
  0
LINE
  8
3_03
  6
CONTINUOUS
 62
4
 10
344.5828
 20
459.5067
 11
344.8827
 21
459.8068
  0
LINE
  8
3_03
  6
CONTINUOUS
 62
4
 10
242.4827
 20
473.1456
 11
242.4827
 21
474.8366
  0
LINE
  8
3_03
  6
CONTINUOUS
 62
4
 10
240.3043
 20
473.2183
 11
242.4827
 21
473.1456
  0
LINE
  8
3_03
  6
CONTINUOUS
 62
4
 10
242.7927
 20
475.1364
 11
242.9828
 21
475.1301
  0
LINE
  8
3_03
  6
CONTINUOUS
 62
4
 10
249.4828
 20
474.9134
 11
249.6928
 21
474.9064
  0
LINE
  8
3_03
  6
CONTINUOUS
 62
4
 10
366.2421
 20
469.7602
 11
371.0828
 21
456.3068
  0
LINE
  8
3_03
  6
CONTINUOUS
 62
4
 10
354.8928
 20
471.3998
 11
355.0828
 21
471.3934
  0
LINE
  8
3_03
  6
CONTINUOUS
 62
4
 10
361.5828
 20
471.1768
 11
364.4268
 21
471.0819
  0
LINE
  8
3_03
  6
CONTINUOUS
 62
4
 10
233.4827
 20
456.3068
 11
238.3287
 21
471.8159
  0
LINE
  8
3_03
  6
CONTINUOUS
 62
4
 10
249.4828
 20
474.9134
 11
249.4828
 21
474.7133
  0
LINE
  8
3_03
  6
CONTINUOUS
 62
4
 10
242.9828
 20
474.9300
 11
242.9828
 21
475.1301
  0
LINE
  8
3_03
  6
CONTINUOUS
 62
4
 10
242.9828
 20
474.9300
 11
249.4828
 21
474.7133
  0
LINE
  8
3_03
  6
CONTINUOUS
 62
4
 10
355.0828
 20
471.1933
 11
361.5828
 21
470.9766
  0
LINE
  8
3_03
  6
CONTINUOUS
 62
4
 10
355.0828
 20
471.3934
 11
355.0828
 21
471.1933
  0
LINE
  8
0_00
  6
CONTINUOUS
 62
4
 10
361.5828
 20
470.9766
 11
361.5828
 21
471.1768
  0
LINE
  8
0_00
  6
CONTINUOUS
 62
4
 10
237.4988
 20
459.6068
 11
250.0328
 21
459.6068
  0
LINE
  8
0_00
  6
CONTINUOUS
 62
4
 10
354.5328
 20
459.6068
 11
366.8460
 21
459.6068
  0
LINE
  8
3_03
  6
CONTINUOUS
 62
4
 10
237.0216
 20
460.2558
 11
240.1562
 21
470.2879
  0
LINE
  8
3_03
  6
CONTINUOUS
 62
4
 10
241.1440
 20
470.9891
 11
244.6828
 21
470.8711
  0
LINE
  8
3_03
  6
CONTINUOUS
 62
4
 10
244.6828
 20
472.3553
 11
244.6828
 21
470.8711
  0
LINE
  8
3_03
  6
CONTINUOUS
 62
4
 10
249.4661
 20
472.7127
 11
245.1994
 21
472.8550
  0
LINE
  8
3_03
  6
CONTINUOUS
 62
4
 10
367.3165
 20
460.2760
 11
364.4476
 21
468.2494
  0
LINE
  8
3_03
  6
CONTINUOUS
 62
4
 10
363.5400
 20
468.9103
 11
355.0661
 21
469.1927
  0
LINE
  8
2_02
  6
CONTINUOUS
 62
2
 10
248.9828
 20
474.7300
 11
248.9828
 21
476.5826
  0
LINE
  8
2_02
  6
CONTINUOUS
 62
2
 10
243.9827
 20
474.8967
 11
243.9827
 21
476.7492
  0
LINE
  8
2_02
  6
CONTINUOUS
 62
2
 10
243.9827
 20
476.0422
 11
244.6670
 21
476.7264
  0
LINE
  8
2_02
  6
CONTINUOUS
 62
2
 10
243.9827
 20
475.3350
 11
245.3513
 21
476.7036
  0
LINE
  8
2_02
  6
CONTINUOUS
 62
2
 10
244.2428
 20
474.8880
 11
246.0356
 21
476.6808
  0
LINE
  8
2_02
  6
CONTINUOUS
 62
2
 10
244.9271
 20
474.8652
 11
246.7199
 21
476.6580
  0
LINE
  8
2_02
  6
CONTINUOUS
 62
2
 10
245.6114
 20
474.8423
 11
247.4042
 21
476.6352
  0
LINE
  8
2_02
  6
CONTINUOUS
 62
2
 10
246.2957
 20
474.8196
 11
248.0886
 21
476.6124
  0
LINE
  8
2_02
  6
CONTINUOUS
 62
2
 10
246.9800
 20
474.7967
 11
248.7729
 21
476.5896
  0
LINE
  8
2_02
  6
CONTINUOUS
 62
2
 10
247.6643
 20
474.7739
 11
248.9828
 21
476.0924
  0
LINE
  8
2_02
  6
CONTINUOUS
 62
2
 10
248.3486
 20
474.7511
 11
248.9828
 21
475.3853
  0
LINE
  8
2_02
  6
CONTINUOUS
 62
2
 10
355.5827
 20
471.1766
 11
355.5827
 21
473.0292
  0
LINE
  8
2_02
  6
CONTINUOUS
 62
2
 10
360.5828
 20
471.0100
 11
360.5828
 21
472.8626
  0
LINE
  8
2_02
  6
CONTINUOUS
 62
2
 10
355.5827
 20
472.3222
 11
356.2671
 21
473.0064
  0
LINE
  8
2_02
  6
CONTINUOUS
 62
2
 10
355.5827
 20
471.6150
 11
356.9514
 21
472.9837
  0
LINE
  8
2_02
  6
CONTINUOUS
 62
2
 10
355.8428
 20
471.1680
 11
357.6356
 21
472.9608
  0
LINE
  8
2_02
  6
CONTINUOUS
 62
2
 10
356.5271
 20
471.1452
 11
358.3199
 21
472.9380
  0
LINE
  8
2_02
  6
CONTINUOUS
 62
2
 10
357.2114
 20
471.1224
 11
359.0042
 21
472.9152
  0
LINE
  8
2_02
  6
CONTINUOUS
 62
2
 10
357.8957
 20
471.0995
 11
359.6885
 21
472.8924
  0
LINE
  8
2_02
  6
CONTINUOUS
 62
2
 10
358.5800
 20
471.0767
 11
360.3728
 21
472.8696
  0
LINE
  8
2_02
  6
CONTINUOUS
 62
2
 10
359.2643
 20
471.0539
 11
360.5828
 21
472.3724
  0
LINE
  8
2_02
  6
CONTINUOUS
 62
2
 10
359.9486
 20
471.0311
 11
360.5828
 21
471.6653
  0
LINE
  8
0_00
  6
CONTINUOUS
 62
4
 10
227.2828
 20
475.7051
 11
227.2828
 21
416.8068
  0
LINE
  8
0_00
  6
CONTINUOUS
 62
4
 10
230.2828
 20
413.8068
 11
234.1190
 21
414.0078
  0
LINE
  8
0_00
  6
CONTINUOUS
 62
4
 10
230.3827
 20
478.7034
 11
374.3827
 21
473.9034
  0
LINE
  8
0_00
  6
CONTINUOUS
 62
4
 10
256.9729
 20
476.1161
 11
257.2828
 21
476.4060
  0
LINE
  8
0_00
  6
CONTINUOUS
 62
4
 10
257.2828
 20
476.4060
 11
257.5726
 21
476.0961
  0
LINE
  8
0_00
  6
CONTINUOUS
 62
4
 10
257.5726
 20
476.0961
 11
257.8824
 21
476.3860
  0
LINE
  8
0_00
  6
CONTINUOUS
 62
4
 10
256.9729
 20
476.1161
 11
256.6831
 21
476.4260
  0
LINE
  8
0_00
  6
CONTINUOUS
 62
4
 10
301.9729
 20
474.6161
 11
302.2828
 21
474.9060
  0
LINE
  8
0_00
  6
CONTINUOUS
 62
4
 10
302.2828
 20
474.9060
 11
302.5726
 21
474.5961
  0
LINE
  8
0_00
  6
CONTINUOUS
 62
4
 10
302.5726
 20
474.5961
 11
302.8824
 21
474.8860
  0
LINE
  8
0_00
  6
CONTINUOUS
 62
4
 10
301.9729
 20
474.6161
 11
301.6831
 21
474.9260
  0
LINE
  8
0_00
  6
CONTINUOUS
 62
4
 10
346.9729
 20
473.1161
 11
347.2828
 21
473.4060
  0
LINE
  8
0_00
  6
CONTINUOUS
 62
4
 10
347.2828
 20
473.4060
 11
347.5726
 21
473.0961
  0
LINE
  8
0_00
  6
CONTINUOUS
 62
4
 10
347.5726
 20
473.0961
 11
347.8824
 21
473.3860
  0
LINE
  8
0_00
  6
CONTINUOUS
 62
4
 10
346.9729
 20
473.1161
 11
346.6831
 21
473.4260
  0
LINE
  8
0_00
  6
CONTINUOUS
 62
4
 10
377.2828
 20
470.9051
 11
377.2828
 21
416.8329
  0
LINE
  8
0_00
  6
CONTINUOUS
 62
4
 10
374.3089
 20
413.8068
 11
370.4466
 21
414.0092
  0
LINE
  8
0_00
  6
CONTINUOUS
 62
4
 10
375.8827
 20
441.0068
 11
375.5828
 21
441.3067
  0
LINE
  8
0_00
  6
CONTINUOUS
 62
4
 10
375.5828
 20
441.3067
 11
375.8827
 21
441.6067
  0
LINE
  8
0_00
  6
CONTINUOUS
 62
4
 10
375.8827
 20
446.0067
 11
375.5828
 21
446.3068
  0
LINE
  8
0_00
  6
CONTINUOUS
 62
4
 10
375.5828
 20
446.3068
 11
375.8827
 21
446.6067
  0
LINE
  8
0_00
  6
CONTINUOUS
 62
4
 10
234.0457
 20
415.4059
 11
232.9738
 21
415.3497
  0
LINE
  8
0_00
  6
CONTINUOUS
 62
4
 10
232.5743
 20
415.3288
 11
230.2518
 21
415.2071
  0
LINE
  8
0_00
  6
CONTINUOUS
 62
4
 10
228.6828
 20
416.8068
 11
228.6828
 21
475.7051
  0
LINE
  8
0_00
  6
CONTINUOUS
 62
4
 10
230.3361
 20
477.3042
 11
256.6831
 21
476.4260
  0
LINE
  8
0_00
  6
CONTINUOUS
 62
4
 10
257.8824
 20
476.3860
 11
288.1831
 21
475.3759
  0
LINE
  8
0_00
  6
CONTINUOUS
 62
4
 10
289.3824
 20
475.3359
 11
301.6831
 21
474.9260
  0
LINE
  8
0_00
  6
CONTINUOUS
 62
4
 10
302.8824
 20
474.8860
 11
315.1831
 21
474.4759
  0
LINE
  8
0_00
  6
CONTINUOUS
 62
4
 10
316.3824
 20
474.4360
 11
346.6831
 21
473.4260
  0
LINE
  8
0_00
  6
CONTINUOUS
 62
4
 10
347.8824
 20
473.3860
 11
374.3360
 21
472.5042
  0
LINE
  8
0_00
  6
CONTINUOUS
 62
4
 10
375.8827
 20
470.9051
 11
375.8827
 21
446.6067
  0
LINE
  8
0_00
  6
CONTINUOUS
 62
4
 10
375.8827
 20
446.0067
 11
375.8827
 21
441.6067
  0
LINE
  8
0_00
  6
CONTINUOUS
 62
4
 10
375.8827
 20
441.0068
 11
375.8827
 21
416.8068
  0
LINE
  8
0_00
  6
CONTINUOUS
 62
4
 10
374.3328
 20
415.2075
 11
370.5198
 21
415.4073
  0
LINE
  8
0_00
  6
CONTINUOUS
 62
4
 10
288.4729
 20
475.0661
 11
288.7828
 21
475.3559
  0
LINE
  8
0_00
  6
CONTINUOUS
 62
4
 10
288.7828
 20
475.3559
 11
289.0726
 21
475.0462
  0
LINE
  8
0_00
  6
CONTINUOUS
 62
4
 10
289.0726
 20
475.0462
 11
289.3824
 21
475.3359
  0
LINE
  8
0_00
  6
CONTINUOUS
 62
4
 10
288.1831
 20
475.3759
 11
288.4729
 21
475.0661
  0
LINE
  8
0_00
  6
CONTINUOUS
 62
4
 10
315.4729
 20
474.1661
 11
315.7828
 21
474.4560
  0
LINE
  8
0_00
  6
CONTINUOUS
 62
4
 10
315.7828
 20
474.4560
 11
316.0726
 21
474.1462
  0
LINE
  8
0_00
  6
CONTINUOUS
 62
4
 10
316.0726
 20
474.1462
 11
316.3824
 21
474.4360
  0
LINE
  8
0_00
  6
CONTINUOUS
 62
4
 10
315.1831
 20
474.4759
 11
315.4729
 21
474.1661
  0
LINE
  8
0_00
  6
CONTINUOUS
 62
4
 10
232.5743
 20
415.3288
 11
232.7845
 21
415.1395
  0
LINE
  8
0_00
  6
CONTINUOUS
 62
4
 10
232.7845
 20
415.1395
 11
232.9738
 21
415.3497
  0
LINE
  8
0_00
  6
CONTINUOUS
 62
4
 10
291.7813
 20
643.5067
 11
289.7813
 21
643.5067
  0
LINE
  8
0_00
  6
CONTINUOUS
 62
4
 10
291.7813
 20
643.5067
 11
291.7813
 21
642.7067
  0
LINE
  8
0_00
  6
CONTINUOUS
 62
4
 10
289.7813
 20
643.5067
 11
289.7813
 21
641.9067
  0
LINE
  8
0_00
  6
CONTINUOUS
 62
4
 10
312.7813
 20
643.5067
 11
314.7813
 21
643.5067
  0
LINE
  8
0_00
  6
CONTINUOUS
 62
4
 10
312.7813
 20
643.5067
 11
312.7813
 21
642.7067
  0
LINE
  8
0_00
  6
CONTINUOUS
 62
4
 10
314.7813
 20
643.5067
 11
314.7813
 21
641.9067
  0
LINE
  8
0_00
  6
CONTINUOUS
 62
4
 10
275.8813
 20
643.4067
 11
275.8813
 21
637.9021
  0
LINE
  8
0_00
  6
CONTINUOUS
 62
4
 10
328.6813
 20
643.4067
 11
328.6813
 21
637.9021
  0
LINE
  8
0_00
  6
CONTINUOUS
 62
4
 10
276.9813
 20
642.8068
 11
276.9813
 21
646.2984
  0
LINE
  8
0_00
  6
CONTINUOUS
 62
4
 10
327.5813
 20
642.8068
 11
327.5813
 21
646.2984
  0
LINE
  8
0_00
  6
CONTINUOUS
 62
4
 10
328.6813
 20
644.6068
 11
328.6813
 21
646.2068
  0
LINE
  8
0_00
  6
CONTINUOUS
 62
4
 10
329.2813
 20
644.6068
 11
328.6813
 21
644.6068
  0
LINE
  8
0_00
  6
CONTINUOUS
 62
4
 10
329.2813
 20
643.4067
 11
328.6813
 21
643.4067
  0
LINE
  8
0_00
  6
CONTINUOUS
 62
4
 10
302.2813
 20
618.6068
 11
301.9828
 21
618.3083
  0
LINE
  8
0_00
  6
CONTINUOUS
 62
4
 10
302.2813
 20
618.6068
 11
302.5798
 21
618.3083
  0
LINE
  8
0_00
  6
CONTINUOUS
 62
4
 10
277.4813
 20
642.3067
 11
281.4813
 21
642.3067
  0
LINE
  8
0_00
  6
CONTINUOUS
 62
4
 10
276.9813
 20
641.2067
 11
281.4813
 21
641.2067
  0
LINE
  8
0_00
  6
CONTINUOUS
 62
4
 10
322.7813
 20
640.8067
 11
281.7813
 21
640.8067
  0
LINE
  8
0_00
  6
CONTINUOUS
 62
4
 10
320.5813
 20
642.8068
 11
320.2813
 21
642.5067
  0
LINE
  8
0_00
  6
CONTINUOUS
 62
4
 10
322.7813
 20
642.8068
 11
320.5813
 21
642.8068
  0
LINE
  8
0_00
  6
CONTINUOUS
 62
4
 10
323.0813
 20
642.3067
 11
322.7813
 21
642.8068
  0
LINE
  8
0_00
  6
CONTINUOUS
 62
4
 10
319.9813
 20
642.8068
 11
320.2813
 21
642.5067
  0
LINE
  8
0_00
  6
CONTINUOUS
 62
4
 10
317.7813
 20
642.8068
 11
319.9813
 21
642.8068
  0
LINE
  8
0_00
  6
CONTINUOUS
 62
4
 10
327.0813
 20
642.3067
 11
323.0813
 21
642.3067
  0
LINE
  8
0_00
  6
CONTINUOUS
 62
4
 10
301.9813
 20
641.9067
 11
302.2813
 21
641.6067
  0
LINE
  8
0_00
  6
CONTINUOUS
 62
4
 10
302.5813
 20
641.9067
 11
302.2813
 21
641.6067
  0
LINE
  8
0_00
  6
CONTINUOUS
 62
4
 10
329.6249
 20
646.2893
 11
328.6813
 21
646.2068
  0
LINE
  8
0_00
  6
CONTINUOUS
 62
4
 10
328.4941
 20
647.2945
 11
329.0587
 21
647.3440
  0
LINE
  8
0_00
  6
CONTINUOUS
 62
4
 10
330.0711
 20
646.8879
 11
329.7120
 21
648.6373
  0
LINE
  8
0_00
  6
CONTINUOUS
 62
4
 10
328.8304
 20
648.4563
 11
329.0587
 21
647.3440
  0
LINE
  8
0_00
  6
CONTINUOUS
 62
4
 10
327.1813
 20
652.3358
 11
328.3496
 21
651.1674
  0
LINE
  8
0_00
  6
CONTINUOUS
 62
4
 10
326.5742
 20
651.6701
 11
327.7133
 21
650.5311
  0
LINE
  8
0_00
  6
CONTINUOUS
 62
4
 10
275.8813
 20
644.6068
 11
275.8813
 21
646.2068
  0
LINE
  8
0_00
  6
CONTINUOUS
 62
4
 10
275.2813
 20
644.6068
 11
275.8813
 21
644.6068
  0
LINE
  8
0_00
  6
CONTINUOUS
 62
4
 10
275.2813
 20
643.4067
 11
275.8813
 21
643.4067
  0
LINE
  8
0_00
  6
CONTINUOUS
 62
4
 10
274.9377
 20
646.2893
 11
275.8813
 21
646.2068
  0
LINE
  8
0_00
  6
CONTINUOUS
 62
4
 10
276.0685
 20
647.2945
 11
275.5039
 21
647.3440
  0
LINE
  8
0_00
  6
CONTINUOUS
 62
4
 10
274.4915
 20
646.8879
 11
274.8506
 21
648.6373
  0
LINE
  8
0_00
  6
CONTINUOUS
 62
4
 10
275.7322
 20
648.4563
 11
275.5039
 21
647.3440
  0
LINE
  8
0_00
  6
CONTINUOUS
 62
4
 10
277.3813
 20
652.3358
 11
276.2130
 21
651.1674
  0
LINE
  8
0_00
  6
CONTINUOUS
 62
4
 10
278.2813
 20
652.8567
 11
278.2813
 21
652.3772
  0
LINE
  8
0_00
  6
CONTINUOUS
 62
4
 10
277.3813
 20
652.8567
 11
277.3813
 21
652.3358
  0
LINE
  8
0_00
  6
CONTINUOUS
 62
4
 10
277.9884
 20
651.6701
 11
276.8493
 21
650.5311
  0
LINE
  8
0_00
  6
CONTINUOUS
 62
4
 10
302.5813
 20
641.9067
 11
313.7813
 21
641.9067
  0
LINE
  8
0_00
  6
CONTINUOUS
 62
4
 10
314.7813
 20
641.9067
 11
317.4813
 21
641.9067
  0
LINE
  8
0_00
  6
CONTINUOUS
 62
4
 10
287.0813
 20
641.9067
 11
289.7813
 21
641.9067
  0
LINE
  8
0_00
  6
CONTINUOUS
 62
4
 10
290.7813
 20
641.9067
 11
301.9813
 21
641.9067
  0
LINE
  8
0_00
  6
CONTINUOUS
 62
4
 10
326.2813
 20
652.8567
 11
326.2813
 21
652.3772
  0
LINE
  8
0_00
  6
CONTINUOUS
 62
4
 10
327.1813
 20
652.8567
 11
327.1813
 21
652.3358
  0
LINE
  8
15_0F
  6
CONTINUOUS
 62
4
 10
276.9813
 20
641.2067
 11
276.9813
 21
637.6073
  0
LINE
  8
0_00
  6
CONTINUOUS
 62
4
 10
327.5813
 20
641.2067
 11
323.0813
 21
641.2067
  0
LINE
  8
0_00
  6
CONTINUOUS
 62
4
 10
323.0813
 20
641.2067
 11
322.7813
 21
640.8067
  0
LINE
  8
15_0F
  6
CONTINUOUS
 62
4
 10
327.5813
 20
641.2067
 11
327.5813
 21
637.6073
  0
LINE
  8
0_00
  6
CONTINUOUS
 62
4
 10
317.4813
 20
641.9067
 11
317.7813
 21
642.8068
  0
LINE
  8
15_0F
  6
CONTINUOUS
 62
4
 10
290.7813
 20
642.7067
 11
291.7813
 21
642.7067
  0
LINE
  8
15_0F
  6
CONTINUOUS
 62
4
 10
290.7813
 20
642.7067
 11
290.7813
 21
641.9067
  0
LINE
  8
15_0F
  6
CONTINUOUS
 62
4
 10
313.7813
 20
642.7067
 11
312.7813
 21
642.7067
  0
LINE
  8
15_0F
  6
CONTINUOUS
 62
4
 10
313.7813
 20
642.7067
 11
313.7813
 21
641.9067
  0
LINE
  8
15_0F
  6
CONTINUOUS
 62
4
 10
275.8813
 20
637.9021
 11
275.3694
 21
637.0154
  0
LINE
  8
15_0F
  6
CONTINUOUS
 62
4
 10
276.9813
 20
637.6073
 11
276.4683
 21
636.7189
  0
LINE
  8
15_0F
  6
CONTINUOUS
 62
4
 10
328.6813
 20
637.9021
 11
329.1932
 21
637.0154
  0
LINE
  8
15_0F
  6
CONTINUOUS
 62
4
 10
327.5813
 20
637.6073
 11
328.0943
 21
636.7189
  0
LINE
  8
15_0F
  6
CONTINUOUS
 62
4
 10
295.2521
 20
620.3068
 11
309.3105
 21
620.3068
  0
LINE
  8
0_00
  6
CONTINUOUS
 62
4
 10
283.9813
 20
642.8068
 11
284.2813
 21
642.5067
  0
LINE
  8
0_00
  6
CONTINUOUS
 62
4
 10
281.7813
 20
642.8068
 11
283.9813
 21
642.8068
  0
LINE
  8
0_00
  6
CONTINUOUS
 62
4
 10
281.4813
 20
642.3067
 11
281.7813
 21
642.8068
  0
LINE
  8
0_00
  6
CONTINUOUS
 62
4
 10
284.5813
 20
642.8068
 11
284.2813
 21
642.5067
  0
LINE
  8
0_00
  6
CONTINUOUS
 62
4
 10
286.7813
 20
642.8068
 11
284.5813
 21
642.8068
  0
LINE
  8
0_00
  6
CONTINUOUS
 62
4
 10
281.4813
 20
641.2067
 11
281.7813
 21
640.8067
  0
LINE
  8
0_00
  6
CONTINUOUS
 62
4
 10
287.0813
 20
641.9067
 11
286.7813
 21
642.8068
  0
LINE
  8
15_0F
  6
CONTINUOUS
 62
6
 10
251.2865
 20
476.3067
 11
135.5000
 21
476.3067
  0
LINE
  8
15_0F
  6
CONTINUOUS
 62
6
 10
280.4326
 20
676.3068
 11
135.5000
 21
676.3068
  0
LINE
  8
15_0F
  6
CONTINUOUS
 62
6
 10
140.0000
 20
676.3068
 11
140.0000
 21
476.3067
  0
LINE
  8
15_0F
  6
CONTINUOUS
 62
6
 10
140.0000
 20
676.3068
 11
138.4407
 21
668.9707
  0
LINE
  8
15_0F
  6
CONTINUOUS
 62
6
 10
140.0000
 20
676.3068
 11
141.5593
 21
668.9707
  0
LINE
  8
15_0F
  6
CONTINUOUS
 62
6
 10
140.0000
 20
476.3067
 11
141.5593
 21
483.6428
  0
LINE
  8
15_0F
  6
CONTINUOUS
 62
6
 10
140.0000
 20
476.3067
 11
138.4407
 21
483.6428
  0
LINE
  8
15_0F
  6
CONTINUOUS
 62
6
 10
214.9319
 20
456.3068
 11
135.5000
 21
456.3068
  0
LINE
  8
15_0F
  6
CONTINUOUS
 62
6
 10
140.0000
 20
476.3067
 11
140.0000
 21
456.3068
  0
LINE
  8
15_0F
  6
CONTINUOUS
 62
6
 10
140.0000
 20
423.9067
 11
140.0000
 21
456.3068
  0
LINE
  8
15_0F
  6
CONTINUOUS
 62
6
 10
140.0000
 20
456.3068
 11
138.4407
 21
448.9707
  0
LINE
  8
15_0F
  6
CONTINUOUS
 62
6
 10
140.0000
 20
456.3068
 11
141.5593
 21
448.9707
  0
LINE
  8
15_0F
  6
CONTINUOUS
 62
6
 10
140.0000
 20
491.3067
 11
140.0000
 21
476.3067
  0
LINE
  8
15_0F
  6
CONTINUOUS
 62
6
 10
140.0000
 20
476.3067
 11
141.5593
 21
483.6428
  0
LINE
  8
15_0F
  6
CONTINUOUS
 62
6
 10
140.0000
 20
476.3067
 11
138.4407
 21
483.6428
  0
LINE
  8
15_0F
  6
CONTINUOUS
 62
6
 10
214.9319
 20
478.8068
 11
155.5000
 21
478.8068
  0
LINE
  8
15_0F
  6
CONTINUOUS
 62
6
 10
214.9319
 20
413.8068
 11
155.5000
 21
413.8068
  0
LINE
  8
15_0F
  6
CONTINUOUS
 62
6
 10
160.0000
 20
478.8068
 11
160.0000
 21
413.8068
  0
LINE
  8
15_0F
  6
CONTINUOUS
 62
6
 10
160.0000
 20
478.8068
 11
158.4407
 21
471.4707
  0
LINE
  8
15_0F
  6
CONTINUOUS
 62
6
 10
160.0000
 20
478.8068
 11
161.5593
 21
471.4707
  0
LINE
  8
15_0F
  6
CONTINUOUS
 62
6
 10
160.0000
 20
413.8068
 11
161.5593
 21
421.1429
  0
LINE
  8
15_0F
  6
CONTINUOUS
 62
6
 10
160.0000
 20
413.8068
 11
158.4407
 21
421.1429
  0
LINE
  8
15_0F
  6
CONTINUOUS
 62
6
 10
387.1968
 20
413.8068
 11
444.5000
 21
413.8068
  0
LINE
  8
15_0F
  6
CONTINUOUS
 62
6
 10
387.1968
 20
473.8068
 11
444.5000
 21
473.8068
  0
LINE
  8
15_0F
  6
CONTINUOUS
 62
6
 10
440.0000
 20
473.8068
 11
440.0000
 21
413.8068
  0
LINE
  8
15_0F
  6
CONTINUOUS
 62
6
 10
440.0000
 20
473.8068
 11
438.4407
 21
466.4707
  0
LINE
  8
15_0F
  6
CONTINUOUS
 62
6
 10
440.0000
 20
473.8068
 11
441.5593
 21
466.4707
  0
LINE
  8
15_0F
  6
CONTINUOUS
 62
6
 10
440.0000
 20
413.8068
 11
441.5593
 21
421.1429
  0
LINE
  8
15_0F
  6
CONTINUOUS
 62
6
 10
440.0000
 20
413.8068
 11
438.4407
 21
421.1429
  0
LINE
  8
15_0F
  6
CONTINUOUS
 62
6
 10
331.2813
 20
670.0161
 11
331.2813
 21
724.5000
  0
LINE
  8
15_0F
  6
CONTINUOUS
 62
6
 10
273.2830
 20
670.0161
 11
273.2830
 21
724.5000
  0
LINE
  8
15_0F
  6
CONTINUOUS
 62
6
 10
273.2830
 20
720.0000
 11
331.2813
 21
720.0000
  0
LINE
  8
15_0F
  6
CONTINUOUS
 62
6
 10
273.2830
 20
720.0000
 11
280.6191
 21
718.4407
  0
LINE
  8
15_0F
  6
CONTINUOUS
 62
6
 10
273.2830
 20
720.0000
 11
280.6191
 21
721.5593
  0
LINE
  8
15_0F
  6
CONTINUOUS
 62
6
 10
331.2813
 20
720.0000
 11
323.9452
 21
721.5593
  0
LINE
  8
15_0F
  6
CONTINUOUS
 62
6
 10
331.2813
 20
720.0000
 11
323.9452
 21
718.4407
  0
LINE
  8
15_0F
  6
CONTINUOUS
 62
6
 10
302.2828
 20
339.0356
 11
302.2828
 21
315.5000
  0
LINE
  8
15_0F
  6
CONTINUOUS
 62
6
 10
330.2828
 20
405.7362
 11
330.2828
 21
315.5000
  0
LINE
  8
15_0F
  6
CONTINUOUS
 62
6
 10
302.2828
 20
320.0000
 11
330.2828
 21
320.0000
  0
LINE
  8
15_0F
  6
CONTINUOUS
 62
6
 10
269.8827
 20
320.0000
 11
302.2828
 21
320.0000
  0
LINE
  8
15_0F
  6
CONTINUOUS
 62
6
 10
302.2828
 20
320.0000
 11
294.9467
 21
321.5593
  0
LINE
  8
15_0F
  6
CONTINUOUS
 62
6
 10
302.2828
 20
320.0000
 11
294.9467
 21
318.4407
  0
LINE
  8
15_0F
  6
CONTINUOUS
 62
6
 10
345.2828
 20
320.0000
 11
330.2828
 21
320.0000
  0
LINE
  8
15_0F
  6
CONTINUOUS
 62
6
 10
330.2828
 20
320.0000
 11
337.6189
 21
318.4407
  0
LINE
  8
15_0F
  6
CONTINUOUS
 62
6
 10
330.2828
 20
320.0000
 11
337.6189
 21
321.5593
  0
LINE
  8
15_0F
  6
CONTINUOUS
 62
6
 10
557.3536
 20
746.8237
 11
557.3536
 21
784.5000
  0
LINE
  8
15_0F
  6
CONTINUOUS
 62
6
 10
594.8536
 20
746.8237
 11
594.8536
 21
784.5000
  0
LINE
  8
15_0F
  6
CONTINUOUS
 62
6
 10
557.3536
 20
780.0000
 11
594.8536
 21
780.0000
  0
LINE
  8
15_0F
  6
CONTINUOUS
 62
6
 10
557.3536
 20
780.0000
 11
564.6898
 21
778.4407
  0
LINE
  8
15_0F
  6
CONTINUOUS
 62
6
 10
557.3536
 20
780.0000
 11
564.6898
 21
781.5593
  0
LINE
  8
15_0F
  6
CONTINUOUS
 62
6
 10
594.8536
 20
780.0000
 11
587.5175
 21
781.5593
  0
LINE
  8
15_0F
  6
CONTINUOUS
 62
6
 10
594.8536
 20
780.0000
 11
587.5175
 21
778.4407
  0
LINE
  8
15_0F
  6
CONTINUOUS
 62
6
 10
749.8537
 20
746.8237
 11
749.8537
 21
784.5000
  0
LINE
  8
15_0F
  6
CONTINUOUS
 62
6
 10
594.8536
 20
780.0000
 11
749.8537
 21
780.0000
  0
LINE
  8
15_0F
  6
CONTINUOUS
 62
6
 10
594.8536
 20
780.0000
 11
602.1898
 21
778.4407
  0
LINE
  8
15_0F
  6
CONTINUOUS
 62
6
 10
594.8536
 20
780.0000
 11
602.1898
 21
781.5593
  0
LINE
  8
15_0F
  6
CONTINUOUS
 62
6
 10
749.8537
 20
780.0000
 11
742.5175
 21
781.5593
  0
LINE
  8
15_0F
  6
CONTINUOUS
 62
6
 10
749.8537
 20
780.0000
 11
742.5175
 21
778.4407
  0
LINE
  8
15_0F
  6
CONTINUOUS
 62
6
 10
904.8537
 20
746.8237
 11
904.8537
 21
784.5000
  0
LINE
  8
15_0F
  6
CONTINUOUS
 62
6
 10
749.8537
 20
780.0000
 11
904.8537
 21
780.0000
  0
LINE
  8
15_0F
  6
CONTINUOUS
 62
6
 10
749.8537
 20
780.0000
 11
757.1898
 21
778.4407
  0
LINE
  8
15_0F
  6
CONTINUOUS
 62
6
 10
749.8537
 20
780.0000
 11
757.1898
 21
781.5593
  0
LINE
  8
15_0F
  6
CONTINUOUS
 62
6
 10
904.8537
 20
780.0000
 11
897.5175
 21
781.5593
  0
LINE
  8
15_0F
  6
CONTINUOUS
 62
6
 10
904.8537
 20
780.0000
 11
897.5175
 21
778.4407
  0
LINE
  8
15_0F
  6
CONTINUOUS
 62
6
 10
1059.8536
 20
746.8237
 11
1059.8536
 21
784.5000
  0
LINE
  8
15_0F
  6
CONTINUOUS
 62
6
 10
904.8537
 20
780.0000
 11
1059.8536
 21
780.0000
  0
LINE
  8
15_0F
  6
CONTINUOUS
 62
6
 10
904.8537
 20
780.0000
 11
912.1897
 21
778.4407
  0
LINE
  8
15_0F
  6
CONTINUOUS
 62
6
 10
904.8537
 20
780.0000
 11
912.1897
 21
781.5593
  0
LINE
  8
15_0F
  6
CONTINUOUS
 62
6
 10
1059.8536
 20
780.0000
 11
1052.5175
 21
781.5593
  0
LINE
  8
15_0F
  6
CONTINUOUS
 62
6
 10
1059.8536
 20
780.0000
 11
1052.5175
 21
778.4407
  0
LINE
  8
15_0F
  6
CONTINUOUS
 62
6
 10
1097.3536
 20
746.8237
 11
1097.3536
 21
784.5000
  0
LINE
  8
15_0F
  6
CONTINUOUS
 62
6
 10
1059.8536
 20
780.0000
 11
1097.3536
 21
780.0000
  0
LINE
  8
15_0F
  6
CONTINUOUS
 62
6
 10
1059.8536
 20
780.0000
 11
1067.1897
 21
778.4407
  0
LINE
  8
15_0F
  6
CONTINUOUS
 62
6
 10
1059.8536
 20
780.0000
 11
1067.1897
 21
781.5593
  0
LINE
  8
15_0F
  6
CONTINUOUS
 62
6
 10
1097.3536
 20
780.0000
 11
1090.0176
 21
781.5593
  0
LINE
  8
15_0F
  6
CONTINUOUS
 62
6
 10
1097.3536
 20
780.0000
 11
1090.0176
 21
778.4407
  0
LINE
  8
0_00
  6
CONTINUOUS
 62
2
 10
705.5040
 20
369.3623
 11
710.5040
 21
374.3623
  0
LINE
  8
0_00
  6
CONTINUOUS
 62
2
 10
702.6755
 20
369.3623
 11
707.6756
 21
374.3623
  0
LINE
  8
0_00
  6
CONTINUOUS
 62
2
 10
699.8471
 20
369.3623
 11
704.8471
 21
374.3623
  0
LINE
  8
0_00
  6
CONTINUOUS
 62
2
 10
697.0187
 20
369.3623
 11
702.0186
 21
374.3623
  0
LINE
  8
0_00
  6
CONTINUOUS
 62
2
 10
694.1902
 20
369.3623
 11
699.1902
 21
374.3623
  0
LINE
  8
0_00
  6
CONTINUOUS
 62
2
 10
691.3618
 20
369.3623
 11
696.3618
 21
374.3623
  0
LINE
  8
0_00
  6
CONTINUOUS
 62
2
 10
688.5335
 20
369.3623
 11
693.5334
 21
374.3623
  0
LINE
  8
0_00
  6
CONTINUOUS
 62
2
 10
685.7050
 20
369.3623
 11
690.7050
 21
374.3623
  0
LINE
  8
0_00
  6
CONTINUOUS
 62
2
 10
682.8766
 20
369.3623
 11
687.8766
 21
374.3623
  0
LINE
  8
0_00
  6
CONTINUOUS
 62
2
 10
680.0481
 20
369.3623
 11
685.0482
 21
374.3623
  0
LINE
  8
0_00
  6
CONTINUOUS
 62
2
 10
677.2197
 20
369.3623
 11
682.2197
 21
374.3623
  0
LINE
  8
0_00
  6
CONTINUOUS
 62
2
 10
674.3913
 20
369.3623
 11
679.3913
 21
374.3623
  0
LINE
  8
0_00
  6
CONTINUOUS
 62
2
 10
671.5628
 20
369.3623
 11
676.5629
 21
374.3623
  0
LINE
  8
0_00
  6
CONTINUOUS
 62
2
 10
668.7345
 20
369.3623
 11
673.7344
 21
374.3623
  0
LINE
  8
0_00
  6
CONTINUOUS
 62
2
 10
665.9060
 20
369.3623
 11
670.9060
 21
374.3623
  0
LINE
  8
0_00
  6
CONTINUOUS
 62
2
 10
663.0776
 20
369.3623
 11
668.0776
 21
374.3623
  0
LINE
  8
0_00
  6
CONTINUOUS
 62
2
 10
660.2492
 20
369.3623
 11
665.2491
 21
374.3623
  0
LINE
  8
0_00
  6
CONTINUOUS
 62
2
 10
657.4207
 20
369.3623
 11
662.4207
 21
374.3623
  0
LINE
  8
0_00
  6
CONTINUOUS
 62
2
 10
654.5923
 20
369.3623
 11
659.5923
 21
374.3623
  0
LINE
  8
0_00
  6
CONTINUOUS
 62
2
 10
651.7638
 20
369.3623
 11
656.7639
 21
374.3623
  0
LINE
  8
0_00
  6
CONTINUOUS
 62
2
 10
650.5040
 20
370.9309
 11
653.9354
 21
374.3623
  0
LINE
  8
0_00
  6
CONTINUOUS
 62
2
 10
650.5040
 20
373.7593
 11
651.1070
 21
374.3623
  0
LINE
  8
0_00
  6
CONTINUOUS
 62
2
 10
708.3324
 20
369.3623
 11
710.5040
 21
371.5339
  0
LINE
  8
0_00
  6
CONTINUOUS
 62
2
 10
705.5040
 20
257.7623
 11
710.5040
 21
262.7623
  0
LINE
  8
0_00
  6
CONTINUOUS
 62
2
 10
702.6755
 20
257.7623
 11
707.6756
 21
262.7623
  0
LINE
  8
0_00
  6
CONTINUOUS
 62
2
 10
699.8471
 20
257.7623
 11
704.8471
 21
262.7623
  0
LINE
  8
0_00
  6
CONTINUOUS
 62
2
 10
697.0187
 20
257.7623
 11
702.0186
 21
262.7623
  0
LINE
  8
0_00
  6
CONTINUOUS
 62
2
 10
694.1902
 20
257.7623
 11
699.1902
 21
262.7623
  0
LINE
  8
0_00
  6
CONTINUOUS
 62
2
 10
691.3618
 20
257.7623
 11
696.3618
 21
262.7623
  0
LINE
  8
0_00
  6
CONTINUOUS
 62
2
 10
688.5335
 20
257.7623
 11
693.5334
 21
262.7623
  0
LINE
  8
0_00
  6
CONTINUOUS
 62
2
 10
685.7050
 20
257.7623
 11
690.7050
 21
262.7623
  0
LINE
  8
0_00
  6
CONTINUOUS
 62
2
 10
682.8766
 20
257.7623
 11
687.8766
 21
262.7623
  0
LINE
  8
0_00
  6
CONTINUOUS
 62
2
 10
680.0481
 20
257.7623
 11
685.0482
 21
262.7623
  0
LINE
  8
0_00
  6
CONTINUOUS
 62
2
 10
677.2197
 20
257.7623
 11
682.2197
 21
262.7623
  0
LINE
  8
0_00
  6
CONTINUOUS
 62
2
 10
674.3913
 20
257.7623
 11
679.3913
 21
262.7623
  0
LINE
  8
0_00
  6
CONTINUOUS
 62
2
 10
671.5628
 20
257.7623
 11
676.5629
 21
262.7623
  0
LINE
  8
0_00
  6
CONTINUOUS
 62
2
 10
668.7345
 20
257.7623
 11
673.7344
 21
262.7623
  0
LINE
  8
0_00
  6
CONTINUOUS
 62
2
 10
665.9060
 20
257.7623
 11
670.9060
 21
262.7623
  0
LINE
  8
0_00
  6
CONTINUOUS
 62
2
 10
663.0776
 20
257.7623
 11
668.0776
 21
262.7623
  0
LINE
  8
0_00
  6
CONTINUOUS
 62
2
 10
660.2492
 20
257.7623
 11
665.2491
 21
262.7623
  0
LINE
  8
0_00
  6
CONTINUOUS
 62
2
 10
657.4207
 20
257.7623
 11
662.4207
 21
262.7623
  0
LINE
  8
0_00
  6
CONTINUOUS
 62
2
 10
654.5923
 20
257.7623
 11
659.5923
 21
262.7623
  0
LINE
  8
0_00
  6
CONTINUOUS
 62
2
 10
651.7638
 20
257.7623
 11
656.7639
 21
262.7623
  0
LINE
  8
0_00
  6
CONTINUOUS
 62
2
 10
650.5040
 20
259.3309
 11
653.9354
 21
262.7623
  0
LINE
  8
0_00
  6
CONTINUOUS
 62
2
 10
650.5040
 20
262.1593
 11
651.1070
 21
262.7623
  0
LINE
  8
0_00
  6
CONTINUOUS
 62
2
 10
708.3324
 20
257.7623
 11
710.5040
 21
259.9339
  0
LINE
  8
0_00
  6
CONTINUOUS
 62
4
 10
710.5040
 20
389.6624
 11
710.5040
 21
242.4623
  0
LINE
  8
0_00
  6
CONTINUOUS
 62
4
 10
650.5040
 20
389.6624
 11
650.5040
 21
242.4623
  0
LINE
  8
0_00
  6
CONTINUOUS
 62
4
 10
650.5040
 20
384.8623
 11
710.5040
 21
384.8623
  0
LINE
  8
0_00
  6
CONTINUOUS
 62
4
 10
650.5040
 20
375.8623
 11
710.5040
 21
375.8623
  0
LINE
  8
0_00
  6
CONTINUOUS
 62
4
 10
650.5040
 20
368.3623
 11
710.5040
 21
368.3623
  0
LINE
  8
0_00
  6
CONTINUOUS
 62
4
 10
650.5040
 20
247.2623
 11
710.5040
 21
247.2623
  0
LINE
  8
0_00
  6
CONTINUOUS
 62
4
 10
650.5040
 20
263.7623
 11
710.5040
 21
263.7623
  0
LINE
  8
0_00
  6
CONTINUOUS
 62
4
 10
650.5040
 20
252.5623
 11
710.5040
 21
252.5623
  0
LINE
  8
0_00
  6
CONTINUOUS
 62
4
 10
650.5040
 20
379.5623
 11
710.5040
 21
379.5623
  0
LINE
  8
0_00
  6
CONTINUOUS
 62
4
 10
1063.9841
 20
301.3123
 11
1063.9841
 21
302.8123
  0
LINE
  8
0_00
  6
CONTINUOUS
 62
4
 10
1064.3069
 20
304.0623
 11
1064.5914
 21
304.0623
  0
LINE
  8
0_00
  6
CONTINUOUS
 62
4
 10
1064.4585
 20
302.8123
 11
1063.9841
 21
302.8123
  0
LINE
  8
0_00
  6
CONTINUOUS
 62
4
 10
1064.4585
 20
301.3123
 11
1063.9841
 21
301.3123
  0
LINE
  8
0_00
  6
CONTINUOUS
 62
4
 10
1066.7342
 20
300.0623
 11
1065.2341
 21
300.0623
  0
LINE
  8
0_00
  6
CONTINUOUS
 62
4
 10
1065.2341
 20
300.5367
 11
1065.2341
 21
300.0623
  0
LINE
  8
0_00
  6
CONTINUOUS
 62
4
 10
1067.9842
 20
301.3123
 11
1067.9842
 21
302.8123
  0
LINE
  8
0_00
  6
CONTINUOUS
 62
4
 10
1067.6612
 20
304.0623
 11
1067.3767
 21
304.0623
  0
LINE
  8
0_00
  6
CONTINUOUS
 62
4
 10
1067.5098
 20
302.8123
 11
1067.9842
 21
302.8123
  0
LINE
  8
0_00
  6
CONTINUOUS
 62
4
 10
1067.5098
 20
301.3123
 11
1067.9842
 21
301.3123
  0
LINE
  8
0_00
  6
CONTINUOUS
 62
4
 10
1066.7342
 20
300.5367
 11
1066.7342
 21
300.0623
  0
LINE
  8
0_00
  6
CONTINUOUS
 62
4
 10
1066.2816
 20
298.0648
 11
1065.9841
 21
298.3623
  0
LINE
  8
0_00
  6
CONTINUOUS
 62
4
 10
1065.6866
 20
298.0648
 11
1065.9841
 21
298.3623
  0
LINE
  8
0_00
  6
CONTINUOUS
 62
4
 10
1063.9841
 20
330.8123
 11
1063.9841
 21
329.3123
  0
LINE
  8
0_00
  6
CONTINUOUS
 62
4
 10
1064.3069
 20
328.0623
 11
1064.5914
 21
328.0623
  0
LINE
  8
0_00
  6
CONTINUOUS
 62
4
 10
1064.4585
 20
329.3123
 11
1063.9841
 21
329.3123
  0
LINE
  8
0_00
  6
CONTINUOUS
 62
4
 10
1064.4585
 20
330.8123
 11
1063.9841
 21
330.8123
  0
LINE
  8
0_00
  6
CONTINUOUS
 62
4
 10
1066.7342
 20
332.0623
 11
1065.2341
 21
332.0623
  0
LINE
  8
0_00
  6
CONTINUOUS
 62
4
 10
1065.2341
 20
331.5879
 11
1065.2341
 21
332.0623
  0
LINE
  8
0_00
  6
CONTINUOUS
 62
4
 10
1067.9842
 20
330.8123
 11
1067.9842
 21
329.3123
  0
LINE
  8
0_00
  6
CONTINUOUS
 62
4
 10
1067.6612
 20
328.0623
 11
1067.3767
 21
328.0623
  0
LINE
  8
0_00
  6
CONTINUOUS
 62
4
 10
1067.5098
 20
329.3123
 11
1067.9842
 21
329.3123
  0
LINE
  8
0_00
  6
CONTINUOUS
 62
4
 10
1067.5098
 20
330.8123
 11
1067.9842
 21
330.8123
  0
LINE
  8
0_00
  6
CONTINUOUS
 62
4
 10
1066.7342
 20
331.5879
 11
1066.7342
 21
332.0623
  0
LINE
  8
0_00
  6
CONTINUOUS
 62
4
 10
1066.2816
 20
334.0599
 11
1065.9841
 21
333.7623
  0
LINE
  8
0_00
  6
CONTINUOUS
 62
4
 10
1065.6866
 20
334.0599
 11
1065.9841
 21
333.7623
  0
LINE
  8
0_00
  6
CONTINUOUS
 62
4
 10
1080.7342
 20
314.0623
 11
1079.2342
 21
314.0623
  0
LINE
  8
0_00
  6
CONTINUOUS
 62
4
 10
1077.9842
 20
314.3853
 11
1077.9842
 21
314.6697
  0
LINE
  8
0_00
  6
CONTINUOUS
 62
4
 10
1079.2342
 20
314.5367
 11
1079.2342
 21
314.0623
  0
LINE
  8
0_00
  6
CONTINUOUS
 62
4
 10
1080.7342
 20
314.5367
 11
1080.7342
 21
314.0623
  0
LINE
  8
0_00
  6
CONTINUOUS
 62
4
 10
1081.9841
 20
316.8123
 11
1081.9841
 21
315.3123
  0
LINE
  8
0_00
  6
CONTINUOUS
 62
4
 10
1081.5098
 20
315.3123
 11
1081.9841
 21
315.3123
  0
LINE
  8
0_00
  6
CONTINUOUS
 62
4
 10
1080.7342
 20
318.0623
 11
1079.2342
 21
318.0623
  0
LINE
  8
0_00
  6
CONTINUOUS
 62
4
 10
1077.9842
 20
317.7394
 11
1077.9842
 21
317.4550
  0
LINE
  8
0_00
  6
CONTINUOUS
 62
4
 10
1079.2342
 20
317.5879
 11
1079.2342
 21
318.0623
  0
LINE
  8
0_00
  6
CONTINUOUS
 62
4
 10
1080.7342
 20
317.5879
 11
1080.7342
 21
318.0623
  0
LINE
  8
0_00
  6
CONTINUOUS
 62
4
 10
1081.5098
 20
316.8123
 11
1081.9841
 21
316.8123
  0
LINE
  8
0_00
  6
CONTINUOUS
 62
4
 10
1083.9817
 20
316.3599
 11
1083.6841
 21
316.0623
  0
LINE
  8
0_00
  6
CONTINUOUS
 62
4
 10
1083.9817
 20
315.7648
 11
1083.6841
 21
316.0623
  0
LINE
  8
0_00
  6
CONTINUOUS
 62
4
 10
1051.2341
 20
314.0623
 11
1052.7341
 21
314.0623
  0
LINE
  8
0_00
  6
CONTINUOUS
 62
4
 10
1053.9841
 20
314.3853
 11
1053.9841
 21
314.6697
  0
LINE
  8
0_00
  6
CONTINUOUS
 62
4
 10
1052.7341
 20
314.5367
 11
1052.7341
 21
314.0623
  0
LINE
  8
0_00
  6
CONTINUOUS
 62
4
 10
1051.2341
 20
314.5367
 11
1051.2341
 21
314.0623
  0
LINE
  8
0_00
  6
CONTINUOUS
 62
4
 10
1049.9842
 20
316.8123
 11
1049.9842
 21
315.3123
  0
LINE
  8
0_00
  6
CONTINUOUS
 62
4
 10
1050.4585
 20
315.3123
 11
1049.9842
 21
315.3123
  0
LINE
  8
0_00
  6
CONTINUOUS
 62
4
 10
1051.2341
 20
318.0623
 11
1052.7341
 21
318.0623
  0
LINE
  8
0_00
  6
CONTINUOUS
 62
4
 10
1053.9841
 20
317.7394
 11
1053.9841
 21
317.4550
  0
LINE
  8
0_00
  6
CONTINUOUS
 62
4
 10
1052.7341
 20
317.5879
 11
1052.7341
 21
318.0623
  0
LINE
  8
0_00
  6
CONTINUOUS
 62
4
 10
1051.2341
 20
317.5879
 11
1051.2341
 21
318.0623
  0
LINE
  8
0_00
  6
CONTINUOUS
 62
4
 10
1050.4585
 20
316.8123
 11
1049.9842
 21
316.8123
  0
LINE
  8
0_00
  6
CONTINUOUS
 62
4
 10
1047.9866
 20
316.3599
 11
1048.2840
 21
316.0623
  0
LINE
  8
0_00
  6
CONTINUOUS
 62
4
 10
1047.9866
 20
315.7648
 11
1048.2840
 21
316.0623
  0
LINE
  8
0_00
  6
CONTINUOUS
 62
4
 10
1056.9842
 20
326.3123
 11
1074.9841
 21
326.3123
  0
LINE
  8
0_00
  6
CONTINUOUS
 62
4
 10
1056.9842
 20
305.8123
 11
1074.9841
 21
305.8123
  0
LINE
  8
0_00
  6
CONTINUOUS
 62
4
 10
1076.9841
 20
324.3123
 11
1076.9841
 21
307.8123
  0
LINE
  8
0_00
  6
CONTINUOUS
 62
4
 10
1054.9841
 20
324.3123
 11
1054.9841
 21
307.8123
  0
LINE
  8
0_00
  6
CONTINUOUS
 62
2
 10
1070.2811
 20
308.3123
 11
1061.6871
 21
308.3123
  0
LINE
  8
0_00
  6
CONTINUOUS
 62
2
 10
1070.2811
 20
323.8123
 11
1061.6871
 21
323.8123
  0
LINE
  8
0_00
  6
CONTINUOUS
 62
2
 10
1058.9841
 20
314.5675
 11
1058.9841
 21
317.5571
  0
LINE
  8
0_00
  6
CONTINUOUS
 62
2
 10
1072.9841
 20
314.5675
 11
1072.9841
 21
317.5571
  0
LINE
  8
0_00
  6
CONTINUOUS
 62
2
 10
1061.6553
 20
309.3623
 11
1062.9854
 21
309.3623
  0
LINE
  8
0_00
  6
CONTINUOUS
 62
2
 10
1068.9828
 20
309.3623
 11
1070.3130
 21
309.3623
  0
LINE
  8
0_00
  6
CONTINUOUS
 62
2
 10
1060.0841
 20
314.5675
 11
1060.0841
 21
317.5571
  0
LINE
  8
0_00
  6
CONTINUOUS
 62
2
 10
1064.3069
 20
313.5623
 11
1064.5914
 21
313.5623
  0
LINE
  8
0_00
  6
CONTINUOUS
 62
2
 10
1067.3767
 20
313.5623
 11
1067.6612
 21
313.5623
  0
LINE
  8
0_00
  6
CONTINUOUS
 62
2
 10
1065.2341
 20
309.5623
 11
1066.7342
 21
309.5623
  0
LINE
  8
0_00
  6
CONTINUOUS
 62
2
 10
1063.9841
 20
310.8123
 11
1063.9841
 21
312.3123
  0
LINE
  8
0_00
  6
CONTINUOUS
 62
2
 10
1067.9842
 20
310.8123
 11
1067.9842
 21
312.3123
  0
LINE
  8
0_00
  6
CONTINUOUS
 62
2
 10
1064.4585
 20
310.8123
 11
1063.9841
 21
310.8123
  0
LINE
  8
0_00
  6
CONTINUOUS
 62
2
 10
1064.4585
 20
312.3123
 11
1063.9841
 21
312.3123
  0
LINE
  8
0_00
  6
CONTINUOUS
 62
2
 10
1065.2341
 20
310.0367
 11
1065.2341
 21
309.5623
  0
LINE
  8
0_00
  6
CONTINUOUS
 62
2
 10
1066.7342
 20
310.0367
 11
1066.7342
 21
309.5623
  0
LINE
  8
0_00
  6
CONTINUOUS
 62
2
 10
1067.9842
 20
310.8123
 11
1067.5098
 21
310.8123
  0
LINE
  8
0_00
  6
CONTINUOUS
 62
2
 10
1067.5332
 20
312.3123
 11
1067.9842
 21
312.3123
  0
LINE
  8
0_00
  6
CONTINUOUS
 62
2
 10
1061.6553
 20
322.7623
 11
1062.9854
 21
322.7623
  0
LINE
  8
0_00
  6
CONTINUOUS
 62
2
 10
1068.9828
 20
322.7623
 11
1070.3130
 21
322.7623
  0
LINE
  8
0_00
  6
CONTINUOUS
 62
2
 10
1064.3069
 20
318.5623
 11
1064.5914
 21
318.5623
  0
LINE
  8
0_00
  6
CONTINUOUS
 62
2
 10
1067.3767
 20
318.5623
 11
1067.6612
 21
318.5623
  0
LINE
  8
0_00
  6
CONTINUOUS
 62
2
 10
1065.2341
 20
322.5623
 11
1066.7342
 21
322.5623
  0
LINE
  8
0_00
  6
CONTINUOUS
 62
2
 10
1063.9841
 20
321.3123
 11
1063.9841
 21
319.8123
  0
LINE
  8
0_00
  6
CONTINUOUS
 62
2
 10
1067.9842
 20
321.3123
 11
1067.9842
 21
319.8123
  0
LINE
  8
0_00
  6
CONTINUOUS
 62
2
 10
1064.4585
 20
321.3123
 11
1063.9841
 21
321.3123
  0
LINE
  8
0_00
  6
CONTINUOUS
 62
2
 10
1064.4585
 20
319.8123
 11
1063.9841
 21
319.8123
  0
LINE
  8
0_00
  6
CONTINUOUS
 62
2
 10
1065.2341
 20
322.0880
 11
1065.2341
 21
322.5623
  0
LINE
  8
0_00
  6
CONTINUOUS
 62
2
 10
1066.7342
 20
322.0880
 11
1066.7342
 21
322.5623
  0
LINE
  8
0_00
  6
CONTINUOUS
 62
2
 10
1067.9842
 20
321.3123
 11
1067.5098
 21
321.3123
  0
LINE
  8
0_00
  6
CONTINUOUS
 62
2
 10
1067.5332
 20
319.8123
 11
1067.9842
 21
319.8123
  0
LINE
  8
0_00
  6
CONTINUOUS
 62
2
 10
1071.8840
 20
314.5675
 11
1071.8840
 21
317.5571
  0
LINE
  8
15_0F
  6
CONTINUOUS
 62
6
 10
650.5040
 20
401.7330
 11
650.5040
 21
464.5000
  0
LINE
  8
15_0F
  6
CONTINUOUS
 62
6
 10
710.5040
 20
401.7330
 11
710.5040
 21
464.5000
  0
LINE
  8
15_0F
  6
CONTINUOUS
 62
6
 10
650.5040
 20
460.0000
 11
710.5040
 21
460.0000
  0
LINE
  8
15_0F
  6
CONTINUOUS
 62
6
 10
650.5040
 20
460.0000
 11
657.8401
 21
458.4407
  0
LINE
  8
15_0F
  6
CONTINUOUS
 62
6
 10
650.5040
 20
460.0000
 11
657.8401
 21
461.5593
  0
LINE
  8
15_0F
  6
CONTINUOUS
 62
6
 10
710.5040
 20
460.0000
 11
703.1678
 21
461.5593
  0
LINE
  8
15_0F
  6
CONTINUOUS
 62
6
 10
710.5040
 20
460.0000
 11
703.1678
 21
458.4407
  0
LINE
  8
15_0F
  6
CONTINUOUS
 62
6
 10
699.2540
 20
309.2515
 11
699.2540
 21
444.5000
  0
LINE
  8
15_0F
  6
CONTINUOUS
 62
6
 10
658.5039
 20
338.1758
 11
658.5039
 21
444.5000
  0
LINE
  8
15_0F
  6
CONTINUOUS
 62
6
 10
658.5039
 20
440.0000
 11
699.2540
 21
440.0000
  0
LINE
  8
15_0F
  6
CONTINUOUS
 62
6
 10
658.5039
 20
440.0000
 11
665.8401
 21
438.4407
  0
LINE
  8
15_0F
  6
CONTINUOUS
 62
6
 10
658.5039
 20
440.0000
 11
665.8401
 21
441.5593
  0
LINE
  8
15_0F
  6
CONTINUOUS
 62
6
 10
699.2540
 20
440.0000
 11
691.9178
 21
441.5593
  0
LINE
  8
15_0F
  6
CONTINUOUS
 62
6
 10
699.2540
 20
440.0000
 11
691.9178
 21
438.4407
  0
LINE
  8
15_0F
  6
CONTINUOUS
 62
6
 10
1065.9841
 20
480.0000
 11
680.5040
 21
480.0000
  0
LINE
  8
15_0F
  6
CONTINUOUS
 62
6
 10
1065.9841
 20
480.0000
 11
1058.6479
 21
481.5593
  0
LINE
  8
15_0F
  6
CONTINUOUS
 62
6
 10
1065.9841
 20
480.0000
 11
1058.6479
 21
478.4407
  0
LINE
  8
15_0F
  6
CONTINUOUS
 62
6
 10
680.5040
 20
480.0000
 11
687.8401
 21
478.4407
  0
LINE
  8
15_0F
  6
CONTINUOUS
 62
6
 10
680.5040
 20
480.0000
 11
687.8401
 21
481.5593
  0
LINE
  8
15_0F
  6
CONTINUOUS
 62
6
 10
680.5040
 20
417.7334
 11
680.5040
 21
434.8437
  0
LINE
  8
15_0F
  6
CONTINUOUS
 62
6
 10
680.5040
 20
473.6631
 11
680.5040
 21
484.5000
  0
LINE
  8
15_0F
  6
CONTINUOUS
 62
6
 10
1065.9841
 20
362.0617
 11
1065.9841
 21
456.7135
  0
LINE
  8
15_0F
  6
CONTINUOUS
 62
6
 10
1065.9841
 20
474.9207
 11
1065.9841
 21
484.5000
  0
LINE
  8
15_0F
  6
CONTINUOUS
 62
6
 10
547.6955
 20
316.0623
 11
515.5000
 21
316.0623
  0
LINE
  8
15_0F
  6
CONTINUOUS
 62
6
 10
675.0311
 20
288.0623
 11
515.5000
 21
288.0623
  0
LINE
  8
15_0F
  6
CONTINUOUS
 62
6
 10
520.0000
 20
316.0623
 11
520.0000
 21
288.0623
  0
LINE
  8
15_0F
  6
CONTINUOUS
 62
6
 10
520.0000
 20
348.4623
 11
520.0000
 21
316.0623
  0
LINE
  8
15_0F
  6
CONTINUOUS
 62
6
 10
520.0000
 20
316.0623
 11
521.5593
 21
323.3985
  0
LINE
  8
15_0F
  6
CONTINUOUS
 62
6
 10
520.0000
 20
316.0623
 11
518.4407
 21
323.3985
  0
LINE
  8
15_0F
  6
CONTINUOUS
 62
6
 10
520.0000
 20
273.0623
 11
520.0000
 21
288.0623
  0
LINE
  8
15_0F
  6
CONTINUOUS
 62
6
 10
520.0000
 20
288.0623
 11
518.4407
 21
280.7262
  0
LINE
  8
15_0F
  6
CONTINUOUS
 62
6
 10
520.0000
 20
288.0623
 11
521.5593
 21
280.7262
  0
LINE
  8
15_0F
  6
CONTINUOUS
 62
6
 10
1047.9866
 20
340.9439
 11
1047.9866
 21
464.5000
  0
LINE
  8
15_0F
  6
CONTINUOUS
 62
6
 10
1083.9817
 20
340.9439
 11
1083.9817
 21
464.5000
  0
LINE
  8
15_0F
  6
CONTINUOUS
 62
6
 10
1083.9817
 20
460.0000
 11
1047.9866
 21
460.0000
  0
LINE
  8
15_0F
  6
CONTINUOUS
 62
6
 10
1098.9817
 20
460.0000
 11
1083.9817
 21
460.0000
  0
LINE
  8
15_0F
  6
CONTINUOUS
 62
6
 10
1083.9817
 20
460.0000
 11
1091.3177
 21
458.4407
  0
LINE
  8
15_0F
  6
CONTINUOUS
 62
6
 10
1083.9817
 20
460.0000
 11
1091.3177
 21
461.5593
  0
LINE
  8
15_0F
  6
CONTINUOUS
 62
6
 10
1032.9866
 20
460.0000
 11
1047.9866
 21
460.0000
  0
LINE
  8
15_0F
  6
CONTINUOUS
 62
6
 10
1047.9866
 20
460.0000
 11
1040.6504
 21
461.5593
  0
LINE
  8
15_0F
  6
CONTINUOUS
 62
6
 10
1047.9866
 20
460.0000
 11
1040.6504
 21
458.4407
  0
LINE
  8
12_0C
  6
CONTINUOUS
 62
2
 10
324.2847
 20
648.2917
 11
316.2847
 21
648.2917
  0
LINE
  8
12_0C
  6
CONTINUOUS
 62
2
 10
324.2847
 20
648.6917
 11
316.2847
 21
648.6917
  0
LINE
  8
12_0C
  6
CONTINUOUS
 62
2
 10
316.2847
 20
648.2917
 11
316.2847
 21
648.6917
  0
LINE
  8
12_0C
  6
CONTINUOUS
 62
2
 10
324.2847
 20
648.2917
 11
324.2847
 21
648.6917
  0
LINE
  8
12_0C
  6
CONTINUOUS
 62
2
 10
321.7347
 20
636.2917
 11
318.8347
 21
636.2917
  0
LINE
  8
0_00
  6
DASHED
 62
2
 10
318.2847
 20
648.2917
 11
318.2847
 21
645.7917
  0
LINE
  8
12_0C
  6
DASHED
 62
2
 10
318.8347
 20
648.2917
 11
318.8347
 21
645.7917
  0
LINE
  8
12_0C
  6
DASHED
 62
2
 10
321.7347
 20
648.2917
 11
321.7347
 21
645.7917
  0
LINE
  8
0_00
  6
DASHED
 62
2
 10
322.2847
 20
648.2917
 11
322.2847
 21
645.7917
  0
LINE
  8
12_0C
  6
CONTINUOUS
 62
2
 10
321.7347
 20
640.8067
 11
321.7347
 21
636.2917
  0
LINE
  8
12_0C
  6
DASHED
 62
2
 10
321.7347
 20
642.8067
 11
321.7347
 21
640.8067
  0
LINE
  8
12_0C
  6
CONTINUOUS
 62
2
 10
321.7347
 20
645.7917
 11
321.7347
 21
642.8067
  0
LINE
  8
0_00
  6
DASHED
 62
2
 10
322.2847
 20
642.8067
 11
322.2847
 21
641.1117
  0
LINE
  8
0_00
  6
CONTINUOUS
 62
2
 10
322.2847
 20
645.7917
 11
322.2847
 21
642.8067
  0
LINE
  8
12_0C
  6
CONTINUOUS
 62
2
 10
318.8347
 20
640.8067
 11
318.8347
 21
636.2917
  0
LINE
  8
12_0C
  6
DASHED
 62
2
 10
318.8347
 20
642.8067
 11
318.8347
 21
640.8067
  0
LINE
  8
12_0C
  6
CONTINUOUS
 62
2
 10
318.8347
 20
645.7917
 11
318.8347
 21
642.8067
  0
LINE
  8
0_00
  6
DASHED
 62
2
 10
318.2847
 20
642.8067
 11
318.2847
 21
641.1118
  0
LINE
  8
0_00
  6
CONTINUOUS
 62
2
 10
318.2847
 20
645.7917
 11
318.2847
 21
642.8067
  0
LINE
  8
12_0C
  6
CONTINUOUS
 62
2
 10
318.3195
 20
640.8067
 11
318.8347
 21
636.2917
  0
LINE
  8
12_0C
  6
DASHED
 62
2
 10
318.3195
 20
640.8067
 11
318.2847
 21
641.1118
  0
LINE
  8
12_0C
  6
CONTINUOUS
 62
2
 10
322.2499
 20
640.8067
 11
321.7347
 21
636.2917
  0
LINE
  8
12_0C
  6
DASHED
 62
2
 10
322.2499
 20
640.8067
 11
322.2847
 21
641.1117
  0
LINE
  8
15_0F
  6
CONTINUOUS
 62
4
 10
1028.3850
 20
527.0652
 11
1102.1851
 21
527.0652
  0
LINE
  8
15_0F
  6
CONTINUOUS
 62
4
 10
532.1994
 20
192.8600
 11
577.1994
 21
192.8600
  0
LINE
  8
15_0F
  6
CONTINUOUS
 62
4
 10
116.6874
 20
224.4437
 11
161.6874
 21
224.4437
  0
LINE
  8
0_00
  6
CONTINUOUS
 62
3
 10
547.4110
 20
97.2001
 11
547.4110
 21
37.2000
  0
LINE
  8
0_00
  6
CONTINUOUS
 62
7
 10
54.6905
 20
112.2001
 11
1218.5110
 21
112.2001
  0
LINE
  8
0_00
  6
CONTINUOUS
 62
3
 10
1218.5110
 20
851.7001
 11
1218.5110
 21
865.2001
  0
LINE
  8
0_00
  6
CONTINUOUS
 62
7
 10
1218.5110
 20
37.2000
 11
1218.5110
 21
851.7001
  0
LINE
  8
0_00
  6
CONTINUOUS
 62
3
 10
54.6905
 20
851.7001
 11
54.6905
 21
865.2001
  0
LINE
  8
0_00
  6
CONTINUOUS
 62
7
 10
54.6905
 20
37.2000
 11
54.6905
 21
851.7001
  0
LINE
  8
0_00
  6
CONTINUOUS
 62
7
 10
54.6905
 20
851.7001
 11
1218.5110
 21
851.7001
  0
LINE
  8
0_00
  6
CONTINUOUS
 62
7
 10
54.6905
 20
37.2000
 11
1218.5110
 21
37.2000
  0
LINE
  8
0_00
  6
CONTINUOUS
 62
3
 10
39.6905
 20
22.2000
 11
39.6905
 21
865.2001
  0
LINE
  8
0_00
  6
CONTINUOUS
 62
3
 10
1233.5110
 20
22.2000
 11
1233.5110
 21
865.2001
  0
LINE
  8
0_00
  6
CONTINUOUS
 62
3
 10
39.6905
 20
865.2001
 11
1233.5110
 21
865.2001
  0
LINE
  8
0_00
  6
CONTINUOUS
 62
3
 10
1070.6111
 20
37.2000
 11
1070.6111
 21
112.2001
  0
LINE
  8
0_00
  6
CONTINUOUS
 62
3
 10
54.6905
 20
97.2001
 11
812.7610
 21
97.2001
  0
LINE
  8
0_00
  6
CONTINUOUS
 62
7
 10
812.7610
 20
97.2001
 11
1218.5110
 21
97.2001
  0
LINE
  8
0_00
  6
CONTINUOUS
 62
3
 10
1070.6111
 20
67.2000
 11
1218.5110
 21
67.2000
  0
LINE
  8
0_00
  6
CONTINUOUS
 62
3
 10
1100.6111
 20
112.2001
 11
1100.6111
 21
97.2001
  0
LINE
  8
0_00
  6
CONTINUOUS
 62
3
 10
812.7610
 20
37.2000
 11
812.7610
 21
97.2001
  0
LINE
  8
0_00
  6
CONTINUOUS
 62
7
 10
812.7610
 20
97.2001
 11
812.7610
 21
112.2001
  0
LINE
  8
0_00
  6
CONTINUOUS
 62
3
 10
836.7610
 20
97.2001
 11
836.7610
 21
112.2001
  0
LINE
  8
0_00
  6
CONTINUOUS
 62
3
 10
912.5110
 20
37.2000
 11
912.5110
 21
112.2001
  0
LINE
  8
0_00
  6
CONTINUOUS
 62
3
 10
1004.6111
 20
97.2001
 11
1004.6111
 21
112.2001
  0
LINE
  8
0_00
  6
CONTINUOUS
 62
3
 10
1032.2110
 20
37.2000
 11
1032.2110
 21
97.2001
  0
LINE
  8
0_00
  6
CONTINUOUS
 62
3
 10
995.9110
 20
37.2000
 11
995.9110
 21
97.2001
  0
LINE
  8
0_00
  6
CONTINUOUS
 62
3
 10
959.6110
 20
37.2000
 11
959.6110
 21
97.2001
  0
LINE
  8
0_00
  6
CONTINUOUS
 62
3
 10
468.6610
 20
37.2000
 11
468.6610
 21
112.2001
  0
LINE
  8
0_00
  6
CONTINUOUS
 62
3
 10
626.1610
 20
37.2000
 11
626.1610
 21
97.2001
  0
LINE
  8
0_00
  6
CONTINUOUS
 62
3
 10
54.6905
 20
82.2001
 11
468.6610
 21
82.2001
  0
LINE
  8
0_00
  6
CONTINUOUS
 62
3
 10
54.6905
 20
67.2000
 11
912.5110
 21
67.2000
  0
LINE
  8
0_00
  6
CONTINUOUS
 62
3
 10
174.6905
 20
52.2000
 11
468.6610
 21
52.2000
  0
LINE
  8
0_00
  6
CONTINUOUS
 62
7
 10
54.6905
 20
52.2000
 11
174.6905
 21
52.2000
  0
LINE
  8
0_00
  6
CONTINUOUS
 62
3
 10
818.0110
 20
851.7001
 11
818.0110
 21
865.2001
  0
LINE
  8
0_00
  6
CONTINUOUS
 62
3
 10
788.0110
 20
851.7001
 11
788.0110
 21
865.2001
  0
LINE
  8
0_00
  6
CONTINUOUS
 62
3
 10
204.6905
 20
851.7001
 11
204.6905
 21
865.2001
  0
LINE
  8
0_00
  6
CONTINUOUS
 62
3
 10
854.0110
 20
851.7001
 11
854.0110
 21
865.2001
  0
LINE
  8
0_00
  6
CONTINUOUS
 62
3
 10
915.5110
 20
851.7001
 11
915.5110
 21
865.2001
  0
LINE
  8
0_00
  6
CONTINUOUS
 62
3
 10
1146.5110
 20
851.7001
 11
1146.5110
 21
865.2001
  0
LINE
  8
0_00
  6
CONTINUOUS
 62
3
 10
114.6905
 20
112.2001
 11
114.6905
 21
37.2000
  0
LINE
  8
0_00
  6
CONTINUOUS
 62
7
 10
174.6905
 20
112.2001
 11
174.6905
 21
37.2000
  0
LINE
  8
0_00
  6
CONTINUOUS
 62
3
 10
869.7610
 20
67.2000
 11
869.7610
 21
97.2001
  0
LINE
  8
0_00
  6
CONTINUOUS
 62
3
 10
893.7610
 20
112.2001
 11
893.7610
 21
97.2001
  0
LINE
  8
0_00
  6
CONTINUOUS
 62
3
 10
912.5110
 20
82.2001
 11
1070.6111
 21
82.2001
  0
LINE
  8
0_00
  6
CONTINUOUS
 62
3
 10
1076.6111
 20
71.7000
 11
1078.5610
 21
71.7000
  0
LINE
  8
0_00
  6
CONTINUOUS
 62
3
 10
1078.5610
 20
71.7000
 11
1078.5610
 21
91.2000
  0
LINE
  8
0_00
  6
CONTINUOUS
 62
3
 10
1078.5610
 20
91.2000
 11
1076.6111
 21
91.2000
  0
LINE
  8
0_00
  6
CONTINUOUS
 62
3
 10
1076.6111
 20
71.7000
 11
1076.6111
 21
91.2000
  0
LINE
  8
0_00
  6
CONTINUOUS
 62
3
 10
1079.3410
 20
71.7000
 11
1081.2911
 21
71.7000
  0
LINE
  8
0_00
  6
CONTINUOUS
 62
3
 10
1081.2911
 20
71.7000
 11
1081.2911
 21
91.2000
  0
LINE
  8
0_00
  6
CONTINUOUS
 62
3
 10
1081.2911
 20
91.2000
 11
1079.3410
 21
91.2000
  0
LINE
  8
0_00
  6
CONTINUOUS
 62
3
 10
1079.3410
 20
71.7000
 11
1079.3410
 21
91.2000
  0
LINE
  8
0_00
  6
CONTINUOUS
 62
3
 10
1082.0711
 20
71.7000
 11
1084.0210
 21
71.7000
  0
LINE
  8
0_00
  6
CONTINUOUS
 62
3
 10
1084.0210
 20
71.7000
 11
1084.0210
 21
91.2000
  0
LINE
  8
0_00
  6
CONTINUOUS
 62
3
 10
1084.0210
 20
91.2000
 11
1082.0711
 21
91.2000
  0
LINE
  8
0_00
  6
CONTINUOUS
 62
3
 10
1082.0711
 20
71.7000
 11
1082.0711
 21
91.2000
  0
LINE
  8
0_00
  6
CONTINUOUS
 62
3
 10
1084.8010
 20
71.7000
 11
1086.7511
 21
71.7000
  0
LINE
  8
0_00
  6
CONTINUOUS
 62
3
 10
1086.7511
 20
91.2000
 11
1084.8010
 21
91.2000
  0
LINE
  8
0_00
  6
CONTINUOUS
 62
3
 10
1084.8010
 20
71.7000
 11
1084.8010
 21
91.2000
  0
LINE
  8
0_00
  6
CONTINUOUS
 62
3
 10
1092.4061
 20
71.7000
 11
1100.0110
 21
71.7000
  0
LINE
  8
0_00
  6
CONTINUOUS
 62
3
 10
1100.0110
 20
71.7000
 11
1100.0110
 21
73.4550
  0
LINE
  8
0_00
  6
CONTINUOUS
 62
3
 10
1100.0110
 20
73.4550
 11
1092.4061
 21
73.4550
  0
LINE
  8
0_00
  6
CONTINUOUS
 62
3
 10
1092.4061
 20
73.4550
 11
1092.4061
 21
71.7000
  0
LINE
  8
0_00
  6
CONTINUOUS
 62
3
 10
1092.4061
 20
74.2350
 11
1100.0110
 21
74.2350
  0
LINE
  8
0_00
  6
CONTINUOUS
 62
3
 10
1100.0110
 20
74.2350
 11
1100.0110
 21
75.9900
  0
LINE
  8
0_00
  6
CONTINUOUS
 62
3
 10
1100.0110
 20
75.9900
 11
1092.4061
 21
75.9900
  0
LINE
  8
0_00
  6
CONTINUOUS
 62
3
 10
1092.4061
 20
75.9900
 11
1092.4061
 21
74.2350
  0
LINE
  8
0_00
  6
CONTINUOUS
 62
3
 10
1092.4061
 20
76.7700
 11
1100.0110
 21
76.7700
  0
LINE
  8
0_00
  6
CONTINUOUS
 62
3
 10
1100.0110
 20
76.7700
 11
1100.0110
 21
78.5250
  0
LINE
  8
0_00
  6
CONTINUOUS
 62
3
 10
1100.0110
 20
78.5250
 11
1092.4061
 21
78.5250
  0
LINE
  8
0_00
  6
CONTINUOUS
 62
3
 10
1092.4061
 20
78.5250
 11
1092.4061
 21
76.7700
  0
LINE
  8
0_00
  6
CONTINUOUS
 62
3
 10
1092.4061
 20
79.3050
 11
1100.0110
 21
79.3050
  0
LINE
  8
0_00
  6
CONTINUOUS
 62
3
 10
1100.0110
 20
79.3050
 11
1100.0110
 21
81.0600
  0
LINE
  8
0_00
  6
CONTINUOUS
 62
3
 10
1100.0110
 20
81.0600
 11
1092.4061
 21
81.0600
  0
LINE
  8
0_00
  6
CONTINUOUS
 62
3
 10
1092.4061
 20
81.0600
 11
1092.4061
 21
79.3050
  0
LINE
  8
0_00
  6
CONTINUOUS
 62
3
 10
1092.4061
 20
81.8401
 11
1100.0110
 21
81.8401
  0
LINE
  8
0_00
  6
CONTINUOUS
 62
3
 10
1100.0110
 20
81.8401
 11
1100.0110
 21
83.5950
  0
LINE
  8
0_00
  6
CONTINUOUS
 62
3
 10
1100.0110
 20
83.5950
 11
1092.4061
 21
83.5950
  0
LINE
  8
0_00
  6
CONTINUOUS
 62
3
 10
1092.4061
 20
83.5950
 11
1092.4061
 21
81.8401
  0
LINE
  8
0_00
  6
CONTINUOUS
 62
3
 10
1092.4061
 20
84.3751
 11
1100.0110
 21
84.3751
  0
LINE
  8
0_00
  6
CONTINUOUS
 62
3
 10
1100.0110
 20
84.3751
 11
1100.0110
 21
86.1300
  0
LINE
  8
0_00
  6
CONTINUOUS
 62
3
 10
1100.0110
 20
86.1300
 11
1092.4061
 21
86.1300
  0
LINE
  8
0_00
  6
CONTINUOUS
 62
3
 10
1092.4061
 20
86.1300
 11
1092.4061
 21
84.3751
  0
LINE
  8
0_00
  6
CONTINUOUS
 62
3
 10
1092.4061
 20
86.9101
 11
1100.0110
 21
86.9101
  0
LINE
  8
0_00
  6
CONTINUOUS
 62
3
 10
1100.0110
 20
86.9101
 11
1100.0110
 21
88.6650
  0
LINE
  8
0_00
  6
CONTINUOUS
 62
3
 10
1100.0110
 20
88.6650
 11
1092.4061
 21
88.6650
  0
LINE
  8
0_00
  6
CONTINUOUS
 62
3
 10
1092.4061
 20
88.6650
 11
1092.4061
 21
86.9101
  0
LINE
  8
0_00
  6
CONTINUOUS
 62
3
 10
1092.4061
 20
89.4451
 11
1100.0110
 21
89.4451
  0
LINE
  8
0_00
  6
CONTINUOUS
 62
3
 10
1100.0110
 20
89.4451
 11
1100.0110
 21
91.2000
  0
LINE
  8
0_00
  6
CONTINUOUS
 62
3
 10
1100.0110
 20
91.2000
 11
1092.4061
 21
91.2000
  0
LINE
  8
0_00
  6
CONTINUOUS
 62
3
 10
1092.4061
 20
91.2000
 11
1092.4061
 21
89.4451
  0
LINE
  8
0_00
  6
CONTINUOUS
 62
3
 10
1087.5311
 20
71.7000
 11
1087.5311
 21
77.0626
  0
LINE
  8
0_00
  6
CONTINUOUS
 62
3
 10
1088.8375
 20
72.7725
 11
1088.8375
 21
77.0626
  0
LINE
  8
0_00
  6
CONTINUOUS
 62
3
 10
1087.5311
 20
71.7000
 11
1089.6760
 21
71.7000
  0
LINE
  8
0_00
  6
CONTINUOUS
 62
3
 10
1088.8375
 20
72.7725
 11
1089.6760
 21
72.7725
  0
LINE
  8
0_00
  6
CONTINUOUS
 62
3
 10
1089.6050
 20
79.8056
 11
1090.4561
 21
78.1351
  0
LINE
  8
0_00
  6
CONTINUOUS
 62
3
 10
1090.9410
 20
82.5453
 11
1089.6047
 21
79.8055
  0
LINE
  8
0_00
  6
CONTINUOUS
 62
3
 10
1086.7511
 20
85.3501
 11
1086.7511
 21
91.2000
  0
LINE
  8
0_00
  6
CONTINUOUS
 62
3
 10
1086.7511
 20
85.3501
 11
1089.1886
 21
85.3501
  0
LINE
  8
0_00
  6
CONTINUOUS
 62
3
 10
1086.7511
 20
84.1801
 11
1087.8333
 21
84.1801
  0
LINE
  8
0_00
  6
CONTINUOUS
 62
3
 10
1086.7511
 20
78.1351
 11
1090.4561
 21
78.1351
  0
LINE
  8
0_00
  6
CONTINUOUS
 62
3
 10
1086.7511
 20
81.9611
 11
1087.8334
 21
84.1801
  0
LINE
  8
0_00
  6
CONTINUOUS
 62
3
 10
1086.7511
 20
81.9613
 11
1086.7511
 21
84.1801
  0
LINE
  8
0_00
  6
CONTINUOUS
 62
3
 10
1086.7511
 20
78.1351
 11
1086.7511
 21
71.7000
  0
LINE
  8
0_00
  6
CONTINUOUS
 62
3
 10
1076.9110
 20
91.2000
 11
1076.9110
 21
71.7000
  0
LINE
  8
0_00
  6
CONTINUOUS
 62
3
 10
1077.2110
 20
91.2000
 11
1077.2110
 21
71.7000
  0
LINE
  8
0_00
  6
CONTINUOUS
 62
3
 10
1077.5110
 20
91.2000
 11
1077.5110
 21
71.7000
  0
LINE
  8
0_00
  6
CONTINUOUS
 62
3
 10
1077.8109
 20
91.2000
 11
1077.8109
 21
71.7000
  0
LINE
  8
0_00
  6
CONTINUOUS
 62
3
 10
1078.1111
 20
91.2000
 11
1078.1111
 21
71.7000
  0
LINE
  8
0_00
  6
CONTINUOUS
 62
3
 10
1079.6411
 20
91.2000
 11
1079.6411
 21
71.7000
  0
LINE
  8
0_00
  6
CONTINUOUS
 62
3
 10
1079.9410
 20
91.2000
 11
1079.9410
 21
71.7000
  0
LINE
  8
0_00
  6
CONTINUOUS
 62
3
 10
1080.2410
 20
91.2000
 11
1080.2410
 21
71.7000
  0
LINE
  8
0_00
  6
CONTINUOUS
 62
3
 10
1080.5410
 20
91.2000
 11
1080.5410
 21
71.7000
  0
LINE
  8
0_00
  6
CONTINUOUS
 62
3
 10
1080.8410
 20
91.2000
 11
1080.8410
 21
71.7000
  0
LINE
  8
0_00
  6
CONTINUOUS
 62
3
 10
1081.1411
 20
91.2000
 11
1081.1411
 21
71.7000
  0
LINE
  8
0_00
  6
CONTINUOUS
 62
3
 10
1082.3709
 20
91.2000
 11
1082.3709
 21
71.7000
  0
LINE
  8
0_00
  6
CONTINUOUS
 62
3
 10
1082.6711
 20
91.2000
 11
1082.6711
 21
71.7000
  0
LINE
  8
0_00
  6
CONTINUOUS
 62
3
 10
1082.9711
 20
91.2000
 11
1082.9711
 21
71.7000
  0
LINE
  8
0_00
  6
CONTINUOUS
 62
3
 10
1083.2710
 20
91.2000
 11
1083.2710
 21
71.7000
  0
LINE
  8
0_00
  6
CONTINUOUS
 62
3
 10
1083.5711
 20
91.2000
 11
1083.5711
 21
71.7000
  0
LINE
  8
0_00
  6
CONTINUOUS
 62
3
 10
1083.8709
 20
91.2000
 11
1083.8709
 21
71.7000
  0
LINE
  8
0_00
  6
CONTINUOUS
 62
3
 10
1092.4061
 20
72.0001
 11
1100.0110
 21
72.0001
  0
LINE
  8
0_00
  6
CONTINUOUS
 62
3
 10
1092.4061
 20
72.3001
 11
1100.0110
 21
72.3001
  0
LINE
  8
0_00
  6
CONTINUOUS
 62
3
 10
1092.4061
 20
72.6000
 11
1100.0110
 21
72.6000
  0
LINE
  8
0_00
  6
CONTINUOUS
 62
3
 10
1092.4061
 20
72.9000
 11
1100.0110
 21
72.9000
  0
LINE
  8
0_00
  6
CONTINUOUS
 62
3
 10
1092.4061
 20
73.2000
 11
1100.0110
 21
73.2000
  0
LINE
  8
0_00
  6
CONTINUOUS
 62
3
 10
1092.4061
 20
74.5351
 11
1100.0110
 21
74.5351
  0
LINE
  8
0_00
  6
CONTINUOUS
 62
3
 10
1092.4061
 20
74.8351
 11
1100.0110
 21
74.8351
  0
LINE
  8
0_00
  6
CONTINUOUS
 62
3
 10
1092.4061
 20
75.1350
 11
1100.0110
 21
75.1350
  0
LINE
  8
0_00
  6
CONTINUOUS
 62
3
 10
1092.4061
 20
75.4350
 11
1100.0110
 21
75.4350
  0
LINE
  8
0_00
  6
CONTINUOUS
 62
3
 10
1092.4061
 20
75.7350
 11
1100.0110
 21
75.7350
  0
LINE
  8
0_00
  6
CONTINUOUS
 62
3
 10
1092.4061
 20
77.0701
 11
1100.0110
 21
77.0701
  0
LINE
  8
0_00
  6
CONTINUOUS
 62
3
 10
1092.4061
 20
77.3701
 11
1100.0110
 21
77.3701
  0
LINE
  8
0_00
  6
CONTINUOUS
 62
3
 10
1092.4061
 20
77.6700
 11
1100.0110
 21
77.6700
  0
LINE
  8
0_00
  6
CONTINUOUS
 62
3
 10
1092.4061
 20
77.9700
 11
1100.0110
 21
77.9700
  0
LINE
  8
0_00
  6
CONTINUOUS
 62
3
 10
1092.4061
 20
78.2701
 11
1100.0110
 21
78.2701
  0
LINE
  8
0_00
  6
CONTINUOUS
 62
3
 10
1092.4061
 20
79.6051
 11
1100.0110
 21
79.6051
  0
LINE
  8
0_00
  6
CONTINUOUS
 62
3
 10
1092.4061
 20
79.9051
 11
1100.0110
 21
79.9051
  0
LINE
  8
0_00
  6
CONTINUOUS
 62
3
 10
1092.4061
 20
80.2050
 11
1100.0110
 21
80.2050
  0
LINE
  8
0_00
  6
CONTINUOUS
 62
3
 10
1092.4061
 20
80.5050
 11
1100.0110
 21
80.5050
  0
LINE
  8
0_00
  6
CONTINUOUS
 62
3
 10
1092.4061
 20
80.8051
 11
1100.0110
 21
80.8051
  0
LINE
  8
0_00
  6
CONTINUOUS
 62
3
 10
1092.4061
 20
82.1401
 11
1100.0110
 21
82.1401
  0
LINE
  8
0_00
  6
CONTINUOUS
 62
3
 10
1092.4061
 20
82.4401
 11
1100.0110
 21
82.4401
  0
LINE
  8
0_00
  6
CONTINUOUS
 62
3
 10
1092.4061
 20
82.7400
 11
1100.0110
 21
82.7400
  0
LINE
  8
0_00
  6
CONTINUOUS
 62
3
 10
1092.4061
 20
83.0400
 11
1100.0110
 21
83.0400
  0
LINE
  8
0_00
  6
CONTINUOUS
 62
3
 10
1092.4061
 20
83.3401
 11
1100.0110
 21
83.3401
  0
LINE
  8
0_00
  6
CONTINUOUS
 62
3
 10
1100.0110
 20
84.6751
 11
1092.4061
 21
84.6751
  0
LINE
  8
0_00
  6
CONTINUOUS
 62
3
 10
1100.0110
 20
84.9751
 11
1092.4061
 21
84.9751
  0
LINE
  8
0_00
  6
CONTINUOUS
 62
3
 10
1100.0110
 20
85.2750
 11
1092.4061
 21
85.2750
  0
LINE
  8
0_00
  6
CONTINUOUS
 62
3
 10
1100.0110
 20
85.5750
 11
1092.4061
 21
85.5750
  0
LINE
  8
0_00
  6
CONTINUOUS
 62
3
 10
1100.0110
 20
85.8751
 11
1092.4061
 21
85.8751
  0
LINE
  8
0_00
  6
CONTINUOUS
 62
3
 10
1092.4061
 20
87.2101
 11
1100.0110
 21
87.2101
  0
LINE
  8
0_00
  6
CONTINUOUS
 62
3
 10
1092.4061
 20
87.5101
 11
1100.0110
 21
87.5101
  0
LINE
  8
0_00
  6
CONTINUOUS
 62
3
 10
1092.4061
 20
87.8100
 11
1100.0110
 21
87.8100
  0
LINE
  8
0_00
  6
CONTINUOUS
 62
3
 10
1092.4061
 20
88.1100
 11
1100.0110
 21
88.1100
  0
LINE
  8
0_00
  6
CONTINUOUS
 62
3
 10
1092.4061
 20
88.4101
 11
1100.0110
 21
88.4101
  0
LINE
  8
0_00
  6
CONTINUOUS
 62
3
 10
1092.4061
 20
89.7451
 11
1100.0110
 21
89.7451
  0
LINE
  8
0_00
  6
CONTINUOUS
 62
3
 10
1092.4061
 20
90.0451
 11
1100.0110
 21
90.0451
  0
LINE
  8
0_00
  6
CONTINUOUS
 62
3
 10
1092.4061
 20
90.3450
 11
1100.0110
 21
90.3450
  0
LINE
  8
0_00
  6
CONTINUOUS
 62
3
 10
1092.4061
 20
90.6450
 11
1100.0110
 21
90.6450
  0
LINE
  8
0_00
  6
CONTINUOUS
 62
3
 10
1092.4061
 20
90.9451
 11
1100.0110
 21
90.9451
  0
LINE
  8
0_00
  6
CONTINUOUS
 62
3
 10
1085.1010
 20
91.2000
 11
1085.1010
 21
71.7000
  0
LINE
  8
0_00
  6
CONTINUOUS
 62
3
 10
1085.4011
 20
91.2000
 11
1085.4011
 21
71.7000
  0
LINE
  8
0_00
  6
CONTINUOUS
 62
3
 10
1085.7009
 20
91.2000
 11
1085.7009
 21
71.7000
  0
LINE
  8
0_00
  6
CONTINUOUS
 62
3
 10
1086.0008
 20
91.2000
 11
1086.0008
 21
71.7000
  0
LINE
  8
0_00
  6
CONTINUOUS
 62
3
 10
1086.3010
 20
91.2000
 11
1086.3010
 21
71.7000
  0
LINE
  8
0_00
  6
CONTINUOUS
 62
3
 10
1086.6010
 20
91.2000
 11
1086.6010
 21
71.7000
  0
LINE
  8
0_00
  6
CONTINUOUS
 62
3
 10
1087.8311
 20
71.7000
 11
1087.8311
 21
77.0626
  0
LINE
  8
0_00
  6
CONTINUOUS
 62
3
 10
1088.1312
 20
71.7000
 11
1088.1312
 21
77.0626
  0
LINE
  8
0_00
  6
CONTINUOUS
 62
3
 10
1088.4310
 20
71.7000
 11
1088.4310
 21
77.0626
  0
LINE
  8
0_00
  6
CONTINUOUS
 62
3
 10
1088.7309
 20
71.7000
 11
1088.7309
 21
77.0626
  0
LINE
  8
0_00
  6
CONTINUOUS
 62
3
 10
1088.8375
 20
72.4725
 11
1089.6760
 21
72.4725
  0
LINE
  8
0_00
  6
CONTINUOUS
 62
3
 10
1088.8375
 20
72.1725
 11
1089.6760
 21
72.1725
  0
LINE
  8
0_00
  6
CONTINUOUS
 62
3
 10
1088.8375
 20
71.8725
 11
1089.6760
 21
71.8725
  0
LINE
  8
0_00
  6
CONTINUOUS
 62
3
 10
1090.2825
 20
78.4758
 11
1086.7853
 21
78.4758
  0
LINE
  8
0_00
  6
CONTINUOUS
 62
3
 10
1090.1032
 20
78.8278
 11
1086.7853
 21
78.8278
  0
LINE
  8
0_00
  6
CONTINUOUS
 62
3
 10
1089.8939
 20
79.2384
 11
1086.7779
 21
79.2384
  0
LINE
  8
0_00
  6
CONTINUOUS
 62
3
 10
1089.7204
 20
79.5787
 11
1086.7744
 21
79.5787
  0
LINE
  8
0_00
  6
CONTINUOUS
 62
3
 10
1091.0859
 20
83.5262
 11
1089.1502
 21
79.5579
  0
LINE
  8
0_00
  6
CONTINUOUS
 62
3
 10
1090.9896
 20
84.0133
 11
1088.8107
 21
79.5458
  0
LINE
  8
0_00
  6
CONTINUOUS
 62
3
 10
1090.8083
 20
84.3258
 11
1088.4914
 21
79.5758
  0
LINE
  8
0_00
  6
CONTINUOUS
 62
3
 10
1090.6029
 20
84.5893
 11
1088.1454
 21
79.5508
  0
LINE
  8
0_00
  6
CONTINUOUS
 62
3
 10
1090.4008
 20
84.8596
 11
1087.8790
 21
79.6887
  0
LINE
  8
0_00
  6
CONTINUOUS
 62
3
 10
1090.1371
 20
85.0026
 11
1087.4908
 21
79.5774
  0
LINE
  8
0_00
  6
CONTINUOUS
 62
3
 10
1089.8761
 20
85.1521
 11
1087.1534
 21
79.5697
  0
LINE
  8
0_00
  6
CONTINUOUS
 62
3
 10
1089.5665
 20
85.2017
 11
1086.8386
 21
79.6087
  0
LINE
  8
0_00
  6
CONTINUOUS
 62
3
 10
1089.2498
 20
85.2367
 11
1086.7053
 21
80.0197
  0
LINE
  8
0_00
  6
CONTINUOUS
 62
3
 10
1088.9374
 20
85.2802
 11
1086.7329
 21
80.7607
  0
LINE
  8
0_00
  6
CONTINUOUS
 62
3
 10
1088.5957
 20
85.2643
 11
1086.6388
 21
81.2521
  0
LINE
  8
0_00
  6
CONTINUOUS
 62
3
 10
1087.9926
 20
84.4801
 11
1086.7511
 21
84.4801
  0
LINE
  8
0_00
  6
CONTINUOUS
 62
3
 10
1088.2355
 20
84.7801
 11
1086.7511
 21
84.7801
  0
LINE
  8
0_00
  6
CONTINUOUS
 62
3
 10
1088.3496
 20
85.0800
 11
1086.7511
 21
85.0800
  0
LINE
  8
0_00
  6
CONTINUOUS
 62
3
 10
796.2610
 20
852.4893
 11
809.7610
 21
852.4893
  0
LINE
  8
0_00
  6
CONTINUOUS
 62
3
 10
797.1685
 20
854.0609
 11
796.2610
 21
852.4893
  0
LINE
  8
0_00
  6
CONTINUOUS
 62
3
 10
800.8929
 20
860.5119
 11
803.0110
 21
864.1806
  0
LINE
  8
0_00
  6
CONTINUOUS
 62
3
 10
808.8538
 20
854.0609
 11
809.7610
 21
852.4893
  0
LINE
  8
0_00
  6
CONTINUOUS
 62
3
 10
805.1292
 20
860.5119
 11
803.0110
 21
864.1806
  0
LINE
  8
0_00
  6
CONTINUOUS
 62
3
 10
1218.5110
 20
154.2001
 11
1221.5110
 21
154.2001
  0
LINE
  8
0_00
  6
CONTINUOUS
 62
3
 10
1218.5110
 20
175.2001
 11
1221.5110
 21
175.2001
  0
LINE
  8
0_00
  6
CONTINUOUS
 62
3
 10
1218.5110
 20
196.2001
 11
1221.5110
 21
196.2001
  0
LINE
  8
0_00
  6
CONTINUOUS
 62
3
 10
1218.5110
 20
217.2001
 11
1221.5110
 21
217.2001
  0
LINE
  8
0_00
  6
CONTINUOUS
 62
3
 10
1218.5110
 20
238.2001
 11
1221.5110
 21
238.2001
  0
LINE
  8
0_00
  6
CONTINUOUS
 62
3
 10
1218.5110
 20
259.2001
 11
1221.5110
 21
259.2001
  0
LINE
  8
0_00
  6
CONTINUOUS
 62
3
 10
1218.5110
 20
280.2001
 11
1221.5110
 21
280.2001
  0
LINE
  8
0_00
  6
CONTINUOUS
 62
3
 10
1218.5110
 20
301.2001
 11
1221.5110
 21
301.2001
  0
LINE
  8
0_00
  6
CONTINUOUS
 62
3
 10
1218.5110
 20
322.2001
 11
1221.5110
 21
322.2001
  0
LINE
  8
0_00
  6
CONTINUOUS
 62
3
 10
1218.5110
 20
343.2001
 11
1221.5110
 21
343.2001
  0
LINE
  8
0_00
  6
CONTINUOUS
 62
3
 10
1218.5110
 20
364.2001
 11
1221.5110
 21
364.2001
  0
LINE
  8
0_00
  6
CONTINUOUS
 62
3
 10
1218.5110
 20
385.2001
 11
1221.5110
 21
385.2001
  0
LINE
  8
0_00
  6
CONTINUOUS
 62
3
 10
1218.5110
 20
406.2001
 11
1221.5110
 21
406.2001
  0
LINE
  8
0_00
  6
CONTINUOUS
 62
3
 10
1218.5110
 20
427.2001
 11
1221.5110
 21
427.2001
  0
LINE
  8
0_00
  6
CONTINUOUS
 62
3
 10
1218.5110
 20
448.2001
 11
1221.5110
 21
448.2001
  0
LINE
  8
0_00
  6
CONTINUOUS
 62
3
 10
1218.5110
 20
469.2001
 11
1221.5110
 21
469.2001
  0
LINE
  8
0_00
  6
CONTINUOUS
 62
3
 10
1218.5110
 20
490.2001
 11
1221.5110
 21
490.2001
  0
LINE
  8
0_00
  6
CONTINUOUS
 62
3
 10
1218.5110
 20
833.7001
 11
1221.5110
 21
833.7001
  0
LINE
  8
0_00
  6
CONTINUOUS
 62
3
 10
1218.5110
 20
815.7001
 11
1221.5110
 21
815.7001
  0
LINE
  8
0_00
  6
CONTINUOUS
 62
3
 10
1218.5110
 20
797.7001
 11
1221.5110
 21
797.7001
  0
LINE
  8
0_00
  6
CONTINUOUS
 62
3
 10
1218.5110
 20
779.7001
 11
1221.5110
 21
779.7001
  0
LINE
  8
0_00
  6
CONTINUOUS
 62
3
 10
1218.5110
 20
761.7001
 11
1221.5110
 21
761.7001
  0
LINE
  8
0_00
  6
CONTINUOUS
 62
3
 10
1218.5110
 20
743.7001
 11
1221.5110
 21
743.7001
  0
LINE
  8
0_00
  6
CONTINUOUS
 62
3
 10
1218.5110
 20
511.2001
 11
1221.5110
 21
511.2001
  0
LINE
  8
0_00
  6
CONTINUOUS
 62
3
 10
1218.5110
 20
532.2001
 11
1221.5110
 21
532.2001
  0
LINE
  8
0_00
  6
CONTINUOUS
 62
3
 10
1218.5110
 20
553.2001
 11
1221.5110
 21
553.2001
  0
LINE
  8
0_00
  6
CONTINUOUS
 62
3
 10
1218.5110
 20
574.2001
 11
1221.5110
 21
574.2001
  0
LINE
  8
0_00
  6
CONTINUOUS
 62
3
 10
1218.5110
 20
595.2001
 11
1221.5110
 21
595.2001
  0
LINE
  8
0_00
  6
CONTINUOUS
 62
3
 10
1218.5110
 20
616.2001
 11
1221.5110
 21
616.2001
  0
LINE
  8
0_00
  6
CONTINUOUS
 62
3
 10
1218.5110
 20
637.2000
 11
1221.5110
 21
637.2000
  0
LINE
  8
0_00
  6
CONTINUOUS
 62
3
 10
1218.5110
 20
658.2000
 11
1221.5110
 21
658.2000
  0
LINE
  8
0_00
  6
CONTINUOUS
 62
3
 10
1218.5110
 20
679.2000
 11
1221.5110
 21
679.2000
  0
LINE
  8
0_00
  6
CONTINUOUS
 62
3
 10
1218.5110
 20
700.2001
 11
1221.5110
 21
700.2001
  0
LINE
  8
0_00
  6
CONTINUOUS
 62
3
 10
1218.5110
 20
721.2001
 11
1221.5110
 21
721.2001
  0
LINE
  8
0_00
  6
CENTER1
 62
3
 10
881.0410
 20
73.2001
 11
881.0410
 21
91.2001
  0
LINE
  8
0_00
  6
CONTINUOUS
 62
4
 10
891.5411
 20
78.4501
 11
891.5411
 21
85.9501
  0
LINE
  8
0_00
  6
CONTINUOUS
 62
4
 10
905.0410
 20
76.2001
 11
905.0410
 21
88.2001
  0
LINE
  8
0_00
  6
CONTINUOUS
 62
4
 10
891.5411
 20
85.9501
 11
905.0410
 21
88.2001
  0
LINE
  8
0_00
  6
CONTINUOUS
 62
4
 10
891.5411
 20
78.4501
 11
905.0410
 21
76.2001
  0
LINE
  8
0_00
  6
CENTER1
 62
3
 10
872.0411
 20
82.2001
 11
907.3555
 21
82.2001
  0
LINE
  8
0_00
  6
CONTINUOUS
 62
3
 10
1191.5110
 20
37.2000
 11
1191.5110
 21
67.2000
  0
LINE
  8
0_00
  6
CONTINUOUS
 62
3
 10
39.6905
 20
22.2000
 11
1233.5110
 21
22.2000
  0
LINE
  8
0_00
  6
CONTINUOUS
 62
3
 10
1182.5110
 20
865.2001
 11
1182.5110
 21
851.7001
  0
LINE
  8
0_00
  6
CONTINUOUS
 62
3
 10
0.0000
 20
443.7000
 11
39.6905
 21
443.7000
  0
LINE
  8
0_00
  6
CONTINUOUS
 62
3
 10
626.1610
 20
22.2000
 11
626.1610
 21
0.0000
  0
LINE
  8
0_00
  6
CONTINUOUS
 62
3
 10
626.1610
 20
865.2001
 11
626.1610
 21
891.0000
  0
LINE
  8
0_00
  6
CONTINUOUS
 62
3
 10
1233.5110
 20
443.7000
 11
1260.0000
 21
443.7000
  0
ARC
  8
3_03
  6
CONTINUOUS
 62
4
 10
546.5536
 20
690.8936
 40
0.4500
 50
180.0000
 51
270.0000
  0
ARC
  8
3_03
  6
CONTINUOUS
 62
4
 10
546.5536
 20
699.7283
 40
0.4500
 50
88.0908
 51
180.0000
  0
ARC
  8
0_00
  6
CONTINUOUS
 62
4
 10
321.7828
 20
481.3328
 40
0.5000
 50
0.0000
 51
90.0000
  0
ARC
  8
0_00
  6
CONTINUOUS
 62
4
 10
321.7828
 20
476.1328
 40
0.5000
 50
268.0198
 51
360.0000
  0
ARC
  8
0_00
  6
CONTINUOUS
 62
4
 10
281.7828
 20
481.3328
 40
0.5000
 50
90.0000
 51
180.0000
  0
ARC
  8
0_00
  6
CONTINUOUS
 62
4
 10
281.7828
 20
477.5159
 40
0.5000
 50
180.0000
 51
268.0198
  0
ARC
  8
12_0C
  6
CONTINUOUS
 62
2
 10
304.4813
 20
642.8767
 40
1.3000
 50
0.0000
 51
73.3778
  0
ARC
  8
12_0C
  6
CONTINUOUS
 62
2
 10
302.2813
 20
635.5068
 40
9.0000
 50
73.3790
 51
106.6667
  0
ARC
  8
12_0C
  6
CONTINUOUS
 62
2
 10
300.0813
 20
642.8767
 40
1.3000
 50
106.6222
 51
180.0000
  0
ARC
  8
12_0C
  6
CONTINUOUS
 62
2
 10
299.9813
 20
655.1617
 40
1.3000
 50
0.0000
 51
73.3778
  0
ARC
  8
12_0C
  6
CONTINUOUS
 62
2
 10
297.7813
 20
647.7918
 40
9.0000
 50
73.3790
 51
106.6667
  0
ARC
  8
12_0C
  6
CONTINUOUS
 62
2
 10
295.5813
 20
655.1617
 40
1.3000
 50
106.6222
 51
180.0000
  0
ARC
  8
12_0C
  6
CONTINUOUS
 62
2
 10
308.9813
 20
655.1617
 40
1.3000
 50
0.0000
 51
73.3778
  0
ARC
  8
12_0C
  6
CONTINUOUS
 62
2
 10
306.7813
 20
647.7918
 40
9.0000
 50
73.3790
 51
106.6667
  0
ARC
  8
12_0C
  6
CONTINUOUS
 62
2
 10
304.5813
 20
655.1617
 40
1.3000
 50
106.6222
 51
180.0000
  0
ARC
  8
12_0C
  6
CONTINUOUS
 62
2
 10
286.0827
 20
470.5098
 40
1.3000
 50
180.0000
 51
253.3778
  0
ARC
  8
12_0C
  6
CONTINUOUS
 62
2
 10
288.2828
 20
477.8798
 40
9.0000
 50
253.3790
 51
286.6667
  0
ARC
  8
12_0C
  6
CONTINUOUS
 62
2
 10
290.4828
 20
470.5098
 40
1.3000
 50
286.6222
 51
360.0000
  0
ARC
  8
12_0C
  6
CONTINUOUS
 62
2
 10
314.0828
 20
469.5320
 40
1.3000
 50
180.0000
 51
253.3778
  0
ARC
  8
12_0C
  6
CONTINUOUS
 62
2
 10
316.2828
 20
476.9020
 40
9.0000
 50
253.3790
 51
286.6667
  0
ARC
  8
12_0C
  6
CONTINUOUS
 62
2
 10
318.4828
 20
469.5320
 40
1.3000
 50
286.6222
 51
360.0000
  0
ARC
  8
0_00
  6
CONTINUOUS
 62
4
 10
289.2829
 20
451.3068
 40
6.0000
 50
180.0000
 51
270.0000
  0
ARC
  8
0_00
  6
CONTINUOUS
 62
4
 10
273.1407
 20
455.3068
 40
10.0000
 50
270.0000
 51
315.0000
  0
ARC
  8
0_00
  6
CONTINUOUS
 62
4
 10
273.1407
 20
455.3068
 40
5.0000
 50
270.0000
 51
315.0000
  0
ARC
  8
0_00
  6
CONTINUOUS
 62
2
 10
256.2829
 20
445.3068
 40
5.0000
 50
92.1351
 51
180.0000
  0
ARC
  8
0_00
  6
CONTINUOUS
 62
2
 10
273.1407
 20
455.3068
 40
6.2500
 50
270.0000
 51
315.0000
  0
ARC
  8
0_00
  6
CONTINUOUS
 62
2
 10
273.1407
 20
455.3068
 40
7.5000
 50
270.0000
 51
315.0000
  0
ARC
  8
0_00
  6
CONTINUOUS
 62
2
 10
273.1407
 20
455.3068
 40
8.7500
 50
270.0000
 51
315.0000
  0
ARC
  8
0_00
  6
CONTINUOUS
 62
4
 10
348.2829
 20
392.3068
 40
6.0000
 50
180.0000
 51
270.0000
  0
ARC
  8
0_00
  6
CONTINUOUS
 62
4
 10
343.2829
 20
388.3778
 40
10.0000
 50
315.0000
 51
360.0000
  0
ARC
  8
0_00
  6
CONTINUOUS
 62
4
 10
352.2829
 20
376.1646
 40
5.0000
 50
135.0000
 51
180.0000
  0
ARC
  8
0_00
  6
CONTINUOUS
 62
4
 10
352.2829
 20
376.1646
 40
10.0000
 50
135.0000
 51
180.0000
  0
ARC
  8
0_00
  6
CONTINUOUS
 62
2
 10
343.2829
 20
388.3778
 40
8.7500
 50
315.0000
 51
360.0000
  0
ARC
  8
0_00
  6
CONTINUOUS
 62
2
 10
352.2829
 20
376.1646
 40
6.2500
 50
135.0000
 51
180.0000
  0
ARC
  8
0_00
  6
CONTINUOUS
 62
2
 10
352.2829
 20
376.1646
 40
7.5000
 50
135.0000
 51
180.0000
  0
ARC
  8
0_00
  6
CONTINUOUS
 62
2
 10
343.2829
 20
388.3778
 40
7.5000
 50
315.0000
 51
360.0000
  0
ARC
  8
0_00
  6
CONTINUOUS
 62
2
 10
343.2829
 20
388.3778
 40
6.2500
 50
315.0000
 51
360.0000
  0
ARC
  8
0_00
  6
CONTINUOUS
 62
2
 10
352.2829
 20
376.1646
 40
8.7500
 50
135.0000
 51
180.0000
  0
ARC
  8
0_00
  6
CONTINUOUS
 62
4
 10
336.2829
 20
439.3068
 40
6.0000
 50
0.0000
 51
90.0000
  0
ARC
  8
0_00
  6
CONTINUOUS
 62
2
 10
348.2829
 20
451.3068
 40
3.7500
 50
0.0000
 51
90.0000
  0
ARC
  8
0_00
  6
CONTINUOUS
 62
2
 10
348.2829
 20
451.3068
 40
2.5000
 50
0.0000
 51
90.0000
  0
ARC
  8
0_00
  6
CONTINUOUS
 62
2
 10
348.2829
 20
451.3068
 40
1.2500
 50
0.0000
 51
90.0000
  0
ARC
  8
0_00
  6
CONTINUOUS
 62
2
 10
285.3539
 20
446.3068
 40
8.7500
 50
90.0000
 51
135.0000
  0
ARC
  8
0_00
  6
CONTINUOUS
 62
2
 10
285.3539
 20
446.3068
 40
7.5000
 50
90.0000
 51
135.0000
  0
ARC
  8
0_00
  6
CONTINUOUS
 62
2
 10
285.3539
 20
446.3068
 40
6.2500
 50
90.0000
 51
135.0000
  0
ARC
  8
0_00
  6
CONTINUOUS
 62
4
 10
348.2829
 20
451.3068
 40
5.0000
 50
0.0000
 51
90.0000
  0
ARC
  8
0_00
  6
CONTINUOUS
 62
4
 10
285.3539
 20
446.3068
 40
10.0000
 50
90.0000
 51
135.0000
  0
CIRCLE
  8
0_00
  6
CONTINUOUS
 62
2
 10
355.1928
 20
444.8104
 40
0.2000
  0
CIRCLE
  8
0_00
  6
CONTINUOUS
 62
2
 10
358.8429
 20
441.2844
 40
0.2000
  0
CIRCLE
  8
0_00
  6
CONTINUOUS
 62
2
 10
356.0177
 20
438.0906
 40
0.2000
  0
CIRCLE
  8
0_00
  6
CONTINUOUS
 62
2
 10
360.1942
 20
435.2654
 40
0.2000
  0
CIRCLE
  8
0_00
  6
CONTINUOUS
 62
2
 10
356.3862
 20
431.0890
 40
0.2000
  0
CIRCLE
  8
0_00
  6
CONTINUOUS
 62
2
 10
359.0886
 20
425.6841
 40
0.2000
  0
CIRCLE
  8
0_00
  6
CONTINUOUS
 62
2
 10
354.4208
 20
423.1046
 40
0.2000
  0
CIRCLE
  8
0_00
  6
CONTINUOUS
 62
2
 10
358.8429
 20
419.0510
 40
0.2000
  0
CIRCLE
  8
0_00
  6
CONTINUOUS
 62
2
 10
360.3170
 20
413.1548
 40
0.2000
  0
CIRCLE
  8
0_00
  6
CONTINUOUS
 62
2
 10
355.8949
 20
415.1202
 40
0.2000
  0
CIRCLE
  8
0_00
  6
CONTINUOUS
 62
2
 10
355.7720
 20
409.9611
 40
0.2000
  0
CIRCLE
  8
0_00
  6
CONTINUOUS
 62
2
 10
359.8257
 20
407.8728
 40
0.2000
  0
CIRCLE
  8
0_00
  6
CONTINUOUS
 62
2
 10
357.6146
 20
404.6791
 40
0.2000
  0
CIRCLE
  8
0_00
  6
CONTINUOUS
 62
2
 10
355.8949
 20
399.0286
 40
0.2000
  0
CIRCLE
  8
0_00
  6
CONTINUOUS
 62
2
 10
360.4399
 20
400.8712
 40
0.2000
  0
CIRCLE
  8
0_00
  6
CONTINUOUS
 62
2
 10
360.6855
 20
396.3262
 40
0.2000
  0
CIRCLE
  8
0_00
  6
CONTINUOUS
 62
2
 10
355.5264
 20
392.8868
 40
0.2000
  0
CIRCLE
  8
0_00
  6
CONTINUOUS
 62
2
 10
357.9831
 20
388.8332
 40
0.2000
  0
CIRCLE
  8
0_00
  6
CONTINUOUS
 62
2
 10
355.7720
 20
426.9125
 40
0.2000
  0
CIRCLE
  8
0_00
  6
CONTINUOUS
 62
2
 10
360.4399
 20
430.5976
 40
0.2000
  0
CIRCLE
  8
0_00
  6
CONTINUOUS
 62
2
 10
360.6855
 20
390.4301
 40
0.2000
  0
CIRCLE
  8
0_00
  6
CONTINUOUS
 62
2
 10
360.4399
 20
384.4111
 40
0.2000
  0
CIRCLE
  8
0_00
  6
CONTINUOUS
 62
2
 10
355.6492
 20
384.0425
 40
0.2000
  0
CIRCLE
  8
0_00
  6
CONTINUOUS
 62
2
 10
352.4555
 20
379.4976
 40
0.2000
  0
CIRCLE
  8
0_00
  6
CONTINUOUS
 62
2
 10
350.4901
 20
377.0409
 40
0.2000
  0
CIRCLE
  8
0_00
  6
CONTINUOUS
 62
2
 10
357.7374
 20
374.5841
 40
0.2000
  0
CIRCLE
  8
0_00
  6
CONTINUOUS
 62
2
 10
358.3516
 20
379.7433
 40
0.2000
  0
CIRCLE
  8
0_00
  6
CONTINUOUS
 62
2
 10
355.7720
 20
376.6724
 40
0.2000
  0
CIRCLE
  8
0_00
  6
CONTINUOUS
 62
2
 10
352.0869
 20
372.8644
 40
0.2000
  0
CIRCLE
  8
0_00
  6
CONTINUOUS
 62
2
 10
349.2617
 20
367.8281
 40
0.2000
  0
CIRCLE
  8
0_00
  6
CONTINUOUS
 62
2
 10
354.5437
 20
365.3714
 40
0.2000
  0
CIRCLE
  8
0_00
  6
CONTINUOUS
 62
2
 10
356.0177
 20
370.0392
 40
0.2000
  0
CIRCLE
  8
0_00
  6
CONTINUOUS
 62
2
 10
359.8257
 20
369.5479
 40
0.2000
  0
CIRCLE
  8
0_00
  6
CONTINUOUS
 62
2
 10
360.9312
 20
377.5322
 40
0.2000
  0
CIRCLE
  8
0_00
  6
CONTINUOUS
 62
2
 10
361.0540
 20
364.6344
 40
0.2000
  0
CIRCLE
  8
0_00
  6
CONTINUOUS
 62
2
 10
358.5973
 20
362.9147
 40
0.2000
  0
CIRCLE
  8
0_00
  6
CONTINUOUS
 62
2
 10
357.1233
 20
360.3351
 40
0.2000
  0
CIRCLE
  8
0_00
  6
CONTINUOUS
 62
2
 10
349.3846
 20
359.8437
 40
0.2000
  0
CIRCLE
  8
0_00
  6
CONTINUOUS
 62
2
 10
350.3673
 20
363.4060
 40
0.2000
  0
CIRCLE
  8
0_00
  6
CONTINUOUS
 62
2
 10
354.7894
 20
358.0012
 40
0.2000
  0
CIRCLE
  8
0_00
  6
CONTINUOUS
 62
2
 10
350.9814
 20
356.8957
 40
0.2000
  0
CIRCLE
  8
0_00
  6
CONTINUOUS
 62
2
 10
360.8083
 20
357.3870
 40
0.2000
  0
CIRCLE
  8
0_00
  6
CONTINUOUS
 62
2
 10
353.9295
 20
361.0721
 40
0.2000
  0
CIRCLE
  8
0_00
  6
CONTINUOUS
 62
2
 10
357.0156
 20
422.4946
 40
0.2000
  0
CIRCLE
  8
0_00
  6
CONTINUOUS
 62
2
 10
354.8102
 20
418.6718
 40
0.2000
  0
CIRCLE
  8
0_00
  6
CONTINUOUS
 62
2
 10
356.7215
 20
434.8450
 40
0.2000
  0
CIRCLE
  8
0_00
  6
CONTINUOUS
 62
2
 10
357.6037
 20
446.4603
 40
0.2000
  0
ARC
  8
0_00
  6
CONTINUOUS
 62
2
 10
330.2828
 20
459.9067
 40
9.1000
 50
39.7151
 51
140.2849
  0
ARC
  8
0_00
  6
CONTINUOUS
 62
2
 10
302.2829
 20
459.9067
 40
9.1000
 50
39.7151
 51
140.2849
  0
ARC
  8
0_00
  6
CONTINUOUS
 62
4
 10
557.3536
 20
724.9587
 40
4.4700
 50
90.0000
 51
270.0000
  0
ARC
  8
0_00
  6
CONTINUOUS
 62
4
 10
591.8536
 20
700.5726
 40
0.0750
 50
90.0000
 51
180.0000
  0
ARC
  8
0_00
  6
CONTINUOUS
 62
4
 10
597.8536
 20
700.5726
 40
0.0750
 50
0.0000
 51
90.0000
  0
ARC
  8
0_00
  6
CONTINUOUS
 62
4
 10
746.8536
 20
700.5726
 40
0.0750
 50
90.0000
 51
180.0000
  0
ARC
  8
0_00
  6
CONTINUOUS
 62
4
 10
752.8537
 20
700.5726
 40
0.0750
 50
0.0000
 51
90.0000
  0
ARC
  8
0_00
  6
CONTINUOUS
 62
4
 10
901.8537
 20
700.5726
 40
0.0750
 50
90.0000
 51
180.0000
  0
ARC
  8
0_00
  6
CONTINUOUS
 62
4
 10
907.8537
 20
700.5726
 40
0.0750
 50
0.0000
 51
90.0000
  0
ARC
  8
0_00
  6
CONTINUOUS
 62
4
 10
1056.8536
 20
700.5726
 40
0.0750
 50
90.0000
 51
180.0000
  0
ARC
  8
0_00
  6
CONTINUOUS
 62
4
 10
1062.8536
 20
700.5726
 40
0.0750
 50
0.0000
 51
90.0000
  0
ARC
  8
0_00
  6
CONTINUOUS
 62
4
 10
554.3536
 20
700.5726
 40
0.0750
 50
90.0000
 51
180.0000
  0
ARC
  8
0_00
  6
CONTINUOUS
 62
4
 10
560.3536
 20
700.5726
 40
0.0750
 50
0.0000
 51
90.0000
  0
ARC
  8
3_03
  6
CONTINUOUS
 62
4
 10
1108.1536
 20
690.8936
 40
0.4500
 50
270.0000
 51
360.0000
  0
ARC
  8
3_03
  6
CONTINUOUS
 62
4
 10
1108.1536
 20
699.7283
 40
0.4500
 50
0.0000
 51
90.0000
  0
ARC
  8
0_00
  6
CONTINUOUS
 62
4
 10
1097.3536
 20
724.9587
 40
4.4700
 50
270.0000
 51
450.0000
  0
ARC
  8
0_00
  6
CONTINUOUS
 62
4
 10
1100.3536
 20
700.5726
 40
0.0750
 50
0.0000
 51
90.0000
  0
ARC
  8
0_00
  6
CONTINUOUS
 62
4
 10
1094.3536
 20
700.5726
 40
0.0750
 50
90.0000
 51
180.0000
  0
ARC
  8
0_00
  6
CONTINUOUS
 62
2
 10
684.8038
 20
322.3123
 40
1.5000
 50
28.3593
 51
90.0000
  0
ARC
  8
0_00
  6
CONTINUOUS
 62
2
 10
677.5052
 20
322.4623
 40
0.3000
 50
327.6418
 51
450.0000
  0
ARC
  8
0_00
  6
CONTINUOUS
 62
2
 10
683.5027
 20
322.4623
 40
0.3000
 50
90.0000
 51
212.3582
  0
ARC
  8
0_00
  6
CONTINUOUS
 62
2
 10
684.8357
 20
322.4623
 40
0.3000
 50
29.0222
 51
90.0000
  0
ARC
  8
0_00
  6
CONTINUOUS
 62
2
 10
676.0040
 20
317.5623
 40
11.5000
 50
0.0000
 51
28.3593
  0
ARC
  8
0_00
  6
CONTINUOUS
 62
2
 10
680.5040
 20
320.5623
 40
1.7000
 50
116.1790
 51
153.8210
  0
ARC
  8
0_00
  6
CONTINUOUS
 62
2
 10
680.5040
 20
320.5623
 40
1.7000
 50
206.1790
 51
228.7491
  0
ARC
  8
0_00
  6
CONTINUOUS
 62
2
 10
680.5040
 20
320.5623
 40
1.7000
 50
311.2509
 51
333.8210
  0
ARC
  8
0_00
  6
CONTINUOUS
 62
2
 10
680.5040
 20
320.5623
 40
1.7000
 50
26.1790
 51
63.8210
  0
ARC
  8
0_00
  6
CONTINUOUS
 62
2
 10
680.5040
 20
320.5623
 40
3.2500
 50
343.3984
 51
392.3582
  0
ARC
  8
0_00
  6
CONTINUOUS
 62
2
 10
682.1810
 20
320.0623
 40
1.5000
 50
270.0000
 51
343.3984
  0
ARC
  8
0_00
  6
CONTINUOUS
 62
2
 10
680.5040
 20
320.5623
 40
3.2500
 50
147.6418
 51
196.6015
  0
ARC
  8
0_00
  6
CONTINUOUS
 62
2
 10
678.8269
 20
320.0623
 40
1.5000
 50
196.6015
 51
270.0000
  0
ARC
  8
0_00
  6
CONTINUOUS
 62
2
 10
679.1114
 20
318.9744
 40
0.4121
 50
270.0000
 51
408.7491
  0
ARC
  8
0_00
  6
CONTINUOUS
 62
2
 10
681.8966
 20
318.9744
 40
0.4121
 50
131.2509
 51
270.0000
  0
ARC
  8
0_00
  6
CONTINUOUS
 62
2
 10
676.0040
 20
317.5623
 40
10.4000
 50
0.0000
 51
29.0222
  0
ARC
  8
0_00
  6
CONTINUOUS
 62
2
 10
676.2041
 20
322.3123
 40
1.5000
 50
90.0000
 51
151.6406
  0
ARC
  8
0_00
  6
CONTINUOUS
 62
2
 10
676.1723
 20
322.4623
 40
0.3000
 50
90.0000
 51
150.9778
  0
ARC
  8
0_00
  6
CONTINUOUS
 62
2
 10
685.0039
 20
317.5623
 40
11.5000
 50
151.6406
 51
180.0000
  0
ARC
  8
0_00
  6
CONTINUOUS
 62
2
 10
685.0039
 20
317.5623
 40
10.4000
 50
150.9778
 51
180.0000
  0
ARC
  8
0_00
  6
CONTINUOUS
 62
2
 10
684.8038
 20
309.8123
 40
1.5000
 50
270.0000
 51
331.6407
  0
ARC
  8
0_00
  6
CONTINUOUS
 62
2
 10
677.5052
 20
309.6623
 40
0.3000
 50
270.0000
 51
392.3582
  0
ARC
  8
0_00
  6
CONTINUOUS
 62
2
 10
683.5027
 20
309.6623
 40
0.3000
 50
147.6418
 51
270.0000
  0
ARC
  8
0_00
  6
CONTINUOUS
 62
2
 10
684.8357
 20
309.6623
 40
0.3000
 50
270.0000
 51
330.9778
  0
ARC
  8
0_00
  6
CONTINUOUS
 62
2
 10
676.0040
 20
314.5623
 40
11.5000
 50
331.6407
 51
360.0000
  0
ARC
  8
0_00
  6
CONTINUOUS
 62
2
 10
680.5040
 20
311.5623
 40
1.7000
 50
206.1790
 51
243.8210
  0
ARC
  8
0_00
  6
CONTINUOUS
 62
2
 10
680.5040
 20
311.5623
 40
1.7000
 50
131.2509
 51
153.8210
  0
ARC
  8
0_00
  6
CONTINUOUS
 62
2
 10
680.5040
 20
311.5623
 40
1.7000
 50
26.1790
 51
48.7491
  0
ARC
  8
0_00
  6
CONTINUOUS
 62
2
 10
680.5040
 20
311.5623
 40
1.7000
 50
296.1790
 51
333.8210
  0
ARC
  8
0_00
  6
CONTINUOUS
 62
2
 10
680.5040
 20
311.5623
 40
3.2500
 50
327.6418
 51
376.6016
  0
ARC
  8
0_00
  6
CONTINUOUS
 62
2
 10
682.1810
 20
312.0623
 40
1.5000
 50
16.6015
 51
90.0000
  0
ARC
  8
0_00
  6
CONTINUOUS
 62
2
 10
680.5040
 20
311.5623
 40
3.2500
 50
163.3985
 51
212.3582
  0
ARC
  8
0_00
  6
CONTINUOUS
 62
2
 10
678.8269
 20
312.0623
 40
1.5000
 50
90.0000
 51
163.3985
  0
ARC
  8
0_00
  6
CONTINUOUS
 62
2
 10
679.1114
 20
313.1503
 40
0.4121
 50
311.2509
 51
450.0000
  0
ARC
  8
0_00
  6
CONTINUOUS
 62
2
 10
681.8966
 20
313.1503
 40
0.4121
 50
90.0000
 51
228.7491
  0
ARC
  8
0_00
  6
CONTINUOUS
 62
2
 10
676.0040
 20
314.5623
 40
10.4000
 50
330.9778
 51
360.0000
  0
ARC
  8
0_00
  6
CONTINUOUS
 62
2
 10
676.2041
 20
309.8123
 40
1.5000
 50
208.3594
 51
270.0000
  0
ARC
  8
0_00
  6
CONTINUOUS
 62
2
 10
676.1723
 20
309.6623
 40
0.3000
 50
209.0222
 51
270.0000
  0
ARC
  8
0_00
  6
CONTINUOUS
 62
2
 10
685.0039
 20
314.5623
 40
11.5000
 50
180.0000
 51
208.3594
  0
ARC
  8
0_00
  6
CONTINUOUS
 62
2
 10
685.0039
 20
314.5623
 40
10.4000
 50
180.0000
 51
209.0222
  0
CIRCLE
  8
0_00
  6
CONTINUOUS
 62
2
 10
680.5040
 20
320.5623
 40
2.0000
  0
CIRCLE
  8
0_00
  6
CONTINUOUS
 62
2
 10
680.5040
 20
311.5623
 40
2.0000
  0
ARC
  8
0_00
  6
CONTINUOUS
 62
4
 10
697.2540
 20
344.0623
 40
4.2500
 50
90.0000
 51
270.0000
  0
ARC
  8
0_00
  6
CONTINUOUS
 62
4
 10
702.5040
 20
316.0623
 40
4.2500
 50
270.0000
 51
450.0000
  0
ARC
  8
0_00
  6
CONTINUOUS
 62
4
 10
707.5039
 20
267.0623
 40
3.0000
 50
270.0000
 51
360.0000
  0
ARC
  8
0_00
  6
CONTINUOUS
 62
4
 10
707.5039
 20
365.0623
 40
3.0000
 50
0.0000
 51
90.0000
  0
ARC
  8
0_00
  6
CONTINUOUS
 62
4
 10
653.5040
 20
267.0623
 40
3.0000
 50
180.0000
 51
270.0000
  0
ARC
  8
0_00
  6
CONTINUOUS
 62
4
 10
653.5040
 20
365.0623
 40
3.0000
 50
90.0000
 51
180.0000
  0
ARC
  8
0_00
  6
CONTINUOUS
 62
4
 10
663.7540
 20
288.0623
 40
4.2500
 50
270.0000
 51
450.0000
  0
CIRCLE
  8
0_00
  6
CONTINUOUS
 62
2
 10
680.5041
 20
320.5615
 40
2.2500
  0
CIRCLE
  8
0_00
  6
CONTINUOUS
 62
2
 10
680.5041
 20
311.5615
 40
2.2500
  0
CIRCLE
  8
0_00
  6
CONTINUOUS
 62
4
 10
702.5040
 20
316.0623
 40
4.5000
  0
ARC
  8
0_00
  6
CONTINUOUS
 62
4
 10
693.0040
 20
295.0623
 40
1.0000
 50
0.0000
 51
90.0000
  0
ARC
  8
0_00
  6
CONTINUOUS
 62
4
 10
695.0040
 20
293.5623
 40
1.0000
 50
180.0000
 51
267.1381
  0
ARC
  8
0_00
  6
CONTINUOUS
 62
4
 10
695.0040
 20
282.5623
 40
1.0000
 50
92.8620
 51
180.0000
  0
ARC
  8
0_00
  6
CONTINUOUS
 62
4
 10
696.0040
 20
280.5623
 40
2.0000
 50
180.0000
 51
270.0000
  0
ARC
  8
0_00
  6
CONTINUOUS
 62
4
 10
707.5039
 20
281.5623
 40
3.0000
 50
270.0000
 51
360.0000
  0
ARC
  8
0_00
  6
CONTINUOUS
 62
4
 10
693.0040
 20
337.0623
 40
1.0000
 50
270.0000
 51
360.0000
  0
ARC
  8
0_00
  6
CONTINUOUS
 62
4
 10
695.0040
 20
338.5623
 40
1.0000
 50
90.0000
 51
180.0000
  0
ARC
  8
0_00
  6
CONTINUOUS
 62
4
 10
695.0040
 20
349.5623
 40
1.0000
 50
180.0000
 51
270.0000
  0
ARC
  8
0_00
  6
CONTINUOUS
 62
4
 10
696.0040
 20
351.5623
 40
2.0000
 50
90.0000
 51
180.0000
  0
ARC
  8
0_00
  6
CONTINUOUS
 62
4
 10
707.5039
 20
350.5623
 40
3.0000
 50
0.0000
 51
90.0000
  0
ARC
  8
0_00
  6
CONTINUOUS
 62
4
 10
701.0040
 20
344.0623
 40
4.5000
 50
270.0000
 51
450.0000
  0
ARC
  8
0_00
  6
CONTINUOUS
 62
4
 10
668.0040
 20
295.0623
 40
1.0000
 50
90.0000
 51
180.0000
  0
ARC
  8
0_00
  6
CONTINUOUS
 62
4
 10
666.0040
 20
293.5623
 40
1.0000
 50
270.0000
 51
360.0000
  0
ARC
  8
0_00
  6
CONTINUOUS
 62
4
 10
666.0040
 20
282.5623
 40
1.0000
 50
0.0000
 51
90.0000
  0
ARC
  8
0_00
  6
CONTINUOUS
 62
4
 10
665.0040
 20
280.5623
 40
2.0000
 50
270.0000
 51
360.0000
  0
ARC
  8
0_00
  6
CONTINUOUS
 62
4
 10
653.5040
 20
281.5623
 40
3.0000
 50
180.0000
 51
270.0000
  0
ARC
  8
0_00
  6
CONTINUOUS
 62
4
 10
668.0040
 20
337.0623
 40
1.0000
 50
180.0000
 51
270.0000
  0
ARC
  8
0_00
  6
CONTINUOUS
 62
4
 10
665.0040
 20
351.5623
 40
2.0000
 50
0.0000
 51
90.0000
  0
ARC
  8
0_00
  6
CONTINUOUS
 62
4
 10
653.5040
 20
350.5623
 40
3.0000
 50
90.0000
 51
180.0000
  0
ARC
  8
0_00
  6
CONTINUOUS
 62
4
 10
660.0039
 20
288.0623
 40
4.5000
 50
90.0000
 51
270.0000
  0
ARC
  8
0_00
  6
CONTINUOUS
 62
4
 10
667.5040
 20
298.5623
 40
3.0000
 50
263.2308
 51
270.0000
  0
ARC
  8
0_00
  6
CONTINUOUS
 62
4
 10
693.5040
 20
298.5623
 40
3.0000
 50
270.0000
 51
276.7692
  0
ARC
  8
0_00
  6
CONTINUOUS
 62
4
 10
667.5040
 20
333.5623
 40
3.0000
 50
90.0000
 51
96.7692
  0
ARC
  8
0_00
  6
CONTINUOUS
 62
4
 10
693.5040
 20
333.5623
 40
3.0000
 50
83.2308
 51
90.0000
  0
ARC
  8
0_00
  6
CONTINUOUS
 62
4
 10
701.2540
 20
344.0623
 40
4.2500
 50
270.0000
 51
450.0000
  0
ARC
  8
0_00
  6
CONTINUOUS
 62
4
 10
659.7540
 20
288.0623
 40
4.2500
 50
90.0000
 51
270.0000
  0
ARC
  8
0_00
  6
CONTINUOUS
 62
4
 10
663.7540
 20
344.0623
 40
4.2500
 50
270.0000
 51
450.0000
  0
ARC
  8
0_00
  6
CONTINUOUS
 62
4
 10
666.0040
 20
338.5623
 40
1.0000
 50
0.0000
 51
90.0000
  0
ARC
  8
0_00
  6
CONTINUOUS
 62
4
 10
666.0040
 20
349.5623
 40
1.0000
 50
270.0000
 51
360.0000
  0
ARC
  8
0_00
  6
CONTINUOUS
 62
4
 10
660.0039
 20
344.0623
 40
4.5000
 50
90.0000
 51
270.0000
  0
ARC
  8
0_00
  6
CONTINUOUS
 62
4
 10
659.7540
 20
344.0623
 40
4.2500
 50
90.0000
 51
270.0000
  0
CIRCLE
  8
0_00
  6
CONTINUOUS
 62
2
 10
658.5039
 20
316.0623
 40
6.2250
  0
CIRCLE
  8
0_00
  6
CONTINUOUS
 62
2
 10
658.5039
 20
316.0623
 40
6.0020
  0
ARC
  8
0_00
  6
CONTINUOUS
 62
2
 10
658.5039
 20
316.0623
 40
2.4500
 50
45.0000
 51
58.5444
  0
ARC
  8
0_00
  6
CONTINUOUS
 62
2
 10
658.5039
 20
316.0623
 40
2.4500
 50
121.3667
 51
135.0000
  0
ARC
  8
0_00
  6
CONTINUOUS
 62
2
 10
658.5039
 20
316.0623
 40
2.4500
 50
211.4556
 51
225.0000
  0
ARC
  8
0_00
  6
CONTINUOUS
 62
2
 10
658.5039
 20
316.0623
 40
2.4500
 50
135.0000
 51
148.6333
  0
ARC
  8
0_00
  6
CONTINUOUS
 62
2
 10
658.5039
 20
316.0623
 40
2.4500
 50
31.4556
 51
45.0000
  0
ARC
  8
0_00
  6
CONTINUOUS
 62
2
 10
658.5039
 20
316.0623
 40
2.4500
 50
315.0000
 51
328.6334
  0
ARC
  8
0_00
  6
CONTINUOUS
 62
2
 10
658.5039
 20
316.0623
 40
2.4500
 50
225.0000
 51
238.5444
  0
ARC
  8
0_00
  6
CONTINUOUS
 62
2
 10
658.5039
 20
316.0623
 40
2.4500
 50
301.3667
 51
315.0000
  0
CIRCLE
  8
0_00
  6
CONTINUOUS
 62
2
 10
699.2540
 20
288.0623
 40
6.2250
  0
CIRCLE
  8
0_00
  6
CONTINUOUS
 62
2
 10
699.2540
 20
288.0623
 40
6.0020
  0
ARC
  8
0_00
  6
CONTINUOUS
 62
2
 10
699.2540
 20
288.0623
 40
2.4500
 50
45.0000
 51
58.5444
  0
ARC
  8
0_00
  6
CONTINUOUS
 62
2
 10
699.2540
 20
288.0623
 40
2.4500
 50
121.3667
 51
135.0000
  0
ARC
  8
0_00
  6
CONTINUOUS
 62
2
 10
699.2540
 20
288.0623
 40
2.4500
 50
211.4556
 51
225.0000
  0
ARC
  8
0_00
  6
CONTINUOUS
 62
2
 10
699.2540
 20
288.0623
 40
2.4500
 50
135.0000
 51
148.6333
  0
ARC
  8
0_00
  6
CONTINUOUS
 62
2
 10
699.2540
 20
288.0623
 40
2.4500
 50
31.4556
 51
45.0000
  0
ARC
  8
0_00
  6
CONTINUOUS
 62
2
 10
699.2540
 20
288.0623
 40
2.4500
 50
315.0000
 51
328.6334
  0
ARC
  8
0_00
  6
CONTINUOUS
 62
2
 10
699.2540
 20
288.0623
 40
2.4500
 50
225.0000
 51
238.5444
  0
ARC
  8
0_00
  6
CONTINUOUS
 62
2
 10
699.2540
 20
288.0623
 40
2.4500
 50
301.3667
 51
315.0000
  0
ARC
  8
0_00
  6
CONTINUOUS
 62
4
 10
597.1804
 20
720.6086
 40
0.5232
 50
0.0000
 51
63.8201
  0
ARC
  8
0_00
  6
CONTINUOUS
 62
4
 10
594.8536
 20
715.8758
 40
5.7971
 50
63.8201
 51
116.1798
  0
ARC
  8
0_00
  6
CONTINUOUS
 62
4
 10
592.5269
 20
720.6086
 40
0.5232
 50
116.1798
 51
180.0000
  0
ARC
  8
0_00
  6
CONTINUOUS
 62
4
 10
752.1804
 20
720.6086
 40
0.5232
 50
0.0000
 51
63.8201
  0
ARC
  8
0_00
  6
CONTINUOUS
 62
4
 10
749.8537
 20
715.8758
 40
5.7971
 50
63.8201
 51
116.1798
  0
ARC
  8
0_00
  6
CONTINUOUS
 62
4
 10
747.5268
 20
720.6086
 40
0.5232
 50
116.1798
 51
180.0000
  0
ARC
  8
0_00
  6
CONTINUOUS
 62
4
 10
907.1805
 20
720.6086
 40
0.5232
 50
0.0000
 51
63.8201
  0
ARC
  8
0_00
  6
CONTINUOUS
 62
4
 10
904.8537
 20
715.8758
 40
5.7971
 50
63.8201
 51
116.1798
  0
ARC
  8
0_00
  6
CONTINUOUS
 62
4
 10
902.5269
 20
720.6086
 40
0.5232
 50
116.1798
 51
180.0000
  0
ARC
  8
0_00
  6
CONTINUOUS
 62
4
 10
1062.1804
 20
720.6086
 40
0.5232
 50
0.0000
 51
63.8201
  0
ARC
  8
0_00
  6
CONTINUOUS
 62
4
 10
1059.8536
 20
715.8758
 40
5.7971
 50
63.8201
 51
116.1798
  0
ARC
  8
0_00
  6
CONTINUOUS
 62
4
 10
1057.5268
 20
720.6086
 40
0.5232
 50
116.1798
 51
180.0000
  0
ARC
  8
0_00
  6
CONTINUOUS
 62
2
 10
278.2813
 20
642.8917
 40
0.5000
 50
180.0000
 51
270.0000
  0
ARC
  8
0_00
  6
CONTINUOUS
 62
2
 10
293.7813
 20
649.6918
 40
4.5000
 50
90.0000
 51
180.0000
  0
ARC
  8
0_00
  6
CONTINUOUS
 62
2
 10
280.2813
 20
645.7917
 40
2.5000
 50
90.0000
 51
180.0000
  0
ARC
  8
0_00
  6
CONTINUOUS
 62
2
 10
293.7813
 20
649.6918
 40
2.0000
 50
90.0000
 51
180.0000
  0
ARC
  8
0_00
  6
CONTINUOUS
 62
2
 10
290.7813
 20
645.0918
 40
1.0000
 50
180.0000
 51
360.0000
  0
ARC
  8
0_00
  6
CONTINUOUS
 62
2
 10
326.2813
 20
642.8917
 40
0.5000
 50
270.0000
 51
360.0000
  0
ARC
  8
0_00
  6
CONTINUOUS
 62
2
 10
310.7813
 20
649.6918
 40
4.5000
 50
0.0000
 51
90.0000
  0
ARC
  8
0_00
  6
CONTINUOUS
 62
2
 10
324.2813
 20
645.7917
 40
2.5000
 50
0.0000
 51
90.0000
  0
ARC
  8
0_00
  6
CONTINUOUS
 62
2
 10
310.7813
 20
649.6918
 40
2.0000
 50
0.0000
 51
90.0000
  0
ARC
  8
0_00
  6
CONTINUOUS
 62
2
 10
313.7813
 20
645.0918
 40
1.0000
 50
180.0000
 51
360.0000
  0
ARC
  8
0_00
  6
CONTINUOUS
 62
4
 10
328.4411
 20
654.8329
 40
0.3000
 50
270.0000
 51
397.7143
  0
ARC
  8
0_00
  6
CONTINUOUS
 62
4
 10
323.8813
 20
654.0330
 40
0.5000
 50
90.0000
 51
180.0000
  0
ARC
  8
0_00
  6
CONTINUOUS
 62
4
 10
302.2813
 20
647.3067
 40
29.0000
 50
342.4088
 51
449.9966
  0
ARC
  8
0_00
  6
CONTINUOUS
 62
4
 10
329.6392
 20
638.6330
 40
0.3000
 50
191.6000
 51
342.4088
  0
ARC
  8
0_00
  6
CONTINUOUS
 62
4
 10
302.2813
 20
647.3067
 40
27.5000
 50
46.4693
 51
89.9727
  0
ARC
  8
0_00
  6
CONTINUOUS
 62
4
 10
302.2813
 20
647.3067
 40
27.5000
 50
16.2813
 51
43.5307
  0
ARC
  8
0_00
  6
CONTINUOUS
 62
4
 10
302.2813
 20
647.3067
 40
27.8000
 50
5.4220
 51
12.9434
  0
ARC
  8
0_00
  6
CONTINUOUS
 62
4
 10
302.2813
 20
647.3067
 40
27.8000
 50
357.9926
 51
362.3232
  0
ARC
  8
0_00
  6
CONTINUOUS
 62
4
 10
302.2813
 20
647.3067
 40
27.8000
 50
345.9079
 51
353.8593
  0
ARC
  8
0_00
  6
CONTINUOUS
 62
4
 10
332.1544
 20
639.8075
 40
3.0000
 50
165.9079
 51
191.6000
  0
ARC
  8
0_00
  6
CONTINUOUS
 62
4
 10
302.2813
 20
647.3067
 40
26.5000
 50
43.9189
 51
46.0811
  0
ARC
  8
0_00
  6
CONTINUOUS
 62
4
 10
322.0739
 20
666.1095
 40
0.2000
 50
43.5307
 51
135.0000
  0
ARC
  8
0_00
  6
CONTINUOUS
 62
4
 10
321.0840
 20
667.0993
 40
0.2000
 50
315.0000
 51
406.4693
  0
ARC
  8
0_00
  6
CONTINUOUS
 62
4
 10
324.3813
 20
653.5251
 40
0.2000
 50
87.8021
 51
180.0000
  0
ARC
  8
0_00
  6
CONTINUOUS
 62
4
 10
323.7813
 20
652.7330
 40
0.4000
 50
180.0000
 51
360.0000
  0
ARC
  8
0_00
  6
CONTINUOUS
 62
4
 10
329.9527
 20
648.6337
 40
0.2000
 50
191.7000
 51
270.0000
  0
ARC
  8
0_00
  6
CONTINUOUS
 62
4
 10
329.7249
 20
649.7337
 40
0.2000
 50
90.0000
 51
191.7000
  0
ARC
  8
0_00
  6
CONTINUOUS
 62
4
 10
328.9715
 20
646.0366
 40
0.2000
 50
95.0000
 51
195.1391
  0
ARC
  8
13_0D
  6
CONTINUOUS
 62
4
 10
331.6743
 20
646.7678
 40
3.0000
 50
195.1391
 51
234.2555
  0
ARC
  8
0_00
  6
CONTINUOUS
 62
4
 10
276.1227
 20
654.8313
 40
0.3000
 50
142.2891
 51
270.0034
  0
ARC
  8
0_00
  6
CONTINUOUS
 62
4
 10
280.6826
 20
654.0316
 40
0.5000
 50
0.0034
 51
90.0034
  0
ARC
  8
0_00
  6
CONTINUOUS
 62
4
 10
302.2830
 20
647.3067
 40
29.0000
 50
90.0000
 51
197.5946
  0
ARC
  8
0_00
  6
CONTINUOUS
 62
4
 10
274.9256
 20
638.6313
 40
0.3000
 50
197.5946
 51
348.4034
  0
ARC
  8
0_00
  6
CONTINUOUS
 62
4
 10
302.2830
 20
647.3067
 40
27.5000
 50
90.0307
 51
133.5341
  0
ARC
  8
0_00
  6
CONTINUOUS
 62
4
 10
302.2830
 20
647.3067
 40
27.5000
 50
136.4727
 51
163.7221
  0
ARC
  8
0_00
  6
CONTINUOUS
 62
4
 10
302.2830
 20
647.3067
 40
27.8000
 50
167.0600
 51
174.5814
  0
ARC
  8
0_00
  6
CONTINUOUS
 62
4
 10
302.2830
 20
647.3067
 40
27.8000
 50
177.6802
 51
182.0108
  0
ARC
  8
0_00
  6
CONTINUOUS
 62
4
 10
302.2830
 20
647.3067
 40
27.8000
 50
186.1442
 51
194.0955
  0
ARC
  8
0_00
  6
CONTINUOUS
 62
4
 10
272.4104
 20
639.8058
 40
3.0000
 50
348.4034
 51
374.0955
  0
ARC
  8
0_00
  6
CONTINUOUS
 62
4
 10
302.2830
 20
647.3067
 40
26.5000
 50
133.9223
 51
136.0845
  0
ARC
  8
0_00
  6
CONTINUOUS
 62
4
 10
282.4893
 20
666.1083
 40
0.2000
 50
45.0034
 51
136.4727
  0
ARC
  8
0_00
  6
CONTINUOUS
 62
4
 10
283.4792
 20
667.0983
 40
0.2000
 50
133.5341
 51
225.0034
  0
ARC
  8
0_00
  6
CONTINUOUS
 62
4
 10
280.1827
 20
653.5238
 40
0.2000
 50
0.0034
 51
92.2013
  0
ARC
  8
0_00
  6
CONTINUOUS
 62
4
 10
280.7827
 20
652.7316
 40
0.4000
 50
180.0034
 51
360.0034
  0
ARC
  8
0_00
  6
CONTINUOUS
 62
4
 10
274.6116
 20
648.6320
 40
0.2000
 50
270.0034
 51
348.3034
  0
ARC
  8
0_00
  6
CONTINUOUS
 62
4
 10
274.8393
 20
649.7319
 40
0.2000
 50
348.3034
 51
450.0034
  0
ARC
  8
0_00
  6
CONTINUOUS
 62
4
 10
275.5929
 20
646.0350
 40
0.2000
 50
344.8643
 51
445.0034
  0
ARC
  8
13_0D
  6
CONTINUOUS
 62
4
 10
272.8900
 20
646.7660
 40
3.0000
 50
305.7479
 51
344.8643
  0
ARC
  8
12_0C
  6
CONTINUOUS
 62
2
 10
284.2813
 20
645.4312
 40
5.1605
 50
39.1846
 51
140.8154
  0
ARC
  8
3_03
  6
CONTINUOUS
 62
4
 10
230.2828
 20
417.0068
 40
1.6000
 50
180.0000
 51
270.0000
  0
ARC
  8
3_03
  6
CONTINUOUS
 62
4
 10
374.2828
 20
417.0068
 40
1.6000
 50
270.0000
 51
360.0000
  0
ARC
  8
3_03
  6
CONTINUOUS
 62
4
 10
367.3518
 20
455.8067
 40
0.5000
 50
8.4828
 51
90.0000
  0
ARC
  8
3_03
  6
CONTINUOUS
 62
4
 10
237.2137
 20
455.8067
 40
0.5000
 50
90.0000
 51
171.5172
  0
ARC
  8
3_03
  6
CONTINUOUS
 62
4
 10
242.7828
 20
474.8366
 40
0.3000
 50
88.0908
 51
180.0000
  0
ARC
  8
3_03
  6
CONTINUOUS
 62
4
 10
249.6828
 20
474.6065
 40
0.3000
 50
0.0000
 51
88.0908
  0
ARC
  8
3_03
  6
CONTINUOUS
 62
4
 10
354.8828
 20
471.0999
 40
0.3000
 50
88.0908
 51
180.0000
  0
ARC
  8
3_03
  6
CONTINUOUS
 62
4
 10
364.3602
 20
469.0831
 40
2.0000
 50
19.7892
 51
88.0908
  0
ARC
  8
3_03
  6
CONTINUOUS
 62
4
 10
240.2377
 20
471.2194
 40
2.0000
 50
88.0908
 51
162.6481
  0
ARC
  8
3_03
  6
CONTINUOUS
 62
4
 10
237.4988
 20
460.1067
 40
0.5000
 50
162.6481
 51
270.0000
  0
ARC
  8
3_03
  6
CONTINUOUS
 62
4
 10
241.1106
 20
469.9896
 40
1.0000
 50
88.0908
 51
162.6481
  0
ARC
  8
3_03
  6
CONTINUOUS
 62
4
 10
249.4828
 20
473.2125
 40
0.5000
 50
268.0909
 51
360.0000
  0
ARC
  8
3_03
  6
CONTINUOUS
 62
4
 10
245.1828
 20
472.3553
 40
0.5000
 50
88.0908
 51
180.0000
  0
ARC
  8
3_03
  6
CONTINUOUS
 62
4
 10
366.8460
 20
460.1067
 40
0.5000
 50
270.0000
 51
379.7892
  0
ARC
  8
3_03
  6
CONTINUOUS
 62
4
 10
363.5066
 20
467.9108
 40
1.0000
 50
19.7892
 51
88.0908
  0
ARC
  8
3_03
  6
CONTINUOUS
 62
4
 10
355.0828
 20
469.6925
 40
0.5000
 50
180.0000
 51
268.0909
  0
ARC
  8
0_00
  6
CONTINUOUS
 62
4
 10
230.2828
 20
416.8068
 40
3.0000
 50
180.0000
 51
270.0000
  0
ARC
  8
0_00
  6
CONTINUOUS
 62
4
 10
230.2828
 20
475.7051
 40
3.0000
 50
88.0908
 51
180.0000
  0
ARC
  8
0_00
  6
CONTINUOUS
 62
4
 10
374.2828
 20
470.9051
 40
3.0000
 50
0.0000
 51
88.0908
  0
ARC
  8
0_00
  6
CONTINUOUS
 62
4
 10
374.2828
 20
416.8068
 40
3.0000
 50
270.5000
 51
360.5000
  0
ARC
  8
0_00
  6
CONTINUOUS
 62
4
 10
230.2828
 20
416.8068
 40
1.6000
 50
180.0000
 51
268.8917
  0
ARC
  8
0_00
  6
CONTINUOUS
 62
4
 10
230.2828
 20
475.7051
 40
1.6000
 50
88.0908
 51
180.0000
  0
ARC
  8
0_00
  6
CONTINUOUS
 62
4
 10
374.2828
 20
470.9051
 40
1.6000
 50
0.0000
 51
88.0908
  0
ARC
  8
0_00
  6
CONTINUOUS
 62
4
 10
374.2828
 20
416.8068
 40
1.6000
 50
271.7932
 51
360.0000
  0
ARC
  8
0_00
  6
CONTINUOUS
 62
4
 10
234.0824
 20
414.7069
 40
0.7000
 50
273.0000
 51
453.0000
  0
ARC
  8
0_00
  6
CONTINUOUS
 62
4
 10
370.4832
 20
414.7083
 40
0.7000
 50
87.0000
 51
267.0000
  0
ARC
  8
0_00
  6
CONTINUOUS
 62
4
 10
329.2813
 20
644.0067
 40
0.6000
 50
270.0000
 51
450.0000
  0
ARC
  8
0_00
  6
CONTINUOUS
 62
4
 10
302.2813
 20
647.3067
 40
29.0000
 50
201.7076
 51
269.4103
  0
ARC
  8
0_00
  6
CONTINUOUS
 62
4
 10
302.2813
 20
647.3067
 40
29.0000
 50
270.5897
 51
338.2924
  0
ARC
  8
0_00
  6
CONTINUOUS
 62
4
 10
277.4813
 20
642.8068
 40
0.5000
 50
180.0000
 51
270.0000
  0
ARC
  8
0_00
  6
CONTINUOUS
 62
4
 10
327.0813
 20
642.8068
 40
0.5000
 50
270.0000
 51
360.0000
  0
ARC
  8
0_00
  6
CONTINUOUS
 62
4
 10
329.5813
 20
646.7873
 40
0.5000
 50
275.0000
 51
371.6000
  0
ARC
  8
0_00
  6
CONTINUOUS
 62
4
 10
328.5813
 20
646.2984
 40
1.0000
 50
95.0000
 51
180.0000
  0
ARC
  8
0_00
  6
CONTINUOUS
 62
4
 10
324.8141
 20
647.6319
 40
5.0000
 50
11.6000
 51
45.0000
  0
ARC
  8
0_00
  6
CONTINUOUS
 62
4
 10
324.8141
 20
647.6319
 40
4.1000
 50
11.6000
 51
45.0000
  0
ARC
  8
0_00
  6
CONTINUOUS
 62
4
 10
275.2813
 20
644.0067
 40
0.6000
 50
90.0000
 51
270.0000
  0
ARC
  8
0_00
  6
CONTINUOUS
 62
4
 10
274.9813
 20
646.7873
 40
0.5000
 50
168.4000
 51
265.0000
  0
ARC
  8
0_00
  6
CONTINUOUS
 62
4
 10
277.8313
 20
652.8567
 40
0.4500
 50
0.0000
 51
180.0000
  0
ARC
  8
0_00
  6
CONTINUOUS
 62
4
 10
275.9813
 20
646.2984
 40
1.0000
 50
0.0000
 51
85.0000
  0
ARC
  8
0_00
  6
CONTINUOUS
 62
4
 10
279.7485
 20
647.6319
 40
5.0000
 50
135.0000
 51
168.4000
  0
ARC
  8
0_00
  6
CONTINUOUS
 62
4
 10
279.7485
 20
647.6319
 40
4.1000
 50
135.0000
 51
168.4000
  0
ARC
  8
0_00
  6
CONTINUOUS
 62
4
 10
277.2813
 20
652.3772
 40
1.0000
 50
315.0000
 51
360.0000
  0
ARC
  8
0_00
  6
CONTINUOUS
 62
4
 10
326.7313
 20
652.8567
 40
0.4500
 50
0.0000
 51
180.0000
  0
ARC
  8
0_00
  6
CONTINUOUS
 62
4
 10
327.2813
 20
652.3772
 40
1.0000
 50
180.0000
 51
225.0000
  0
ARC
  8
15_0F
  6
CONTINUOUS
 62
4
 10
302.2813
 20
647.3067
 40
27.9000
 50
202.3023
 51
255.4075
  0
ARC
  8
15_0F
  6
CONTINUOUS
 62
4
 10
302.2813
 20
647.3067
 40
27.9000
 50
284.5926
 51
337.6978
  0
ARC
  8
15_0F
  6
CONTINUOUS
 62
4
 10
275.8024
 20
636.7654
 40
0.5000
 50
150.0000
 51
201.7076
  0
ARC
  8
15_0F
  6
CONTINUOUS
 62
4
 10
328.7601
 20
636.7654
 40
0.5000
 50
338.2924
 51
390.0000
  0
ARC
  8
0_00
  6
CONTINUOUS
 62
4
 10
1065.9841
 20
316.0623
 40
18.0000
 50
270.9471
 51
359.0529
  0
ARC
  8
0_00
  6
CONTINUOUS
 62
4
 10
1065.9841
 20
316.0623
 40
18.0000
 50
0.9471
 51
89.0529
  0
ARC
  8
0_00
  6
CONTINUOUS
 62
4
 10
1065.9841
 20
316.0623
 40
18.0000
 50
90.9471
 51
179.0529
  0
ARC
  8
0_00
  6
CONTINUOUS
 62
4
 10
1065.9841
 20
316.0623
 40
18.0000
 50
180.9471
 51
269.0529
  0
ARC
  8
0_00
  6
CONTINUOUS
 62
4
 10
1065.9841
 20
316.0623
 40
16.8000
 50
279.5124
 51
350.4877
  0
ARC
  8
0_00
  6
CONTINUOUS
 62
4
 10
1065.9841
 20
316.0623
 40
16.8000
 50
9.5123
 51
80.4876
  0
ARC
  8
0_00
  6
CONTINUOUS
 62
4
 10
1065.9841
 20
316.0623
 40
16.8000
 50
99.5123
 51
170.4876
  0
ARC
  8
0_00
  6
CONTINUOUS
 62
4
 10
1065.9841
 20
316.0623
 40
16.8000
 50
189.5124
 51
260.4877
  0
ARC
  8
0_00
  6
CONTINUOUS
 62
4
 10
1063.2574
 20
299.7892
 40
0.3000
 50
260.4877
 51
399.8154
  0
ARC
  8
0_00
  6
CONTINUOUS
 62
4
 10
1065.9841
 20
302.0623
 40
1.7000
 50
206.1790
 51
243.8210
  0
ARC
  8
0_00
  6
CONTINUOUS
 62
4
 10
1065.9841
 20
302.0623
 40
1.7000
 50
131.2509
 51
153.8210
  0
ARC
  8
0_00
  6
CONTINUOUS
 62
4
 10
1065.9841
 20
302.0623
 40
3.2500
 50
163.3985
 51
219.8155
  0
ARC
  8
0_00
  6
CONTINUOUS
 62
4
 10
1064.3069
 20
302.5623
 40
1.5000
 50
90.0000
 51
163.3985
  0
ARC
  8
0_00
  6
CONTINUOUS
 62
4
 10
1064.5914
 20
303.6503
 40
0.4121
 50
311.2509
 51
450.0000
  0
ARC
  8
0_00
  6
CONTINUOUS
 62
4
 10
1068.7109
 20
299.7892
 40
0.3000
 50
140.1845
 51
279.5124
  0
ARC
  8
0_00
  6
CONTINUOUS
 62
4
 10
1065.9841
 20
302.0623
 40
1.7000
 50
296.1790
 51
333.8210
  0
ARC
  8
0_00
  6
CONTINUOUS
 62
4
 10
1065.9841
 20
302.0623
 40
1.7000
 50
26.1790
 51
48.7491
  0
ARC
  8
0_00
  6
CONTINUOUS
 62
4
 10
1065.9841
 20
302.0623
 40
3.2500
 50
320.1846
 51
376.6016
  0
ARC
  8
0_00
  6
CONTINUOUS
 62
4
 10
1067.6612
 20
302.5623
 40
1.5000
 50
16.6015
 51
90.0000
  0
ARC
  8
0_00
  6
CONTINUOUS
 62
4
 10
1067.3767
 20
303.6503
 40
0.4121
 50
90.0000
 51
228.7491
  0
ARC
  8
0_00
  6
CONTINUOUS
 62
4
 10
1063.2574
 20
332.3355
 40
0.3000
 50
320.1846
 51
459.5123
  0
ARC
  8
0_00
  6
CONTINUOUS
 62
4
 10
1065.9841
 20
330.0623
 40
1.7000
 50
116.1790
 51
153.8210
  0
ARC
  8
0_00
  6
CONTINUOUS
 62
4
 10
1065.9841
 20
330.0623
 40
1.7000
 50
206.1790
 51
228.7491
  0
ARC
  8
0_00
  6
CONTINUOUS
 62
4
 10
1065.9841
 20
330.0623
 40
3.2500
 50
140.1845
 51
196.6015
  0
ARC
  8
0_00
  6
CONTINUOUS
 62
4
 10
1064.3069
 20
329.5623
 40
1.5000
 50
196.6015
 51
270.0000
  0
ARC
  8
0_00
  6
CONTINUOUS
 62
4
 10
1064.5914
 20
328.4744
 40
0.4121
 50
270.0000
 51
408.7491
  0
ARC
  8
0_00
  6
CONTINUOUS
 62
4
 10
1068.7109
 20
332.3355
 40
0.3000
 50
80.4876
 51
219.8155
  0
ARC
  8
0_00
  6
CONTINUOUS
 62
4
 10
1065.9841
 20
330.0623
 40
1.7000
 50
26.1790
 51
63.8210
  0
ARC
  8
0_00
  6
CONTINUOUS
 62
4
 10
1065.9841
 20
330.0623
 40
1.7000
 50
311.2509
 51
333.8210
  0
ARC
  8
0_00
  6
CONTINUOUS
 62
4
 10
1065.9841
 20
330.0623
 40
3.2500
 50
343.3984
 51
399.8154
  0
ARC
  8
0_00
  6
CONTINUOUS
 62
4
 10
1067.6612
 20
329.5623
 40
1.5000
 50
270.0000
 51
343.3984
  0
ARC
  8
0_00
  6
CONTINUOUS
 62
4
 10
1067.3767
 20
328.4744
 40
0.4121
 50
131.2509
 51
270.0000
  0
ARC
  8
0_00
  6
CONTINUOUS
 62
4
 10
1082.2572
 20
313.3355
 40
0.3000
 50
350.4877
 51
489.8154
  0
ARC
  8
0_00
  6
CONTINUOUS
 62
4
 10
1079.9841
 20
316.0623
 40
1.7000
 50
296.1790
 51
333.8210
  0
ARC
  8
0_00
  6
CONTINUOUS
 62
4
 10
1079.9841
 20
316.0623
 40
1.7000
 50
221.2509
 51
243.8210
  0
ARC
  8
0_00
  6
CONTINUOUS
 62
4
 10
1079.9841
 20
316.0623
 40
3.2500
 50
253.3985
 51
309.8155
  0
ARC
  8
0_00
  6
CONTINUOUS
 62
4
 10
1079.4842
 20
314.3853
 40
1.5000
 50
180.0000
 51
253.3985
  0
ARC
  8
0_00
  6
CONTINUOUS
 62
4
 10
1078.3962
 20
314.6697
 40
0.4121
 50
41.2509
 51
180.0000
  0
ARC
  8
0_00
  6
CONTINUOUS
 62
4
 10
1082.2572
 20
318.7891
 40
0.3000
 50
230.1846
 51
369.5123
  0
ARC
  8
0_00
  6
CONTINUOUS
 62
4
 10
1079.9841
 20
316.0623
 40
1.7000
 50
26.1790
 51
63.8210
  0
ARC
  8
0_00
  6
CONTINUOUS
 62
4
 10
1079.9841
 20
316.0623
 40
1.7000
 50
116.1790
 51
138.7491
  0
ARC
  8
0_00
  6
CONTINUOUS
 62
4
 10
1079.9841
 20
316.0623
 40
3.2500
 50
50.1845
 51
106.6015
  0
ARC
  8
0_00
  6
CONTINUOUS
 62
4
 10
1079.4842
 20
317.7394
 40
1.5000
 50
106.6015
 51
180.0000
  0
ARC
  8
0_00
  6
CONTINUOUS
 62
4
 10
1078.3962
 20
317.4550
 40
0.4121
 50
180.0000
 51
318.7491
  0
ARC
  8
0_00
  6
CONTINUOUS
 62
4
 10
1049.7109
 20
313.3355
 40
0.3000
 50
50.1845
 51
189.5124
  0
ARC
  8
0_00
  6
CONTINUOUS
 62
4
 10
1051.9841
 20
316.0623
 40
1.7000
 50
206.1790
 51
243.8210
  0
ARC
  8
0_00
  6
CONTINUOUS
 62
4
 10
1051.9841
 20
316.0623
 40
1.7000
 50
296.1790
 51
318.7491
  0
ARC
  8
0_00
  6
CONTINUOUS
 62
4
 10
1051.9841
 20
316.0623
 40
3.2500
 50
230.1846
 51
286.6016
  0
ARC
  8
0_00
  6
CONTINUOUS
 62
4
 10
1052.4841
 20
314.3853
 40
1.5000
 50
286.6016
 51
360.0000
  0
ARC
  8
0_00
  6
CONTINUOUS
 62
4
 10
1053.5720
 20
314.6697
 40
0.4121
 50
0.0000
 51
138.7491
  0
ARC
  8
0_00
  6
CONTINUOUS
 62
4
 10
1049.7109
 20
318.7891
 40
0.3000
 50
170.4876
 51
309.8155
  0
ARC
  8
0_00
  6
CONTINUOUS
 62
4
 10
1051.9841
 20
316.0623
 40
1.7000
 50
116.1790
 51
153.8210
  0
ARC
  8
0_00
  6
CONTINUOUS
 62
4
 10
1051.9841
 20
316.0623
 40
1.7000
 50
41.2509
 51
63.8210
  0
ARC
  8
0_00
  6
CONTINUOUS
 62
4
 10
1051.9841
 20
316.0623
 40
3.2500
 50
73.3984
 51
129.8154
  0
ARC
  8
0_00
  6
CONTINUOUS
 62
4
 10
1052.4841
 20
317.7394
 40
1.5000
 50
0.0000
 51
73.3984
  0
ARC
  8
0_00
  6
CONTINUOUS
 62
4
 10
1053.5720
 20
317.4550
 40
0.4121
 50
221.2509
 51
360.0000
  0
CIRCLE
  8
0_00
  6
CONTINUOUS
 62
4
 10
1065.9841
 20
316.0623
 40
18.5000
  0
ARC
  8
0_00
  6
CONTINUOUS
 62
4
 10
1074.9841
 20
307.8123
 40
2.0000
 50
270.0000
 51
360.0000
  0
ARC
  8
0_00
  6
CONTINUOUS
 62
4
 10
1074.9841
 20
324.3123
 40
2.0000
 50
0.0000
 51
90.0000
  0
ARC
  8
0_00
  6
CONTINUOUS
 62
4
 10
1056.9842
 20
307.8123
 40
2.0000
 50
180.0000
 51
270.0000
  0
ARC
  8
0_00
  6
CONTINUOUS
 62
4
 10
1056.9842
 20
324.3123
 40
2.0000
 50
90.0000
 51
180.0000
  0
CIRCLE
  8
0_00
  6
CONTINUOUS
 62
4
 10
1065.9841
 20
316.0623
 40
20.0000
  0
ARC
  8
0_00
  6
CONTINUOUS
 62
2
 10
1070.2811
 20
309.8123
 40
1.5000
 50
270.0000
 51
331.6068
  0
ARC
  8
0_00
  6
CONTINUOUS
 62
2
 10
1061.6871
 20
309.8123
 40
1.5000
 50
208.3932
 51
270.0000
  0
ARC
  8
0_00
  6
CONTINUOUS
 62
2
 10
1070.2811
 20
322.3123
 40
1.5000
 50
28.3932
 51
90.0000
  0
ARC
  8
0_00
  6
CONTINUOUS
 62
2
 10
1061.6871
 20
322.3123
 40
1.5000
 50
90.0000
 51
151.6068
  0
ARC
  8
0_00
  6
CONTINUOUS
 62
2
 10
1070.4841
 20
314.5675
 40
11.5000
 50
180.0000
 51
183.1484
  0
ARC
  8
0_00
  6
CONTINUOUS
 62
2
 10
1070.4841
 20
314.5675
 40
11.5000
 50
183.1484
 51
208.3932
  0
ARC
  8
0_00
  6
CONTINUOUS
 62
2
 10
1070.4841
 20
317.5571
 40
11.5000
 50
151.6068
 51
180.0000
  0
ARC
  8
0_00
  6
CONTINUOUS
 62
2
 10
1061.4841
 20
317.5571
 40
11.5000
 50
0.0000
 51
28.3932
  0
ARC
  8
0_00
  6
CONTINUOUS
 62
2
 10
1061.4841
 20
314.5675
 40
11.5000
 50
331.6068
 51
360.0000
  0
ARC
  8
0_00
  6
CONTINUOUS
 62
2
 10
1061.6553
 20
309.6623
 40
0.3000
 50
209.0559
 51
270.0000
  0
ARC
  8
0_00
  6
CONTINUOUS
 62
2
 10
1062.9854
 20
309.6623
 40
0.3000
 50
270.0000
 51
392.3582
  0
ARC
  8
0_00
  6
CONTINUOUS
 62
2
 10
1068.9828
 20
309.6623
 40
0.3000
 50
147.6418
 51
270.0000
  0
ARC
  8
0_00
  6
CONTINUOUS
 62
2
 10
1065.9841
 20
311.5623
 40
1.7000
 50
206.1790
 51
243.8210
  0
ARC
  8
0_00
  6
CONTINUOUS
 62
2
 10
1065.9841
 20
311.5623
 40
1.7000
 50
296.1790
 51
333.8210
  0
ARC
  8
0_00
  6
CONTINUOUS
 62
2
 10
1065.9841
 20
311.5623
 40
1.7000
 50
25.8347
 51
48.7491
  0
ARC
  8
0_00
  6
CONTINUOUS
 62
2
 10
1065.9841
 20
311.5623
 40
1.7000
 50
131.2509
 51
153.8210
  0
ARC
  8
0_00
  6
CONTINUOUS
 62
2
 10
1065.9841
 20
311.5623
 40
3.2500
 50
163.3985
 51
212.3582
  0
ARC
  8
0_00
  6
CONTINUOUS
 62
2
 10
1064.3069
 20
312.0623
 40
1.5000
 50
90.0000
 51
163.3985
  0
ARC
  8
0_00
  6
CONTINUOUS
 62
2
 10
1065.9841
 20
311.5623
 40
3.2500
 50
327.6418
 51
376.6016
  0
ARC
  8
0_00
  6
CONTINUOUS
 62
2
 10
1067.6612
 20
312.0623
 40
1.5000
 50
16.6015
 51
90.0000
  0
ARC
  8
0_00
  6
CONTINUOUS
 62
2
 10
1064.5914
 20
313.1503
 40
0.4121
 50
311.2509
 51
450.0000
  0
ARC
  8
0_00
  6
CONTINUOUS
 62
2
 10
1067.3767
 20
313.1503
 40
0.4121
 50
90.0000
 51
228.7491
  0
ARC
  8
0_00
  6
CONTINUOUS
 62
2
 10
1061.6553
 20
322.4623
 40
0.3000
 50
90.0000
 51
150.9441
  0
ARC
  8
0_00
  6
CONTINUOUS
 62
2
 10
1062.9854
 20
322.4623
 40
0.3000
 50
327.6418
 51
450.0000
  0
ARC
  8
0_00
  6
CONTINUOUS
 62
2
 10
1068.9828
 20
322.4623
 40
0.3000
 50
90.0000
 51
212.3582
  0
ARC
  8
0_00
  6
CONTINUOUS
 62
2
 10
1065.9841
 20
320.5623
 40
1.7000
 50
116.1790
 51
153.8210
  0
ARC
  8
0_00
  6
CONTINUOUS
 62
2
 10
1065.9841
 20
320.5623
 40
1.7000
 50
26.1790
 51
63.8210
  0
ARC
  8
0_00
  6
CONTINUOUS
 62
2
 10
1065.9841
 20
320.5623
 40
1.7000
 50
311.2509
 51
334.1653
  0
ARC
  8
0_00
  6
CONTINUOUS
 62
2
 10
1065.9841
 20
320.5623
 40
1.7000
 50
206.1790
 51
228.7491
  0
ARC
  8
0_00
  6
CONTINUOUS
 62
2
 10
1065.9841
 20
320.5623
 40
3.2500
 50
147.6418
 51
196.6015
  0
ARC
  8
0_00
  6
CONTINUOUS
 62
2
 10
1064.3069
 20
320.0623
 40
1.5000
 50
196.6015
 51
270.0000
  0
ARC
  8
0_00
  6
CONTINUOUS
 62
2
 10
1065.9841
 20
320.5623
 40
3.2500
 50
343.3984
 51
392.3582
  0
ARC
  8
0_00
  6
CONTINUOUS
 62
2
 10
1067.6612
 20
320.0623
 40
1.5000
 50
270.0000
 51
343.3984
  0
ARC
  8
0_00
  6
CONTINUOUS
 62
2
 10
1064.5914
 20
318.9744
 40
0.4121
 50
270.0000
 51
408.7491
  0
ARC
  8
0_00
  6
CONTINUOUS
 62
2
 10
1067.3767
 20
318.9744
 40
0.4121
 50
131.2509
 51
270.0000
  0
ARC
  8
0_00
  6
CONTINUOUS
 62
2
 10
1070.4841
 20
314.5675
 40
10.4000
 50
180.0000
 51
209.0559
  0
ARC
  8
0_00
  6
CONTINUOUS
 62
2
 10
1070.4841
 20
317.5571
 40
10.4000
 50
150.9441
 51
180.0000
  0
ARC
  8
0_00
  6
CONTINUOUS
 62
2
 10
1070.3130
 20
309.6623
 40
0.3000
 50
270.0000
 51
330.9441
  0
ARC
  8
0_00
  6
CONTINUOUS
 62
2
 10
1070.3130
 20
322.4623
 40
0.3000
 50
29.0559
 51
90.0000
  0
ARC
  8
0_00
  6
CONTINUOUS
 62
2
 10
1061.4841
 20
314.5675
 40
10.4000
 50
330.9441
 51
360.0000
  0
ARC
  8
0_00
  6
CONTINUOUS
 62
2
 10
1061.4841
 20
317.5571
 40
10.4000
 50
0.0000
 51
29.0559
  0
ARC
  8
12_0C
  6
CONTINUOUS
 62
2
 10
320.2847
 20
645.4312
 40
5.1605
 50
39.1845
 51
140.8154
  0
ARC
  8
0_00
  6
CONTINUOUS
 62
3
 10
1089.6760
 20
72.2363
 40
0.5362
 50
270.0000
 51
450.0000
  0
ARC
  8
0_00
  6
CONTINUOUS
 62
3
 10
1088.1842
 20
77.0626
 40
0.6532
 50
0.0000
 51
180.0000
  0
ARC
  8
0_00
  6
CONTINUOUS
 62
3
 10
1089.1886
 20
83.4001
 40
1.9500
 50
333.9999
 51
450.0000
  0
CIRCLE
  8
0_00
  6
CONTINUOUS
 62
3
 10
1090.0660
 20
87.3000
 40
1.5600
  0
ARC
  8
0_00
  6
CONTINUOUS
 62
3
 10
1088.2811
 20
77.0626
 40
0.4500
 50
0.0000
 51
180.0000
  0
ARC
  8
0_00
  6
CONTINUOUS
 62
3
 10
1088.2811
 20
77.0626
 40
0.1500
 50
0.0000
 51
180.0000
  0
ARC
  8
0_00
  6
CONTINUOUS
 62
3
 10
1089.6760
 20
72.1725
 40
0.3000
 50
270.0000
 51
450.0000
  0
CIRCLE
  8
0_00
  6
CONTINUOUS
 62
3
 10
1090.0660
 20
87.3000
 40
1.3244
  0
CIRCLE
  8
0_00
  6
CONTINUOUS
 62
3
 10
1090.0660
 20
87.3000
 40
1.0256
  0
CIRCLE
  8
0_00
  6
CONTINUOUS
 62
3
 10
1090.0660
 20
87.3000
 40
0.7027
  0
CIRCLE
  8
0_00
  6
CONTINUOUS
 62
3
 10
1090.0660
 20
87.3000
 40
0.3440
  0
CIRCLE
  8
0_00
  6
CONTINUOUS
 62
3
 10
1090.0660
 20
87.3000
 40
0.1699
  0
CIRCLE
  8
0_00
  6
CONTINUOUS
 62
4
 10
881.0410
 20
82.2001
 40
3.7500
  0
CIRCLE
  8
0_00
  6
CONTINUOUS
 62
4
 10
881.0410
 20
82.2001
 40
6.0000
  0
TEXT
  8
15_0F
 62
7
 10
199.3828
 20
297.5000
 40
6.75
 41
0.75
 50
0.0000
  1
10
  0
TEXT
  8
15_0F
 62
7
 10
236.1828
 20
284.0000
 40
6.75
 41
0.75
 50
0.0000
  1
n
  0
TEXT
  8
15_0F
 62
7
 10
251.8828
 20
297.5000
 40
7.50
 41
1.00
 50
0.0000
  1
躯体寸法（推奨寸法Ａ－３０）
  0
TEXT
  8
15_0F
 62
7
 10
360.3921
 20
285.5000
 40
6.75
 41
0.75
 50
0.0000
  1
n
  0
TEXT
  8
15_0F
 62
7
 10
390.7828
 20
297.5000
 40
6.75
 41
0.75
 50
0.0000
  1
10
  0
TEXT
  8
15_0F
 62
7
 10
259.0829
 20
285.5000
 40
7.50
 41
1.00
 50
0.0000
  1
（最大躯体寸法Ａ－２０）
  0
TEXT
  8
0_00
 62
7
 10
348.5722
 20
680.4703
 40
7.50
 41
1.00
 50
0.0000
  1
Ｍ型笠木カバー
  0
TEXT
  8
0_00
 62
7
 10
392.0679
 20
487.4485
 40
7.50
 41
1.00
 50
0.0000
  1
ブラケット
  0
TEXT
  8
0_00
 62
7
 10
348.5722
 20
627.5008
 40
7.50
 41
1.00
 50
0.0000
  1
Ｍ型トップレール支持金具
  0
TEXT
  8
0_00
 62
7
 10
130.9682
 20
351.3921
 40
7.50
 41
1.00
 50
0.0000
  1
下穴（φ５．５）現場加工
  0
TEXT
  8
0_00
 62
7
 10
141.5682
 20
339.3921
 40
7.50
 41
1.00
 50
0.0000
  1
下穴コーキング処理
  0
TEXT
  8
0_00
 62
7
 10
148.5000
 20
380.4890
 40
7.50
 41
1.00
 50
0.0000
  1
タッピンねじ・トラス
  0
TEXT
  8
0_00
 62
7
 10
165.5000
 20
368.4889
 40
7.50
 41
1.00
 50
0.0000
  1
φ６×３５
  0
TEXT
  8
0_00
 62
7
 10
561.6692
 20
352.1610
 40
7.50
 41
1.00
 50
0.0000
  1
トップレールベース
  0
TEXT
  8
0_00
 62
7
 10
594.9692
 20
404.3971
 40
7.50
 41
1.00
 50
0.0000
  1
ブラケット
  0
TEXT
  8
15_0F
 62
7
 10
824.1611
 20
70.2000
 40
7.50
 41
1.00
 50
0.0000
  1
１
  0
TEXT
  8
15_0F
 62
7
 10
852.6611
 20
70.2000
 40
7.50
 41
1.00
 50
0.0000
  1
３
  0
TEXT
  8
15_0F
 62
7
 10
704.3110
 20
74.7000
 40
7.50
 41
1.00
 50
0.0000
  1
納まり図
  0
TEXT
  8
15_0F
 62
7
 10
493.7110
 20
41.7000
 40
7.50
 41
1.00
 50
0.0000
  1
鉄骨造ＡＬＣ壁
  0
TEXT
  8
15_0F
 62
7
 10
497.3110
 20
71.7000
 40
7.50
 41
1.00
 50
0.0000
  1
低・中・高層
  0
TEXT
  8
15_0F
 62
7
 10
576.0610
 20
71.7000
 40
7.50
 41
1.00
 50
0.0000
  1
手すり付笠木
  0
TEXT
  8
15_0F
 62
7
 10
578.2610
 20
41.7000
 40
7.50
 41
1.00
 50
0.0000
  1
ＭＯＡ型
  0
TEXT
  8
15_0F
 62
7
 10
639.5110
 20
44.7000
 40
7.50
 41
1.00
 50
0.0000
  1
トップレール手すり［直線部］（Ｍ柱）納まり図
  0
TEXT
  8
15_0F
 62
7
 10
201.0905
 20
100.2001
 40
7.50
 41
1.00
 50
0.0000
  1
1）Ｈ、Ｌ、ＬＣは発注寸法とする。
  0
TEXT
  8
15_0F
 62
7
 10
740.1192
 20
738.6960
 40
7.50
 41
1.00
 50
0.0000
  1
Ａ
  0
TEXT
  8
15_0F
 62
7
 10
939.7490
 20
659.4739
 40
7.50
 41
1.00
 50
0.0000
  1
Ｂ
  0
TEXT
  8
15_0F
 62
7
 10
740.1192
 20
674.2000
 40
7.50
 41
1.00
 50
0.0000
  1
Ａ
  0
TEXT
  8
15_0F
 62
7
 10
710.4171
 20
659.4739
 40
7.50
 41
1.00
 50
0.0000
  1
Ｂ
  0
TEXT
  8
15_0F
 62
7
 10
1165.0000
 20
711.2483
 40
6.75
 41
0.75
 50
90.0000
  1
H
  0
TEXT
  8
0_00
 62
2
 10
368.4813
 20
737.6346
 40
12.00
 41
1.00
 50
0.0000
  1
建物側
  0
TEXT
  8
0_00
 62
2
 10
207.2813
 20
737.6346
 40
12.00
 41
1.00
 50
0.0000
  1
屋外側
  0
TEXT
  8
15_0F
 62
7
 10
196.4339
 20
494.2632
 40
7.50
 41
1.00
 50
0.0000
  1
トップレールベース
  0
TEXT
  8
15_0F
 62
7
 10
157.4383
 20
569.6283
 40
7.50
 41
1.00
 50
0.0000
  1
トップレール手すり付笠木セット
  0
TEXT
  8
15_0F
 62
7
 10
210.3827
 20
258.9252
 40
7.50
 41
1.00
 50
0.0000
  1
Ａ（笠木幅）＝１３５、１５０、１６５　
  0
TEXT
  8
15_0F
 62
7
 10
217.9828
 20
243.9252
 40
7.50
 41
1.00
 50
0.0000
  1
　　　　１８０、１９５、２１０、２４０、２７０
  0
TEXT
  8
15_0F
 62
7
 10
200.5036
 20
68.8701
 40
7.50
 41
1.00
 50
0.0000
  1
２）［　］内寸法は標準寸法とする。
  0
TEXT
  8
15_0F
 62
7
 10
200.5372
 20
84.4527
 40
7.50
 41
1.00
 50
0.0000
  1
　　（躯体寸法発注の場合、Ｌは標準割付寸法、ＬＣは標準寸法とする。）
  0
TEXT
  8
15_0F
 62
7
 10
138.5000
 20
475.5068
 40
7.50
 41
1.00
 50
90.0000
  1
Ｈ（トップレール手すり高さ寸法）＝１５０、２００、２５０
  0
TEXT
  8
15_0F
 62
7
 10
138.5000
 20
428.4067
 40
6.75
 41
0.75
 50
90.0000
  1
20
  0
TEXT
  8
15_0F
 62
7
 10
158.5000
 20
439.1067
 40
6.75
 41
0.75
 50
90.0000
  1
65
  0
TEXT
  8
15_0F
 62
7
 10
438.5000
 20
436.6068
 40
6.75
 41
0.75
 50
90.0000
  1
60
  0
TEXT
  8
15_0F
 62
7
 10
291.4821
 20
721.5000
 40
6.75
 41
0.75
 50
0.0000
  1
φ58
  0
TEXT
  8
15_0F
 62
7
 10
274.3827
 20
321.5000
 40
6.75
 41
0.75
 50
0.0000
  1
28
  0
TEXT
  8
15_0F
 62
7
 10
522.1036
 20
781.5000
 40
7.50
 41
1.00
 50
0.0000
  1
１１０≦ＬＣ［２５０］≦４５５
  0
TEXT
  8
15_0F
 62
7
 10
668.7537
 20
781.5000
 40
7.50
 41
1.00
 50
0.0000
  1
Ｌ
  0
TEXT
  8
15_0F
 62
7
 10
791.3536
 20
781.5000
 40
7.50
 41
1.00
 50
0.0000
  1
２２５≦Ｌ≦１３６５
  0
TEXT
  8
15_0F
 62
7
 10
978.7537
 20
781.5000
 40
7.50
 41
1.00
 50
0.0000
  1
Ｌ
  0
TEXT
  8
15_0F
 62
7
 10
1071.4199
 20
781.5000
 40
7.50
 41
1.00
 50
0.0000
  1
ＬＣ
  0
TEXT
  8
15_0F
 62
7
 10
673.4003
 20
461.5000
 40
6.75
 41
0.75
 50
0.0000
  1
60
  0
TEXT
  8
15_0F
 62
7
 10
671.6789
 20
441.5000
 40
7.50
 41
1.00
 50
0.0000
  1
４１
  0
TEXT
  8
15_0F
 62
7
 10
808.4441
 20
481.5000
 40
7.50
 41
1.00
 50
0.0000
  1
２２５≦Ｌ（柱スパン寸法）≦１３６５
  0
TEXT
  8
15_0F
 62
7
 10
518.5000
 20
329.5623
 40
6.75
 41
0.75
 50
90.0000
  1
28
  0
TEXT
  8
15_0F
 62
7
 10
1055.1841
 20
461.5000
 40
6.75
 41
0.75
 50
0.0000
  1
φ36
  0
TEXT
  8
15_0F
 62
7
 10
1029.2850
 20
527.9653
 40
7.50
 41
1.00
 50
0.0000
  1
外観姿図（１：２０）
  0
TEXT
  8
15_0F
 62
7
 10
533.0993
 20
193.7600
 40
7.50
 41
1.00
 50
0.0000
  1
Ｂ－Ｂ矢視図
  0
TEXT
  8
15_0F
 62
7
 10
117.5874
 20
225.3437
 40
7.50
 41
1.00
 50
0.0000
  1
Ａ－Ａ矢視図
  0
TEXT
  8
0_00
 62
7
 10
70.2905
 20
40.2001
 40
7.50
 41
1.00
 50
0.0000
  1
適用製品
  0
TEXT
  8
0_00
 62
7
 10
130.2905
 20
40.2001
 40
7.50
 41
1.00
 50
0.0000
  1
適用日付
  0
TEXT
  8
0_00
 62
7
 10
178.5905
 20
100.2001
 40
7.50
 41
1.00
 50
0.0000
  1
記事
  0
TEXT
  8
0_00
 62
7
 10
472.5611
 20
85.2001
 40
7.50
 41
1.00
 50
0.0000
  1
階層仕様
  0
TEXT
  8
0_00
 62
7
 10
472.5611
 20
55.2000
 40
7.50
 41
1.00
 50
0.0000
  1
適用躯体
  0
TEXT
  8
0_00
 62
7
 10
630.0610
 20
85.2001
 40
7.50
 41
1.00
 50
0.0000
  1
名　称
  0
TEXT
  8
0_00
 62
7
 10
630.0610
 20
55.2000
 40
7.50
 41
1.00
 50
0.0000
  1
図　名
  0
TEXT
  8
0_00
 62
7
 10
814.9368
 20
100.2458
 40
7.50
 41
1.00
 50
0.0000
  1
Ｎｏ．
  0
TEXT
  8
0_00
 62
7
 10
1123.5610
 20
100.2001
 40
7.50
 41
1.00
 50
0.0000
  1
適　　　　　　　　用
  0
TEXT
  8
0_00
 62
7
 10
1078.4111
 20
100.2001
 40
7.50
 41
1.00
 50
0.0000
  1
個数
  0
TEXT
  8
0_00
 62
7
 10
1023.2110
 20
100.2001
 40
7.50
 41
1.00
 50
0.0000
  1
材　　質
  0
TEXT
  8
0_00
 62
7
 10
926.1610
 20
100.2001
 40
7.50
 41
1.00
 50
0.0000
  1
部　　　品　　　名
  0
TEXT
  8
0_00
 62
7
 10
895.9360
 20
100.2001
 40
7.50
 41
1.00
 50
0.0000
  1
品番
  0
TEXT
  8
0_00
 62
7
 10
850.8611
 20
100.2001
 40
7.50
 41
1.00
 50
0.0000
  1
図　　番
  0
TEXT
  8
0_00
 62
7
 10
816.6610
 20
85.2001
 40
7.50
 41
1.00
 50
0.0000
  1
尺度
  0
TEXT
  8
0_00
 62
7
 10
816.6610
 20
55.2000
 40
7.50
 41
1.00
 50
0.0000
  1
日付
  0
TEXT
  8
0_00
 62
7
 10
928.3942
 20
85.2001
 40
7.50
 41
1.00
 50
0.0000
  1
承認
  0
TEXT
  8
0_00
 62
7
 10
970.5611
 20
85.2001
 40
7.50
 41
1.00
 50
0.0000
  1
検図
  0
TEXT
  8
0_00
 62
7
 10
1006.8610
 20
85.2001
 40
7.50
 41
1.00
 50
0.0000
  1
設計
  0
TEXT
  8
0_00
 62
7
 10
1044.2110
 20
85.2001
 40
7.50
 41
1.00
 50
0.0000
  1
製図
  0
TEXT
  8
0_00
 62
7
 10
1074.5110
 20
55.2000
 40
7.50
 41
1.00
 50
0.0000
  1
図番
  0
TEXT
  8
0_00
 62
2
 10
1103.9219
 20
74.2350
 40
12.00
 41
1.00
 50
0.0000
  1
文化シヤッター株式会社
  0
TEXT
  8
0_00
 62
7
 10
200.7905
 20
862.9501
 40
7.50
 41
1.00
 50
180.0000
  1
図番
  0
TEXT
  8
0_00
 62
7
 10
799.0510
 20
854.0169
 40
6.00
 41
1.00
 50
0.0000
  1
ＮＯ
  0
TEXT
  8
0_00
 62
7
 10
825.2111
 20
853.9501
 40
7.50
 41
1.00
 50
0.0000
  1
個　数
  0
TEXT
  8
0_00
 62
7
 10
870.3611
 20
853.9501
 40
7.50
 41
1.00
 50
0.0000
  1
日　　付
  0
TEXT
  8
0_00
 62
7
 10
984.2111
 20
853.9501
 40
7.50
 41
1.00
 50
0.0000
  1
訂　　　正　　　記　　　事
  0
TEXT
  8
0_00
 62
7
 10
838.4111
 20
70.2000
 40
6.75
 41
0.75
 50
0.0000
  1
:
  0
TEXT
  8
0_00
 62
7
 10
1137.8712
 20
26.7000
 40
6.00
 41
1.00
 50
0.0000
  1
ＪＩＳ　Ａ－３
  0
TEXT
  8
0_00
 62
7
 10
1179.4986
 20
26.6983
 40
6.00
 41
1.00
 50
0.0000
  1
（２９７×４２０）
  0
TEXT
  8
0_00
 62
7
 10
1153.1111
 20
853.9501
 40
7.50
 41
1.00
 50
0.0000
  1
担　当
  0
TEXT
  8
0_00
 62
7
 10
1189.1111
 20
853.9501
 40
7.50
 41
1.00
 50
0.0000
  1
承　認
  0
TEXT
  8
0_00
 62
7
 10
551.3111
 20
85.2001
 40
7.50
 41
1.00
 50
0.0000
  1
機種名
  0
TEXT
  8
0_00
 62
7
 10
551.3111
 20
55.2000
 40
7.50
 41
1.00
 50
0.0000
  1
型　式
  0
POINT
  8
0_00
 62
5
 10
988.4705
 20
44.7010
  0
POINT
  8
0_00
 62
5
 10
988.4705
 20
44.7010
  0
POINT
  8
0_00
 62
2
 10
320.2813
 20
648.2917
  0
POINT
  8
0_00
 62
2
 10
316.2828
 20
470.8368
  0
POINT
  8
0_00
 62
2
 10
288.2828
 20
471.8146
  0
POINT
  8
0_00
 62
2
 10
302.2813
 20
641.9067
  0
POINT
  8
0_00
 62
2
 10
297.7813
 20
654.1918
  0
POINT
  8
0_00
 62
2
 10
306.7813
 20
654.1918
  0
POINT
  8
0_00
 62
2
 10
288.2828
 20
471.4797
  0
POINT
  8
0_00
 62
2
 10
316.2828
 20
470.5020
  0
POINT
  8
0_00
 62
2
 10
227.2828
 20
478.8068
  0
POINT
  8
0_00
 62
2
 10
377.2828
 20
473.8068
  0
POINT
  8
15_0F
 62
6
 10
237.2829
 20
296.0000
  0
POINT
  8
15_0F
 62
6
 10
367.2829
 20
296.0000
  0
POINT
  8
0_00
 62
2
 10
330.2828
 20
465.3068
  0
POINT
  8
0_00
 62
2
 10
302.2829
 20
465.3068
  0
POINT
  8
0_00
 62
2
 10
680.5040
 20
316.0623
  0
POINT
  8
0_00
 62
5
 10
658.5039
 20
316.0623
  0
POINT
  8
0_00
 62
2
 10
658.5039
 20
316.0623
  0
POINT
  8
0_00
 62
2
 10
699.2540
 20
288.0623
  0
POINT
  8
0_00
 62
2
 10
302.2813
 20
647.3917
  0
POINT
  8
0_00
 62
2
 10
302.2813
 20
647.3917
  0
POINT
  8
0_00
 62
2
 10
302.2813
 20
647.3917
  0
POINT
  8
0_00
 62
2
 10
284.2813
 20
642.3918
  0
POINT
  8
0_00
 62
2
 10
320.2813
 20
642.3918
  0
POINT
  8
0_00
 62
2
 10
284.2813
 20
642.3918
  0
POINT
  8
0_00
 62
2
 10
302.2813
 20
647.3917
  0
POINT
  8
0_00
 62
2
 10
1065.9841
 20
316.0623
  0
POINT
  8
0_00
 62
2
 10
1065.9841
 20
316.0623
  0
POINT
  8
0_00
 62
2
 10
24.0905
 20
14.9991
  0
POINT
  8
0_00
 62
2
 10
24.0905
 20
14.9991
  0
POINT
  8
0_00
 62
2
 10
84.6905
 20
59.7001
  0
POINT
  8
0_00
 62
2
 10
84.6905
 20
74.7001
  0
POINT
  8
0_00
 62
2
 10
84.6905
 20
89.7001
  0
POINT
  8
0_00
 62
2
 10
84.6905
 20
104.7001
  0
POINT
  8
0_00
 62
2
 10
518.9110
 20
76.2000
  0
POINT
  8
0_00
 62
2
 10
518.9110
 20
46.2000
  0
POINT
  8
0_00
 62
2
 10
718.7110
 20
79.2000
  0
POINT
  8
0_00
 62
2
 10
718.7110
 20
49.2000
  0
POINT
  8
0_00
 62
2
 10
1097.7610
 20
52.2000
  0
POINT
  8
0_00
 62
2
 10
1014.0610
 20
59.7001
  0
POINT
  8
0_00
 62
2
 10
144.6905
 20
59.7001
  0
POINT
  8
0_00
 62
2
 10
144.6905
 20
74.7001
  0
POINT
  8
0_00
 62
2
 10
144.6905
 20
89.7001
  0
POINT
  8
0_00
 62
2
 10
144.6905
 20
104.7001
  0
POINT
  8
0_00
 62
2
 10
856.2610
 20
74.7000
  0
POINT
  8
0_00
 62
2
 10
827.7610
 20
74.7000
  0
POINT
  8
0_00
 62
2
 10
204.6905
 20
104.7001
  0
POINT
  8
0_00
 62
2
 10
204.6905
 20
89.7001
  0
POINT
  8
0_00
 62
2
 10
204.6905
 20
74.7001
  0
POINT
  8
0_00
 62
2
 10
204.6905
 20
59.7001
  0
POINT
  8
0_00
 62
2
 10
204.6905
 20
44.7001
  0
POINT
  8
0_00
 62
2
 10
1051.4110
 20
59.7001
  0
POINT
  8
0_00
 62
2
 10
84.6905
 20
44.7001
  0
POINT
  8
0_00
 62
2
 10
144.6905
 20
44.7001
  0
POINT
  8
0_00
 62
2
 10
174.6905
 20
858.4501
  0
POINT
  8
0_00
 62
2
 10
862.6360
 20
49.2000
  0
POINT
  8
0_00
 62
2
 10
597.6610
 20
76.2000
  0
POINT
  8
0_00
 62
2
 10
597.6610
 20
46.2000
  0
ENDSEC
  0
EOF
