999
  
  0
SECTION
  2
HEADER
  9
$EXTMIN
 10
0
 20
0
  9
$EXTMAX
 10
1260
 20
888
  9
$LTSCALE
 40
3.00
  9
$PDMODE
 70
33
  9
$PDSIZE
 40
1.80
  0
ENDSEC
  0
SECTION
  2
TABLES
  0
TABLE
  2
LTYPE
 70
9
  0
LTYPE
  2
CONTINUOUS
 70
64
  3
実線
 72
65
 73
0
 40
0.00
  0
LTYPE
  2
DASHED
 70
64
  3
__  __  __  __  __  __  __ 
 72
65
 73
2
 40
1.00
 49
0.50
 49
-0.50
  0
LTYPE
  2
HIDDEN1
 70
64
  3
____    ____    ____    ___
 72
65
 73
2
 40
2.20
 49
1.20
 49
-1.00
  0
LTYPE
  2
HIDDEN2
 70
64
  3
______  ______  ______  ___
 72
65
 73
2
 40
4.50
 49
3.50
 49
-1.00
  0
LTYPE
  2
CENTER1
 70
64
  3
_______ _ _______ _ _______
 72
65
 73
4
 40
20.00
 49
17.00
 49
-1.00
 49
1.00
 49
-1.00
  0
LTYPE
  2
CENTER2
 70
64
  3
___________  __  __________
 72
65
 73
4
 40
40.00
 49
34.00
 49
-2.00
 49
2.00
 49
-2.00
  0
LTYPE
  2
PHANTOM1
 70
64
  3
______ _ _ ______ _ _ _____
 72
65
 73
6
 40
20.00
 49
15.00
 49
-1.00
 49
1.00
 49
-1.00
 49
1.00
 49
-1.00
  0
LTYPE
  2
PHANTOM2
 70
64
  3
__________  _  _  _________
 72
65
 73
6
 40
40.00
 49
30.00
 49
-2.00
 49
2.00
 49
-2.00
 49
2.00
 49
-2.00
  0
LTYPE
  2
DOT
 70
64
  3
 .  .  .  .  .  .  .  .  . 
 72
65
 73
2
 40
1.00
 49
0.00
 49
-1.00
  0
ENDTAB
  0
TABLE
  2
STYLE
 70
1
  0
STYLE
  2
STANDARD
 70
64
 40
0.0
 41
1.0
 42
0.0
 50
0.0
 71
0
  3
ROMANS
  4
BIGFONT
  0
ENDTAB
  0
TABLE
  2
LAYER
 70
8
  0
LAYER
  2
0_00
 70
64
 62
7
  6
CONTINUOUS
  0
LAYER
  2
3_03
 70
64
 62
7
  6
CONTINUOUS
  0
LAYER
  2
6_06
 70
64
 62
7
  6
CONTINUOUS
  0
LAYER
  2
11_0B
 70
64
 62
7
  6
CONTINUOUS
  0
LAYER
  2
12_0C
 70
64
 62
7
  6
CONTINUOUS
  0
LAYER
  2
13_0D
 70
64
 62
7
  6
CONTINUOUS
  0
LAYER
  2
14_0E
 70
64
 62
7
  6
CONTINUOUS
  0
LAYER
  2
15_0F
 70
64
 62
7
  6
CONTINUOUS
  0
ENDTAB
  0
ENDSEC
  0
SECTION
  2
ENTITIES
  0
LINE
  8
0_00
  6
CENTER1
 62
6
 10
297.2841
 20
574.2515
 11
297.2841
 21
509.1828
  0
LINE
  8
0_00
  6
CENTER1
 62
6
 10
241.2841
 20
574.2515
 11
241.2841
 21
509.1828
  0
LINE
  8
0_00
  6
CENTER1
 62
6
 10
269.2841
 20
612.2599
 11
269.2841
 21
472.2734
  0
LINE
  8
0_00
  6
CONTINUOUS
 62
4
 10
245.7841
 20
580.9008
 11
292.7841
 21
580.9008
  0
LINE
  8
0_00
  6
CENTER1
 62
6
 10
217.2841
 20
702.0324
 11
217.2841
 21
679.7528
  0
LINE
  8
0_00
  6
CENTER1
 62
6
 10
181.2841
 20
701.7539
 11
181.2841
 21
680.1242
  0
LINE
  8
0_00
  6
CENTER1
 62
6
 10
199.2841
 20
763.8085
 11
199.2841
 21
659.3047
  0
LINE
  8
0_00
  6
CENTER1
 62
6
 10
255.7841
 20
565.0779
 11
255.7841
 21
595.6607
  0
LINE
  8
0_00
  6
CENTER1
 62
6
 10
282.7841
 20
565.0779
 11
282.7841
 21
595.6607
  0
LINE
  8
0_00
  6
CENTER1
 62
6
 10
515.8980
 20
289.5646
 11
1078.7722
 21
289.5646
  0
LINE
  8
0_00
  6
CENTER1
 62
6
 10
630.1303
 20
367.4682
 11
630.1303
 21
206.4830
  0
LINE
  8
0_00
  6
CONTINUOUS
 62
2
 10
835.0349
 20
391.1254
 11
809.0176
 21
294.0275
  0
LINE
  8
0_00
  6
CONTINUOUS
 62
2
 10
830.6883
 20
392.2901
 11
803.5063
 21
290.8455
  0
LINE
  8
0_00
  6
CONTINUOUS
 62
2
 10
827.3944
 20
284.4447
 11
801.5702
 21
188.0674
  0
LINE
  8
0_00
  6
CONTINUOUS
 62
2
 10
805.9168
 20
186.9026
 11
832.9058
 21
287.6267
  0
LINE
  8
0_00
  6
CONTINUOUS
 62
2
 10
809.0176
 20
294.0275
 11
832.9058
 21
287.6267
  0
LINE
  8
0_00
  6
CONTINUOUS
 62
2
 10
827.3944
 20
284.4447
 11
803.5063
 21
290.8455
  0
LINE
  8
0_00
  6
CENTER1
 62
6
 10
1015.6104
 20
325.2839
 11
1015.6104
 21
253.2625
  0
LINE
  8
0_00
  6
CONTINUOUS
 62
4
 10
660.1302
 20
200.8646
 11
660.1302
 21
378.2647
  0
LINE
  8
0_00
  6
CONTINUOUS
 62
4
 10
600.1302
 20
200.8646
 11
600.1302
 21
378.2647
  0
LINE
  8
0_00
  6
CONTINUOUS
 62
4
 10
685.1303
 20
341.5646
 11
685.1303
 21
237.5646
  0
LINE
  8
0_00
  6
CONTINUOUS
 62
4
 10
685.1303
 20
341.5646
 11
575.1302
 21
341.5646
  0
LINE
  8
0_00
  6
CONTINUOUS
 62
4
 10
685.1303
 20
237.5646
 11
575.1302
 21
237.5646
  0
LINE
  8
0_00
  6
CONTINUOUS
 62
4
 10
665.1302
 20
237.5646
 11
665.1302
 21
341.5646
  0
LINE
  8
0_00
  6
CONTINUOUS
 62
4
 10
595.1303
 20
237.5646
 11
595.1303
 21
341.5646
  0
LINE
  8
0_00
  6
CONTINUOUS
 62
4
 10
616.7212
 20
237.5646
 11
616.7212
 21
341.5646
  0
LINE
  8
0_00
  6
CONTINUOUS
 62
4
 10
643.5392
 20
237.5646
 11
643.5392
 21
341.5646
  0
LINE
  8
0_00
  6
CONTINUOUS
 62
4
 10
641.1190
 20
237.5646
 11
641.1190
 21
341.5646
  0
LINE
  8
0_00
  6
CONTINUOUS
 62
4
 10
619.1415
 20
237.5646
 11
619.1415
 21
341.5646
  0
LINE
  8
0_00
  6
CONTINUOUS
 62
4
 10
575.1302
 20
237.5646
 11
575.1302
 21
341.5646
  0
LINE
  8
0_00
  6
CENTER1
 62
6
 10
622.1303
 20
317.5646
 11
596.9693
 21
317.5646
  0
LINE
  8
0_00
  6
CENTER1
 62
6
 10
662.9656
 20
261.5646
 11
638.1302
 21
261.5646
  0
LINE
  8
0_00
  6
CENTER1
 62
6
 10
609.6302
 20
302.5481
 11
609.6302
 21
329.0184
  0
LINE
  8
0_00
  6
CENTER1
 62
6
 10
650.6302
 20
273.5750
 11
650.6302
 21
247.2803
  0
LINE
  8
0_00
  6
CONTINUOUS
 62
7
 10
680.1302
 20
289.5646
 11
685.1303
 21
289.5646
  0
LINE
  8
0_00
  6
CONTINUOUS
 62
7
 10
575.1302
 20
289.5646
 11
580.1344
 21
289.5646
  0
LINE
  8
0_00
  6
CONTINUOUS
 62
4
 10
608.0158
 20
320.2090
 11
609.1153
 21
319.1478
  0
LINE
  8
0_00
  6
CONTINUOUS
 62
4
 10
609.1153
 20
319.1478
 11
609.6302
 21
318.9599
  0
LINE
  8
0_00
  6
CONTINUOUS
 62
4
 10
609.6302
 20
318.9599
 11
610.1174
 21
319.1373
  0
LINE
  8
0_00
  6
CONTINUOUS
 62
4
 10
610.1174
 20
319.1373
 11
611.2516
 21
320.2055
  0
LINE
  8
0_00
  6
CONTINUOUS
 62
4
 10
606.9859
 20
319.1791
 11
608.0471
 21
318.0796
  0
LINE
  8
0_00
  6
CONTINUOUS
 62
4
 10
608.0471
 20
318.0796
 11
608.2350
 21
317.5646
  0
LINE
  8
0_00
  6
CONTINUOUS
 62
4
 10
608.2350
 20
317.5646
 11
608.0576
 21
317.0775
  0
LINE
  8
0_00
  6
CONTINUOUS
 62
4
 10
608.0576
 20
317.0775
 11
606.9894
 21
315.9432
  0
LINE
  8
0_00
  6
CONTINUOUS
 62
4
 10
611.2134
 20
317.0497
 11
611.0255
 21
317.5646
  0
LINE
  8
0_00
  6
CONTINUOUS
 62
4
 10
611.0255
 20
317.5646
 11
611.2029
 21
318.0518
  0
LINE
  8
0_00
  6
CONTINUOUS
 62
4
 10
611.2029
 20
318.0518
 11
612.2711
 21
319.1860
  0
LINE
  8
0_00
  6
CONTINUOUS
 62
4
 10
611.2447
 20
314.9203
 11
610.1452
 21
315.9815
  0
LINE
  8
0_00
  6
CONTINUOUS
 62
4
 10
610.1452
 20
315.9815
 11
609.6302
 21
316.1694
  0
LINE
  8
0_00
  6
CONTINUOUS
 62
4
 10
609.6302
 20
316.1694
 11
609.1431
 21
315.9920
  0
LINE
  8
0_00
  6
CONTINUOUS
 62
4
 10
609.1431
 20
315.9920
 11
608.0089
 21
314.9238
  0
LINE
  8
0_00
  6
CONTINUOUS
 62
4
 10
649.0158
 20
264.2090
 11
650.1153
 21
263.1478
  0
LINE
  8
0_00
  6
CONTINUOUS
 62
4
 10
650.1153
 20
263.1478
 11
650.6302
 21
262.9599
  0
LINE
  8
0_00
  6
CONTINUOUS
 62
4
 10
650.6302
 20
262.9599
 11
651.1174
 21
263.1373
  0
LINE
  8
0_00
  6
CONTINUOUS
 62
4
 10
651.1174
 20
263.1373
 11
652.2516
 21
264.2055
  0
LINE
  8
0_00
  6
CONTINUOUS
 62
4
 10
647.9859
 20
263.1791
 11
649.0471
 21
262.0796
  0
LINE
  8
0_00
  6
CONTINUOUS
 62
4
 10
649.0471
 20
262.0796
 11
649.2350
 21
261.5646
  0
LINE
  8
0_00
  6
CONTINUOUS
 62
4
 10
649.2350
 20
261.5646
 11
649.0576
 21
261.0775
  0
LINE
  8
0_00
  6
CONTINUOUS
 62
4
 10
649.0576
 20
261.0775
 11
647.9894
 21
259.9432
  0
LINE
  8
0_00
  6
CONTINUOUS
 62
4
 10
653.2746
 20
259.9502
 11
652.2134
 21
261.0497
  0
LINE
  8
0_00
  6
CONTINUOUS
 62
4
 10
652.2134
 20
261.0497
 11
652.0255
 21
261.5646
  0
LINE
  8
0_00
  6
CONTINUOUS
 62
4
 10
652.0255
 20
261.5646
 11
652.2029
 21
262.0518
  0
LINE
  8
0_00
  6
CONTINUOUS
 62
4
 10
652.2029
 20
262.0518
 11
653.2711
 21
263.1861
  0
LINE
  8
0_00
  6
CONTINUOUS
 62
4
 10
652.2447
 20
258.9203
 11
651.1452
 21
259.9815
  0
LINE
  8
0_00
  6
CONTINUOUS
 62
4
 10
651.1452
 20
259.9815
 11
650.6302
 21
260.1694
  0
LINE
  8
0_00
  6
CONTINUOUS
 62
4
 10
650.6302
 20
260.1694
 11
650.1431
 21
259.9919
  0
LINE
  8
0_00
  6
CONTINUOUS
 62
4
 10
650.1431
 20
259.9919
 11
649.0089
 21
258.9238
  0
LINE
  8
0_00
  6
CENTER1
 62
6
 10
636.3165
 20
276.0646
 11
624.1785
 21
276.0646
  0
LINE
  8
0_00
  6
CENTER1
 62
6
 10
636.1406
 20
303.0646
 11
624.0027
 21
303.0646
  0
LINE
  8
0_00
  6
CENTER1
 62
6
 10
1003.9156
 20
303.0646
 11
1027.1733
 21
303.0646
  0
LINE
  8
0_00
  6
CENTER1
 62
6
 10
1003.9156
 20
276.0646
 11
1027.1733
 21
276.0646
  0
LINE
  8
0_00
  6
CONTINUOUS
 62
2
 10
1014.3344
 20
305.1545
 11
1015.2034
 21
304.3158
  0
LINE
  8
0_00
  6
CONTINUOUS
 62
2
 10
1015.2034
 20
304.3158
 11
1015.6104
 21
304.1673
  0
LINE
  8
0_00
  6
CONTINUOUS
 62
2
 10
1015.6104
 20
304.1673
 11
1015.9954
 21
304.3076
  0
LINE
  8
0_00
  6
CONTINUOUS
 62
2
 10
1015.9954
 20
304.3076
 11
1016.8918
 21
305.1518
  0
LINE
  8
0_00
  6
CONTINUOUS
 62
2
 10
1013.5205
 20
304.3406
 11
1014.3592
 21
303.4716
  0
LINE
  8
0_00
  6
CONTINUOUS
 62
2
 10
1014.3592
 20
303.4716
 11
1014.5077
 21
303.0646
  0
LINE
  8
0_00
  6
CONTINUOUS
 62
2
 10
1014.5077
 20
303.0646
 11
1014.3674
 21
302.6797
  0
LINE
  8
0_00
  6
CONTINUOUS
 62
2
 10
1014.3674
 20
302.6797
 11
1013.5232
 21
301.7832
  0
LINE
  8
0_00
  6
CONTINUOUS
 62
2
 10
1017.7002
 20
301.7887
 11
1016.8616
 21
302.6577
  0
LINE
  8
0_00
  6
CONTINUOUS
 62
2
 10
1016.8616
 20
302.6577
 11
1016.7130
 21
303.0646
  0
LINE
  8
0_00
  6
CONTINUOUS
 62
2
 10
1016.7130
 20
303.0646
 11
1016.8532
 21
303.4496
  0
LINE
  8
0_00
  6
CONTINUOUS
 62
2
 10
1016.8532
 20
303.4496
 11
1017.6974
 21
304.3461
  0
LINE
  8
0_00
  6
CONTINUOUS
 62
2
 10
1016.8863
 20
300.9747
 11
1016.0174
 21
301.8135
  0
LINE
  8
0_00
  6
CONTINUOUS
 62
2
 10
1016.0174
 20
301.8135
 11
1015.6104
 21
301.9619
  0
LINE
  8
0_00
  6
CONTINUOUS
 62
2
 10
1015.6104
 20
301.9619
 11
1015.2253
 21
301.8217
  0
LINE
  8
0_00
  6
CONTINUOUS
 62
2
 10
1015.2253
 20
301.8217
 11
1014.3289
 21
300.9775
  0
LINE
  8
0_00
  6
CONTINUOUS
 62
2
 10
1014.3344
 20
278.1545
 11
1015.2034
 21
277.3158
  0
LINE
  8
0_00
  6
CONTINUOUS
 62
2
 10
1015.2034
 20
277.3158
 11
1015.6104
 21
277.1673
  0
LINE
  8
0_00
  6
CONTINUOUS
 62
2
 10
1015.6104
 20
277.1673
 11
1015.9954
 21
277.3076
  0
LINE
  8
0_00
  6
CONTINUOUS
 62
2
 10
1015.9954
 20
277.3076
 11
1016.8918
 21
278.1518
  0
LINE
  8
0_00
  6
CONTINUOUS
 62
2
 10
1013.5205
 20
277.3406
 11
1014.3592
 21
276.4716
  0
LINE
  8
0_00
  6
CONTINUOUS
 62
2
 10
1014.3592
 20
276.4716
 11
1014.5077
 21
276.0646
  0
LINE
  8
0_00
  6
CONTINUOUS
 62
2
 10
1014.5077
 20
276.0646
 11
1014.3674
 21
275.6797
  0
LINE
  8
0_00
  6
CONTINUOUS
 62
2
 10
1014.3674
 20
275.6797
 11
1013.5232
 21
274.7832
  0
LINE
  8
0_00
  6
CONTINUOUS
 62
2
 10
1017.7002
 20
274.7887
 11
1016.8616
 21
275.6577
  0
LINE
  8
0_00
  6
CONTINUOUS
 62
2
 10
1016.8616
 20
275.6577
 11
1016.7130
 21
276.0646
  0
LINE
  8
0_00
  6
CONTINUOUS
 62
2
 10
1016.7130
 20
276.0646
 11
1016.8532
 21
276.4496
  0
LINE
  8
0_00
  6
CONTINUOUS
 62
2
 10
1016.8532
 20
276.4496
 11
1017.6974
 21
277.3461
  0
LINE
  8
0_00
  6
CONTINUOUS
 62
2
 10
1016.8863
 20
273.9747
 11
1016.0174
 21
274.8134
  0
LINE
  8
0_00
  6
CONTINUOUS
 62
2
 10
1016.0174
 20
274.8134
 11
1015.6104
 21
274.9619
  0
LINE
  8
0_00
  6
CONTINUOUS
 62
2
 10
1015.6104
 20
274.9619
 11
1015.2253
 21
274.8217
  0
LINE
  8
0_00
  6
CONTINUOUS
 62
2
 10
1015.2253
 20
274.8217
 11
1014.3289
 21
273.9775
  0
LINE
  8
0_00
  6
CONTINUOUS
 62
4
 10
1001.6104
 20
268.5646
 11
1001.6104
 21
310.5646
  0
LINE
  8
0_00
  6
CONTINUOUS
 62
4
 10
1006.6103
 20
266.0646
 11
1006.6103
 21
310.5646
  0
LINE
  8
0_00
  6
CONTINUOUS
 62
4
 10
1006.6103
 20
266.0646
 11
1002.1103
 21
266.0646
  0
LINE
  8
0_00
  6
CONTINUOUS
 62
4
 10
999.6104
 20
268.5646
 11
999.6104
 21
310.5646
  0
LINE
  8
0_00
  6
CONTINUOUS
 62
4
 10
1024.6103
 20
266.0646
 11
1006.6103
 21
266.0646
  0
LINE
  8
0_00
  6
CONTINUOUS
 62
4
 10
1029.6104
 20
268.5646
 11
1029.6104
 21
310.5646
  0
LINE
  8
0_00
  6
CONTINUOUS
 62
4
 10
1024.6103
 20
266.0646
 11
1024.6103
 21
310.5646
  0
LINE
  8
0_00
  6
CONTINUOUS
 62
4
 10
1029.1103
 20
266.0646
 11
1024.6103
 21
266.0646
  0
LINE
  8
0_00
  6
CONTINUOUS
 62
4
 10
1031.6104
 20
268.5646
 11
1031.6104
 21
310.5646
  0
LINE
  8
0_00
  6
CONTINUOUS
 62
4
 10
1029.1103
 20
313.0646
 11
1002.1103
 21
313.0646
  0
LINE
  8
0_00
  6
CONTINUOUS
 62
4
 10
730.7541
 20
567.3682
 11
1163.0290
 21
567.3682
  0
LINE
  8
0_00
  6
CENTER1
 62
6
 10
738.6290
 20
736.6302
 11
738.6290
 21
695.7173
  0
LINE
  8
0_00
  6
CENTER1
 62
6
 10
776.1290
 20
736.6302
 11
776.1290
 21
695.7173
  0
LINE
  8
0_00
  6
CENTER1
 62
6
 10
1086.1290
 20
736.6302
 11
1086.1290
 21
695.7173
  0
LINE
  8
0_00
  6
CENTER1
 62
6
 10
931.1290
 20
736.6302
 11
931.1290
 21
695.7173
  0
LINE
  8
0_00
  6
CONTINUOUS
 62
4
 10
732.7790
 20
719.1544
 11
1161.0040
 21
719.1544
  0
LINE
  8
0_00
  6
CONTINUOUS
 62
4
 10
732.7790
 20
726.2044
 11
1161.0040
 21
726.2044
  0
LINE
  8
0_00
  6
CONTINUOUS
 62
4
 10
856.2540
 20
702.3679
 11
1161.0040
 21
702.3679
  0
LINE
  8
15_0F
  6
CONTINUOUS
 62
4
 10
1161.0040
 20
692.6178
 11
856.2540
 21
692.6178
  0
LINE
  8
3_03
  6
CONTINUOUS
 62
4
 10
728.5040
 20
693.0679
 11
728.5040
 21
701.9178
  0
LINE
  8
0_00
  6
CONTINUOUS
 62
4
 10
730.7541
 20
692.6178
 11
730.7541
 21
567.3682
  0
LINE
  8
3_03
  6
CONTINUOUS
 62
4
 10
732.7040
 20
726.3092
 11
728.2245
 21
726.3092
  0
LINE
  8
3_03
  6
CONTINUOUS
 62
4
 10
723.6291
 20
719.1094
 11
732.7040
 21
719.1094
  0
LINE
  8
3_03
  6
CONTINUOUS
 62
4
 10
732.7790
 20
719.1544
 11
732.7790
 21
726.2342
  0
LINE
  8
3_03
  6
CONTINUOUS
 62
4
 10
723.5540
 20
725.1129
 11
723.5540
 21
719.1844
  0
LINE
  8
0_00
  6
CONTINUOUS
 62
4
 10
853.6290
 20
702.7729
 11
853.6290
 21
692.2281
  0
LINE
  8
0_00
  6
CONTINUOUS
 62
4
 10
856.2540
 20
702.5779
 11
856.2540
 21
692.2281
  0
LINE
  8
0_00
  6
CONTINUOUS
 62
4
 10
851.0040
 20
702.5779
 11
851.0040
 21
692.2281
  0
LINE
  8
0_00
  6
CONTINUOUS
 62
4
 10
853.6290
 20
702.7729
 11
851.0040
 21
702.5779
  0
LINE
  8
0_00
  6
CONTINUOUS
 62
4
 10
853.6290
 20
702.7729
 11
856.2540
 21
702.5779
  0
LINE
  8
0_00
  6
CONTINUOUS
 62
4
 10
851.0040
 20
692.2281
 11
856.2540
 21
692.2281
  0
LINE
  8
0_00
  6
CONTINUOUS
 62
4
 10
851.0040
 20
702.3679
 11
728.9540
 21
702.3679
  0
LINE
  8
15_0F
  6
CONTINUOUS
 62
4
 10
728.9540
 20
692.6178
 11
851.0040
 21
692.6178
  0
LINE
  8
0_00
  6
CONTINUOUS
 62
6
 10
167.8778
 20
438.1127
 11
70.1282
 21
438.1127
  0
LINE
  8
0_00
  6
CONTINUOUS
 62
6
 10
185.7506
 20
462.8236
 11
114.7830
 21
462.8236
  0
LINE
  8
0_00
  6
CONTINUOUS
 62
6
 10
204.3162
 20
488.4922
 11
104.9770
 21
488.4922
  0
LINE
  8
0_00
  6
DASHED
 62
2
 10
206.7499
 20
292.0510
 11
356.7499
 21
292.0510
  0
LINE
  8
0_00
  6
CENTER1
 62
6
 10
266.2499
 20
300.7801
 11
266.2499
 21
275.9751
  0
LINE
  8
0_00
  6
CENTER1
 62
6
 10
287.2499
 20
300.7801
 11
287.2499
 21
275.9751
  0
LINE
  8
0_00
  6
DASHED
 62
2
 10
206.7499
 20
293.7510
 11
356.7499
 21
293.7510
  0
LINE
  8
0_00
  6
CONTINUOUS
 62
4
 10
206.7499
 20
290.5510
 11
356.7499
 21
290.5510
  0
LINE
  8
0_00
  6
CONTINUOUS
 62
4
 10
260.7499
 20
177.5510
 11
292.7499
 21
177.5510
  0
LINE
  8
0_00
  6
CONTINUOUS
 62
4
 10
290.7499
 20
187.5510
 11
290.7499
 21
292.0510
  0
LINE
  8
0_00
  6
CONTINUOUS
 62
4
 10
262.7499
 20
187.5510
 11
262.7499
 21
292.0510
  0
LINE
  8
0_00
  6
CONTINUOUS
 62
4
 10
285.7499
 20
190.0510
 11
285.7499
 21
276.5510
  0
LINE
  8
0_00
  6
CONTINUOUS
 62
4
 10
267.7499
 20
190.0510
 11
267.7499
 21
276.5510
  0
LINE
  8
0_00
  6
CONTINUOUS
 62
4
 10
270.2499
 20
279.0510
 11
283.2499
 21
279.0510
  0
LINE
  8
0_00
  6
CONTINUOUS
 62
4
 10
262.7499
 20
187.5510
 11
260.7499
 21
177.5510
  0
LINE
  8
0_00
  6
CONTINUOUS
 62
4
 10
290.7499
 20
187.5510
 11
292.7499
 21
177.5510
  0
LINE
  8
0_00
  6
CONTINUOUS
 62
4
 10
283.2499
 20
187.5510
 11
270.2499
 21
187.5510
  0
LINE
  8
0_00
  6
CONTINUOUS
 62
4
 10
266.7499
 20
197.5510
 11
263.7499
 21
197.5510
  0
LINE
  8
0_00
  6
CONTINUOUS
 62
4
 10
263.7499
 20
274.0510
 11
266.7499
 21
274.0510
  0
LINE
  8
0_00
  6
CONTINUOUS
 62
4
 10
286.7499
 20
274.0510
 11
289.7499
 21
274.0510
  0
LINE
  8
0_00
  6
CONTINUOUS
 62
4
 10
286.7499
 20
197.5510
 11
289.7499
 21
197.5510
  0
LINE
  8
0_00
  6
CONTINUOUS
 62
4
 10
206.7499
 20
175.5510
 11
356.7499
 21
175.5510
  0
LINE
  8
0_00
  6
CONTINUOUS
 62
4
 10
260.7499
 20
177.5510
 11
260.7499
 21
175.5510
  0
LINE
  8
0_00
  6
CONTINUOUS
 62
4
 10
292.7499
 20
177.5510
 11
292.7499
 21
175.5510
  0
LINE
  8
0_00
  6
CENTER1
 62
6
 10
276.7499
 20
348.0453
 11
276.7499
 21
154.6116
  0
LINE
  8
0_00
  6
CONTINUOUS
 62
4
 10
778.2290
 20
703.7344
 11
778.2290
 21
719.4094
  0
LINE
  8
0_00
  6
CONTINUOUS
 62
4
 10
774.0289
 20
703.7344
 11
774.0289
 21
719.4094
  0
LINE
  8
0_00
  6
CONTINUOUS
 62
4
 10
777.4790
 20
704.1094
 11
777.4790
 21
717.0844
  0
LINE
  8
0_00
  6
CONTINUOUS
 62
4
 10
774.7790
 20
704.1094
 11
774.7790
 21
717.0844
  0
LINE
  8
0_00
  6
CONTINUOUS
 62
4
 10
775.1539
 20
717.4593
 11
777.1040
 21
717.4593
  0
LINE
  8
0_00
  6
CONTINUOUS
 62
4
 10
774.0289
 20
703.7344
 11
773.7557
 21
702.3679
  0
LINE
  8
0_00
  6
CONTINUOUS
 62
4
 10
778.2290
 20
703.7344
 11
778.5024
 21
702.3679
  0
LINE
  8
0_00
  6
CONTINUOUS
 62
4
 10
777.1040
 20
703.7344
 11
775.1539
 21
703.7344
  0
LINE
  8
0_00
  6
CONTINUOUS
 62
4
 10
774.6291
 20
705.2344
 11
774.1790
 21
705.2344
  0
LINE
  8
0_00
  6
CONTINUOUS
 62
4
 10
774.1790
 20
716.7094
 11
774.6291
 21
716.7094
  0
LINE
  8
0_00
  6
CONTINUOUS
 62
4
 10
777.6290
 20
716.7094
 11
778.0790
 21
716.7094
  0
LINE
  8
0_00
  6
CONTINUOUS
 62
4
 10
777.6290
 20
705.2344
 11
778.0790
 21
705.2344
  0
LINE
  8
0_00
  6
CONTINUOUS
 62
4
 10
933.2291
 20
703.7344
 11
933.2291
 21
719.4094
  0
LINE
  8
0_00
  6
CONTINUOUS
 62
4
 10
929.0290
 20
703.7344
 11
929.0290
 21
719.4094
  0
LINE
  8
0_00
  6
CONTINUOUS
 62
4
 10
932.4790
 20
704.1094
 11
932.4790
 21
717.0844
  0
LINE
  8
0_00
  6
CONTINUOUS
 62
4
 10
929.7790
 20
704.1094
 11
929.7790
 21
717.0844
  0
LINE
  8
0_00
  6
CONTINUOUS
 62
4
 10
930.1540
 20
717.4593
 11
932.1040
 21
717.4593
  0
LINE
  8
0_00
  6
CONTINUOUS
 62
4
 10
929.0290
 20
703.7344
 11
928.7557
 21
702.3679
  0
LINE
  8
0_00
  6
CONTINUOUS
 62
4
 10
933.2291
 20
703.7344
 11
933.5023
 21
702.3679
  0
LINE
  8
0_00
  6
CONTINUOUS
 62
4
 10
932.1040
 20
703.7344
 11
930.1540
 21
703.7344
  0
LINE
  8
0_00
  6
CONTINUOUS
 62
4
 10
929.6290
 20
705.2344
 11
929.1790
 21
705.2344
  0
LINE
  8
0_00
  6
CONTINUOUS
 62
4
 10
929.1790
 20
716.7094
 11
929.6290
 21
716.7094
  0
LINE
  8
0_00
  6
CONTINUOUS
 62
4
 10
932.6290
 20
716.7094
 11
933.0790
 21
716.7094
  0
LINE
  8
0_00
  6
CONTINUOUS
 62
4
 10
932.6290
 20
705.2344
 11
933.0790
 21
705.2344
  0
LINE
  8
0_00
  6
CONTINUOUS
 62
4
 10
1088.2289
 20
703.7344
 11
1088.2289
 21
719.4094
  0
LINE
  8
0_00
  6
CONTINUOUS
 62
4
 10
1084.0291
 20
703.7344
 11
1084.0291
 21
719.4094
  0
LINE
  8
0_00
  6
CONTINUOUS
 62
4
 10
1087.4790
 20
704.1094
 11
1087.4790
 21
717.0844
  0
LINE
  8
0_00
  6
CONTINUOUS
 62
4
 10
1084.7791
 20
704.1094
 11
1084.7791
 21
717.0844
  0
LINE
  8
0_00
  6
CONTINUOUS
 62
4
 10
1085.1541
 20
717.4593
 11
1087.1040
 21
717.4593
  0
LINE
  8
0_00
  6
CONTINUOUS
 62
4
 10
1084.0291
 20
703.7344
 11
1083.7558
 21
702.3679
  0
LINE
  8
0_00
  6
CONTINUOUS
 62
4
 10
1088.2289
 20
703.7344
 11
1088.5023
 21
702.3679
  0
LINE
  8
0_00
  6
CONTINUOUS
 62
4
 10
1087.1040
 20
703.7344
 11
1085.1541
 21
703.7344
  0
LINE
  8
0_00
  6
CONTINUOUS
 62
4
 10
1084.6290
 20
705.2344
 11
1084.1789
 21
705.2344
  0
LINE
  8
0_00
  6
CONTINUOUS
 62
4
 10
1084.1789
 20
716.7094
 11
1084.6290
 21
716.7094
  0
LINE
  8
0_00
  6
CONTINUOUS
 62
4
 10
1087.6290
 20
716.7094
 11
1088.0790
 21
716.7094
  0
LINE
  8
0_00
  6
CONTINUOUS
 62
4
 10
1087.6290
 20
705.2344
 11
1088.0790
 21
705.2344
  0
LINE
  8
0_00
  6
CENTER1
 62
6
 10
728.1291
 20
736.6302
 11
728.1291
 21
709.8385
  0
LINE
  8
0_00
  6
CENTER1
 62
6
 10
814.6685
 20
219.5647
 11
1081.2846
 21
219.5647
  0
LINE
  8
0_00
  6
CONTINUOUS
 62
6
 10
1067.1401
 20
218.9498
 11
1093.6466
 21
179.5918
  0
LINE
  8
0_00
  6
CONTINUOUS
 62
6
 10
1067.1401
 20
218.9498
 11
1069.9449
 21
211.9939
  0
LINE
  8
0_00
  6
CONTINUOUS
 62
6
 10
1067.1401
 20
218.9498
 11
1072.5315
 21
213.7360
  0
LINE
  8
0_00
  6
CONTINUOUS
 62
6
 10
1093.6466
 20
179.5918
 11
1148.8466
 21
179.5918
  0
LINE
  8
0_00
  6
CONTINUOUS
 62
6
 10
167.8778
 20
438.1127
 11
239.5341
 21
537.1845
  0
LINE
  8
0_00
  6
CONTINUOUS
 62
6
 10
239.5341
 20
537.1845
 11
233.9713
 21
532.1541
  0
LINE
  8
0_00
  6
CONTINUOUS
 62
6
 10
239.5341
 20
537.1845
 11
236.4982
 21
530.3264
  0
LINE
  8
0_00
  6
CONTINUOUS
 62
4
 10
530.5263
 20
379.5646
 11
827.2785
 21
379.5646
  0
LINE
  8
0_00
  6
CONTINUOUS
 62
4
 10
831.9372
 20
379.5646
 11
1084.0823
 21
379.5646
  0
LINE
  8
0_00
  6
CONTINUOUS
 62
4
 10
530.5263
 20
199.5646
 11
804.6509
 21
199.5646
  0
LINE
  8
0_00
  6
CONTINUOUS
 62
4
 10
809.3096
 20
199.5646
 11
1081.2846
 21
199.5646
  0
LINE
  8
15_0F
  6
CONTINUOUS
 62
4
 10
530.1612
 20
214.5646
 11
808.6701
 21
214.5646
  0
LINE
  8
15_0F
  6
CONTINUOUS
 62
4
 10
530.5263
 20
200.8646
 11
804.9992
 21
200.8646
  0
LINE
  8
15_0F
  6
CONTINUOUS
 62
4
 10
823.2593
 20
364.5646
 11
530.1612
 21
364.5646
  0
LINE
  8
15_0F
  6
CONTINUOUS
 62
4
 10
530.1612
 20
378.2647
 11
826.9301
 21
378.2647
  0
LINE
  8
0_00
  6
CONTINUOUS
 62
2
 10
660.1302
 20
363.0646
 11
600.1302
 21
363.0646
  0
LINE
  8
0_00
  6
CONTINUOUS
 62
2
 10
660.1302
 20
358.0646
 11
600.1302
 21
358.0646
  0
LINE
  8
0_00
  6
CONTINUOUS
 62
4
 10
600.1302
 20
373.5646
 11
660.1302
 21
373.5646
  0
LINE
  8
0_00
  6
CONTINUOUS
 62
4
 10
600.1302
 20
368.2646
 11
660.1302
 21
368.2646
  0
LINE
  8
0_00
  6
CONTINUOUS
 62
4
 10
600.1302
 20
364.5646
 11
660.1302
 21
364.5646
  0
LINE
  8
0_00
  6
CONTINUOUS
 62
4
 10
600.1302
 20
357.0646
 11
660.1302
 21
357.0646
  0
LINE
  8
0_00
  6
CONTINUOUS
 62
4
 10
600.1302
 20
344.0646
 11
660.1302
 21
344.0646
  0
LINE
  8
0_00
  6
CONTINUOUS
 62
4
 10
600.1302
 20
342.0646
 11
660.1302
 21
342.0646
  0
LINE
  8
0_00
  6
CONTINUOUS
 62
2
 10
660.1302
 20
221.4646
 11
600.1302
 21
221.4646
  0
LINE
  8
0_00
  6
CONTINUOUS
 62
2
 10
660.1302
 20
216.4646
 11
600.1302
 21
216.4646
  0
LINE
  8
0_00
  6
CONTINUOUS
 62
4
 10
600.1302
 20
235.4646
 11
660.1302
 21
235.4646
  0
LINE
  8
0_00
  6
CONTINUOUS
 62
4
 10
600.1302
 20
237.4646
 11
660.1302
 21
237.4646
  0
LINE
  8
0_00
  6
CONTINUOUS
 62
4
 10
600.1302
 20
222.4646
 11
660.1302
 21
222.4646
  0
LINE
  8
0_00
  6
CONTINUOUS
 62
4
 10
600.1302
 20
211.2646
 11
660.1302
 21
211.2646
  0
LINE
  8
0_00
  6
CONTINUOUS
 62
4
 10
600.1302
 20
205.9646
 11
660.1302
 21
205.9646
  0
LINE
  8
0_00
  6
CONTINUOUS
 62
4
 10
660.1302
 20
214.9646
 11
600.1302
 21
214.9646
  0
LINE
  8
0_00
  6
CONTINUOUS
 62
6
 10
250.3952
 20
643.8515
 11
268.7747
 21
662.2310
  0
LINE
  8
0_00
  6
CONTINUOUS
 62
6
 10
250.3952
 20
643.8515
 11
256.6852
 21
647.9363
  0
LINE
  8
0_00
  6
CONTINUOUS
 62
6
 10
250.3952
 20
643.8515
 11
254.4800
 21
650.1415
  0
LINE
  8
0_00
  6
CONTINUOUS
 62
6
 10
268.7747
 20
662.2310
 11
313.7747
 21
662.2310
  0
LINE
  8
0_00
  6
CONTINUOUS
 62
6
 10
252.5277
 20
589.1572
 11
216.1373
 21
625.5477
  0
LINE
  8
0_00
  6
CONTINUOUS
 62
6
 10
252.5277
 20
589.1572
 11
248.4429
 21
595.4473
  0
LINE
  8
0_00
  6
CONTINUOUS
 62
6
 10
252.5277
 20
589.1572
 11
246.2377
 21
593.2420
  0
LINE
  8
0_00
  6
CONTINUOUS
 62
6
 10
216.1373
 20
625.5477
 11
154.5310
 21
625.5477
  0
LINE
  8
0_00
  6
CONTINUOUS
 62
6
 10
241.8271
 20
599.8579
 11
145.0672
 21
599.8579
  0
LINE
  8
0_00
  6
CONTINUOUS
 62
6
 10
683.0389
 20
310.7090
 11
707.6389
 21
335.3090
  0
LINE
  8
0_00
  6
CONTINUOUS
 62
6
 10
683.0389
 20
310.7090
 11
689.3289
 21
314.7938
  0
LINE
  8
0_00
  6
CONTINUOUS
 62
6
 10
683.0389
 20
310.7090
 11
687.1236
 21
316.9991
  0
LINE
  8
0_00
  6
CONTINUOUS
 62
6
 10
707.6389
 20
335.3090
 11
738.2389
 21
335.3090
  0
LINE
  8
15_0F
  6
CONTINUOUS
 62
6
 10
776.1290
 20
751.6302
 11
776.1290
 21
795.4795
  0
LINE
  8
15_0F
  6
CONTINUOUS
 62
6
 10
738.6290
 20
751.6302
 11
738.6290
 21
795.4795
  0
LINE
  8
15_0F
  6
CONTINUOUS
 62
6
 10
738.6290
 20
789.4795
 11
776.1290
 21
789.4795
  0
LINE
  8
15_0F
  6
CONTINUOUS
 62
6
 10
931.1290
 20
751.6302
 11
931.1290
 21
795.4795
  0
LINE
  8
15_0F
  6
CONTINUOUS
 62
6
 10
776.1290
 20
789.4795
 11
931.1290
 21
789.4795
  0
LINE
  8
15_0F
  6
CONTINUOUS
 62
6
 10
776.1290
 20
789.4795
 11
783.4651
 21
787.9201
  0
LINE
  8
15_0F
  6
CONTINUOUS
 62
6
 10
776.1290
 20
789.4795
 11
783.4651
 21
791.0389
  0
LINE
  8
15_0F
  6
CONTINUOUS
 62
6
 10
931.1290
 20
789.4795
 11
923.7929
 21
791.0389
  0
LINE
  8
15_0F
  6
CONTINUOUS
 62
6
 10
931.1290
 20
789.4795
 11
923.7929
 21
787.9201
  0
LINE
  8
15_0F
  6
CONTINUOUS
 62
6
 10
1086.1290
 20
751.6302
 11
1086.1290
 21
795.4795
  0
LINE
  8
15_0F
  6
CONTINUOUS
 62
6
 10
931.1290
 20
789.4795
 11
1086.1290
 21
789.4795
  0
LINE
  8
15_0F
  6
CONTINUOUS
 62
6
 10
931.1290
 20
789.4795
 11
938.4651
 21
787.9201
  0
LINE
  8
15_0F
  6
CONTINUOUS
 62
6
 10
931.1290
 20
789.4795
 11
938.4651
 21
791.0389
  0
LINE
  8
15_0F
  6
CONTINUOUS
 62
6
 10
1086.1290
 20
789.4795
 11
1078.7930
 21
791.0389
  0
LINE
  8
15_0F
  6
CONTINUOUS
 62
6
 10
1086.1290
 20
789.4795
 11
1078.7930
 21
787.9201
  0
LINE
  8
15_0F
  6
CONTINUOUS
 62
6
 10
1086.1290
 20
789.4795
 11
1161.0040
 21
789.4795
  0
LINE
  8
15_0F
  6
CONTINUOUS
 62
6
 10
1086.1290
 20
789.4795
 11
1093.4650
 21
787.9201
  0
LINE
  8
15_0F
  6
CONTINUOUS
 62
6
 10
1086.1290
 20
789.4795
 11
1093.4650
 21
791.0389
  0
LINE
  8
0_00
  6
CONTINUOUS
 62
4
 10
103.0841
 20
798.8786
 11
134.2841
 21
798.8786
  0
LINE
  8
0_00
  6
CONTINUOUS
 62
4
 10
134.2841
 20
798.8786
 11
134.2841
 21
813.2786
  0
LINE
  8
0_00
  6
CONTINUOUS
 62
4
 10
103.0841
 20
813.2786
 11
134.2841
 21
813.2786
  0
LINE
  8
0_00
  6
CONTINUOUS
 62
4
 10
103.0841
 20
798.8786
 11
103.0841
 21
813.2786
  0
LINE
  8
0_00
  6
CONTINUOUS
 62
4
 10
284.2841
 20
798.8786
 11
315.4841
 21
798.8786
  0
LINE
  8
0_00
  6
CONTINUOUS
 62
4
 10
315.4841
 20
798.8786
 11
315.4841
 21
813.2786
  0
LINE
  8
0_00
  6
CONTINUOUS
 62
4
 10
284.2841
 20
813.2786
 11
315.4841
 21
813.2786
  0
LINE
  8
0_00
  6
CONTINUOUS
 62
4
 10
284.2841
 20
798.8786
 11
284.2841
 21
813.2786
  0
LINE
  8
0_00
  6
CENTER1
 62
6
 10
427.2841
 20
702.0324
 11
427.2841
 21
679.7528
  0
LINE
  8
0_00
  6
CENTER1
 62
6
 10
391.2841
 20
701.7539
 11
391.2841
 21
680.1242
  0
LINE
  8
0_00
  6
CENTER1
 62
6
 10
409.2841
 20
738.6406
 11
409.2841
 21
659.3047
  0
LINE
  8
0_00
  6
CONTINUOUS
 62
4
 10
387.7841
 20
695.4008
 11
430.7841
 21
695.4008
  0
LINE
  8
0_00
  6
CONTINUOUS
 62
4
 10
430.7841
 20
695.4008
 11
430.7841
 21
679.6881
  0
LINE
  8
0_00
  6
DASHED
 62
4
 10
387.7841
 20
682.4008
 11
430.7841
 21
682.4008
  0
LINE
  8
0_00
  6
CONTINUOUS
 62
4
 10
387.7841
 20
695.4008
 11
387.7841
 21
682.4008
  0
LINE
  8
0_00
  6
CONTINUOUS
 62
4
 10
245.7841
 20
580.9008
 11
245.7841
 21
588.4012
  0
LINE
  8
0_00
  6
CONTINUOUS
 62
4
 10
292.7841
 20
580.9008
 11
292.7841
 21
597.5132
  0
LINE
  8
0_00
  6
CONTINUOUS
 62
6
 10
245.7841
 20
590.9008
 11
292.7841
 21
590.9008
  0
LINE
  8
0_00
  6
CONTINUOUS
 62
4
 10
177.7841
 20
695.4008
 11
220.7841
 21
695.4008
  0
LINE
  8
0_00
  6
CONTINUOUS
 62
4
 10
220.7841
 20
695.4008
 11
220.7841
 21
679.6881
  0
LINE
  8
0_00
  6
DASHED
 62
4
 10
177.7841
 20
682.4008
 11
220.7841
 21
682.4008
  0
LINE
  8
0_00
  6
CONTINUOUS
 62
4
 10
177.7841
 20
695.4008
 11
177.7841
 21
682.4008
  0
LINE
  8
0_00
  6
CONTINUOUS
 62
6
 10
227.8210
 20
737.3492
 11
243.5973
 21
753.1256
  0
LINE
  8
0_00
  6
CONTINUOUS
 62
6
 10
227.8210
 20
737.3492
 11
234.1110
 21
741.4340
  0
LINE
  8
0_00
  6
CONTINUOUS
 62
6
 10
227.8210
 20
737.3492
 11
231.9058
 21
743.6393
  0
LINE
  8
0_00
  6
CONTINUOUS
 62
6
 10
243.5973
 20
753.1256
 11
302.9973
 21
753.1256
  0
LINE
  8
0_00
  6
CONTINUOUS
 62
6
 10
433.1211
 20
726.2186
 11
448.5046
 21
741.6021
  0
LINE
  8
0_00
  6
CONTINUOUS
 62
6
 10
433.1211
 20
726.2186
 11
439.4111
 21
730.3035
  0
LINE
  8
0_00
  6
CONTINUOUS
 62
6
 10
433.1211
 20
726.2186
 11
437.2059
 21
732.5087
  0
LINE
  8
0_00
  6
CONTINUOUS
 62
6
 10
448.5046
 20
741.6021
 11
507.9045
 21
741.6021
  0
LINE
  8
0_00
  6
CONTINUOUS
 62
4
 10
217.2841
 20
577.7008
 11
217.2841
 21
558.9008
  0
LINE
  8
0_00
  6
CONTINUOUS
 62
4
 10
302.1564
 20
574.2008
 11
321.2841
 21
574.2008
  0
LINE
  8
0_00
  6
CONTINUOUS
 62
4
 10
217.2841
 20
577.7008
 11
301.2841
 21
574.9008
  0
LINE
  8
0_00
  6
CONTINUOUS
 62
4
 10
301.2841
 20
574.9008
 11
302.1564
 21
574.2008
  0
LINE
  8
0_00
  6
CONTINUOUS
 62
4
 10
321.2841
 20
574.2008
 11
321.2841
 21
558.9008
  0
LINE
  8
3_03
  6
CONTINUOUS
 62
4
 10
321.2841
 20
567.0009
 11
217.2841
 21
567.0009
  0
LINE
  8
3_03
  6
CONTINUOUS
 62
4
 10
321.2841
 20
563.4008
 11
217.2841
 21
563.4008
  0
LINE
  8
15_0F
  6
CONTINUOUS
 62
2
 10
223.2841
 20
577.5009
 11
238.2924
 21
577.5009
  0
LINE
  8
15_0F
  6
CONTINUOUS
 62
2
 10
238.2924
 20
577.5009
 11
301.4672
 21
575.3950
  0
LINE
  8
15_0F
  6
CONTINUOUS
 62
2
 10
301.4672
 20
575.3950
 11
302.3322
 21
574.7008
  0
LINE
  8
15_0F
  6
CONTINUOUS
 62
2
 10
302.3322
 20
574.7008
 11
320.2841
 21
574.7008
  0
LINE
  8
15_0F
  6
CONTINUOUS
 62
2
 10
320.2841
 20
574.7008
 11
320.2841
 21
574.2008
  0
LINE
  8
0_00
  6
CONTINUOUS
 62
6
 10
262.7499
 20
225.7171
 11
241.9426
 21
246.5244
  0
LINE
  8
0_00
  6
CONTINUOUS
 62
6
 10
262.7499
 20
225.7171
 11
258.6651
 21
232.0071
  0
LINE
  8
0_00
  6
CONTINUOUS
 62
6
 10
262.7499
 20
225.7171
 11
256.4598
 21
229.8019
  0
LINE
  8
0_00
  6
CONTINUOUS
 62
6
 10
241.9426
 20
246.5244
 11
196.9426
 21
246.5244
  0
LINE
  8
0_00
  6
CENTER1
 62
2
 10
349.2841
 20
492.6002
 11
349.2841
 21
558.9008
  0
LINE
  8
0_00
  6
CENTER1
 62
2
 10
189.2841
 20
492.6002
 11
189.2841
 21
558.9008
  0
LINE
  8
0_00
  6
CENTER1
 62
2
 10
344.2841
 20
558.9008
 11
349.2841
 21
558.9008
  0
LINE
  8
0_00
  6
CENTER1
 62
2
 10
194.2841
 20
558.9008
 11
189.2841
 21
558.9008
  0
LINE
  8
0_00
  6
CONTINUOUS
 62
4
 10
179.2841
 20
519.9008
 11
179.2841
 21
578.7992
  0
LINE
  8
0_00
  6
CONTINUOUS
 62
4
 10
182.3840
 20
581.7975
 11
356.3841
 21
575.9975
  0
LINE
  8
0_00
  6
CONTINUOUS
 62
4
 10
359.2841
 20
572.9991
 11
359.2841
 21
518.9008
  0
LINE
  8
0_00
  6
CONTINUOUS
 62
4
 10
186.0729
 20
517.0994
 11
182.2841
 21
516.9008
  0
LINE
  8
0_00
  6
CONTINUOUS
 62
4
 10
356.2841
 20
515.9008
 11
352.4952
 21
516.0993
  0
LINE
  8
0_00
  6
CONTINUOUS
 62
4
 10
223.9743
 20
578.6102
 11
224.2841
 21
578.9000
  0
LINE
  8
0_00
  6
CONTINUOUS
 62
4
 10
224.2841
 20
578.9000
 11
224.5739
 21
578.5901
  0
LINE
  8
0_00
  6
CONTINUOUS
 62
4
 10
224.5739
 20
578.5901
 11
224.8838
 21
578.8800
  0
LINE
  8
0_00
  6
CONTINUOUS
 62
4
 10
223.9743
 20
578.6102
 11
223.6844
 21
578.9200
  0
LINE
  8
0_00
  6
CONTINUOUS
 62
4
 10
268.9743
 20
577.1102
 11
269.2841
 21
577.4000
  0
LINE
  8
0_00
  6
CONTINUOUS
 62
4
 10
269.2841
 20
577.4000
 11
269.5739
 21
577.0901
  0
LINE
  8
0_00
  6
CONTINUOUS
 62
4
 10
269.5739
 20
577.0901
 11
269.8838
 21
577.3800
  0
LINE
  8
0_00
  6
CONTINUOUS
 62
4
 10
268.9743
 20
577.1102
 11
268.6844
 21
577.4200
  0
LINE
  8
0_00
  6
CONTINUOUS
 62
4
 10
313.9743
 20
575.6102
 11
314.2841
 21
575.9000
  0
LINE
  8
0_00
  6
CONTINUOUS
 62
4
 10
314.2841
 20
575.9000
 11
314.5739
 21
575.5901
  0
LINE
  8
0_00
  6
CONTINUOUS
 62
4
 10
314.5739
 20
575.5901
 11
314.8838
 21
575.8800
  0
LINE
  8
0_00
  6
CONTINUOUS
 62
4
 10
313.9743
 20
575.6102
 11
313.6844
 21
575.9200
  0
LINE
  8
0_00
  6
CONTINUOUS
 62
4
 10
357.7841
 20
538.1010
 11
357.4841
 21
538.4009
  0
LINE
  8
0_00
  6
CONTINUOUS
 62
4
 10
357.4841
 20
538.4009
 11
357.7841
 21
538.7010
  0
LINE
  8
0_00
  6
CONTINUOUS
 62
4
 10
357.7841
 20
543.1010
 11
357.4841
 21
543.4010
  0
LINE
  8
0_00
  6
CONTINUOUS
 62
4
 10
357.4841
 20
543.4010
 11
357.7841
 21
543.7009
  0
LINE
  8
0_00
  6
CONTINUOUS
 62
4
 10
357.7841
 20
548.1010
 11
357.4841
 21
548.4009
  0
LINE
  8
0_00
  6
CONTINUOUS
 62
4
 10
357.4841
 20
548.4009
 11
357.7841
 21
548.7009
  0
LINE
  8
0_00
  6
CONTINUOUS
 62
4
 10
357.7841
 20
553.1010
 11
357.4841
 21
553.4009
  0
LINE
  8
0_00
  6
CONTINUOUS
 62
4
 10
357.4841
 20
553.4009
 11
357.7841
 21
553.7009
  0
LINE
  8
0_00
  6
CONTINUOUS
 62
4
 10
185.9944
 20
518.5974
 11
184.9771
 21
518.5440
  0
LINE
  8
0_00
  6
CONTINUOUS
 62
4
 10
184.5777
 20
518.5231
 11
182.2516
 21
518.4012
  0
LINE
  8
0_00
  6
CONTINUOUS
 62
4
 10
180.7841
 20
519.9008
 11
180.7841
 21
578.7992
  0
LINE
  8
0_00
  6
CONTINUOUS
 62
4
 10
182.3341
 20
580.2983
 11
223.6844
 21
578.9200
  0
LINE
  8
0_00
  6
CONTINUOUS
 62
4
 10
224.8838
 20
578.8800
 11
255.1844
 21
577.8700
  0
LINE
  8
0_00
  6
CONTINUOUS
 62
4
 10
256.3838
 20
577.8300
 11
268.6844
 21
577.4200
  0
LINE
  8
0_00
  6
CONTINUOUS
 62
4
 10
269.8838
 20
577.3800
 11
282.1844
 21
576.9700
  0
LINE
  8
0_00
  6
CONTINUOUS
 62
4
 10
283.3838
 20
576.9300
 11
313.6844
 21
575.9200
  0
LINE
  8
0_00
  6
CONTINUOUS
 62
4
 10
314.8838
 20
575.8800
 11
356.3341
 21
574.4983
  0
LINE
  8
0_00
  6
CONTINUOUS
 62
4
 10
357.7841
 20
572.9991
 11
357.7841
 21
553.7009
  0
LINE
  8
0_00
  6
CONTINUOUS
 62
4
 10
357.7841
 20
553.1010
 11
357.7841
 21
548.7009
  0
LINE
  8
0_00
  6
CONTINUOUS
 62
4
 10
357.7841
 20
548.1010
 11
357.7841
 21
543.7009
  0
LINE
  8
0_00
  6
CONTINUOUS
 62
4
 10
357.7841
 20
543.1010
 11
357.7841
 21
538.7010
  0
LINE
  8
0_00
  6
CONTINUOUS
 62
4
 10
357.7841
 20
538.1010
 11
357.7841
 21
518.9008
  0
LINE
  8
0_00
  6
CONTINUOUS
 62
4
 10
356.3166
 20
517.4012
 11
352.5738
 21
517.5974
  0
LINE
  8
0_00
  6
CONTINUOUS
 62
4
 10
184.5777
 20
518.5231
 11
184.7879
 21
518.3338
  0
LINE
  8
0_00
  6
CONTINUOUS
 62
4
 10
184.7879
 20
518.3338
 11
184.9771
 21
518.5440
  0
LINE
  8
0_00
  6
CONTINUOUS
 62
4
 10
255.4743
 20
577.5602
 11
255.7841
 21
577.8500
  0
LINE
  8
0_00
  6
CONTINUOUS
 62
4
 10
255.7841
 20
577.8500
 11
256.0739
 21
577.5401
  0
LINE
  8
0_00
  6
CONTINUOUS
 62
4
 10
256.0739
 20
577.5401
 11
256.3838
 21
577.8300
  0
LINE
  8
0_00
  6
CONTINUOUS
 62
4
 10
255.1844
 20
577.8700
 11
255.4743
 21
577.5602
  0
LINE
  8
0_00
  6
CONTINUOUS
 62
4
 10
282.4743
 20
576.6601
 11
282.7841
 21
576.9500
  0
LINE
  8
0_00
  6
CONTINUOUS
 62
4
 10
282.7841
 20
576.9500
 11
283.0740
 21
576.6401
  0
LINE
  8
0_00
  6
CONTINUOUS
 62
4
 10
283.0740
 20
576.6401
 11
283.3838
 21
576.9300
  0
LINE
  8
0_00
  6
CONTINUOUS
 62
4
 10
282.1844
 20
576.9700
 11
282.4743
 21
576.6601
  0
LINE
  8
0_00
  6
CONTINUOUS
 62
4
 10
352.5345
 20
517.5984
 11
357.0281
 21
517.5984
  0
LINE
  8
0_00
  6
CONTINUOUS
 62
4
 10
321.2841
 20
558.9008
 11
217.2841
 21
558.9008
  0
LINE
  8
0_00
  6
CONTINUOUS
 62
4
 10
321.2841
 20
558.9008
 11
217.2841
 21
558.9008
  0
LINE
  8
11_0B
  6
DASHED
 62
2
 10
240.7841
 20
550.9008
 11
241.7841
 21
550.9008
  0
LINE
  8
11_0B
  6
DASHED
 62
2
 10
296.7841
 20
550.9008
 11
297.7841
 21
550.9008
  0
LINE
  8
0_00
  6
CONTINUOUS
 62
4
 10
217.2841
 20
558.9008
 11
321.2841
 21
558.9008
  0
LINE
  8
0_00
  6
CONTINUOUS
 62
4
 10
194.2841
 20
472.8683
 11
194.2841
 21
548.9008
  0
LINE
  8
0_00
  6
CONTINUOUS
 62
4
 10
209.2841
 20
540.9008
 11
209.2841
 21
472.8683
  0
LINE
  8
0_00
  6
CONTINUOUS
 62
2
 10
209.4624
 20
542.5804
 11
211.1420
 21
540.9008
  0
LINE
  8
0_00
  6
CONTINUOUS
 62
2
 10
217.2841
 20
548.9008
 11
217.2841
 21
540.9008
  0
LINE
  8
0_00
  6
CONTINUOUS
 62
2
 10
214.8386
 20
548.5179
 11
217.2841
 21
546.0724
  0
LINE
  8
0_00
  6
CONTINUOUS
 62
2
 10
212.9214
 20
547.6066
 11
217.2841
 21
543.2440
  0
LINE
  8
0_00
  6
CONTINUOUS
 62
2
 10
211.3898
 20
546.3098
 11
216.7988
 21
540.9008
  0
LINE
  8
0_00
  6
CONTINUOUS
 62
2
 10
210.2185
 20
544.6527
 11
213.9704
 21
540.9008
  0
LINE
  8
0_00
  6
CONTINUOUS
 62
2
 10
217.2841
 20
548.9008
 11
209.2841
 21
540.9008
  0
LINE
  8
0_00
  6
CONTINUOUS
 62
2
 10
213.5089
 20
547.9540
 11
210.2309
 21
544.6760
  0
LINE
  8
0_00
  6
CONTINUOUS
 62
2
 10
217.2841
 20
546.0724
 11
212.1125
 21
540.9008
  0
LINE
  8
0_00
  6
CONTINUOUS
 62
2
 10
217.2841
 20
543.2440
 11
214.9410
 21
540.9008
  0
LINE
  8
0_00
  6
CONTINUOUS
 62
2
 10
217.2841
 20
548.9008
 11
209.2841
 21
540.9008
  0
LINE
  8
0_00
  6
CONTINUOUS
 62
2
 10
213.5089
 20
547.9540
 11
210.2309
 21
544.6760
  0
LINE
  8
0_00
  6
CONTINUOUS
 62
2
 10
217.2841
 20
546.0724
 11
212.1125
 21
540.9008
  0
LINE
  8
0_00
  6
CONTINUOUS
 62
2
 10
217.2841
 20
543.2440
 11
214.9410
 21
540.9008
  0
LINE
  8
0_00
  6
CONTINUOUS
 62
2
 10
238.0566
 20
540.9008
 11
209.2841
 21
512.1283
  0
LINE
  8
0_00
  6
CONTINUOUS
 62
2
 10
242.2993
 20
540.9008
 11
209.2841
 21
507.8857
  0
LINE
  8
0_00
  6
CONTINUOUS
 62
2
 10
246.5419
 20
540.9008
 11
209.2841
 21
503.6430
  0
LINE
  8
0_00
  6
CONTINUOUS
 62
2
 10
317.2526
 20
540.9008
 11
249.2201
 21
472.8683
  0
LINE
  8
0_00
  6
CONTINUOUS
 62
2
 10
321.2841
 20
540.6897
 11
253.4627
 21
472.8683
  0
LINE
  8
0_00
  6
CONTINUOUS
 62
2
 10
321.2841
 20
536.4470
 11
257.7054
 21
472.8683
  0
LINE
  8
0_00
  6
CONTINUOUS
 62
4
 10
217.2841
 20
548.9008
 11
321.2841
 21
548.9008
  0
LINE
  8
0_00
  6
CONTINUOUS
 62
2
 10
217.2841
 20
546.9008
 11
321.2841
 21
546.9008
  0
LINE
  8
0_00
  6
CONTINUOUS
 62
2
 10
217.2841
 20
544.9008
 11
321.2841
 21
544.9008
  0
LINE
  8
0_00
  6
CONTINUOUS
 62
2
 10
217.2841
 20
542.9008
 11
321.2841
 21
542.9008
  0
LINE
  8
0_00
  6
CONTINUOUS
 62
4
 10
209.2841
 20
540.9008
 11
321.2841
 21
540.9008
  0
LINE
  8
0_00
  6
CONTINUOUS
 62
4
 10
344.2841
 20
548.9008
 11
344.2841
 21
472.8683
  0
LINE
  8
0_00
  6
CONTINUOUS
 62
4
 10
329.2841
 20
540.9008
 11
329.2841
 21
472.8683
  0
LINE
  8
0_00
  6
CONTINUOUS
 62
4
 10
321.2841
 20
540.9008
 11
321.2841
 21
472.8683
  0
LINE
  8
0_00
  6
CONTINUOUS
 62
2
 10
325.2841
 20
540.9008
 11
325.2841
 21
472.8683
  0
LINE
  8
0_00
  6
CONTINUOUS
 62
2
 10
323.2841
 20
540.9008
 11
323.2841
 21
472.8683
  0
LINE
  8
0_00
  6
CONTINUOUS
 62
2
 10
327.2841
 20
540.9008
 11
327.2841
 21
472.8683
  0
LINE
  8
0_00
  6
PHANTOM1
 62
2
 10
189.2841
 20
553.3590
 11
189.2841
 21
472.8683
  0
LINE
  8
3_03
  6
CONTINUOUS
 62
4
 10
204.2841
 20
558.9008
 11
194.2841
 21
548.9008
  0
LINE
  8
0_00
  6
CONTINUOUS
 62
4
 10
344.2841
 20
548.9008
 11
334.2841
 21
558.9008
  0
LINE
  8
15_0F
  6
CONTINUOUS
 62
6
 10
179.2841
 20
384.8763
 11
359.2841
 21
384.8763
  0
LINE
  8
15_0F
  6
CONTINUOUS
 62
6
 10
179.2841
 20
384.8763
 11
186.6202
 21
383.3169
  0
LINE
  8
15_0F
  6
CONTINUOUS
 62
6
 10
179.2841
 20
384.8763
 11
186.6202
 21
386.4356
  0
LINE
  8
15_0F
  6
CONTINUOUS
 62
6
 10
359.2841
 20
384.8763
 11
351.9480
 21
386.4356
  0
LINE
  8
15_0F
  6
CONTINUOUS
 62
6
 10
359.2841
 20
384.8763
 11
351.9480
 21
383.3169
  0
LINE
  8
0_00
  6
CONTINUOUS
 62
6
 10
194.2841
 20
420.7378
 11
344.2841
 21
420.7378
  0
LINE
  8
0_00
  6
CONTINUOUS
 62
6
 10
194.2841
 20
420.7378
 11
201.6202
 21
419.1785
  0
LINE
  8
0_00
  6
CONTINUOUS
 62
6
 10
194.2841
 20
420.7378
 11
201.6202
 21
422.2971
  0
LINE
  8
0_00
  6
CONTINUOUS
 62
6
 10
344.2841
 20
420.7378
 11
336.9480
 21
422.2971
  0
LINE
  8
0_00
  6
CONTINUOUS
 62
6
 10
344.2841
 20
420.7378
 11
336.9480
 21
419.1785
  0
LINE
  8
15_0F
  6
CONTINUOUS
 62
6
 10
359.2841
 20
502.7747
 11
359.2841
 21
382.2026
  0
LINE
  8
15_0F
  6
CONTINUOUS
 62
6
 10
344.2841
 20
461.0119
 11
344.2841
 21
416.4511
  0
LINE
  8
15_0F
  6
CONTINUOUS
 62
6
 10
179.2841
 20
502.7747
 11
179.2841
 21
382.0148
  0
LINE
  8
15_0F
  6
CONTINUOUS
 62
6
 10
194.2841
 20
461.1504
 11
194.2841
 21
415.9544
  0
LINE
  8
0_00
  6
CONTINUOUS
 62
6
 10
349.6637
 20
567.9573
 11
369.5811
 21
587.8747
  0
LINE
  8
0_00
  6
CONTINUOUS
 62
6
 10
349.6637
 20
567.9573
 11
355.9538
 21
572.0421
  0
LINE
  8
0_00
  6
CONTINUOUS
 62
6
 10
349.6637
 20
567.9573
 11
353.7485
 21
574.2473
  0
LINE
  8
0_00
  6
CONTINUOUS
 62
6
 10
369.5811
 20
587.8747
 11
414.5811
 21
587.8747
  0
LINE
  8
0_00
  6
CONTINUOUS
 62
4
 10
742.1540
 20
702.3679
 11
742.1540
 21
704.6963
  0
LINE
  8
0_00
  6
CONTINUOUS
 62
4
 10
735.1040
 20
702.3679
 11
735.1040
 21
703.3295
  0
LINE
  8
0_00
  6
CONTINUOUS
 62
4
 10
731.3540
 20
719.1094
 11
731.3540
 21
717.0225
  0
LINE
  8
0_00
  6
CONTINUOUS
 62
4
 10
724.9040
 20
719.1094
 11
724.9040
 21
717.4294
  0
LINE
  8
0_00
  6
CONTINUOUS
 62
2
 10
948.1889
 20
741.9884
 11
948.1889
 21
677.4924
  0
LINE
  8
0_00
  6
CONTINUOUS
 62
2
 10
948.1889
 20
741.9884
 11
932.3994
 21
741.9884
  0
LINE
  8
0_00
  6
CONTINUOUS
 62
2
 10
932.3994
 20
741.9884
 11
939.7354
 21
740.4291
  0
LINE
  8
0_00
  6
CONTINUOUS
 62
2
 10
932.3994
 20
741.9884
 11
939.7354
 21
743.5478
  0
LINE
  8
0_00
  6
CONTINUOUS
 62
2
 10
948.1889
 20
677.4924
 11
932.3994
 21
677.4924
  0
LINE
  8
0_00
  6
CONTINUOUS
 62
2
 10
932.3994
 20
677.4924
 11
939.7354
 21
675.9331
  0
LINE
  8
0_00
  6
CONTINUOUS
 62
2
 10
932.3994
 20
677.4924
 11
939.7354
 21
679.0517
  0
LINE
  8
0_00
  6
CONTINUOUS
 62
2
 10
895.5995
 20
694.7216
 11
1008.5026
 21
694.7216
  0
LINE
  8
0_00
  6
CONTINUOUS
 62
2
 10
1008.5026
 20
694.7216
 11
1008.5026
 21
706.3330
  0
LINE
  8
0_00
  6
CONTINUOUS
 62
2
 10
1008.5026
 20
706.3330
 11
1124.9314
 21
706.3330
  0
LINE
  8
0_00
  6
CONTINUOUS
 62
2
 10
1124.9314
 20
706.3330
 11
1124.9314
 21
670.9406
  0
LINE
  8
0_00
  6
CONTINUOUS
 62
2
 10
1124.9314
 20
670.9406
 11
1126.4908
 21
678.2766
  0
LINE
  8
0_00
  6
CONTINUOUS
 62
2
 10
1124.9314
 20
670.9406
 11
1123.3721
 21
678.2766
  0
LINE
  8
0_00
  6
CONTINUOUS
 62
2
 10
895.5995
 20
694.7216
 11
895.5995
 21
670.9406
  0
LINE
  8
0_00
  6
CONTINUOUS
 62
2
 10
895.5995
 20
670.9406
 11
897.1588
 21
678.2766
  0
LINE
  8
0_00
  6
CONTINUOUS
 62
2
 10
895.5995
 20
670.9406
 11
894.0401
 21
678.2766
  0
LINE
  8
0_00
  6
CENTER1
 62
6
 10
623.4048
 20
702.0324
 11
623.4048
 21
679.7528
  0
LINE
  8
0_00
  6
CENTER1
 62
6
 10
587.4048
 20
701.7539
 11
587.4048
 21
680.1242
  0
LINE
  8
0_00
  6
CENTER1
 62
6
 10
605.4048
 20
738.6406
 11
605.4048
 21
659.3047
  0
LINE
  8
0_00
  6
CONTINUOUS
 62
4
 10
583.9048
 20
695.4008
 11
626.9048
 21
695.4008
  0
LINE
  8
0_00
  6
CONTINUOUS
 62
4
 10
626.9048
 20
695.4008
 11
626.9048
 21
679.6881
  0
LINE
  8
0_00
  6
DASHED
 62
4
 10
583.9048
 20
682.4008
 11
626.9048
 21
682.4008
  0
LINE
  8
0_00
  6
CONTINUOUS
 62
4
 10
583.9048
 20
695.4008
 11
583.9048
 21
682.4008
  0
LINE
  8
0_00
  6
CONTINUOUS
 62
6
 10
625.6682
 20
722.6452
 11
644.6252
 21
741.6021
  0
LINE
  8
0_00
  6
CONTINUOUS
 62
6
 10
625.6682
 20
722.6452
 11
631.9582
 21
726.7299
  0
LINE
  8
0_00
  6
CONTINUOUS
 62
6
 10
625.6682
 20
722.6452
 11
629.7530
 21
728.9351
  0
LINE
  8
0_00
  6
CONTINUOUS
 62
6
 10
644.6252
 20
741.6021
 11
704.0253
 21
741.6021
  0
LINE
  8
0_00
  6
CONTINUOUS
 62
6
 10
301.4141
 20
577.8298
 11
312.9590
 21
589.3747
  0
LINE
  8
0_00
  6
CONTINUOUS
 62
6
 10
301.4141
 20
577.8298
 11
307.7042
 21
581.9146
  0
LINE
  8
0_00
  6
CONTINUOUS
 62
6
 10
301.4141
 20
577.8298
 11
305.4989
 21
584.1199
  0
LINE
  8
0_00
  6
CONTINUOUS
 62
6
 10
312.9590
 20
589.3747
 11
336.3590
 21
589.3747
  0
LINE
  8
0_00
  6
CONTINUOUS
 62
6
 10
735.0484
 20
703.7344
 11
742.1540
 21
703.7344
  0
LINE
  8
15_0F
  6
CONTINUOUS
 62
6
 10
720.6290
 20
789.4795
 11
738.6290
 21
789.4795
  0
LINE
  8
15_0F
  6
CONTINUOUS
 62
6
 10
738.6290
 20
789.4795
 11
731.2929
 21
791.0389
  0
LINE
  8
15_0F
  6
CONTINUOUS
 62
6
 10
738.6290
 20
789.4795
 11
731.2929
 21
787.9201
  0
LINE
  8
0_00
  6
CONTINUOUS
 62
4
 10
356.7499
 20
337.5510
 11
206.7499
 21
337.5510
  0
LINE
  8
0_00
  6
DASHED
 62
2
 10
289.1841
 20
590.9008
 11
276.3841
 21
590.9008
  0
LINE
  8
0_00
  6
DASHED
 62
2
 10
285.4341
 20
587.5009
 11
285.4341
 21
570.9008
  0
LINE
  8
0_00
  6
DASHED
 62
2
 10
280.1341
 20
587.5009
 11
280.1341
 21
570.9008
  0
LINE
  8
0_00
  6
DASHED
 62
2
 10
289.1841
 20
590.9008
 11
285.7841
 21
587.5009
  0
LINE
  8
0_00
  6
DASHED
 62
2
 10
276.3841
 20
590.9008
 11
279.7841
 21
587.5009
  0
LINE
  8
0_00
  6
DASHED
 62
2
 10
285.7841
 20
587.5009
 11
279.7841
 21
587.5009
  0
LINE
  8
0_00
  6
DASHED
 62
2
 10
285.7841
 20
587.5009
 11
285.7841
 21
570.9008
  0
LINE
  8
0_00
  6
DASHED
 62
2
 10
279.7841
 20
587.5009
 11
279.7841
 21
570.9008
  0
LINE
  8
0_00
  6
DASHED
 62
2
 10
285.7841
 20
570.9008
 11
279.7841
 21
570.9008
  0
LINE
  8
0_00
  6
DASHED
 62
2
 10
262.1841
 20
590.9008
 11
249.3841
 21
590.9008
  0
LINE
  8
0_00
  6
DASHED
 62
2
 10
258.4341
 20
587.5009
 11
258.4341
 21
570.9008
  0
LINE
  8
0_00
  6
DASHED
 62
2
 10
253.1341
 20
587.5009
 11
253.1341
 21
570.9008
  0
LINE
  8
0_00
  6
DASHED
 62
2
 10
262.1841
 20
590.9008
 11
258.7841
 21
587.5009
  0
LINE
  8
0_00
  6
DASHED
 62
2
 10
249.3841
 20
590.9008
 11
252.7841
 21
587.5009
  0
LINE
  8
0_00
  6
DASHED
 62
2
 10
258.7841
 20
587.5009
 11
252.7841
 21
587.5009
  0
LINE
  8
0_00
  6
DASHED
 62
2
 10
258.7841
 20
587.5009
 11
258.7841
 21
570.9008
  0
LINE
  8
0_00
  6
DASHED
 62
2
 10
252.7841
 20
587.5009
 11
252.7841
 21
570.9008
  0
LINE
  8
0_00
  6
DASHED
 62
2
 10
258.7841
 20
570.9008
 11
252.7841
 21
570.9008
  0
LINE
  8
0_00
  6
DASHED
 62
2
 10
219.0341
 20
697.1008
 11
219.0341
 21
685.1008
  0
LINE
  8
0_00
  6
DASHED
 62
2
 10
215.5341
 20
697.1008
 11
215.5341
 21
685.1008
  0
LINE
  8
0_00
  6
DASHED
 62
2
 10
219.2841
 20
697.1008
 11
219.2841
 21
685.1008
  0
LINE
  8
0_00
  6
DASHED
 62
2
 10
215.2841
 20
697.1008
 11
215.2841
 21
685.1008
  0
LINE
  8
0_00
  6
DASHED
 62
2
 10
219.2841
 20
685.1008
 11
215.2841
 21
685.1008
  0
LINE
  8
12_0C
  6
CONTINUOUS
 62
2
 10
213.2841
 20
697.1008
 11
221.2841
 21
697.1008
  0
LINE
  8
12_0C
  6
CONTINUOUS
 62
2
 10
213.2841
 20
697.5009
 11
221.2841
 21
697.5009
  0
LINE
  8
12_0C
  6
CONTINUOUS
 62
2
 10
221.2841
 20
697.1008
 11
221.2841
 21
697.5009
  0
LINE
  8
12_0C
  6
CONTINUOUS
 62
2
 10
213.2841
 20
697.1008
 11
213.2841
 21
697.5009
  0
LINE
  8
0_00
  6
DASHED
 62
2
 10
183.0341
 20
697.1008
 11
183.0341
 21
685.1008
  0
LINE
  8
0_00
  6
DASHED
 62
2
 10
179.5341
 20
697.1008
 11
179.5341
 21
685.1008
  0
LINE
  8
0_00
  6
DASHED
 62
2
 10
183.2841
 20
697.1008
 11
183.2841
 21
685.1008
  0
LINE
  8
0_00
  6
DASHED
 62
2
 10
179.2841
 20
697.1008
 11
179.2841
 21
685.1008
  0
LINE
  8
0_00
  6
DASHED
 62
2
 10
183.2841
 20
685.1008
 11
179.2841
 21
685.1008
  0
LINE
  8
12_0C
  6
CONTINUOUS
 62
2
 10
177.2841
 20
697.1008
 11
185.2841
 21
697.1008
  0
LINE
  8
12_0C
  6
CONTINUOUS
 62
2
 10
177.2841
 20
697.5009
 11
185.2841
 21
697.5009
  0
LINE
  8
12_0C
  6
CONTINUOUS
 62
2
 10
185.2841
 20
697.1008
 11
185.2841
 21
697.5009
  0
LINE
  8
12_0C
  6
CONTINUOUS
 62
2
 10
177.2841
 20
697.1008
 11
177.2841
 21
697.5009
  0
LINE
  8
0_00
  6
CONTINUOUS
 62
4
 10
199.2841
 20
697.2009
 11
198.9841
 21
696.9008
  0
LINE
  8
0_00
  6
CONTINUOUS
 62
4
 10
211.5841
 20
696.9008
 11
199.5841
 21
696.9008
  0
LINE
  8
0_00
  6
CONTINUOUS
 62
4
 10
199.2841
 20
697.2009
 11
199.5841
 21
696.9008
  0
LINE
  8
14_0E
  6
CONTINUOUS
 62
4
 10
212.3603
 20
698.5104
 11
203.2841
 21
698.9008
  0
LINE
  8
0_00
  6
CONTINUOUS
 62
4
 10
199.2841
 20
697.2009
 11
199.5841
 21
696.9008
  0
LINE
  8
0_00
  6
CONTINUOUS
 62
4
 10
186.9841
 20
696.9008
 11
198.9841
 21
696.9008
  0
LINE
  8
0_00
  6
CONTINUOUS
 62
4
 10
199.2841
 20
697.2009
 11
198.9841
 21
696.9008
  0
LINE
  8
14_0E
  6
CONTINUOUS
 62
4
 10
186.2079
 20
698.5104
 11
195.2841
 21
698.9008
  0
LINE
  8
0_00
  6
CONTINUOUS
 62
4
 10
203.2841
 20
698.9008
 11
195.2841
 21
698.9008
  0
LINE
  8
0_00
  6
CONTINUOUS
 62
4
 10
211.5841
 20
696.9008
 11
211.9841
 21
695.4008
  0
LINE
  8
0_00
  6
CONTINUOUS
 62
2
 10
214.7841
 20
697.1008
 11
219.7841
 21
697.1008
  0
LINE
  8
0_00
  6
CONTINUOUS
 62
4
 10
211.9841
 20
695.4008
 11
226.6841
 21
695.4008
  0
LINE
  8
0_00
  6
CONTINUOUS
 62
4
 10
217.2841
 20
695.7009
 11
216.9841
 21
695.4008
  0
LINE
  8
0_00
  6
CONTINUOUS
 62
4
 10
217.2841
 20
695.7009
 11
217.5841
 21
695.4008
  0
LINE
  8
0_00
  6
CONTINUOUS
 62
4
 10
224.6118
 20
696.9008
 11
220.0841
 21
696.9008
  0
LINE
  8
0_00
  6
CONTINUOUS
 62
4
 10
219.7841
 20
697.1008
 11
220.0841
 21
696.9008
  0
LINE
  8
0_00
  6
CONTINUOUS
 62
4
 10
214.4841
 20
696.9008
 11
213.2964
 21
696.9008
  0
LINE
  8
0_00
  6
CONTINUOUS
 62
4
 10
214.7841
 20
697.1008
 11
214.4841
 21
696.9008
  0
LINE
  8
0_00
  6
CONTINUOUS
 62
4
 10
212.6384
 20
698.2835
 11
212.9084
 21
697.2038
  0
LINE
  8
0_00
  6
CONTINUOUS
 62
4
 10
226.6841
 20
695.4008
 11
227.6841
 21
696.4009
  0
LINE
  8
0_00
  6
CONTINUOUS
 62
4
 10
227.6841
 20
696.4009
 11
227.6841
 21
697.7008
  0
LINE
  8
0_00
  6
CONTINUOUS
 62
4
 10
227.6841
 20
696.9008
 11
227.6841
 21
696.4009
  0
LINE
  8
0_00
  6
CONTINUOUS
 62
4
 10
226.7036
 20
699.7788
 11
227.5602
 21
699.8537
  0
LINE
  8
0_00
  6
CONTINUOUS
 62
4
 10
225.5969
 20
700.7861
 11
226.4350
 21
700.8595
  0
LINE
  8
0_00
  6
CONTINUOUS
 62
4
 10
224.6841
 20
699.7900
 11
224.6841
 21
699.3571
  0
LINE
  8
0_00
  6
CONTINUOUS
 62
4
 10
227.8280
 20
700.2129
 11
226.7425
 21
705.5008
  0
LINE
  8
0_00
  6
CONTINUOUS
 62
4
 10
225.9963
 20
704.6600
 11
226.7028
 21
701.2186
  0
LINE
  8
0_00
  6
CONTINUOUS
 62
4
 10
226.6820
 20
705.5008
 11
226.7425
 21
705.5008
  0
LINE
  8
0_00
  6
CONTINUOUS
 62
4
 10
186.9841
 20
696.9008
 11
186.5841
 21
695.4008
  0
LINE
  8
0_00
  6
CONTINUOUS
 62
2
 10
183.7841
 20
697.1008
 11
178.7841
 21
697.1008
  0
LINE
  8
0_00
  6
CONTINUOUS
 62
4
 10
186.5841
 20
695.4008
 11
171.8841
 21
695.4008
  0
LINE
  8
0_00
  6
CONTINUOUS
 62
4
 10
181.2841
 20
695.7009
 11
181.5841
 21
695.4008
  0
LINE
  8
0_00
  6
CONTINUOUS
 62
4
 10
181.2841
 20
695.7009
 11
180.9841
 21
695.4008
  0
LINE
  8
0_00
  6
CONTINUOUS
 62
4
 10
173.9563
 20
696.9008
 11
178.4841
 21
696.9008
  0
LINE
  8
0_00
  6
CONTINUOUS
 62
4
 10
178.7841
 20
697.1008
 11
178.4841
 21
696.9008
  0
LINE
  8
0_00
  6
CONTINUOUS
 62
4
 10
184.0841
 20
696.9008
 11
185.2718
 21
696.9008
  0
LINE
  8
0_00
  6
CONTINUOUS
 62
4
 10
183.7841
 20
697.1008
 11
184.0841
 21
696.9008
  0
LINE
  8
0_00
  6
CONTINUOUS
 62
4
 10
185.9298
 20
698.2835
 11
185.6598
 21
697.2038
  0
LINE
  8
0_00
  6
CONTINUOUS
 62
4
 10
171.8841
 20
695.4008
 11
170.8841
 21
696.4009
  0
LINE
  8
0_00
  6
CONTINUOUS
 62
4
 10
170.8841
 20
696.4009
 11
170.8841
 21
697.7008
  0
LINE
  8
0_00
  6
CONTINUOUS
 62
4
 10
170.8841
 20
696.9008
 11
170.8841
 21
696.4009
  0
LINE
  8
0_00
  6
CONTINUOUS
 62
4
 10
171.8646
 20
699.7788
 11
171.0079
 21
699.8537
  0
LINE
  8
0_00
  6
CONTINUOUS
 62
4
 10
172.9713
 20
700.7861
 11
172.1332
 21
700.8595
  0
LINE
  8
0_00
  6
CONTINUOUS
 62
4
 10
173.8841
 20
699.7900
 11
173.8841
 21
699.3571
  0
LINE
  8
0_00
  6
CONTINUOUS
 62
4
 10
170.7402
 20
700.2129
 11
171.8257
 21
705.5008
  0
LINE
  8
0_00
  6
CONTINUOUS
 62
4
 10
172.5719
 20
704.6600
 11
171.8654
 21
701.2186
  0
LINE
  8
0_00
  6
CONTINUOUS
 62
4
 10
171.8861
 20
705.5008
 11
171.8257
 21
705.5008
  0
LINE
  8
0_00
  6
CONTINUOUS
 62
4
 10
175.7841
 20
696.9008
 11
177.2841
 21
696.9008
  0
LINE
  8
0_00
  6
CONTINUOUS
 62
4
 10
229.2841
 20
733.4228
 11
229.2840
 21
694.6008
  0
LINE
  8
0_00
  6
CONTINUOUS
 62
4
 10
227.8841
 20
733.3981
 11
227.8840
 21
707.0246
  0
LINE
  8
0_00
  6
CONTINUOUS
 62
4
 10
170.6841
 20
733.3981
 11
170.6842
 21
707.0033
  0
LINE
  8
0_00
  6
CONTINUOUS
 62
4
 10
169.2841
 20
733.4228
 11
169.2842
 21
694.5957
  0
LINE
  8
0_00
  6
CONTINUOUS
 62
4
 10
170.6836
 20
697.7747
 11
170.6836
 21
694.6008
  0
LINE
  8
0_00
  6
CONTINUOUS
 62
4
 10
171.7641
 20
699.7301
 11
171.0487
 21
699.7927
  0
LINE
  8
0_00
  6
CONTINUOUS
 62
4
 10
170.6915
 20
700.2702
 11
171.1582
 21
702.5851
  0
LINE
  8
0_00
  6
CONTINUOUS
 62
4
 10
170.9622
 20
702.8247
 11
170.6836
 21
702.8247
  0
LINE
  8
0_00
  6
CONTINUOUS
 62
4
 10
170.6836
 20
702.8247
 11
170.6836
 21
705.2246
  0
LINE
  8
0_00
  6
CONTINUOUS
 62
4
 10
173.3836
 20
705.6246
 11
171.0836
 21
705.6246
  0
LINE
  8
0_00
  6
CONTINUOUS
 62
4
 10
173.6836
 20
706.6246
 11
171.0836
 21
706.6246
  0
LINE
  8
0_00
  6
CONTINUOUS
 62
4
 10
173.3836
 20
705.6246
 11
173.3836
 21
705.4247
  0
LINE
  8
0_00
  6
CONTINUOUS
 62
4
 10
174.1836
 20
706.1246
 11
174.1836
 21
705.0247
  0
LINE
  8
0_00
  6
CONTINUOUS
 62
4
 10
227.8840
 20
694.6008
 11
227.8840
 21
697.7747
  0
LINE
  8
0_00
  6
CONTINUOUS
 62
4
 10
226.8035
 20
699.7301
 11
227.5189
 21
699.7927
  0
LINE
  8
0_00
  6
CONTINUOUS
 62
4
 10
227.8761
 20
700.2702
 11
227.4094
 21
702.5851
  0
LINE
  8
0_00
  6
CONTINUOUS
 62
4
 10
224.3840
 20
706.1246
 11
224.3840
 21
705.0247
  0
LINE
  8
0_00
  6
CONTINUOUS
 62
4
 10
225.1840
 20
705.6246
 11
225.1840
 21
705.4247
  0
LINE
  8
0_00
  6
CONTINUOUS
 62
4
 10
225.1840
 20
705.6246
 11
227.4840
 21
705.6246
  0
LINE
  8
0_00
  6
CONTINUOUS
 62
4
 10
224.8840
 20
706.6246
 11
227.4840
 21
706.6246
  0
LINE
  8
0_00
  6
CONTINUOUS
 62
4
 10
227.8840
 20
702.8247
 11
227.8840
 21
705.2246
  0
LINE
  8
0_00
  6
CONTINUOUS
 62
4
 10
227.6055
 20
702.8247
 11
227.8840
 21
702.8247
  0
LINE
  8
0_00
  6
CONTINUOUS
 62
4
 10
245.7841
 20
580.9008
 11
245.7841
 21
579.6841
  0
LINE
  8
0_00
  6
CONTINUOUS
 62
4
 10
292.7841
 20
580.9008
 11
292.7841
 21
578.1175
  0
LINE
  8
15_0F
  6
CONTINUOUS
 62
6
 10
600.1302
 20
370.7646
 11
600.1302
 21
439.5023
  0
LINE
  8
15_0F
  6
CONTINUOUS
 62
6
 10
660.1302
 20
358.7821
 11
660.1302
 21
439.5023
  0
LINE
  8
15_0F
  6
CONTINUOUS
 62
6
 10
600.1302
 20
433.5023
 11
660.1302
 21
433.5023
  0
LINE
  8
15_0F
  6
CONTINUOUS
 62
6
 10
600.1302
 20
433.5023
 11
607.4664
 21
431.9430
  0
LINE
  8
15_0F
  6
CONTINUOUS
 62
6
 10
600.1302
 20
433.5023
 11
607.4664
 21
435.0616
  0
LINE
  8
15_0F
  6
CONTINUOUS
 62
6
 10
660.1302
 20
433.5023
 11
652.7941
 21
435.0616
  0
LINE
  8
15_0F
  6
CONTINUOUS
 62
6
 10
660.1302
 20
433.5023
 11
652.7941
 21
431.9430
  0
LINE
  8
15_0F
  6
CONTINUOUS
 62
6
 10
583.3350
 20
317.5646
 11
495.6263
 21
317.5646
  0
LINE
  8
15_0F
  6
CONTINUOUS
 62
6
 10
624.0458
 20
261.5646
 11
495.6263
 21
261.5646
  0
LINE
  8
15_0F
  6
CONTINUOUS
 62
6
 10
501.6263
 20
317.5646
 11
501.6263
 21
261.5646
  0
LINE
  8
15_0F
  6
CONTINUOUS
 62
6
 10
501.6263
 20
317.5646
 11
500.0669
 21
310.2285
  0
LINE
  8
15_0F
  6
CONTINUOUS
 62
6
 10
501.6263
 20
317.5646
 11
503.1856
 21
310.2285
  0
LINE
  8
15_0F
  6
CONTINUOUS
 62
6
 10
501.6263
 20
261.5646
 11
503.1856
 21
268.9007
  0
LINE
  8
15_0F
  6
CONTINUOUS
 62
6
 10
501.6263
 20
261.5646
 11
500.0669
 21
268.9007
  0
LINE
  8
15_0F
  6
CONTINUOUS
 62
6
 10
1044.1789
 20
313.0646
 11
1103.6386
 21
313.0646
  0
LINE
  8
15_0F
  6
CONTINUOUS
 62
6
 10
1042.3010
 20
266.0646
 11
1103.6386
 21
266.0646
  0
LINE
  8
15_0F
  6
CONTINUOUS
 62
6
 10
1097.6387
 20
313.0646
 11
1097.6387
 21
266.0646
  0
LINE
  8
15_0F
  6
CONTINUOUS
 62
6
 10
1097.6387
 20
313.0646
 11
1096.0794
 21
305.7285
  0
LINE
  8
15_0F
  6
CONTINUOUS
 62
6
 10
1097.6387
 20
313.0646
 11
1099.1980
 21
305.7285
  0
LINE
  8
15_0F
  6
CONTINUOUS
 62
6
 10
1097.6387
 20
266.0646
 11
1099.1980
 21
273.4007
  0
LINE
  8
15_0F
  6
CONTINUOUS
 62
6
 10
1097.6387
 20
266.0646
 11
1096.0794
 21
273.4007
  0
LINE
  8
15_0F
  6
CONTINUOUS
 62
6
 10
1015.6104
 20
340.2839
 11
1015.6104
 21
489.5023
  0
LINE
  8
15_0F
  6
CONTINUOUS
 62
6
 10
630.1303
 20
483.5023
 11
1015.6104
 21
483.5023
  0
LINE
  8
15_0F
  6
CONTINUOUS
 62
6
 10
630.1303
 20
483.5023
 11
637.4664
 21
481.9430
  0
LINE
  8
15_0F
  6
CONTINUOUS
 62
6
 10
630.1303
 20
483.5023
 11
637.4664
 21
485.0616
  0
LINE
  8
15_0F
  6
CONTINUOUS
 62
6
 10
1015.6104
 20
483.5023
 11
1008.2743
 21
485.0616
  0
LINE
  8
15_0F
  6
CONTINUOUS
 62
6
 10
1015.6104
 20
483.5023
 11
1008.2743
 21
481.9430
  0
LINE
  8
15_0F
  6
CONTINUOUS
 62
6
 10
630.1303
 20
376.6714
 11
630.1303
 21
408.3490
  0
LINE
  8
15_0F
  6
CONTINUOUS
 62
6
 10
630.1303
 20
469.6719
 11
630.1303
 21
489.5023
  0
LINE
  8
0_00
  6
CONTINUOUS
 62
4
 10
583.3802
 20
332.3146
 11
583.3802
 21
320.8146
  0
LINE
  8
0_00
  6
CONTINUOUS
 62
4
 10
591.8803
 20
332.3146
 11
591.8803
 21
320.8146
  0
LINE
  8
0_00
  6
CONTINUOUS
 62
4
 10
583.3802
 20
246.8146
 11
583.3802
 21
258.3146
  0
LINE
  8
0_00
  6
CONTINUOUS
 62
4
 10
591.8803
 20
246.8146
 11
591.8803
 21
258.3146
  0
LINE
  8
0_00
  6
CONTINUOUS
 62
4
 10
668.3802
 20
332.3146
 11
668.3802
 21
320.8146
  0
LINE
  8
0_00
  6
CONTINUOUS
 62
4
 10
676.8802
 20
332.3146
 11
676.8802
 21
320.8146
  0
LINE
  8
0_00
  6
CONTINUOUS
 62
4
 10
668.3802
 20
246.8146
 11
668.3802
 21
258.3146
  0
LINE
  8
0_00
  6
CONTINUOUS
 62
4
 10
676.8802
 20
246.8146
 11
676.8802
 21
258.3146
  0
LINE
  8
0_00
  6
CONTINUOUS
 62
6
 10
575.1302
 20
344.5646
 11
575.1302
 21
458.6250
  0
LINE
  8
0_00
  6
CONTINUOUS
 62
6
 10
685.1303
 20
344.5646
 11
685.1303
 21
458.6250
  0
LINE
  8
0_00
  6
CONTINUOUS
 62
6
 10
575.1302
 20
455.6249
 11
685.1303
 21
455.6249
  0
LINE
  8
0_00
  6
CONTINUOUS
 62
6
 10
575.1302
 20
455.6249
 11
582.4664
 21
454.0656
  0
LINE
  8
0_00
  6
CONTINUOUS
 62
6
 10
575.1302
 20
455.6249
 11
582.4664
 21
457.1843
  0
LINE
  8
0_00
  6
CONTINUOUS
 62
6
 10
685.1303
 20
455.6249
 11
677.7941
 21
457.1843
  0
LINE
  8
0_00
  6
CONTINUOUS
 62
6
 10
685.1303
 20
455.6249
 11
677.7941
 21
454.0656
  0
LINE
  8
15_0F
  6
CONTINUOUS
 62
4
 10
1085.0603
 20
528.8060
 11
1158.8604
 21
528.8060
  0
LINE
  8
0_00
  6
CONTINUOUS
 62
6
 10
241.2841
 20
506.1828
 11
241.2841
 21
442.0246
  0
LINE
  8
0_00
  6
CONTINUOUS
 62
6
 10
297.2841
 20
506.1828
 11
297.2841
 21
442.0246
  0
LINE
  8
0_00
  6
CONTINUOUS
 62
6
 10
241.2841
 20
445.0246
 11
297.2841
 21
445.0246
  0
LINE
  8
0_00
  6
CONTINUOUS
 62
6
 10
241.2841
 20
445.0246
 11
248.6202
 21
443.4652
  0
LINE
  8
0_00
  6
CONTINUOUS
 62
6
 10
241.2841
 20
445.0246
 11
248.6202
 21
446.5839
  0
LINE
  8
0_00
  6
CONTINUOUS
 62
6
 10
297.2841
 20
445.0246
 11
289.9480
 21
446.5839
  0
LINE
  8
0_00
  6
CONTINUOUS
 62
6
 10
297.2841
 20
445.0246
 11
289.9480
 21
443.4652
  0
LINE
  8
0_00
  6
CONTINUOUS
 62
6
 10
229.2841
 20
748.4701
 11
229.2841
 21
772.0779
  0
LINE
  8
0_00
  6
CONTINUOUS
 62
6
 10
169.2841
 20
748.4701
 11
169.2841
 21
772.0779
  0
LINE
  8
0_00
  6
CONTINUOUS
 62
6
 10
169.2841
 20
769.0779
 11
229.2841
 21
769.0779
  0
LINE
  8
0_00
  6
CONTINUOUS
 62
6
 10
169.2841
 20
769.0779
 11
176.6202
 21
767.5185
  0
LINE
  8
0_00
  6
CONTINUOUS
 62
6
 10
169.2841
 20
769.0779
 11
176.6202
 21
770.6373
  0
LINE
  8
0_00
  6
CONTINUOUS
 62
6
 10
229.2841
 20
769.0779
 11
221.9480
 21
770.6373
  0
LINE
  8
0_00
  6
CONTINUOUS
 62
6
 10
229.2841
 20
769.0779
 11
221.9480
 21
767.5185
  0
LINE
  8
0_00
  6
DASHED
 62
2
 10
283.1499
 20
187.5510
 11
270.3499
 21
187.5510
  0
LINE
  8
0_00
  6
DASHED
 62
2
 10
279.3999
 20
184.1510
 11
279.3999
 21
167.5510
  0
LINE
  8
0_00
  6
DASHED
 62
2
 10
274.0999
 20
184.1510
 11
274.0999
 21
167.5510
  0
LINE
  8
0_00
  6
DASHED
 62
2
 10
283.1499
 20
187.5510
 11
279.7499
 21
184.1510
  0
LINE
  8
0_00
  6
DASHED
 62
2
 10
270.3499
 20
187.5510
 11
273.7499
 21
184.1510
  0
LINE
  8
0_00
  6
DASHED
 62
2
 10
279.7499
 20
184.1510
 11
273.7499
 21
184.1510
  0
LINE
  8
0_00
  6
DASHED
 62
2
 10
279.7499
 20
184.1510
 11
279.7499
 21
167.5510
  0
LINE
  8
0_00
  6
DASHED
 62
2
 10
273.7499
 20
184.1510
 11
273.7499
 21
167.5510
  0
LINE
  8
0_00
  6
DASHED
 62
2
 10
279.7499
 20
167.5510
 11
273.7499
 21
167.5510
  0
LINE
  8
0_00
  6
DASHED
 62
2
 10
267.9999
 20
293.7510
 11
267.9999
 21
281.7510
  0
LINE
  8
0_00
  6
DASHED
 62
2
 10
264.4999
 20
293.7510
 11
264.4999
 21
281.7510
  0
LINE
  8
0_00
  6
DASHED
 62
2
 10
268.2499
 20
293.7510
 11
268.2499
 21
281.7510
  0
LINE
  8
0_00
  6
DASHED
 62
2
 10
264.2499
 20
293.7510
 11
264.2499
 21
281.7510
  0
LINE
  8
0_00
  6
DASHED
 62
2
 10
268.2499
 20
281.7510
 11
264.2499
 21
281.7510
  0
LINE
  8
12_0C
  6
DASHED
 62
2
 10
262.2499
 20
293.7510
 11
270.2499
 21
293.7510
  0
LINE
  8
12_0C
  6
DASHED
 62
2
 10
262.2499
 20
294.1510
 11
270.2499
 21
294.1510
  0
LINE
  8
12_0C
  6
DASHED
 62
2
 10
270.2499
 20
293.7510
 11
270.2499
 21
294.1510
  0
LINE
  8
12_0C
  6
DASHED
 62
2
 10
262.2499
 20
293.7510
 11
262.2499
 21
294.1510
  0
LINE
  8
0_00
  6
DASHED
 62
2
 10
288.9999
 20
293.7510
 11
288.9999
 21
281.7510
  0
LINE
  8
0_00
  6
DASHED
 62
2
 10
285.4999
 20
293.7510
 11
285.4999
 21
281.7510
  0
LINE
  8
0_00
  6
DASHED
 62
2
 10
289.2499
 20
293.7510
 11
289.2499
 21
281.7510
  0
LINE
  8
0_00
  6
DASHED
 62
2
 10
285.2499
 20
293.7510
 11
285.2499
 21
281.7510
  0
LINE
  8
0_00
  6
DASHED
 62
2
 10
289.2499
 20
281.7510
 11
285.2499
 21
281.7510
  0
LINE
  8
12_0C
  6
DASHED
 62
2
 10
283.2499
 20
293.7510
 11
291.2499
 21
293.7510
  0
LINE
  8
12_0C
  6
DASHED
 62
2
 10
283.2499
 20
294.1510
 11
291.2499
 21
294.1510
  0
LINE
  8
12_0C
  6
DASHED
 62
2
 10
291.2499
 20
293.7510
 11
291.2499
 21
294.1510
  0
LINE
  8
12_0C
  6
DASHED
 62
2
 10
283.2499
 20
293.7510
 11
283.2499
 21
294.1510
  0
LINE
  8
0_00
  6
CONTINUOUS
 62
3
 10
547.4110
 20
97.2001
 11
547.4110
 21
37.2000
  0
LINE
  8
0_00
  6
CONTINUOUS
 62
7
 10
54.6905
 20
112.2001
 11
1218.5110
 21
112.2001
  0
LINE
  8
0_00
  6
CONTINUOUS
 62
3
 10
1218.5110
 20
851.7001
 11
1218.5110
 21
865.2001
  0
LINE
  8
0_00
  6
CONTINUOUS
 62
7
 10
1218.5110
 20
37.2000
 11
1218.5110
 21
851.7001
  0
LINE
  8
0_00
  6
CONTINUOUS
 62
3
 10
54.6905
 20
851.7001
 11
54.6905
 21
865.2001
  0
LINE
  8
0_00
  6
CONTINUOUS
 62
7
 10
54.6905
 20
37.2000
 11
54.6905
 21
851.7001
  0
LINE
  8
0_00
  6
CONTINUOUS
 62
7
 10
54.6905
 20
851.7001
 11
1218.5110
 21
851.7001
  0
LINE
  8
0_00
  6
CONTINUOUS
 62
7
 10
54.6905
 20
37.2000
 11
1218.5110
 21
37.2000
  0
LINE
  8
0_00
  6
CONTINUOUS
 62
3
 10
39.6905
 20
22.2000
 11
39.6905
 21
865.2001
  0
LINE
  8
0_00
  6
CONTINUOUS
 62
3
 10
1233.5110
 20
22.2000
 11
1233.5110
 21
865.2001
  0
LINE
  8
0_00
  6
CONTINUOUS
 62
3
 10
39.6905
 20
865.2001
 11
1233.5110
 21
865.2001
  0
LINE
  8
0_00
  6
CONTINUOUS
 62
3
 10
1070.6111
 20
37.2000
 11
1070.6111
 21
112.2001
  0
LINE
  8
0_00
  6
CONTINUOUS
 62
3
 10
54.6905
 20
97.2001
 11
812.7610
 21
97.2001
  0
LINE
  8
0_00
  6
CONTINUOUS
 62
7
 10
812.7610
 20
97.2001
 11
1218.5110
 21
97.2001
  0
LINE
  8
0_00
  6
CONTINUOUS
 62
3
 10
1070.6111
 20
67.2000
 11
1218.5110
 21
67.2000
  0
LINE
  8
0_00
  6
CONTINUOUS
 62
3
 10
1100.6111
 20
112.2001
 11
1100.6111
 21
97.2001
  0
LINE
  8
0_00
  6
CONTINUOUS
 62
3
 10
812.7610
 20
37.2000
 11
812.7610
 21
97.2001
  0
LINE
  8
0_00
  6
CONTINUOUS
 62
7
 10
812.7610
 20
97.2001
 11
812.7610
 21
112.2001
  0
LINE
  8
0_00
  6
CONTINUOUS
 62
3
 10
836.7610
 20
97.2001
 11
836.7610
 21
112.2001
  0
LINE
  8
0_00
  6
CONTINUOUS
 62
3
 10
912.5110
 20
37.2000
 11
912.5110
 21
112.2001
  0
LINE
  8
0_00
  6
CONTINUOUS
 62
3
 10
1004.6111
 20
97.2001
 11
1004.6111
 21
112.2001
  0
LINE
  8
0_00
  6
CONTINUOUS
 62
3
 10
1032.2110
 20
37.2000
 11
1032.2110
 21
97.2001
  0
LINE
  8
0_00
  6
CONTINUOUS
 62
3
 10
995.9110
 20
37.2000
 11
995.9110
 21
97.2001
  0
LINE
  8
0_00
  6
CONTINUOUS
 62
3
 10
959.6110
 20
37.2000
 11
959.6110
 21
97.2001
  0
LINE
  8
0_00
  6
CONTINUOUS
 62
3
 10
468.6610
 20
37.2000
 11
468.6610
 21
112.2001
  0
LINE
  8
0_00
  6
CONTINUOUS
 62
3
 10
626.1610
 20
37.2000
 11
626.1610
 21
97.2001
  0
LINE
  8
0_00
  6
CONTINUOUS
 62
3
 10
54.6905
 20
82.2001
 11
468.6610
 21
82.2001
  0
LINE
  8
0_00
  6
CONTINUOUS
 62
3
 10
54.6905
 20
67.2000
 11
912.5110
 21
67.2000
  0
LINE
  8
0_00
  6
CONTINUOUS
 62
3
 10
174.6905
 20
52.2000
 11
468.6610
 21
52.2000
  0
LINE
  8
0_00
  6
CONTINUOUS
 62
7
 10
54.6905
 20
52.2000
 11
174.6905
 21
52.2000
  0
LINE
  8
0_00
  6
CONTINUOUS
 62
3
 10
818.0110
 20
851.7001
 11
818.0110
 21
865.2001
  0
LINE
  8
0_00
  6
CONTINUOUS
 62
3
 10
788.0110
 20
851.7001
 11
788.0110
 21
865.2001
  0
LINE
  8
0_00
  6
CONTINUOUS
 62
3
 10
204.6905
 20
851.7001
 11
204.6905
 21
865.2001
  0
LINE
  8
0_00
  6
CONTINUOUS
 62
3
 10
854.0110
 20
851.7001
 11
854.0110
 21
865.2001
  0
LINE
  8
0_00
  6
CONTINUOUS
 62
3
 10
915.5110
 20
851.7001
 11
915.5110
 21
865.2001
  0
LINE
  8
0_00
  6
CONTINUOUS
 62
3
 10
1146.5110
 20
851.7001
 11
1146.5110
 21
865.2001
  0
LINE
  8
0_00
  6
CONTINUOUS
 62
3
 10
114.6905
 20
112.2001
 11
114.6905
 21
37.2000
  0
LINE
  8
0_00
  6
CONTINUOUS
 62
7
 10
174.6905
 20
112.2001
 11
174.6905
 21
37.2000
  0
LINE
  8
0_00
  6
CONTINUOUS
 62
3
 10
869.7610
 20
67.2000
 11
869.7610
 21
97.2001
  0
LINE
  8
0_00
  6
CONTINUOUS
 62
3
 10
893.7610
 20
112.2001
 11
893.7610
 21
97.2001
  0
LINE
  8
0_00
  6
CONTINUOUS
 62
3
 10
912.5110
 20
82.2001
 11
1070.6111
 21
82.2001
  0
LINE
  8
0_00
  6
CONTINUOUS
 62
3
 10
1076.6111
 20
71.7000
 11
1078.5610
 21
71.7000
  0
LINE
  8
0_00
  6
CONTINUOUS
 62
3
 10
1078.5610
 20
71.7000
 11
1078.5610
 21
91.2000
  0
LINE
  8
0_00
  6
CONTINUOUS
 62
3
 10
1078.5610
 20
91.2000
 11
1076.6111
 21
91.2000
  0
LINE
  8
0_00
  6
CONTINUOUS
 62
3
 10
1076.6111
 20
71.7000
 11
1076.6111
 21
91.2000
  0
LINE
  8
0_00
  6
CONTINUOUS
 62
3
 10
1079.3410
 20
71.7000
 11
1081.2911
 21
71.7000
  0
LINE
  8
0_00
  6
CONTINUOUS
 62
3
 10
1081.2911
 20
71.7000
 11
1081.2911
 21
91.2000
  0
LINE
  8
0_00
  6
CONTINUOUS
 62
3
 10
1081.2911
 20
91.2000
 11
1079.3410
 21
91.2000
  0
LINE
  8
0_00
  6
CONTINUOUS
 62
3
 10
1079.3410
 20
71.7000
 11
1079.3410
 21
91.2000
  0
LINE
  8
0_00
  6
CONTINUOUS
 62
3
 10
1082.0711
 20
71.7000
 11
1084.0210
 21
71.7000
  0
LINE
  8
0_00
  6
CONTINUOUS
 62
3
 10
1084.0210
 20
71.7000
 11
1084.0210
 21
91.2000
  0
LINE
  8
0_00
  6
CONTINUOUS
 62
3
 10
1084.0210
 20
91.2000
 11
1082.0711
 21
91.2000
  0
LINE
  8
0_00
  6
CONTINUOUS
 62
3
 10
1082.0711
 20
71.7000
 11
1082.0711
 21
91.2000
  0
LINE
  8
0_00
  6
CONTINUOUS
 62
3
 10
1084.8010
 20
71.7000
 11
1086.7511
 21
71.7000
  0
LINE
  8
0_00
  6
CONTINUOUS
 62
3
 10
1086.7511
 20
91.2000
 11
1084.8010
 21
91.2000
  0
LINE
  8
0_00
  6
CONTINUOUS
 62
3
 10
1084.8010
 20
71.7000
 11
1084.8010
 21
91.2000
  0
LINE
  8
0_00
  6
CONTINUOUS
 62
3
 10
1092.4061
 20
71.7000
 11
1100.0110
 21
71.7000
  0
LINE
  8
0_00
  6
CONTINUOUS
 62
3
 10
1100.0110
 20
71.7000
 11
1100.0110
 21
73.4550
  0
LINE
  8
0_00
  6
CONTINUOUS
 62
3
 10
1100.0110
 20
73.4550
 11
1092.4061
 21
73.4550
  0
LINE
  8
0_00
  6
CONTINUOUS
 62
3
 10
1092.4061
 20
73.4550
 11
1092.4061
 21
71.7000
  0
LINE
  8
0_00
  6
CONTINUOUS
 62
3
 10
1092.4061
 20
74.2350
 11
1100.0110
 21
74.2350
  0
LINE
  8
0_00
  6
CONTINUOUS
 62
3
 10
1100.0110
 20
74.2350
 11
1100.0110
 21
75.9900
  0
LINE
  8
0_00
  6
CONTINUOUS
 62
3
 10
1100.0110
 20
75.9900
 11
1092.4061
 21
75.9900
  0
LINE
  8
0_00
  6
CONTINUOUS
 62
3
 10
1092.4061
 20
75.9900
 11
1092.4061
 21
74.2350
  0
LINE
  8
0_00
  6
CONTINUOUS
 62
3
 10
1092.4061
 20
76.7700
 11
1100.0110
 21
76.7700
  0
LINE
  8
0_00
  6
CONTINUOUS
 62
3
 10
1100.0110
 20
76.7700
 11
1100.0110
 21
78.5250
  0
LINE
  8
0_00
  6
CONTINUOUS
 62
3
 10
1100.0110
 20
78.5250
 11
1092.4061
 21
78.5250
  0
LINE
  8
0_00
  6
CONTINUOUS
 62
3
 10
1092.4061
 20
78.5250
 11
1092.4061
 21
76.7700
  0
LINE
  8
0_00
  6
CONTINUOUS
 62
3
 10
1092.4061
 20
79.3050
 11
1100.0110
 21
79.3050
  0
LINE
  8
0_00
  6
CONTINUOUS
 62
3
 10
1100.0110
 20
79.3050
 11
1100.0110
 21
81.0600
  0
LINE
  8
0_00
  6
CONTINUOUS
 62
3
 10
1100.0110
 20
81.0600
 11
1092.4061
 21
81.0600
  0
LINE
  8
0_00
  6
CONTINUOUS
 62
3
 10
1092.4061
 20
81.0600
 11
1092.4061
 21
79.3050
  0
LINE
  8
0_00
  6
CONTINUOUS
 62
3
 10
1092.4061
 20
81.8401
 11
1100.0110
 21
81.8401
  0
LINE
  8
0_00
  6
CONTINUOUS
 62
3
 10
1100.0110
 20
81.8401
 11
1100.0110
 21
83.5950
  0
LINE
  8
0_00
  6
CONTINUOUS
 62
3
 10
1100.0110
 20
83.5950
 11
1092.4061
 21
83.5950
  0
LINE
  8
0_00
  6
CONTINUOUS
 62
3
 10
1092.4061
 20
83.5950
 11
1092.4061
 21
81.8401
  0
LINE
  8
0_00
  6
CONTINUOUS
 62
3
 10
1092.4061
 20
84.3751
 11
1100.0110
 21
84.3751
  0
LINE
  8
0_00
  6
CONTINUOUS
 62
3
 10
1100.0110
 20
84.3751
 11
1100.0110
 21
86.1300
  0
LINE
  8
0_00
  6
CONTINUOUS
 62
3
 10
1100.0110
 20
86.1300
 11
1092.4061
 21
86.1300
  0
LINE
  8
0_00
  6
CONTINUOUS
 62
3
 10
1092.4061
 20
86.1300
 11
1092.4061
 21
84.3751
  0
LINE
  8
0_00
  6
CONTINUOUS
 62
3
 10
1092.4061
 20
86.9101
 11
1100.0110
 21
86.9101
  0
LINE
  8
0_00
  6
CONTINUOUS
 62
3
 10
1100.0110
 20
86.9101
 11
1100.0110
 21
88.6650
  0
LINE
  8
0_00
  6
CONTINUOUS
 62
3
 10
1100.0110
 20
88.6650
 11
1092.4061
 21
88.6650
  0
LINE
  8
0_00
  6
CONTINUOUS
 62
3
 10
1092.4061
 20
88.6650
 11
1092.4061
 21
86.9101
  0
LINE
  8
0_00
  6
CONTINUOUS
 62
3
 10
1092.4061
 20
89.4451
 11
1100.0110
 21
89.4451
  0
LINE
  8
0_00
  6
CONTINUOUS
 62
3
 10
1100.0110
 20
89.4451
 11
1100.0110
 21
91.2000
  0
LINE
  8
0_00
  6
CONTINUOUS
 62
3
 10
1100.0110
 20
91.2000
 11
1092.4061
 21
91.2000
  0
LINE
  8
0_00
  6
CONTINUOUS
 62
3
 10
1092.4061
 20
91.2000
 11
1092.4061
 21
89.4451
  0
LINE
  8
0_00
  6
CONTINUOUS
 62
3
 10
1087.5311
 20
71.7000
 11
1087.5311
 21
77.0626
  0
LINE
  8
0_00
  6
CONTINUOUS
 62
3
 10
1088.8375
 20
72.7725
 11
1088.8375
 21
77.0626
  0
LINE
  8
0_00
  6
CONTINUOUS
 62
3
 10
1087.5311
 20
71.7000
 11
1089.6760
 21
71.7000
  0
LINE
  8
0_00
  6
CONTINUOUS
 62
3
 10
1088.8375
 20
72.7725
 11
1089.6760
 21
72.7725
  0
LINE
  8
0_00
  6
CONTINUOUS
 62
3
 10
1089.6050
 20
79.8056
 11
1090.4561
 21
78.1351
  0
LINE
  8
0_00
  6
CONTINUOUS
 62
3
 10
1090.9410
 20
82.5453
 11
1089.6047
 21
79.8055
  0
LINE
  8
0_00
  6
CONTINUOUS
 62
3
 10
1086.7511
 20
85.3501
 11
1086.7511
 21
91.2000
  0
LINE
  8
0_00
  6
CONTINUOUS
 62
3
 10
1086.7511
 20
85.3501
 11
1089.1886
 21
85.3501
  0
LINE
  8
0_00
  6
CONTINUOUS
 62
3
 10
1086.7511
 20
84.1801
 11
1087.8333
 21
84.1801
  0
LINE
  8
0_00
  6
CONTINUOUS
 62
3
 10
1086.7511
 20
78.1351
 11
1090.4561
 21
78.1351
  0
LINE
  8
0_00
  6
CONTINUOUS
 62
3
 10
1086.7511
 20
81.9611
 11
1087.8334
 21
84.1801
  0
LINE
  8
0_00
  6
CONTINUOUS
 62
3
 10
1086.7511
 20
81.9613
 11
1086.7511
 21
84.1801
  0
LINE
  8
0_00
  6
CONTINUOUS
 62
3
 10
1086.7511
 20
78.1351
 11
1086.7511
 21
71.7000
  0
LINE
  8
0_00
  6
CONTINUOUS
 62
3
 10
1076.9110
 20
91.2000
 11
1076.9110
 21
71.7000
  0
LINE
  8
0_00
  6
CONTINUOUS
 62
3
 10
1077.2110
 20
91.2000
 11
1077.2110
 21
71.7000
  0
LINE
  8
0_00
  6
CONTINUOUS
 62
3
 10
1077.5110
 20
91.2000
 11
1077.5110
 21
71.7000
  0
LINE
  8
0_00
  6
CONTINUOUS
 62
3
 10
1077.8109
 20
91.2000
 11
1077.8109
 21
71.7000
  0
LINE
  8
0_00
  6
CONTINUOUS
 62
3
 10
1078.1111
 20
91.2000
 11
1078.1111
 21
71.7000
  0
LINE
  8
0_00
  6
CONTINUOUS
 62
3
 10
1079.6411
 20
91.2000
 11
1079.6411
 21
71.7000
  0
LINE
  8
0_00
  6
CONTINUOUS
 62
3
 10
1079.9410
 20
91.2000
 11
1079.9410
 21
71.7000
  0
LINE
  8
0_00
  6
CONTINUOUS
 62
3
 10
1080.2410
 20
91.2000
 11
1080.2410
 21
71.7000
  0
LINE
  8
0_00
  6
CONTINUOUS
 62
3
 10
1080.5410
 20
91.2000
 11
1080.5410
 21
71.7000
  0
LINE
  8
0_00
  6
CONTINUOUS
 62
3
 10
1080.8410
 20
91.2000
 11
1080.8410
 21
71.7000
  0
LINE
  8
0_00
  6
CONTINUOUS
 62
3
 10
1081.1411
 20
91.2000
 11
1081.1411
 21
71.7000
  0
LINE
  8
0_00
  6
CONTINUOUS
 62
3
 10
1082.3709
 20
91.2000
 11
1082.3709
 21
71.7000
  0
LINE
  8
0_00
  6
CONTINUOUS
 62
3
 10
1082.6711
 20
91.2000
 11
1082.6711
 21
71.7000
  0
LINE
  8
0_00
  6
CONTINUOUS
 62
3
 10
1082.9711
 20
91.2000
 11
1082.9711
 21
71.7000
  0
LINE
  8
0_00
  6
CONTINUOUS
 62
3
 10
1083.2710
 20
91.2000
 11
1083.2710
 21
71.7000
  0
LINE
  8
0_00
  6
CONTINUOUS
 62
3
 10
1083.5711
 20
91.2000
 11
1083.5711
 21
71.7000
  0
LINE
  8
0_00
  6
CONTINUOUS
 62
3
 10
1083.8709
 20
91.2000
 11
1083.8709
 21
71.7000
  0
LINE
  8
0_00
  6
CONTINUOUS
 62
3
 10
1092.4061
 20
72.0001
 11
1100.0110
 21
72.0001
  0
LINE
  8
0_00
  6
CONTINUOUS
 62
3
 10
1092.4061
 20
72.3001
 11
1100.0110
 21
72.3001
  0
LINE
  8
0_00
  6
CONTINUOUS
 62
3
 10
1092.4061
 20
72.6000
 11
1100.0110
 21
72.6000
  0
LINE
  8
0_00
  6
CONTINUOUS
 62
3
 10
1092.4061
 20
72.9000
 11
1100.0110
 21
72.9000
  0
LINE
  8
0_00
  6
CONTINUOUS
 62
3
 10
1092.4061
 20
73.2000
 11
1100.0110
 21
73.2000
  0
LINE
  8
0_00
  6
CONTINUOUS
 62
3
 10
1092.4061
 20
74.5351
 11
1100.0110
 21
74.5351
  0
LINE
  8
0_00
  6
CONTINUOUS
 62
3
 10
1092.4061
 20
74.8351
 11
1100.0110
 21
74.8351
  0
LINE
  8
0_00
  6
CONTINUOUS
 62
3
 10
1092.4061
 20
75.1350
 11
1100.0110
 21
75.1350
  0
LINE
  8
0_00
  6
CONTINUOUS
 62
3
 10
1092.4061
 20
75.4350
 11
1100.0110
 21
75.4350
  0
LINE
  8
0_00
  6
CONTINUOUS
 62
3
 10
1092.4061
 20
75.7350
 11
1100.0110
 21
75.7350
  0
LINE
  8
0_00
  6
CONTINUOUS
 62
3
 10
1092.4061
 20
77.0701
 11
1100.0110
 21
77.0701
  0
LINE
  8
0_00
  6
CONTINUOUS
 62
3
 10
1092.4061
 20
77.3701
 11
1100.0110
 21
77.3701
  0
LINE
  8
0_00
  6
CONTINUOUS
 62
3
 10
1092.4061
 20
77.6700
 11
1100.0110
 21
77.6700
  0
LINE
  8
0_00
  6
CONTINUOUS
 62
3
 10
1092.4061
 20
77.9700
 11
1100.0110
 21
77.9700
  0
LINE
  8
0_00
  6
CONTINUOUS
 62
3
 10
1092.4061
 20
78.2701
 11
1100.0110
 21
78.2701
  0
LINE
  8
0_00
  6
CONTINUOUS
 62
3
 10
1092.4061
 20
79.6051
 11
1100.0110
 21
79.6051
  0
LINE
  8
0_00
  6
CONTINUOUS
 62
3
 10
1092.4061
 20
79.9051
 11
1100.0110
 21
79.9051
  0
LINE
  8
0_00
  6
CONTINUOUS
 62
3
 10
1092.4061
 20
80.2050
 11
1100.0110
 21
80.2050
  0
LINE
  8
0_00
  6
CONTINUOUS
 62
3
 10
1092.4061
 20
80.5050
 11
1100.0110
 21
80.5050
  0
LINE
  8
0_00
  6
CONTINUOUS
 62
3
 10
1092.4061
 20
80.8051
 11
1100.0110
 21
80.8051
  0
LINE
  8
0_00
  6
CONTINUOUS
 62
3
 10
1092.4061
 20
82.1401
 11
1100.0110
 21
82.1401
  0
LINE
  8
0_00
  6
CONTINUOUS
 62
3
 10
1092.4061
 20
82.4401
 11
1100.0110
 21
82.4401
  0
LINE
  8
0_00
  6
CONTINUOUS
 62
3
 10
1092.4061
 20
82.7400
 11
1100.0110
 21
82.7400
  0
LINE
  8
0_00
  6
CONTINUOUS
 62
3
 10
1092.4061
 20
83.0400
 11
1100.0110
 21
83.0400
  0
LINE
  8
0_00
  6
CONTINUOUS
 62
3
 10
1092.4061
 20
83.3401
 11
1100.0110
 21
83.3401
  0
LINE
  8
0_00
  6
CONTINUOUS
 62
3
 10
1100.0110
 20
84.6751
 11
1092.4061
 21
84.6751
  0
LINE
  8
0_00
  6
CONTINUOUS
 62
3
 10
1100.0110
 20
84.9751
 11
1092.4061
 21
84.9751
  0
LINE
  8
0_00
  6
CONTINUOUS
 62
3
 10
1100.0110
 20
85.2750
 11
1092.4061
 21
85.2750
  0
LINE
  8
0_00
  6
CONTINUOUS
 62
3
 10
1100.0110
 20
85.5750
 11
1092.4061
 21
85.5750
  0
LINE
  8
0_00
  6
CONTINUOUS
 62
3
 10
1100.0110
 20
85.8751
 11
1092.4061
 21
85.8751
  0
LINE
  8
0_00
  6
CONTINUOUS
 62
3
 10
1092.4061
 20
87.2101
 11
1100.0110
 21
87.2101
  0
LINE
  8
0_00
  6
CONTINUOUS
 62
3
 10
1092.4061
 20
87.5101
 11
1100.0110
 21
87.5101
  0
LINE
  8
0_00
  6
CONTINUOUS
 62
3
 10
1092.4061
 20
87.8100
 11
1100.0110
 21
87.8100
  0
LINE
  8
0_00
  6
CONTINUOUS
 62
3
 10
1092.4061
 20
88.1100
 11
1100.0110
 21
88.1100
  0
LINE
  8
0_00
  6
CONTINUOUS
 62
3
 10
1092.4061
 20
88.4101
 11
1100.0110
 21
88.4101
  0
LINE
  8
0_00
  6
CONTINUOUS
 62
3
 10
1092.4061
 20
89.7451
 11
1100.0110
 21
89.7451
  0
LINE
  8
0_00
  6
CONTINUOUS
 62
3
 10
1092.4061
 20
90.0451
 11
1100.0110
 21
90.0451
  0
LINE
  8
0_00
  6
CONTINUOUS
 62
3
 10
1092.4061
 20
90.3450
 11
1100.0110
 21
90.3450
  0
LINE
  8
0_00
  6
CONTINUOUS
 62
3
 10
1092.4061
 20
90.6450
 11
1100.0110
 21
90.6450
  0
LINE
  8
0_00
  6
CONTINUOUS
 62
3
 10
1092.4061
 20
90.9451
 11
1100.0110
 21
90.9451
  0
LINE
  8
0_00
  6
CONTINUOUS
 62
3
 10
1085.1010
 20
91.2000
 11
1085.1010
 21
71.7000
  0
LINE
  8
0_00
  6
CONTINUOUS
 62
3
 10
1085.4011
 20
91.2000
 11
1085.4011
 21
71.7000
  0
LINE
  8
0_00
  6
CONTINUOUS
 62
3
 10
1085.7009
 20
91.2000
 11
1085.7009
 21
71.7000
  0
LINE
  8
0_00
  6
CONTINUOUS
 62
3
 10
1086.0008
 20
91.2000
 11
1086.0008
 21
71.7000
  0
LINE
  8
0_00
  6
CONTINUOUS
 62
3
 10
1086.3010
 20
91.2000
 11
1086.3010
 21
71.7000
  0
LINE
  8
0_00
  6
CONTINUOUS
 62
3
 10
1086.6010
 20
91.2000
 11
1086.6010
 21
71.7000
  0
LINE
  8
0_00
  6
CONTINUOUS
 62
3
 10
1087.8311
 20
71.7000
 11
1087.8311
 21
77.0626
  0
LINE
  8
0_00
  6
CONTINUOUS
 62
3
 10
1088.1312
 20
71.7000
 11
1088.1312
 21
77.0626
  0
LINE
  8
0_00
  6
CONTINUOUS
 62
3
 10
1088.4310
 20
71.7000
 11
1088.4310
 21
77.0626
  0
LINE
  8
0_00
  6
CONTINUOUS
 62
3
 10
1088.7309
 20
71.7000
 11
1088.7309
 21
77.0626
  0
LINE
  8
0_00
  6
CONTINUOUS
 62
3
 10
1088.8375
 20
72.4725
 11
1089.6760
 21
72.4725
  0
LINE
  8
0_00
  6
CONTINUOUS
 62
3
 10
1088.8375
 20
72.1725
 11
1089.6760
 21
72.1725
  0
LINE
  8
0_00
  6
CONTINUOUS
 62
3
 10
1088.8375
 20
71.8725
 11
1089.6760
 21
71.8725
  0
LINE
  8
0_00
  6
CONTINUOUS
 62
3
 10
1090.2825
 20
78.4758
 11
1086.7853
 21
78.4758
  0
LINE
  8
0_00
  6
CONTINUOUS
 62
3
 10
1090.1032
 20
78.8278
 11
1086.7853
 21
78.8278
  0
LINE
  8
0_00
  6
CONTINUOUS
 62
3
 10
1089.8939
 20
79.2384
 11
1086.7779
 21
79.2384
  0
LINE
  8
0_00
  6
CONTINUOUS
 62
3
 10
1089.7204
 20
79.5787
 11
1086.7744
 21
79.5787
  0
LINE
  8
0_00
  6
CONTINUOUS
 62
3
 10
1091.0859
 20
83.5262
 11
1089.1502
 21
79.5579
  0
LINE
  8
0_00
  6
CONTINUOUS
 62
3
 10
1090.9896
 20
84.0133
 11
1088.8107
 21
79.5458
  0
LINE
  8
0_00
  6
CONTINUOUS
 62
3
 10
1090.8083
 20
84.3258
 11
1088.4914
 21
79.5758
  0
LINE
  8
0_00
  6
CONTINUOUS
 62
3
 10
1090.6029
 20
84.5893
 11
1088.1454
 21
79.5508
  0
LINE
  8
0_00
  6
CONTINUOUS
 62
3
 10
1090.4008
 20
84.8596
 11
1087.8790
 21
79.6887
  0
LINE
  8
0_00
  6
CONTINUOUS
 62
3
 10
1090.1371
 20
85.0026
 11
1087.4908
 21
79.5774
  0
LINE
  8
0_00
  6
CONTINUOUS
 62
3
 10
1089.8761
 20
85.1521
 11
1087.1534
 21
79.5697
  0
LINE
  8
0_00
  6
CONTINUOUS
 62
3
 10
1089.5665
 20
85.2017
 11
1086.8386
 21
79.6087
  0
LINE
  8
0_00
  6
CONTINUOUS
 62
3
 10
1089.2498
 20
85.2367
 11
1086.7053
 21
80.0197
  0
LINE
  8
0_00
  6
CONTINUOUS
 62
3
 10
1088.9374
 20
85.2802
 11
1086.7329
 21
80.7607
  0
LINE
  8
0_00
  6
CONTINUOUS
 62
3
 10
1088.5957
 20
85.2643
 11
1086.6388
 21
81.2521
  0
LINE
  8
0_00
  6
CONTINUOUS
 62
3
 10
1087.9926
 20
84.4801
 11
1086.7511
 21
84.4801
  0
LINE
  8
0_00
  6
CONTINUOUS
 62
3
 10
1088.2355
 20
84.7801
 11
1086.7511
 21
84.7801
  0
LINE
  8
0_00
  6
CONTINUOUS
 62
3
 10
1088.3496
 20
85.0800
 11
1086.7511
 21
85.0800
  0
LINE
  8
0_00
  6
CONTINUOUS
 62
3
 10
796.2610
 20
852.4893
 11
809.7610
 21
852.4893
  0
LINE
  8
0_00
  6
CONTINUOUS
 62
3
 10
797.1685
 20
854.0609
 11
796.2610
 21
852.4893
  0
LINE
  8
0_00
  6
CONTINUOUS
 62
3
 10
800.8929
 20
860.5119
 11
803.0110
 21
864.1806
  0
LINE
  8
0_00
  6
CONTINUOUS
 62
3
 10
808.8538
 20
854.0609
 11
809.7610
 21
852.4893
  0
LINE
  8
0_00
  6
CONTINUOUS
 62
3
 10
805.1292
 20
860.5119
 11
803.0110
 21
864.1806
  0
LINE
  8
0_00
  6
CONTINUOUS
 62
3
 10
1218.5110
 20
154.2001
 11
1221.5110
 21
154.2001
  0
LINE
  8
0_00
  6
CONTINUOUS
 62
3
 10
1218.5110
 20
175.2001
 11
1221.5110
 21
175.2001
  0
LINE
  8
0_00
  6
CONTINUOUS
 62
3
 10
1218.5110
 20
196.2001
 11
1221.5110
 21
196.2001
  0
LINE
  8
0_00
  6
CONTINUOUS
 62
3
 10
1218.5110
 20
217.2001
 11
1221.5110
 21
217.2001
  0
LINE
  8
0_00
  6
CONTINUOUS
 62
3
 10
1218.5110
 20
238.2001
 11
1221.5110
 21
238.2001
  0
LINE
  8
0_00
  6
CONTINUOUS
 62
3
 10
1218.5110
 20
259.2001
 11
1221.5110
 21
259.2001
  0
LINE
  8
0_00
  6
CONTINUOUS
 62
3
 10
1218.5110
 20
280.2001
 11
1221.5110
 21
280.2001
  0
LINE
  8
0_00
  6
CONTINUOUS
 62
3
 10
1218.5110
 20
301.2001
 11
1221.5110
 21
301.2001
  0
LINE
  8
0_00
  6
CONTINUOUS
 62
3
 10
1218.5110
 20
322.2001
 11
1221.5110
 21
322.2001
  0
LINE
  8
0_00
  6
CONTINUOUS
 62
3
 10
1218.5110
 20
343.2001
 11
1221.5110
 21
343.2001
  0
LINE
  8
0_00
  6
CONTINUOUS
 62
3
 10
1218.5110
 20
364.2001
 11
1221.5110
 21
364.2001
  0
LINE
  8
0_00
  6
CONTINUOUS
 62
3
 10
1218.5110
 20
385.2001
 11
1221.5110
 21
385.2001
  0
LINE
  8
0_00
  6
CONTINUOUS
 62
3
 10
1218.5110
 20
406.2001
 11
1221.5110
 21
406.2001
  0
LINE
  8
0_00
  6
CONTINUOUS
 62
3
 10
1218.5110
 20
427.2001
 11
1221.5110
 21
427.2001
  0
LINE
  8
0_00
  6
CONTINUOUS
 62
3
 10
1218.5110
 20
448.2001
 11
1221.5110
 21
448.2001
  0
LINE
  8
0_00
  6
CONTINUOUS
 62
3
 10
1218.5110
 20
469.2001
 11
1221.5110
 21
469.2001
  0
LINE
  8
0_00
  6
CONTINUOUS
 62
3
 10
1218.5110
 20
490.2001
 11
1221.5110
 21
490.2001
  0
LINE
  8
0_00
  6
CONTINUOUS
 62
3
 10
1218.5110
 20
833.7001
 11
1221.5110
 21
833.7001
  0
LINE
  8
0_00
  6
CONTINUOUS
 62
3
 10
1218.5110
 20
815.7001
 11
1221.5110
 21
815.7001
  0
LINE
  8
0_00
  6
CONTINUOUS
 62
3
 10
1218.5110
 20
797.7001
 11
1221.5110
 21
797.7001
  0
LINE
  8
0_00
  6
CONTINUOUS
 62
3
 10
1218.5110
 20
779.7001
 11
1221.5110
 21
779.7001
  0
LINE
  8
0_00
  6
CONTINUOUS
 62
3
 10
1218.5110
 20
761.7001
 11
1221.5110
 21
761.7001
  0
LINE
  8
0_00
  6
CONTINUOUS
 62
3
 10
1218.5110
 20
743.7001
 11
1221.5110
 21
743.7001
  0
LINE
  8
0_00
  6
CONTINUOUS
 62
3
 10
1218.5110
 20
511.2001
 11
1221.5110
 21
511.2001
  0
LINE
  8
0_00
  6
CONTINUOUS
 62
3
 10
1218.5110
 20
532.2001
 11
1221.5110
 21
532.2001
  0
LINE
  8
0_00
  6
CONTINUOUS
 62
3
 10
1218.5110
 20
553.2001
 11
1221.5110
 21
553.2001
  0
LINE
  8
0_00
  6
CONTINUOUS
 62
3
 10
1218.5110
 20
574.2001
 11
1221.5110
 21
574.2001
  0
LINE
  8
0_00
  6
CONTINUOUS
 62
3
 10
1218.5110
 20
595.2001
 11
1221.5110
 21
595.2001
  0
LINE
  8
0_00
  6
CONTINUOUS
 62
3
 10
1218.5110
 20
616.2001
 11
1221.5110
 21
616.2001
  0
LINE
  8
0_00
  6
CONTINUOUS
 62
3
 10
1218.5110
 20
637.2000
 11
1221.5110
 21
637.2000
  0
LINE
  8
0_00
  6
CONTINUOUS
 62
3
 10
1218.5110
 20
658.2000
 11
1221.5110
 21
658.2000
  0
LINE
  8
0_00
  6
CONTINUOUS
 62
3
 10
1218.5110
 20
679.2000
 11
1221.5110
 21
679.2000
  0
LINE
  8
0_00
  6
CONTINUOUS
 62
3
 10
1218.5110
 20
700.2001
 11
1221.5110
 21
700.2001
  0
LINE
  8
0_00
  6
CONTINUOUS
 62
3
 10
1218.5110
 20
721.2001
 11
1221.5110
 21
721.2001
  0
LINE
  8
0_00
  6
CENTER1
 62
3
 10
881.0410
 20
73.2001
 11
881.0410
 21
91.2001
  0
LINE
  8
0_00
  6
CONTINUOUS
 62
4
 10
891.5411
 20
78.4501
 11
891.5411
 21
85.9501
  0
LINE
  8
0_00
  6
CONTINUOUS
 62
4
 10
905.0410
 20
76.2001
 11
905.0410
 21
88.2001
  0
LINE
  8
0_00
  6
CONTINUOUS
 62
4
 10
891.5411
 20
85.9501
 11
905.0410
 21
88.2001
  0
LINE
  8
0_00
  6
CONTINUOUS
 62
4
 10
891.5411
 20
78.4501
 11
905.0410
 21
76.2001
  0
LINE
  8
0_00
  6
CENTER1
 62
3
 10
872.0411
 20
82.2001
 11
907.3555
 21
82.2001
  0
LINE
  8
0_00
  6
CONTINUOUS
 62
3
 10
1191.5110
 20
37.2000
 11
1191.5110
 21
67.2000
  0
LINE
  8
0_00
  6
CONTINUOUS
 62
3
 10
39.6905
 20
22.2000
 11
1233.5110
 21
22.2000
  0
LINE
  8
0_00
  6
CONTINUOUS
 62
3
 10
1182.5110
 20
865.2001
 11
1182.5110
 21
851.7001
  0
LINE
  8
0_00
  6
CONTINUOUS
 62
3
 10
0.0000
 20
443.7000
 11
39.6905
 21
443.7000
  0
LINE
  8
0_00
  6
CONTINUOUS
 62
3
 10
626.1610
 20
22.2000
 11
626.1610
 21
0.0000
  0
LINE
  8
0_00
  6
CONTINUOUS
 62
3
 10
626.1610
 20
865.2001
 11
626.1610
 21
891.0000
  0
LINE
  8
0_00
  6
CONTINUOUS
 62
3
 10
1233.5110
 20
443.7000
 11
1260.0000
 21
443.7000
  0
LINE
  8
0_00
  6
CONTINUOUS
 62
6
 10
1082.3665
 20
219.5647
 11
1130.6778
 21
219.5647
  0
LINE
  8
0_00
  6
CONTINUOUS
 62
6
 10
1103.6903
 20
289.5646
 11
1130.6778
 21
289.5646
  0
LINE
  8
0_00
  6
CONTINUOUS
 62
6
 10
1127.6778
 20
289.5646
 11
1127.6778
 21
219.5647
  0
LINE
  8
0_00
  6
CONTINUOUS
 62
6
 10
1127.6778
 20
289.5646
 11
1126.1185
 21
282.2285
  0
LINE
  8
0_00
  6
CONTINUOUS
 62
6
 10
1127.6778
 20
289.5646
 11
1129.2372
 21
282.2285
  0
LINE
  8
0_00
  6
CONTINUOUS
 62
6
 10
1127.6778
 20
219.5647
 11
1129.2372
 21
226.9007
  0
LINE
  8
0_00
  6
CONTINUOUS
 62
6
 10
1127.6778
 20
219.5647
 11
1126.1185
 21
226.9007
  0
LINE
  8
0_00
  6
CONTINUOUS
 62
2
 10
655.1303
 20
358.0646
 11
660.1302
 21
363.0646
  0
LINE
  8
0_00
  6
CONTINUOUS
 62
2
 10
652.3018
 20
358.0646
 11
657.3018
 21
363.0646
  0
LINE
  8
0_00
  6
CONTINUOUS
 62
2
 10
649.4734
 20
358.0646
 11
654.4734
 21
363.0646
  0
LINE
  8
0_00
  6
CONTINUOUS
 62
2
 10
646.6449
 20
358.0646
 11
651.6450
 21
363.0646
  0
LINE
  8
0_00
  6
CONTINUOUS
 62
2
 10
643.8165
 20
358.0646
 11
648.8165
 21
363.0646
  0
LINE
  8
0_00
  6
CONTINUOUS
 62
2
 10
640.9882
 20
358.0646
 11
645.9881
 21
363.0646
  0
LINE
  8
0_00
  6
CONTINUOUS
 62
2
 10
638.1597
 20
358.0646
 11
643.1597
 21
363.0646
  0
LINE
  8
0_00
  6
CONTINUOUS
 62
2
 10
635.3313
 20
358.0646
 11
640.3313
 21
363.0646
  0
LINE
  8
0_00
  6
CONTINUOUS
 62
2
 10
632.5029
 20
358.0646
 11
637.5028
 21
363.0646
  0
LINE
  8
0_00
  6
CONTINUOUS
 62
2
 10
629.6744
 20
358.0646
 11
634.6745
 21
363.0646
  0
LINE
  8
0_00
  6
CONTINUOUS
 62
2
 10
626.8460
 20
358.0646
 11
631.8460
 21
363.0646
  0
LINE
  8
0_00
  6
CONTINUOUS
 62
2
 10
624.0176
 20
358.0646
 11
629.0176
 21
363.0646
  0
LINE
  8
0_00
  6
CONTINUOUS
 62
2
 10
621.1891
 20
358.0646
 11
626.1892
 21
363.0646
  0
LINE
  8
0_00
  6
CONTINUOUS
 62
2
 10
618.3607
 20
358.0646
 11
623.3607
 21
363.0646
  0
LINE
  8
0_00
  6
CONTINUOUS
 62
2
 10
615.5323
 20
358.0646
 11
620.5323
 21
363.0646
  0
LINE
  8
0_00
  6
CONTINUOUS
 62
2
 10
612.7039
 20
358.0646
 11
617.7038
 21
363.0646
  0
LINE
  8
0_00
  6
CONTINUOUS
 62
2
 10
609.8754
 20
358.0646
 11
614.8754
 21
363.0646
  0
LINE
  8
0_00
  6
CONTINUOUS
 62
2
 10
607.0470
 20
358.0646
 11
612.0470
 21
363.0646
  0
LINE
  8
0_00
  6
CONTINUOUS
 62
2
 10
604.2186
 20
358.0646
 11
609.2186
 21
363.0646
  0
LINE
  8
0_00
  6
CONTINUOUS
 62
2
 10
601.3901
 20
358.0646
 11
606.3902
 21
363.0646
  0
LINE
  8
0_00
  6
CONTINUOUS
 62
2
 10
600.1302
 20
359.6332
 11
603.5617
 21
363.0646
  0
LINE
  8
0_00
  6
CONTINUOUS
 62
2
 10
600.1302
 20
362.4616
 11
600.7333
 21
363.0646
  0
LINE
  8
0_00
  6
CONTINUOUS
 62
2
 10
657.9587
 20
358.0646
 11
660.1302
 21
360.2362
  0
LINE
  8
0_00
  6
CONTINUOUS
 62
2
 10
655.1303
 20
216.4646
 11
660.1302
 21
221.4646
  0
LINE
  8
0_00
  6
CONTINUOUS
 62
2
 10
652.3018
 20
216.4646
 11
657.3018
 21
221.4646
  0
LINE
  8
0_00
  6
CONTINUOUS
 62
2
 10
649.4734
 20
216.4646
 11
654.4734
 21
221.4646
  0
LINE
  8
0_00
  6
CONTINUOUS
 62
2
 10
646.6449
 20
216.4646
 11
651.6450
 21
221.4646
  0
LINE
  8
0_00
  6
CONTINUOUS
 62
2
 10
643.8165
 20
216.4646
 11
648.8165
 21
221.4646
  0
LINE
  8
0_00
  6
CONTINUOUS
 62
2
 10
640.9882
 20
216.4646
 11
645.9881
 21
221.4646
  0
LINE
  8
0_00
  6
CONTINUOUS
 62
2
 10
638.1597
 20
216.4646
 11
643.1597
 21
221.4646
  0
LINE
  8
0_00
  6
CONTINUOUS
 62
2
 10
635.3313
 20
216.4646
 11
640.3313
 21
221.4646
  0
LINE
  8
0_00
  6
CONTINUOUS
 62
2
 10
632.5029
 20
216.4646
 11
637.5028
 21
221.4646
  0
LINE
  8
0_00
  6
CONTINUOUS
 62
2
 10
629.6744
 20
216.4646
 11
634.6745
 21
221.4646
  0
LINE
  8
0_00
  6
CONTINUOUS
 62
2
 10
626.8460
 20
216.4646
 11
631.8460
 21
221.4646
  0
LINE
  8
0_00
  6
CONTINUOUS
 62
2
 10
624.0176
 20
216.4646
 11
629.0176
 21
221.4646
  0
LINE
  8
0_00
  6
CONTINUOUS
 62
2
 10
621.1891
 20
216.4646
 11
626.1892
 21
221.4646
  0
LINE
  8
0_00
  6
CONTINUOUS
 62
2
 10
618.3607
 20
216.4646
 11
623.3607
 21
221.4646
  0
LINE
  8
0_00
  6
CONTINUOUS
 62
2
 10
615.5323
 20
216.4646
 11
620.5323
 21
221.4646
  0
LINE
  8
0_00
  6
CONTINUOUS
 62
2
 10
612.7039
 20
216.4646
 11
617.7038
 21
221.4646
  0
LINE
  8
0_00
  6
CONTINUOUS
 62
2
 10
609.8754
 20
216.4646
 11
614.8754
 21
221.4646
  0
LINE
  8
0_00
  6
CONTINUOUS
 62
2
 10
607.0470
 20
216.4646
 11
612.0470
 21
221.4646
  0
LINE
  8
0_00
  6
CONTINUOUS
 62
2
 10
604.2186
 20
216.4646
 11
609.2186
 21
221.4646
  0
LINE
  8
0_00
  6
CONTINUOUS
 62
2
 10
601.3901
 20
216.4646
 11
606.3902
 21
221.4646
  0
LINE
  8
0_00
  6
CONTINUOUS
 62
2
 10
600.1302
 20
218.0332
 11
603.5617
 21
221.4646
  0
LINE
  8
0_00
  6
CONTINUOUS
 62
2
 10
600.1302
 20
220.8616
 11
600.7333
 21
221.4646
  0
LINE
  8
0_00
  6
CONTINUOUS
 62
2
 10
657.9587
 20
216.4646
 11
660.1302
 21
218.6362
  0
LINE
  8
0_00
  6
CONTINUOUS
 62
6
 10
650.6302
 20
276.5750
 11
650.6302
 21
411.3490
  0
LINE
  8
0_00
  6
CONTINUOUS
 62
6
 10
609.6302
 20
332.0184
 11
609.6302
 21
411.3490
  0
LINE
  8
0_00
  6
CONTINUOUS
 62
6
 10
609.6302
 20
408.3490
 11
650.6302
 21
408.3490
  0
LINE
  8
0_00
  6
CONTINUOUS
 62
6
 10
609.6302
 20
408.3490
 11
616.9664
 21
406.7897
  0
LINE
  8
0_00
  6
CONTINUOUS
 62
6
 10
609.6302
 20
408.3490
 11
616.9664
 21
409.9083
  0
LINE
  8
0_00
  6
CONTINUOUS
 62
6
 10
650.6302
 20
408.3490
 11
643.2941
 21
409.9083
  0
LINE
  8
0_00
  6
CONTINUOUS
 62
6
 10
650.6302
 20
408.3490
 11
643.2941
 21
406.7897
  0
LINE
  8
6_06
  6
CONTINUOUS
 62
2
 10
200.9841
 20
577.6274
 11
200.9841
 21
579.5766
  0
LINE
  8
6_06
  6
CONTINUOUS
 62
2
 10
195.9841
 20
577.7941
 11
195.9841
 21
579.7433
  0
LINE
  8
3_03
  6
CONTINUOUS
 62
4
 10
185.4841
 20
558.9008
 11
190.3350
 21
574.7034
  0
LINE
  8
3_03
  6
CONTINUOUS
 62
4
 10
192.3136
 20
576.1154
 11
194.4841
 21
576.0430
  0
LINE
  8
3_03
  6
CONTINUOUS
 62
4
 10
194.7941
 20
578.0338
 11
194.9841
 21
578.0275
  0
LINE
  8
3_03
  6
CONTINUOUS
 62
4
 10
201.6941
 20
577.8038
 11
201.4841
 21
577.8108
  0
LINE
  8
3_03
  6
CONTINUOUS
 62
4
 10
194.9841
 20
577.8274
 11
201.4841
 21
577.6107
  0
LINE
  8
3_03
  6
CONTINUOUS
 62
4
 10
194.4841
 20
576.0430
 11
194.4841
 21
577.7340
  0
LINE
  8
3_03
  6
CONTINUOUS
 62
4
 10
201.9841
 20
577.5040
 11
201.9841
 21
576.1099
  0
LINE
  8
3_03
  6
CONTINUOUS
 62
4
 10
194.9841
 20
577.8274
 11
194.9841
 21
578.0275
  0
LINE
  8
3_03
  6
CONTINUOUS
 62
4
 10
201.4841
 20
577.8108
 11
201.4841
 21
577.6107
  0
LINE
  8
3_03
  6
CONTINUOUS
 62
4
 10
192.1687
 20
573.1800
 11
188.9969
 21
562.8475
  0
LINE
  8
3_03
  6
CONTINUOUS
 62
4
 10
193.1580
 20
573.8860
 11
196.6841
 21
573.7685
  0
LINE
  8
3_03
  6
CONTINUOUS
 62
4
 10
196.6841
 20
575.2527
 11
196.6841
 21
573.7685
  0
LINE
  8
3_03
  6
CONTINUOUS
 62
4
 10
201.4674
 20
575.6102
 11
197.2007
 21
575.7523
  0
LINE
  8
6_06
  6
CONTINUOUS
 62
2
 10
195.9841
 20
579.0361
 11
196.6684
 21
579.7205
  0
LINE
  8
6_06
  6
CONTINUOUS
 62
2
 10
195.9841
 20
578.3290
 11
197.3527
 21
579.6976
  0
LINE
  8
6_06
  6
CONTINUOUS
 62
2
 10
196.1506
 20
577.7885
 11
198.0370
 21
579.6748
  0
LINE
  8
6_06
  6
CONTINUOUS
 62
2
 10
196.8349
 20
577.7657
 11
198.7213
 21
579.6520
  0
LINE
  8
6_06
  6
CONTINUOUS
 62
2
 10
197.5192
 20
577.7428
 11
199.4056
 21
579.6292
  0
LINE
  8
6_06
  6
CONTINUOUS
 62
2
 10
198.2035
 20
577.7201
 11
200.0899
 21
579.6064
  0
LINE
  8
6_06
  6
CONTINUOUS
 62
2
 10
198.8878
 20
577.6973
 11
200.7742
 21
579.5836
  0
LINE
  8
6_06
  6
CONTINUOUS
 62
2
 10
199.5721
 20
577.6745
 11
200.9841
 21
579.0864
  0
LINE
  8
6_06
  6
CONTINUOUS
 62
2
 10
200.2564
 20
577.6516
 11
200.9841
 21
578.3793
  0
LINE
  8
6_06
  6
CONTINUOUS
 62
2
 10
200.9407
 20
577.6288
 11
200.9841
 21
577.6722
  0
LINE
  8
6_06
  6
CONTINUOUS
 62
2
 10
337.5841
 20
573.0740
 11
337.5841
 21
575.0233
  0
LINE
  8
6_06
  6
CONTINUOUS
 62
2
 10
342.5841
 20
572.9073
 11
342.5841
 21
574.8566
  0
LINE
  8
3_03
  6
CONTINUOUS
 62
4
 10
348.2554
 20
571.6864
 11
353.0841
 21
558.9008
  0
LINE
  8
3_03
  6
CONTINUOUS
 62
4
 10
336.8941
 20
573.2972
 11
337.0841
 21
573.2908
  0
LINE
  8
3_03
  6
CONTINUOUS
 62
4
 10
343.5841
 20
573.0742
 11
346.4510
 21
572.9786
  0
LINE
  8
3_03
  6
CONTINUOUS
 62
4
 10
337.0841
 20
573.0907
 11
343.5841
 21
572.8740
  0
LINE
  8
3_03
  6
CONTINUOUS
 62
4
 10
336.5841
 20
572.9973
 11
336.5841
 21
571.5899
  0
LINE
  8
3_03
  6
CONTINUOUS
 62
4
 10
337.0841
 20
573.2908
 11
337.0841
 21
573.0907
  0
LINE
  8
3_03
  6
CONTINUOUS
 62
4
 10
343.5841
 20
573.0742
 11
343.5841
 21
572.8740
  0
LINE
  8
3_03
  6
CONTINUOUS
 62
4
 10
349.2306
 20
562.8775
 11
346.4800
 21
570.1603
  0
LINE
  8
3_03
  6
CONTINUOUS
 62
4
 10
345.5778
 20
570.8064
 11
337.0675
 21
571.0902
  0
LINE
  8
6_06
  6
CONTINUOUS
 62
2
 10
337.5841
 20
574.3162
 11
338.2684
 21
575.0005
  0
LINE
  8
6_06
  6
CONTINUOUS
 62
2
 10
337.5841
 20
573.6091
 11
338.9527
 21
574.9776
  0
LINE
  8
6_06
  6
CONTINUOUS
 62
2
 10
337.7506
 20
573.0685
 11
339.6370
 21
574.9548
  0
LINE
  8
6_06
  6
CONTINUOUS
 62
2
 10
338.4350
 20
573.0456
 11
340.3213
 21
574.9320
  0
LINE
  8
6_06
  6
CONTINUOUS
 62
2
 10
339.1192
 20
573.0229
 11
341.0056
 21
574.9091
  0
LINE
  8
6_06
  6
CONTINUOUS
 62
2
 10
339.8035
 20
573.0000
 11
341.6899
 21
574.8864
  0
LINE
  8
6_06
  6
CONTINUOUS
 62
2
 10
340.4878
 20
572.9772
 11
342.3742
 21
574.8636
  0
LINE
  8
6_06
  6
CONTINUOUS
 62
2
 10
341.1721
 20
572.9545
 11
342.5841
 21
574.3664
  0
LINE
  8
6_06
  6
CONTINUOUS
 62
2
 10
341.8564
 20
572.9316
 11
342.5841
 21
573.6593
  0
LINE
  8
6_06
  6
CONTINUOUS
 62
2
 10
342.5407
 20
572.9088
 11
342.5841
 21
572.9522
  0
LINE
  8
3_03
  6
CONTINUOUS
 62
4
 10
321.2841
 20
562.4008
 11
321.5841
 21
562.4008
  0
LINE
  8
3_03
  6
CONTINUOUS
 62
4
 10
321.5841
 20
562.4008
 11
321.5841
 21
564.9008
  0
LINE
  8
3_03
  6
CONTINUOUS
 62
4
 10
324.0841
 20
562.2008
 11
348.7628
 21
562.2008
  0
LINE
  8
3_03
  6
CONTINUOUS
 62
4
 10
323.5841
 20
562.7008
 11
323.5841
 21
564.9008
  0
LINE
  8
3_03
  6
CONTINUOUS
 62
4
 10
216.9841
 20
564.9008
 11
216.9841
 21
562.4008
  0
LINE
  8
3_03
  6
CONTINUOUS
 62
4
 10
214.4841
 20
562.2008
 11
189.4749
 21
562.2008
  0
LINE
  8
3_03
  6
CONTINUOUS
 62
4
 10
214.9841
 20
564.9008
 11
214.9841
 21
562.7008
  0
LINE
  8
0_00
  6
CONTINUOUS
 62
4
 10
217.2841
 20
558.9008
 11
217.2841
 21
559.9008
  0
LINE
  8
3_03
  6
CONTINUOUS
 62
4
 10
216.9841
 20
562.4008
 11
217.2841
 21
562.4008
  0
LINE
  8
3_03
  6
CONTINUOUS
 62
4
 10
189.2151
 20
558.9008
 11
349.3515
 21
558.9008
  0
LINE
  8
3_03
  6
CONTINUOUS
 62
4
 10
182.7841
 20
518.6008
 11
182.2841
 21
518.6008
  0
LINE
  8
3_03
  6
CONTINUOUS
 62
4
 10
182.7841
 20
518.6008
 11
188.7206
 21
558.4745
  0
LINE
  8
3_03
  6
CONTINUOUS
 62
4
 10
185.4841
 20
558.9008
 11
180.7841
 21
520.1008
  0
LINE
  8
3_03
  6
CONTINUOUS
 62
4
 10
355.7841
 20
517.6008
 11
356.2841
 21
517.6008
  0
LINE
  8
3_03
  6
CONTINUOUS
 62
4
 10
357.7841
 20
519.1008
 11
353.0841
 21
558.9008
  0
LINE
  8
3_03
  6
CONTINUOUS
 62
4
 10
349.8463
 20
558.4727
 11
355.7841
 21
517.6008
  0
LINE
  8
0_00
  6
CONTINUOUS
 62
6
 10
177.6037
 20
516.9008
 11
111.9244
 21
516.9008
  0
LINE
  8
0_00
  6
CONTINUOUS
 62
6
 10
177.6037
 20
581.9008
 11
111.9244
 21
581.9008
  0
LINE
  8
0_00
  6
CONTINUOUS
 62
6
 10
114.9244
 20
581.9008
 11
114.9244
 21
516.9008
  0
LINE
  8
0_00
  6
CONTINUOUS
 62
6
 10
114.9244
 20
581.9008
 11
113.3650
 21
574.5647
  0
LINE
  8
0_00
  6
CONTINUOUS
 62
6
 10
114.9244
 20
581.9008
 11
116.4837
 21
574.5647
  0
LINE
  8
0_00
  6
CONTINUOUS
 62
6
 10
114.9244
 20
516.9008
 11
116.4837
 21
524.2370
  0
LINE
  8
0_00
  6
CONTINUOUS
 62
6
 10
114.9244
 20
516.9008
 11
113.3650
 21
524.2370
  0
LINE
  8
0_00
  6
CONTINUOUS
 62
6
 10
361.8865
 20
515.9008
 11
417.9244
 21
515.9008
  0
LINE
  8
0_00
  6
CONTINUOUS
 62
6
 10
361.8865
 20
575.9008
 11
417.9244
 21
575.9008
  0
LINE
  8
0_00
  6
CONTINUOUS
 62
6
 10
414.9244
 20
575.9008
 11
414.9244
 21
515.9008
  0
LINE
  8
0_00
  6
CONTINUOUS
 62
6
 10
414.9244
 20
575.9008
 11
413.3650
 21
568.5647
  0
LINE
  8
0_00
  6
CONTINUOUS
 62
6
 10
414.9244
 20
575.9008
 11
416.4837
 21
568.5647
  0
LINE
  8
0_00
  6
CONTINUOUS
 62
6
 10
414.9244
 20
515.9008
 11
416.4837
 21
523.2369
  0
LINE
  8
0_00
  6
CONTINUOUS
 62
6
 10
414.9244
 20
515.9008
 11
413.3650
 21
523.2369
  0
LINE
  8
0_00
  6
CONTINUOUS
 62
6
 10
184.2841
 20
740.9008
 11
88.9244
 21
740.9008
  0
LINE
  8
0_00
  6
CONTINUOUS
 62
6
 10
254.2841
 20
578.9008
 11
88.9244
 21
578.9008
  0
LINE
  8
0_00
  6
CONTINUOUS
 62
6
 10
94.9244
 20
740.9008
 11
94.9244
 21
578.9008
  0
LINE
  8
0_00
  6
CONTINUOUS
 62
6
 10
94.9244
 20
740.9008
 11
93.3651
 21
733.5647
  0
LINE
  8
0_00
  6
CONTINUOUS
 62
6
 10
94.9244
 20
740.9008
 11
96.4837
 21
733.5647
  0
LINE
  8
0_00
  6
CONTINUOUS
 62
6
 10
94.9244
 20
578.9008
 11
96.4837
 21
586.2369
  0
LINE
  8
0_00
  6
CONTINUOUS
 62
6
 10
94.9244
 20
578.9008
 11
93.3651
 21
586.2369
  0
LINE
  8
0_00
  6
CONTINUOUS
 62
6
 10
179.2841
 20
558.9008
 11
88.9244
 21
558.9008
  0
LINE
  8
0_00
  6
CONTINUOUS
 62
6
 10
94.9244
 20
578.9008
 11
94.9244
 21
558.9008
  0
LINE
  8
0_00
  6
CONTINUOUS
 62
6
 10
94.9244
 20
529.5009
 11
94.9244
 21
558.9008
  0
LINE
  8
0_00
  6
CONTINUOUS
 62
6
 10
94.9244
 20
558.9008
 11
93.3651
 21
551.5647
  0
LINE
  8
0_00
  6
CONTINUOUS
 62
6
 10
94.9244
 20
558.9008
 11
96.4837
 21
551.5647
  0
LINE
  8
0_00
  6
CONTINUOUS
 62
6
 10
199.2841
 20
782.0520
 11
199.2841
 21
795.0779
  0
LINE
  8
0_00
  6
CONTINUOUS
 62
6
 10
199.2841
 20
789.0779
 11
269.2841
 21
789.0779
  0
LINE
  8
0_00
  6
CONTINUOUS
 62
6
 10
199.2841
 20
789.0779
 11
206.6202
 21
787.5186
  0
LINE
  8
0_00
  6
CONTINUOUS
 62
6
 10
199.2841
 20
789.0779
 11
206.6202
 21
790.6371
  0
LINE
  8
0_00
  6
CONTINUOUS
 62
6
 10
269.2841
 20
789.0779
 11
261.9480
 21
790.6371
  0
LINE
  8
0_00
  6
CONTINUOUS
 62
6
 10
269.2841
 20
789.0779
 11
261.9480
 21
787.5186
  0
LINE
  8
0_00
  6
CONTINUOUS
 62
6
 10
269.2841
 20
627.2599
 11
269.2841
 21
646.4612
  0
LINE
  8
0_00
  6
CONTINUOUS
 62
6
 10
269.2841
 20
678.0458
 11
269.2841
 21
749.0897
  0
LINE
  8
0_00
  6
CONTINUOUS
 62
6
 10
269.2841
 20
768.5856
 11
269.2841
 21
795.0779
  0
LINE
  8
0_00
  6
DASHED
 62
2
 10
429.0341
 20
697.1008
 11
429.0341
 21
685.1008
  0
LINE
  8
0_00
  6
DASHED
 62
2
 10
425.5341
 20
697.1008
 11
425.5341
 21
685.1008
  0
LINE
  8
0_00
  6
DASHED
 62
2
 10
429.2841
 20
697.1008
 11
429.2841
 21
685.1008
  0
LINE
  8
0_00
  6
DASHED
 62
2
 10
425.2841
 20
697.1008
 11
425.2841
 21
685.1008
  0
LINE
  8
0_00
  6
DASHED
 62
2
 10
429.2841
 20
685.1008
 11
425.2841
 21
685.1008
  0
LINE
  8
12_0C
  6
CONTINUOUS
 62
2
 10
423.2841
 20
697.1008
 11
431.2841
 21
697.1008
  0
LINE
  8
12_0C
  6
CONTINUOUS
 62
2
 10
423.2841
 20
697.5009
 11
431.2841
 21
697.5009
  0
LINE
  8
12_0C
  6
CONTINUOUS
 62
2
 10
431.2841
 20
697.1008
 11
431.2841
 21
697.5009
  0
LINE
  8
12_0C
  6
CONTINUOUS
 62
2
 10
423.2841
 20
697.1008
 11
423.2841
 21
697.5009
  0
LINE
  8
0_00
  6
DASHED
 62
2
 10
393.0341
 20
697.1008
 11
393.0341
 21
685.1008
  0
LINE
  8
0_00
  6
DASHED
 62
2
 10
389.5341
 20
697.1008
 11
389.5341
 21
685.1008
  0
LINE
  8
0_00
  6
DASHED
 62
2
 10
393.2841
 20
697.1008
 11
393.2841
 21
685.1008
  0
LINE
  8
0_00
  6
DASHED
 62
2
 10
389.2841
 20
697.1008
 11
389.2841
 21
685.1008
  0
LINE
  8
0_00
  6
DASHED
 62
2
 10
393.2841
 20
685.1008
 11
389.2841
 21
685.1008
  0
LINE
  8
12_0C
  6
CONTINUOUS
 62
2
 10
387.2841
 20
697.1008
 11
395.2841
 21
697.1008
  0
LINE
  8
12_0C
  6
CONTINUOUS
 62
2
 10
387.2841
 20
697.5009
 11
395.2841
 21
697.5009
  0
LINE
  8
12_0C
  6
CONTINUOUS
 62
2
 10
395.2841
 20
697.1008
 11
395.2841
 21
697.5009
  0
LINE
  8
12_0C
  6
CONTINUOUS
 62
2
 10
387.2841
 20
697.1008
 11
387.2841
 21
697.5009
  0
LINE
  8
0_00
  6
CONTINUOUS
 62
4
 10
409.2841
 20
697.2009
 11
408.9841
 21
696.9008
  0
LINE
  8
0_00
  6
CONTINUOUS
 62
4
 10
421.5841
 20
696.9008
 11
409.5841
 21
696.9008
  0
LINE
  8
0_00
  6
CONTINUOUS
 62
4
 10
409.2841
 20
697.2009
 11
409.5841
 21
696.9008
  0
LINE
  8
14_0E
  6
CONTINUOUS
 62
4
 10
422.3603
 20
698.5104
 11
413.2841
 21
698.9008
  0
LINE
  8
0_00
  6
CONTINUOUS
 62
4
 10
409.2841
 20
697.2009
 11
409.5841
 21
696.9008
  0
LINE
  8
0_00
  6
CONTINUOUS
 62
4
 10
396.9841
 20
696.9008
 11
408.9841
 21
696.9008
  0
LINE
  8
0_00
  6
CONTINUOUS
 62
4
 10
409.2841
 20
697.2009
 11
408.9841
 21
696.9008
  0
LINE
  8
14_0E
  6
CONTINUOUS
 62
4
 10
396.2079
 20
698.5104
 11
405.2841
 21
698.9008
  0
LINE
  8
0_00
  6
CONTINUOUS
 62
4
 10
413.2841
 20
698.9008
 11
405.2841
 21
698.9008
  0
LINE
  8
0_00
  6
CONTINUOUS
 62
4
 10
421.9841
 20
695.4008
 11
426.9841
 21
695.4008
  0
LINE
  8
0_00
  6
CONTINUOUS
 62
4
 10
421.5841
 20
696.9008
 11
421.9841
 21
695.4008
  0
LINE
  8
0_00
  6
CONTINUOUS
 62
4
 10
424.7841
 20
697.1008
 11
429.7841
 21
697.1008
  0
LINE
  8
0_00
  6
CONTINUOUS
 62
4
 10
427.5841
 20
695.4008
 11
436.6841
 21
695.4008
  0
LINE
  8
0_00
  6
CONTINUOUS
 62
4
 10
427.2841
 20
695.7009
 11
426.9841
 21
695.4008
  0
LINE
  8
0_00
  6
CONTINUOUS
 62
4
 10
427.2841
 20
695.7009
 11
427.5841
 21
695.4008
  0
LINE
  8
0_00
  6
CONTINUOUS
 62
4
 10
434.6119
 20
696.9008
 11
430.0841
 21
696.9008
  0
LINE
  8
0_00
  6
CONTINUOUS
 62
4
 10
429.7841
 20
697.1008
 11
430.0841
 21
696.9008
  0
LINE
  8
0_00
  6
CONTINUOUS
 62
4
 10
424.4841
 20
696.9008
 11
423.2964
 21
696.9008
  0
LINE
  8
0_00
  6
CONTINUOUS
 62
4
 10
424.7841
 20
697.1008
 11
424.4841
 21
696.9008
  0
LINE
  8
0_00
  6
CONTINUOUS
 62
4
 10
422.6384
 20
698.2835
 11
422.9084
 21
697.2038
  0
LINE
  8
0_00
  6
CONTINUOUS
 62
4
 10
436.6841
 20
695.4008
 11
437.6841
 21
696.4009
  0
LINE
  8
0_00
  6
CONTINUOUS
 62
4
 10
437.6841
 20
696.4009
 11
437.6841
 21
697.7008
  0
LINE
  8
0_00
  6
CONTINUOUS
 62
4
 10
437.6841
 20
696.9008
 11
437.6841
 21
696.4009
  0
LINE
  8
0_00
  6
CONTINUOUS
 62
4
 10
436.7036
 20
699.7788
 11
437.5602
 21
699.8537
  0
LINE
  8
0_00
  6
CONTINUOUS
 62
4
 10
435.5969
 20
700.7861
 11
436.4350
 21
700.8595
  0
LINE
  8
0_00
  6
CONTINUOUS
 62
4
 10
434.6841
 20
699.7900
 11
434.6841
 21
699.3571
  0
LINE
  8
0_00
  6
CONTINUOUS
 62
4
 10
437.8279
 20
700.2129
 11
436.7425
 21
705.5008
  0
LINE
  8
0_00
  6
CONTINUOUS
 62
4
 10
435.9963
 20
704.6600
 11
436.7027
 21
701.2186
  0
LINE
  8
0_00
  6
CONTINUOUS
 62
4
 10
436.6820
 20
705.5008
 11
436.7425
 21
705.5008
  0
LINE
  8
0_00
  6
CONTINUOUS
 62
4
 10
439.2847
 20
705.6473
 11
439.2846
 21
696.4396
  0
LINE
  8
0_00
  6
CONTINUOUS
 62
4
 10
437.8846
 20
697.7974
 11
437.8846
 21
695.4568
  0
LINE
  8
0_00
  6
CONTINUOUS
 62
4
 10
437.8847
 20
702.8474
 11
437.8847
 21
705.2435
  0
LINE
  8
0_00
  6
CONTINUOUS
 62
4
 10
435.1847
 20
705.6474
 11
437.4847
 21
705.6473
  0
LINE
  8
0_00
  6
CONTINUOUS
 62
4
 10
434.3847
 20
705.9474
 11
434.3847
 21
705.0474
  0
LINE
  8
0_00
  6
CONTINUOUS
 62
4
 10
435.1847
 20
705.6474
 11
435.1847
 21
705.4474
  0
LINE
  8
0_00
  6
CONTINUOUS
 62
4
 10
436.8041
 20
699.7528
 11
437.5195
 21
699.8155
  0
LINE
  8
0_00
  6
CONTINUOUS
 62
4
 10
437.8768
 20
700.2930
 11
437.4100
 21
702.6078
  0
LINE
  8
0_00
  6
CONTINUOUS
 62
4
 10
437.6061
 20
702.8474
 11
437.8847
 21
702.8474
  0
LINE
  8
0_00
  6
CONTINUOUS
 62
4
 10
435.3847
 20
706.9474
 11
437.9847
 21
706.9474
  0
LINE
  8
0_00
  6
CONTINUOUS
 62
4
 10
396.5841
 20
695.4008
 11
391.5841
 21
695.4008
  0
LINE
  8
0_00
  6
CONTINUOUS
 62
4
 10
396.9841
 20
696.9008
 11
396.5841
 21
695.4008
  0
LINE
  8
0_00
  6
CONTINUOUS
 62
4
 10
393.7841
 20
697.1008
 11
388.7841
 21
697.1008
  0
LINE
  8
0_00
  6
CONTINUOUS
 62
4
 10
390.9841
 20
695.4008
 11
381.8841
 21
695.4008
  0
LINE
  8
0_00
  6
CONTINUOUS
 62
4
 10
391.2841
 20
695.7009
 11
391.5841
 21
695.4008
  0
LINE
  8
0_00
  6
CONTINUOUS
 62
4
 10
391.2841
 20
695.7009
 11
390.9841
 21
695.4008
  0
LINE
  8
0_00
  6
CONTINUOUS
 62
4
 10
383.9563
 20
696.9008
 11
388.4841
 21
696.9008
  0
LINE
  8
0_00
  6
CONTINUOUS
 62
4
 10
388.7841
 20
697.1008
 11
388.4841
 21
696.9008
  0
LINE
  8
0_00
  6
CONTINUOUS
 62
4
 10
394.0841
 20
696.9008
 11
395.2718
 21
696.9008
  0
LINE
  8
0_00
  6
CONTINUOUS
 62
4
 10
393.7841
 20
697.1008
 11
394.0841
 21
696.9008
  0
LINE
  8
0_00
  6
CONTINUOUS
 62
4
 10
395.9297
 20
698.2835
 11
395.6598
 21
697.2038
  0
LINE
  8
0_00
  6
CONTINUOUS
 62
4
 10
381.8841
 20
695.4008
 11
380.8841
 21
696.4009
  0
LINE
  8
0_00
  6
CONTINUOUS
 62
4
 10
380.8841
 20
696.4009
 11
380.8841
 21
697.7008
  0
LINE
  8
0_00
  6
CONTINUOUS
 62
4
 10
380.8841
 20
696.9008
 11
380.8841
 21
696.4009
  0
LINE
  8
0_00
  6
CONTINUOUS
 62
4
 10
381.8646
 20
699.7788
 11
381.0079
 21
699.8537
  0
LINE
  8
0_00
  6
CONTINUOUS
 62
4
 10
382.9713
 20
700.7861
 11
382.1332
 21
700.8595
  0
LINE
  8
0_00
  6
CONTINUOUS
 62
4
 10
383.8841
 20
699.7900
 11
383.8841
 21
699.3571
  0
LINE
  8
0_00
  6
CONTINUOUS
 62
4
 10
380.7402
 20
700.2129
 11
381.8257
 21
705.5008
  0
LINE
  8
0_00
  6
CONTINUOUS
 62
4
 10
382.5718
 20
704.6600
 11
381.8654
 21
701.2186
  0
LINE
  8
0_00
  6
CONTINUOUS
 62
4
 10
381.8862
 20
705.5008
 11
381.8257
 21
705.5008
  0
LINE
  8
0_00
  6
CONTINUOUS
 62
4
 10
379.2835
 20
705.6473
 11
379.2836
 21
696.4396
  0
LINE
  8
0_00
  6
CONTINUOUS
 62
4
 10
380.6836
 20
697.7974
 11
380.6836
 21
695.4568
  0
LINE
  8
0_00
  6
CONTINUOUS
 62
4
 10
380.6835
 20
702.8474
 11
380.6835
 21
705.2435
  0
LINE
  8
0_00
  6
CONTINUOUS
 62
4
 10
383.3835
 20
705.6474
 11
381.0835
 21
705.6473
  0
LINE
  8
0_00
  6
CONTINUOUS
 62
4
 10
384.1835
 20
705.9474
 11
384.1835
 21
705.0474
  0
LINE
  8
0_00
  6
CONTINUOUS
 62
4
 10
383.3835
 20
705.6474
 11
383.3835
 21
705.4474
  0
LINE
  8
0_00
  6
CONTINUOUS
 62
4
 10
381.7640
 20
699.7528
 11
381.0487
 21
699.8155
  0
LINE
  8
0_00
  6
CONTINUOUS
 62
4
 10
380.6914
 20
700.2930
 11
381.1581
 21
702.6078
  0
LINE
  8
0_00
  6
CONTINUOUS
 62
4
 10
380.9621
 20
702.8474
 11
380.6835
 21
702.8474
  0
LINE
  8
0_00
  6
CONTINUOUS
 62
4
 10
383.1835
 20
706.9474
 11
380.5835
 21
706.9474
  0
LINE
  8
0_00
  6
CONTINUOUS
 62
4
 10
385.7841
 20
696.9008
 11
387.2841
 21
696.9008
  0
LINE
  8
0_00
  6
CONTINUOUS
 62
4
 10
434.2841
 20
695.4008
 11
384.2841
 21
695.4008
  0
LINE
  8
0_00
  6
CONTINUOUS
 62
6
 10
424.2841
 20
731.1568
 11
491.9249
 21
731.1568
  0
LINE
  8
0_00
  6
CONTINUOUS
 62
6
 10
454.2941
 20
694.0474
 11
491.9249
 21
694.0474
  0
LINE
  8
0_00
  6
CONTINUOUS
 62
6
 10
485.9249
 20
731.1568
 11
485.9249
 21
694.0474
  0
LINE
  8
0_00
  6
CONTINUOUS
 62
6
 10
485.9249
 20
731.1568
 11
484.3656
 21
723.8208
  0
LINE
  8
0_00
  6
CONTINUOUS
 62
6
 10
485.9249
 20
731.1568
 11
487.4843
 21
723.8208
  0
LINE
  8
0_00
  6
CONTINUOUS
 62
6
 10
485.9249
 20
694.0474
 11
487.4843
 21
701.3834
  0
LINE
  8
0_00
  6
CONTINUOUS
 62
6
 10
485.9249
 20
694.0474
 11
484.3656
 21
701.3834
  0
LINE
  8
0_00
  6
CONTINUOUS
 62
6
 10
394.2841
 20
731.1568
 11
343.8586
 21
731.1568
  0
LINE
  8
0_00
  6
CONTINUOUS
 62
6
 10
349.8586
 20
731.1568
 11
349.8586
 21
595.0804
  0
LINE
  8
0_00
  6
CONTINUOUS
 62
6
 10
349.8586
 20
731.1568
 11
348.2993
 21
723.8208
  0
LINE
  8
0_00
  6
CONTINUOUS
 62
6
 10
349.8586
 20
731.1568
 11
351.4179
 21
723.8208
  0
LINE
  8
0_00
  6
CONTINUOUS
 62
6
 10
369.2841
 20
723.3590
 11
369.2841
 21
775.0779
  0
LINE
  8
0_00
  6
CONTINUOUS
 62
6
 10
369.2841
 20
769.0779
 11
449.2841
 21
769.0779
  0
LINE
  8
0_00
  6
CONTINUOUS
 62
6
 10
369.2841
 20
769.0779
 11
376.6202
 21
767.5185
  0
LINE
  8
0_00
  6
CONTINUOUS
 62
6
 10
369.2841
 20
769.0779
 11
376.6202
 21
770.6373
  0
LINE
  8
0_00
  6
CONTINUOUS
 62
6
 10
449.2841
 20
769.0779
 11
441.9480
 21
770.6373
  0
LINE
  8
0_00
  6
CONTINUOUS
 62
6
 10
449.2841
 20
769.0779
 11
441.9480
 21
767.5185
  0
LINE
  8
0_00
  6
CONTINUOUS
 62
6
 10
449.2841
 20
723.3590
 11
449.2841
 21
736.1212
  0
LINE
  8
0_00
  6
CONTINUOUS
 62
6
 10
449.2841
 20
756.4578
 11
449.2841
 21
775.0779
  0
LINE
  8
0_00
  6
CONTINUOUS
 62
6
 10
999.6104
 20
325.5647
 11
999.6104
 21
461.6250
  0
LINE
  8
0_00
  6
CONTINUOUS
 62
6
 10
1031.6104
 20
325.5647
 11
1031.6104
 21
461.6250
  0
LINE
  8
0_00
  6
CONTINUOUS
 62
6
 10
999.6104
 20
455.6249
 11
1031.6104
 21
455.6249
  0
LINE
  8
0_00
  6
CONTINUOUS
 62
6
 10
970.2103
 20
455.6249
 11
999.6104
 21
455.6249
  0
LINE
  8
0_00
  6
CONTINUOUS
 62
6
 10
999.6104
 20
455.6249
 11
992.2744
 21
457.1843
  0
LINE
  8
0_00
  6
CONTINUOUS
 62
6
 10
999.6104
 20
455.6249
 11
992.2744
 21
454.0656
  0
LINE
  8
0_00
  6
CONTINUOUS
 62
6
 10
1049.6104
 20
455.6249
 11
1031.6104
 21
455.6249
  0
LINE
  8
0_00
  6
CONTINUOUS
 62
6
 10
1031.6104
 20
455.6249
 11
1038.9466
 21
454.0656
  0
LINE
  8
0_00
  6
CONTINUOUS
 62
6
 10
1031.6104
 20
455.6249
 11
1038.9466
 21
457.1843
  0
LINE
  8
0_00
  6
CONTINUOUS
 62
6
 10
1176.0040
 20
726.2044
 11
1203.5439
 21
726.2044
  0
LINE
  8
0_00
  6
CONTINUOUS
 62
6
 10
1176.0040
 20
702.3679
 11
1203.5439
 21
702.3679
  0
LINE
  8
0_00
  6
CONTINUOUS
 62
6
 10
1197.5440
 20
726.2044
 11
1197.5440
 21
702.3679
  0
LINE
  8
0_00
  6
CONTINUOUS
 62
6
 10
1197.5440
 20
744.2043
 11
1197.5440
 21
726.2044
  0
LINE
  8
0_00
  6
CONTINUOUS
 62
6
 10
1197.5440
 20
726.2044
 11
1199.1033
 21
733.5405
  0
LINE
  8
0_00
  6
CONTINUOUS
 62
6
 10
1197.5440
 20
726.2044
 11
1195.9846
 21
733.5405
  0
LINE
  8
0_00
  6
CONTINUOUS
 62
6
 10
1197.5440
 20
684.3679
 11
1197.5440
 21
702.3679
  0
LINE
  8
0_00
  6
CONTINUOUS
 62
6
 10
1197.5440
 20
702.3679
 11
1195.9846
 21
695.0317
  0
LINE
  8
0_00
  6
CONTINUOUS
 62
6
 10
1197.5440
 20
702.3679
 11
1199.1033
 21
695.0317
  0
LINE
  8
11_0B
  6
DASHED
 62
2
 10
238.2841
 20
558.9008
 11
238.2841
 21
549.9510
  0
LINE
  8
11_0B
  6
DASHED
 62
2
 10
237.8102
 20
547.5993
 11
237.6764
 21
546.0697
  0
LINE
  8
11_0B
  6
DASHED
 62
2
 10
237.4834
 20
543.8635
 11
237.3496
 21
542.3340
  0
LINE
  8
11_0B
  6
DASHED
 62
2
 10
237.1566
 20
540.1278
 11
237.0228
 21
538.5983
  0
LINE
  8
11_0B
  6
DASHED
 62
2
 10
236.8298
 20
536.3921
 11
236.6959
 21
534.8626
  0
LINE
  8
11_0B
  6
DASHED
 62
2
 10
236.5029
 20
532.6564
 11
236.3827
 21
531.2822
  0
LINE
  8
11_0B
  6
DASHED
 62
2
 10
244.2841
 20
558.9008
 11
244.2841
 21
549.9510
  0
LINE
  8
11_0B
  6
DASHED
 62
2
 10
244.7579
 20
547.5993
 11
244.8918
 21
546.0697
  0
LINE
  8
11_0B
  6
DASHED
 62
2
 10
245.0848
 20
543.8635
 11
245.2186
 21
542.3340
  0
LINE
  8
11_0B
  6
DASHED
 62
2
 10
245.4116
 20
540.1278
 11
245.5454
 21
538.5983
  0
LINE
  8
11_0B
  6
DASHED
 62
2
 10
245.7384
 20
536.3921
 11
245.8723
 21
534.8626
  0
LINE
  8
11_0B
  6
DASHED
 62
2
 10
246.0653
 20
532.6564
 11
246.1855
 21
531.2822
  0
LINE
  8
11_0B
  6
DASHED
 62
2
 10
238.2841
 20
558.9008
 11
244.2841
 21
558.9008
  0
LINE
  8
11_0B
  6
DASHED
 62
2
 10
240.9091
 20
552.9008
 11
241.6591
 21
552.9008
  0
LINE
  8
11_0B
  6
DASHED
 62
2
 10
241.6591
 20
552.9008
 11
243.7508
 21
528.9922
  0
LINE
  8
11_0B
  6
DASHED
 62
2
 10
238.8173
 20
528.9922
 11
240.9091
 21
552.9008
  0
LINE
  8
11_0B
  6
DASHED
 62
2
 10
237.3231
 20
529.1228
 11
238.8173
 21
528.9922
  0
LINE
  8
11_0B
  6
DASHED
 62
2
 10
243.7508
 20
528.9922
 11
245.2451
 21
529.1228
  0
LINE
  8
11_0B
  6
DASHED
 62
2
 10
245.2451
 20
529.1228
 11
246.1450
 21
531.0528
  0
LINE
  8
11_0B
  6
DASHED
 62
2
 10
237.3231
 20
529.1228
 11
236.4231
 21
531.0528
  0
LINE
  8
11_0B
  6
DASHED
 62
2
 10
236.3722
 20
531.1621
 11
238.9872
 21
530.9333
  0
LINE
  8
11_0B
  6
DASHED
 62
2
 10
243.5810
 20
530.9333
 11
246.1960
 21
531.1621
  0
LINE
  8
11_0B
  6
DASHED
 62
2
 10
236.5029
 20
532.6564
 11
238.1467
 21
532.5126
  0
LINE
  8
11_0B
  6
DASHED
 62
2
 10
244.4216
 20
532.5126
 11
246.0653
 21
532.6564
  0
LINE
  8
11_0B
  6
DASHED
 62
2
 10
236.8298
 20
536.3921
 11
238.4734
 21
536.2483
  0
LINE
  8
11_0B
  6
DASHED
 62
2
 10
244.0947
 20
536.2483
 11
245.7384
 21
536.3921
  0
LINE
  8
11_0B
  6
DASHED
 62
2
 10
237.1566
 20
540.1278
 11
238.8003
 21
539.9840
  0
LINE
  8
11_0B
  6
DASHED
 62
2
 10
243.7679
 20
539.9840
 11
245.4116
 21
540.1278
  0
LINE
  8
11_0B
  6
DASHED
 62
2
 10
237.4834
 20
543.8635
 11
239.1271
 21
543.7197
  0
LINE
  8
11_0B
  6
DASHED
 62
2
 10
243.4410
 20
543.7197
 11
245.0848
 21
543.8635
  0
LINE
  8
11_0B
  6
DASHED
 62
2
 10
237.8102
 20
547.5993
 11
239.0057
 21
547.4947
  0
LINE
  8
11_0B
  6
DASHED
 62
2
 10
243.5625
 20
547.4947
 11
244.7579
 21
547.5993
  0
LINE
  8
11_0B
  6
DASHED
 62
2
 10
238.9786
 20
545.4642
 11
238.8283
 21
543.7459
  0
LINE
  8
11_0B
  6
DASHED
 62
2
 10
238.6518
 20
541.7284
 11
238.5014
 21
540.0102
  0
LINE
  8
11_0B
  6
DASHED
 62
2
 10
238.3249
 20
537.9927
 11
238.1746
 21
536.2744
  0
LINE
  8
11_0B
  6
DASHED
 62
2
 10
237.9981
 20
534.2570
 11
237.8478
 21
532.5387
  0
LINE
  8
11_0B
  6
DASHED
 62
2
 10
244.7204
 20
532.5387
 11
244.5701
 21
534.2570
  0
LINE
  8
11_0B
  6
DASHED
 62
2
 10
244.3936
 20
536.2744
 11
244.2433
 21
537.9927
  0
LINE
  8
11_0B
  6
DASHED
 62
2
 10
244.0667
 20
540.0102
 11
243.9164
 21
541.7284
  0
LINE
  8
11_0B
  6
DASHED
 62
2
 10
243.7399
 20
543.7459
 11
243.5896
 21
545.4642
  0
LINE
  8
11_0B
  6
DASHED
 62
2
 10
244.3719
 20
534.2038
 11
245.6511
 21
534.5466
  0
LINE
  8
11_0B
  6
DASHED
 62
2
 10
238.3179
 20
534.1712
 11
236.9171
 21
534.5466
  0
LINE
  8
11_0B
  6
DASHED
 62
2
 10
244.0450
 20
537.9396
 11
245.3242
 21
538.2823
  0
LINE
  8
11_0B
  6
DASHED
 62
2
 10
238.5231
 20
537.9396
 11
237.2440
 21
538.2823
  0
LINE
  8
11_0B
  6
DASHED
 62
2
 10
243.7182
 20
541.6753
 11
244.9974
 21
542.0181
  0
LINE
  8
11_0B
  6
DASHED
 62
2
 10
238.8500
 20
541.6753
 11
237.5708
 21
542.0181
  0
LINE
  8
11_0B
  6
DASHED
 62
2
 10
243.3913
 20
545.4110
 11
244.6706
 21
545.7538
  0
LINE
  8
11_0B
  6
DASHED
 62
2
 10
239.1768
 20
545.4110
 11
237.8977
 21
545.7538
  0
LINE
  8
11_0B
  6
DASHED
 62
2
 10
238.8562
 20
547.5077
 11
239.0581
 21
549.8146
  0
LINE
  8
11_0B
  6
DASHED
 62
2
 10
243.7119
 20
547.5077
 11
243.5101
 21
549.8146
  0
LINE
  8
11_0B
  6
DASHED
 62
2
 10
239.3980
 20
545.0951
 11
239.2896
 21
543.8561
  0
LINE
  8
11_0B
  6
DASHED
 62
2
 10
239.0712
 20
541.3594
 11
238.9628
 21
540.1203
  0
LINE
  8
11_0B
  6
DASHED
 62
2
 10
238.7444
 20
537.6237
 11
238.6360
 21
536.3846
  0
LINE
  8
11_0B
  6
DASHED
 62
2
 10
238.4285
 20
534.0133
 11
238.3091
 21
532.6489
  0
LINE
  8
11_0B
  6
DASHED
 62
2
 10
244.2591
 20
532.6489
 11
244.1507
 21
533.8879
  0
LINE
  8
11_0B
  6
DASHED
 62
2
 10
243.9322
 20
536.3846
 11
243.8238
 21
537.6237
  0
LINE
  8
11_0B
  6
DASHED
 62
2
 10
243.6054
 20
540.1203
 11
243.4970
 21
541.3594
  0
LINE
  8
11_0B
  6
DASHED
 62
2
 10
243.2785
 20
543.8561
 11
243.1702
 21
545.0951
  0
LINE
  8
11_0B
  6
DASHED
 62
2
 10
239.0839
 20
549.8100
 11
238.2841
 21
549.9510
  0
LINE
  8
11_0B
  6
DASHED
 62
2
 10
243.4843
 20
549.8100
 11
244.2841
 21
549.9510
  0
LINE
  8
11_0B
  6
DASHED
 62
2
 10
245.0848
 20
543.8635
 11
247.1767
 21
548.3498
  0
LINE
  8
11_0B
  6
DASHED
 62
2
 10
246.4970
 20
548.6667
 11
244.2220
 21
543.7881
  0
LINE
  8
11_0B
  6
DASHED
 62
2
 10
237.4834
 20
543.8635
 11
235.3914
 21
548.3498
  0
LINE
  8
11_0B
  6
DASHED
 62
2
 10
236.0712
 20
548.6667
 11
238.3461
 21
543.7881
  0
LINE
  8
11_0B
  6
DASHED
 62
2
 10
247.0316
 20
548.7485
 11
246.8957
 21
548.8118
  0
LINE
  8
11_0B
  6
DASHED
 62
2
 10
235.5366
 20
548.7485
 11
235.6725
 21
548.8118
  0
LINE
  8
11_0B
  6
DASHED
 62
2
 10
239.3307
 20
549.4884
 11
239.1682
 21
547.6311
  0
LINE
  8
11_0B
  6
DASHED
 62
2
 10
243.2375
 20
549.4884
 11
243.5896
 21
545.4642
  0
LINE
  8
11_0B
  6
DASHED
 62
2
 10
294.2841
 20
558.9008
 11
294.2841
 21
549.9510
  0
LINE
  8
11_0B
  6
DASHED
 62
2
 10
293.8103
 20
547.5993
 11
293.6764
 21
546.0697
  0
LINE
  8
11_0B
  6
DASHED
 62
2
 10
293.4834
 20
543.8635
 11
293.3496
 21
542.3340
  0
LINE
  8
11_0B
  6
DASHED
 62
2
 10
293.1566
 20
540.1278
 11
293.0228
 21
538.5983
  0
LINE
  8
11_0B
  6
DASHED
 62
2
 10
292.8297
 20
536.3921
 11
292.6959
 21
534.8626
  0
LINE
  8
11_0B
  6
DASHED
 62
2
 10
292.5029
 20
532.6564
 11
292.3827
 21
531.2822
  0
LINE
  8
11_0B
  6
DASHED
 62
2
 10
300.2841
 20
558.9008
 11
300.2841
 21
549.9510
  0
LINE
  8
11_0B
  6
DASHED
 62
2
 10
300.7579
 20
547.5993
 11
300.8917
 21
546.0697
  0
LINE
  8
11_0B
  6
DASHED
 62
2
 10
301.0848
 20
543.8635
 11
301.2186
 21
542.3340
  0
LINE
  8
11_0B
  6
DASHED
 62
2
 10
301.4116
 20
540.1278
 11
301.5454
 21
538.5983
  0
LINE
  8
11_0B
  6
DASHED
 62
2
 10
301.7384
 20
536.3921
 11
301.8723
 21
534.8626
  0
LINE
  8
11_0B
  6
DASHED
 62
2
 10
302.0653
 20
532.6564
 11
302.1855
 21
531.2822
  0
LINE
  8
11_0B
  6
DASHED
 62
2
 10
294.2841
 20
558.9008
 11
300.2841
 21
558.9008
  0
LINE
  8
11_0B
  6
DASHED
 62
2
 10
296.9091
 20
552.9008
 11
297.6591
 21
552.9008
  0
LINE
  8
11_0B
  6
DASHED
 62
2
 10
297.6591
 20
552.9008
 11
299.7508
 21
528.9922
  0
LINE
  8
11_0B
  6
DASHED
 62
2
 10
294.8174
 20
528.9922
 11
296.9091
 21
552.9008
  0
LINE
  8
11_0B
  6
DASHED
 62
2
 10
293.3231
 20
529.1228
 11
294.8174
 21
528.9922
  0
LINE
  8
11_0B
  6
DASHED
 62
2
 10
299.7508
 20
528.9922
 11
301.2451
 21
529.1228
  0
LINE
  8
11_0B
  6
DASHED
 62
2
 10
301.2451
 20
529.1228
 11
302.1451
 21
531.0528
  0
LINE
  8
11_0B
  6
DASHED
 62
2
 10
293.3231
 20
529.1228
 11
292.4231
 21
531.0528
  0
LINE
  8
11_0B
  6
DASHED
 62
2
 10
292.3722
 20
531.1621
 11
294.9872
 21
530.9333
  0
LINE
  8
11_0B
  6
DASHED
 62
2
 10
299.5810
 20
530.9333
 11
302.1960
 21
531.1621
  0
LINE
  8
11_0B
  6
DASHED
 62
2
 10
292.5029
 20
532.6564
 11
294.1466
 21
532.5126
  0
LINE
  8
11_0B
  6
DASHED
 62
2
 10
300.4216
 20
532.5126
 11
302.0653
 21
532.6564
  0
LINE
  8
11_0B
  6
DASHED
 62
2
 10
292.8297
 20
536.3921
 11
294.4735
 21
536.2483
  0
LINE
  8
11_0B
  6
DASHED
 62
2
 10
300.0947
 20
536.2483
 11
301.7384
 21
536.3921
  0
LINE
  8
11_0B
  6
DASHED
 62
2
 10
293.1566
 20
540.1278
 11
294.8003
 21
539.9840
  0
LINE
  8
11_0B
  6
DASHED
 62
2
 10
299.7679
 20
539.9840
 11
301.4116
 21
540.1278
  0
LINE
  8
11_0B
  6
DASHED
 62
2
 10
293.4834
 20
543.8635
 11
295.1272
 21
543.7197
  0
LINE
  8
11_0B
  6
DASHED
 62
2
 10
299.4410
 20
543.7197
 11
301.0848
 21
543.8635
  0
LINE
  8
11_0B
  6
DASHED
 62
2
 10
293.8103
 20
547.5993
 11
295.0057
 21
547.4947
  0
LINE
  8
11_0B
  6
DASHED
 62
2
 10
299.5625
 20
547.4947
 11
300.7579
 21
547.5993
  0
LINE
  8
11_0B
  6
DASHED
 62
2
 10
294.9786
 20
545.4642
 11
294.8283
 21
543.7459
  0
LINE
  8
11_0B
  6
DASHED
 62
2
 10
294.6518
 20
541.7284
 11
294.5014
 21
540.0102
  0
LINE
  8
11_0B
  6
DASHED
 62
2
 10
294.3249
 20
537.9927
 11
294.1746
 21
536.2744
  0
LINE
  8
11_0B
  6
DASHED
 62
2
 10
293.9981
 20
534.2570
 11
293.8478
 21
532.5387
  0
LINE
  8
11_0B
  6
DASHED
 62
2
 10
300.7204
 20
532.5387
 11
300.5701
 21
534.2570
  0
LINE
  8
11_0B
  6
DASHED
 62
2
 10
300.3936
 20
536.2744
 11
300.2433
 21
537.9927
  0
LINE
  8
11_0B
  6
DASHED
 62
2
 10
300.0667
 20
540.0102
 11
299.9164
 21
541.7284
  0
LINE
  8
11_0B
  6
DASHED
 62
2
 10
299.7399
 20
543.7459
 11
299.5896
 21
545.4642
  0
LINE
  8
11_0B
  6
DASHED
 62
2
 10
300.3718
 20
534.2038
 11
301.6511
 21
534.5466
  0
LINE
  8
11_0B
  6
DASHED
 62
2
 10
294.3179
 20
534.1712
 11
292.9171
 21
534.5466
  0
LINE
  8
11_0B
  6
DASHED
 62
2
 10
300.0450
 20
537.9396
 11
301.3242
 21
538.2823
  0
LINE
  8
11_0B
  6
DASHED
 62
2
 10
294.5231
 20
537.9396
 11
293.2440
 21
538.2823
  0
LINE
  8
11_0B
  6
DASHED
 62
2
 10
299.7182
 20
541.6753
 11
300.9974
 21
542.0181
  0
LINE
  8
11_0B
  6
DASHED
 62
2
 10
294.8500
 20
541.6753
 11
293.5708
 21
542.0181
  0
LINE
  8
11_0B
  6
DASHED
 62
2
 10
299.3914
 20
545.4110
 11
300.6706
 21
545.7538
  0
LINE
  8
11_0B
  6
DASHED
 62
2
 10
295.1768
 20
545.4110
 11
293.8976
 21
545.7538
  0
LINE
  8
11_0B
  6
DASHED
 62
2
 10
294.8562
 20
547.5077
 11
295.0581
 21
549.8146
  0
LINE
  8
11_0B
  6
DASHED
 62
2
 10
299.7120
 20
547.5077
 11
299.5101
 21
549.8146
  0
LINE
  8
11_0B
  6
DASHED
 62
2
 10
295.3981
 20
545.0951
 11
295.2896
 21
543.8561
  0
LINE
  8
11_0B
  6
DASHED
 62
2
 10
295.0712
 20
541.3594
 11
294.9628
 21
540.1203
  0
LINE
  8
11_0B
  6
DASHED
 62
2
 10
294.7444
 20
537.6237
 11
294.6359
 21
536.3846
  0
LINE
  8
11_0B
  6
DASHED
 62
2
 10
294.4285
 20
534.0133
 11
294.3091
 21
532.6489
  0
LINE
  8
11_0B
  6
DASHED
 62
2
 10
300.2590
 20
532.6489
 11
300.1507
 21
533.8879
  0
LINE
  8
11_0B
  6
DASHED
 62
2
 10
299.9322
 20
536.3846
 11
299.8238
 21
537.6237
  0
LINE
  8
11_0B
  6
DASHED
 62
2
 10
299.6054
 20
540.1203
 11
299.4970
 21
541.3594
  0
LINE
  8
11_0B
  6
DASHED
 62
2
 10
299.2786
 20
543.8561
 11
299.1702
 21
545.0951
  0
LINE
  8
11_0B
  6
DASHED
 62
2
 10
295.0839
 20
549.8100
 11
294.2841
 21
549.9510
  0
LINE
  8
11_0B
  6
DASHED
 62
2
 10
299.4843
 20
549.8100
 11
300.2841
 21
549.9510
  0
LINE
  8
11_0B
  6
DASHED
 62
2
 10
301.0848
 20
543.8635
 11
303.1767
 21
548.3498
  0
LINE
  8
11_0B
  6
DASHED
 62
2
 10
302.4970
 20
548.6667
 11
300.2221
 21
543.7881
  0
LINE
  8
11_0B
  6
DASHED
 62
2
 10
293.4834
 20
543.8635
 11
291.3915
 21
548.3498
  0
LINE
  8
11_0B
  6
DASHED
 62
2
 10
292.0712
 20
548.6667
 11
294.3461
 21
543.7881
  0
LINE
  8
11_0B
  6
DASHED
 62
2
 10
303.0316
 20
548.7485
 11
302.8957
 21
548.8118
  0
LINE
  8
11_0B
  6
DASHED
 62
2
 10
291.5366
 20
548.7485
 11
291.6725
 21
548.8118
  0
LINE
  8
11_0B
  6
DASHED
 62
2
 10
295.3307
 20
549.4884
 11
295.1682
 21
547.6311
  0
LINE
  8
11_0B
  6
DASHED
 62
2
 10
299.2375
 20
549.4884
 11
299.5896
 21
545.4642
  0
LINE
  8
0_00
  6
DASHED
 62
2
 10
243.7841
 20
567.7008
 11
243.7841
 21
522.0309
  0
LINE
  8
0_00
  6
CONTINUOUS
 62
2
 10
235.3841
 20
567.7008
 11
247.1841
 21
567.7008
  0
LINE
  8
0_00
  6
CONTINUOUS
 62
2
 10
247.1841
 20
568.0486
 11
247.1841
 21
567.7008
  0
LINE
  8
0_00
  6
DASHED
 62
2
 10
243.0341
 20
567.7008
 11
243.0341
 21
520.7319
  0
LINE
  8
0_00
  6
DASHED
 62
2
 10
241.2841
 20
517.7008
 11
243.7841
 21
522.0309
  0
LINE
  8
0_00
  6
DASHED
 62
2
 10
238.7841
 20
567.7008
 11
238.7841
 21
522.0309
  0
LINE
  8
0_00
  6
CONTINUOUS
 62
2
 10
235.3841
 20
568.0486
 11
235.3841
 21
567.7008
  0
LINE
  8
0_00
  6
DASHED
 62
2
 10
239.5341
 20
567.7008
 11
239.5341
 21
520.7319
  0
LINE
  8
0_00
  6
DASHED
 62
2
 10
241.2841
 20
517.7008
 11
238.7841
 21
522.0309
  0
LINE
  8
0_00
  6
CONTINUOUS
 62
2
 10
235.3841
 20
568.0486
 11
247.1841
 21
568.0486
  0
LINE
  8
0_00
  6
DASHED
 62
2
 10
299.7841
 20
567.7008
 11
299.7841
 21
522.0309
  0
LINE
  8
0_00
  6
DASHED
 62
2
 10
291.3841
 20
567.7008
 11
303.1841
 21
567.7008
  0
LINE
  8
0_00
  6
DASHED
 62
2
 10
303.1841
 20
568.0486
 11
303.1841
 21
567.7008
  0
LINE
  8
0_00
  6
DASHED
 62
2
 10
299.0341
 20
567.7008
 11
299.0341
 21
520.7319
  0
LINE
  8
0_00
  6
DASHED
 62
2
 10
297.2841
 20
517.7008
 11
299.7841
 21
522.0309
  0
LINE
  8
0_00
  6
DASHED
 62
2
 10
294.7841
 20
567.7008
 11
294.7841
 21
522.0309
  0
LINE
  8
0_00
  6
DASHED
 62
2
 10
291.3841
 20
568.0486
 11
291.3841
 21
567.7008
  0
LINE
  8
0_00
  6
DASHED
 62
2
 10
295.5341
 20
567.7008
 11
295.5341
 21
520.7319
  0
LINE
  8
0_00
  6
DASHED
 62
2
 10
297.2841
 20
517.7008
 11
294.7841
 21
522.0309
  0
LINE
  8
0_00
  6
DASHED
 62
2
 10
291.3841
 20
568.0486
 11
303.1841
 21
568.0486
  0
LINE
  8
15_0F
  6
CONTINUOUS
 62
6
 10
344.2841
 20
446.0119
 11
344.2841
 21
414.7378
  0
LINE
  8
15_0F
  6
CONTINUOUS
 62
6
 10
349.2841
 20
450.2986
 11
349.2841
 21
414.7378
  0
LINE
  8
15_0F
  6
CONTINUOUS
 62
6
 10
344.2841
 20
420.7378
 11
349.2841
 21
420.7378
  0
LINE
  8
15_0F
  6
CONTINUOUS
 62
6
 10
322.0841
 20
420.7378
 11
344.2841
 21
420.7378
  0
LINE
  8
15_0F
  6
CONTINUOUS
 62
6
 10
344.2841
 20
420.7378
 11
336.9480
 21
422.2971
  0
LINE
  8
15_0F
  6
CONTINUOUS
 62
6
 10
344.2841
 20
420.7378
 11
336.9480
 21
419.1785
  0
LINE
  8
15_0F
  6
CONTINUOUS
 62
6
 10
359.2841
 20
487.7747
 11
359.2841
 21
414.7378
  0
LINE
  8
15_0F
  6
CONTINUOUS
 62
6
 10
349.2841
 20
420.7378
 11
359.2841
 21
420.7378
  0
LINE
  8
15_0F
  6
CONTINUOUS
 62
6
 10
388.6841
 20
420.7378
 11
359.2841
 21
420.7378
  0
LINE
  8
15_0F
  6
CONTINUOUS
 62
6
 10
359.2841
 20
420.7378
 11
366.6202
 21
419.1785
  0
LINE
  8
15_0F
  6
CONTINUOUS
 62
6
 10
359.2841
 20
420.7378
 11
366.6202
 21
422.2971
  0
LINE
  8
15_0F
  6
CONTINUOUS
 62
6
 10
189.2841
 20
450.2986
 11
189.2841
 21
414.7378
  0
LINE
  8
15_0F
  6
CONTINUOUS
 62
6
 10
179.2841
 20
487.7747
 11
179.2841
 21
414.7378
  0
LINE
  8
15_0F
  6
CONTINUOUS
 62
6
 10
179.2841
 20
420.7378
 11
189.2841
 21
420.7378
  0
LINE
  8
15_0F
  6
CONTINUOUS
 62
6
 10
149.8841
 20
420.7378
 11
179.2841
 21
420.7378
  0
LINE
  8
15_0F
  6
CONTINUOUS
 62
6
 10
179.2841
 20
420.7378
 11
171.9480
 21
422.2971
  0
LINE
  8
15_0F
  6
CONTINUOUS
 62
6
 10
179.2841
 20
420.7378
 11
171.9480
 21
419.1785
  0
LINE
  8
15_0F
  6
CONTINUOUS
 62
6
 10
194.2841
 20
446.1503
 11
194.2841
 21
414.7378
  0
LINE
  8
15_0F
  6
CONTINUOUS
 62
6
 10
189.2841
 20
420.7378
 11
194.2841
 21
420.7378
  0
LINE
  8
15_0F
  6
CONTINUOUS
 62
6
 10
216.4841
 20
420.7378
 11
194.2841
 21
420.7378
  0
LINE
  8
15_0F
  6
CONTINUOUS
 62
6
 10
194.2841
 20
420.7378
 11
201.6202
 21
419.1785
  0
LINE
  8
15_0F
  6
CONTINUOUS
 62
6
 10
194.2841
 20
420.7378
 11
201.6202
 21
422.2971
  0
LINE
  8
0_00
  6
CONTINUOUS
 62
6
 10
154.9836
 20
693.9008
 11
108.9244
 21
693.9008
  0
LINE
  8
0_00
  6
CONTINUOUS
 62
6
 10
169.2841
 20
740.9008
 11
108.9244
 21
740.9008
  0
LINE
  8
0_00
  6
CONTINUOUS
 62
6
 10
114.9244
 20
740.9008
 11
114.9244
 21
693.9008
  0
LINE
  8
0_00
  6
CONTINUOUS
 62
6
 10
114.9244
 20
740.9008
 11
113.3650
 21
733.5647
  0
LINE
  8
0_00
  6
CONTINUOUS
 62
6
 10
114.9244
 20
740.9008
 11
116.4837
 21
733.5647
  0
LINE
  8
0_00
  6
CONTINUOUS
 62
6
 10
114.9244
 20
693.9008
 11
116.4837
 21
701.2369
  0
LINE
  8
0_00
  6
CONTINUOUS
 62
6
 10
114.9244
 20
693.9008
 11
113.3650
 21
701.2369
  0
LINE
  8
15_0F
  6
CONTINUOUS
 62
4
 10
502.1451
 20
151.3623
 11
547.1451
 21
151.3623
  0
LINE
  8
15_0F
  6
CONTINUOUS
 62
4
 10
106.8452
 20
360.9319
 11
151.8451
 21
360.9319
  0
LINE
  8
0_00
  6
DASHED
 62
2
 10
625.1548
 20
697.4008
 11
625.1548
 21
685.4008
  0
LINE
  8
0_00
  6
DASHED
 62
2
 10
621.6548
 20
697.4008
 11
621.6548
 21
685.4008
  0
LINE
  8
0_00
  6
DASHED
 62
2
 10
625.4048
 20
697.4008
 11
625.4048
 21
685.4008
  0
LINE
  8
0_00
  6
DASHED
 62
2
 10
621.4048
 20
697.4008
 11
621.4048
 21
685.4008
  0
LINE
  8
0_00
  6
DASHED
 62
2
 10
625.4048
 20
685.4008
 11
621.4048
 21
685.4008
  0
LINE
  8
12_0C
  6
CONTINUOUS
 62
2
 10
619.4048
 20
697.4008
 11
627.4048
 21
697.4008
  0
LINE
  8
12_0C
  6
CONTINUOUS
 62
2
 10
619.4048
 20
697.8008
 11
627.4048
 21
697.8008
  0
LINE
  8
12_0C
  6
CONTINUOUS
 62
2
 10
627.4048
 20
697.4008
 11
627.4048
 21
697.8008
  0
LINE
  8
12_0C
  6
CONTINUOUS
 62
2
 10
619.4048
 20
697.4008
 11
619.4048
 21
697.8008
  0
LINE
  8
0_00
  6
DASHED
 62
2
 10
589.1548
 20
697.4008
 11
589.1548
 21
685.4008
  0
LINE
  8
0_00
  6
DASHED
 62
2
 10
585.6548
 20
697.4008
 11
585.6548
 21
685.4008
  0
LINE
  8
0_00
  6
DASHED
 62
2
 10
589.4048
 20
697.4008
 11
589.4048
 21
685.4008
  0
LINE
  8
0_00
  6
DASHED
 62
2
 10
585.4048
 20
697.4008
 11
585.4048
 21
685.4008
  0
LINE
  8
0_00
  6
DASHED
 62
2
 10
589.4048
 20
685.4008
 11
585.4048
 21
685.4008
  0
LINE
  8
12_0C
  6
CONTINUOUS
 62
2
 10
583.4048
 20
697.4008
 11
591.4048
 21
697.4008
  0
LINE
  8
12_0C
  6
CONTINUOUS
 62
2
 10
583.4048
 20
697.8008
 11
591.4048
 21
697.8008
  0
LINE
  8
12_0C
  6
CONTINUOUS
 62
2
 10
591.4048
 20
697.4008
 11
591.4048
 21
697.8008
  0
LINE
  8
12_0C
  6
CONTINUOUS
 62
2
 10
583.4048
 20
697.4008
 11
583.4048
 21
697.8008
  0
LINE
  8
0_00
  6
CONTINUOUS
 62
6
 10
590.4048
 20
730.9008
 11
539.9793
 21
730.9008
  0
LINE
  8
0_00
  6
CONTINUOUS
 62
6
 10
545.9793
 20
730.9008
 11
545.9793
 21
594.8243
  0
LINE
  8
0_00
  6
CONTINUOUS
 62
6
 10
545.9793
 20
730.9008
 11
544.4200
 21
723.5647
  0
LINE
  8
0_00
  6
CONTINUOUS
 62
6
 10
545.9793
 20
730.9008
 11
547.5386
 21
723.5647
  0
LINE
  8
0_00
  6
CONTINUOUS
 62
4
 10
594.9031
 20
698.1008
 11
592.9032
 21
698.1008
  0
LINE
  8
0_00
  6
CONTINUOUS
 62
4
 10
594.9031
 20
698.1008
 11
594.9031
 21
697.3008
  0
LINE
  8
0_00
  6
CONTINUOUS
 62
4
 10
592.9032
 20
698.1008
 11
592.9032
 21
696.5008
  0
LINE
  8
0_00
  6
CONTINUOUS
 62
4
 10
615.9031
 20
698.1008
 11
617.9031
 21
698.1008
  0
LINE
  8
0_00
  6
CONTINUOUS
 62
4
 10
615.9031
 20
698.1008
 11
615.9031
 21
697.3008
  0
LINE
  8
0_00
  6
CONTINUOUS
 62
4
 10
617.9031
 20
698.1008
 11
617.9031
 21
696.5008
  0
LINE
  8
0_00
  6
CONTINUOUS
 62
4
 10
579.0031
 20
698.0008
 11
579.0031
 21
692.4962
  0
LINE
  8
0_00
  6
CONTINUOUS
 62
4
 10
631.8031
 20
698.0008
 11
631.8031
 21
692.4962
  0
LINE
  8
0_00
  6
CONTINUOUS
 62
4
 10
580.1031
 20
697.4008
 11
580.1031
 21
700.8925
  0
LINE
  8
0_00
  6
CONTINUOUS
 62
4
 10
630.7031
 20
697.4008
 11
630.7031
 21
700.8925
  0
LINE
  8
0_00
  6
CONTINUOUS
 62
4
 10
631.8031
 20
699.2008
 11
631.8031
 21
700.8009
  0
LINE
  8
0_00
  6
CONTINUOUS
 62
4
 10
632.4031
 20
699.2008
 11
631.8031
 21
699.2008
  0
LINE
  8
0_00
  6
CONTINUOUS
 62
4
 10
632.4031
 20
698.0008
 11
631.8031
 21
698.0008
  0
LINE
  8
0_00
  6
CONTINUOUS
 62
4
 10
605.4031
 20
673.2009
 11
605.1047
 21
672.9023
  0
LINE
  8
0_00
  6
CONTINUOUS
 62
4
 10
605.4031
 20
673.2009
 11
605.7016
 21
672.9023
  0
LINE
  8
0_00
  6
CONTINUOUS
 62
4
 10
580.6032
 20
696.9008
 11
584.6032
 21
696.9008
  0
LINE
  8
0_00
  6
CONTINUOUS
 62
4
 10
580.1031
 20
695.8008
 11
584.6032
 21
695.8008
  0
LINE
  8
0_00
  6
CONTINUOUS
 62
4
 10
625.9032
 20
695.4008
 11
584.9031
 21
695.4008
  0
LINE
  8
0_00
  6
CONTINUOUS
 62
4
 10
623.7031
 20
697.4008
 11
623.4032
 21
697.1008
  0
LINE
  8
0_00
  6
CONTINUOUS
 62
4
 10
625.9032
 20
697.4008
 11
623.7031
 21
697.4008
  0
LINE
  8
0_00
  6
CONTINUOUS
 62
4
 10
626.2031
 20
696.9008
 11
625.9032
 21
697.4008
  0
LINE
  8
0_00
  6
CONTINUOUS
 62
4
 10
623.1031
 20
697.4008
 11
623.4032
 21
697.1008
  0
LINE
  8
0_00
  6
CONTINUOUS
 62
4
 10
620.9031
 20
697.4008
 11
623.1031
 21
697.4008
  0
LINE
  8
0_00
  6
CONTINUOUS
 62
4
 10
630.2031
 20
696.9008
 11
626.2031
 21
696.9008
  0
LINE
  8
0_00
  6
CONTINUOUS
 62
4
 10
605.1031
 20
696.5008
 11
605.4031
 21
696.2008
  0
LINE
  8
0_00
  6
CONTINUOUS
 62
4
 10
605.7031
 20
696.5008
 11
605.4031
 21
696.2008
  0
LINE
  8
0_00
  6
CONTINUOUS
 62
4
 10
632.7467
 20
700.8833
 11
631.8031
 21
700.8009
  0
LINE
  8
0_00
  6
CONTINUOUS
 62
4
 10
631.6160
 20
701.8887
 11
632.1806
 21
701.9380
  0
LINE
  8
0_00
  6
CONTINUOUS
 62
4
 10
633.1929
 20
701.4820
 11
632.8338
 21
703.2314
  0
LINE
  8
0_00
  6
CONTINUOUS
 62
4
 10
631.9522
 20
703.0504
 11
632.1806
 21
701.9380
  0
LINE
  8
0_00
  6
CONTINUOUS
 62
4
 10
630.3031
 20
706.9299
 11
631.4715
 21
705.7616
  0
LINE
  8
0_00
  6
CONTINUOUS
 62
4
 10
629.6960
 20
706.2642
 11
630.8351
 21
705.1251
  0
LINE
  8
0_00
  6
CONTINUOUS
 62
4
 10
579.0031
 20
699.2008
 11
579.0031
 21
700.8009
  0
LINE
  8
0_00
  6
CONTINUOUS
 62
4
 10
578.4032
 20
699.2008
 11
579.0031
 21
699.2008
  0
LINE
  8
0_00
  6
CONTINUOUS
 62
4
 10
578.4032
 20
698.0008
 11
579.0031
 21
698.0008
  0
LINE
  8
0_00
  6
CONTINUOUS
 62
4
 10
578.0596
 20
700.8833
 11
579.0031
 21
700.8009
  0
LINE
  8
0_00
  6
CONTINUOUS
 62
4
 10
579.1902
 20
701.8887
 11
578.6257
 21
701.9380
  0
LINE
  8
0_00
  6
CONTINUOUS
 62
4
 10
577.6133
 20
701.4820
 11
577.9724
 21
703.2314
  0
LINE
  8
0_00
  6
CONTINUOUS
 62
4
 10
578.8541
 20
703.0504
 11
578.6257
 21
701.9380
  0
LINE
  8
0_00
  6
CONTINUOUS
 62
4
 10
580.5031
 20
706.9299
 11
579.3348
 21
705.7616
  0
LINE
  8
0_00
  6
CONTINUOUS
 62
4
 10
581.4031
 20
707.4508
 11
581.4031
 21
706.9713
  0
LINE
  8
0_00
  6
CONTINUOUS
 62
4
 10
580.5031
 20
707.4508
 11
580.5031
 21
706.9299
  0
LINE
  8
0_00
  6
CONTINUOUS
 62
4
 10
581.1102
 20
706.2642
 11
579.9712
 21
705.1251
  0
LINE
  8
0_00
  6
CONTINUOUS
 62
4
 10
605.7031
 20
696.5008
 11
616.9032
 21
696.5008
  0
LINE
  8
0_00
  6
CONTINUOUS
 62
4
 10
617.9031
 20
696.5008
 11
620.6031
 21
696.5008
  0
LINE
  8
0_00
  6
CONTINUOUS
 62
4
 10
590.2031
 20
696.5008
 11
592.9032
 21
696.5008
  0
LINE
  8
0_00
  6
CONTINUOUS
 62
4
 10
593.9031
 20
696.5008
 11
605.1031
 21
696.5008
  0
LINE
  8
0_00
  6
CONTINUOUS
 62
4
 10
629.4032
 20
707.4508
 11
629.4032
 21
706.9713
  0
LINE
  8
0_00
  6
CONTINUOUS
 62
4
 10
630.3031
 20
707.4508
 11
630.3031
 21
706.9299
  0
LINE
  8
15_0F
  6
CONTINUOUS
 62
4
 10
580.1031
 20
695.8008
 11
580.1031
 21
692.2014
  0
LINE
  8
0_00
  6
CONTINUOUS
 62
4
 10
630.7031
 20
695.8008
 11
626.2031
 21
695.8008
  0
LINE
  8
0_00
  6
CONTINUOUS
 62
4
 10
626.2031
 20
695.8008
 11
625.9032
 21
695.4008
  0
LINE
  8
15_0F
  6
CONTINUOUS
 62
4
 10
630.7031
 20
695.8008
 11
630.7031
 21
692.2014
  0
LINE
  8
0_00
  6
CONTINUOUS
 62
4
 10
620.6031
 20
696.5008
 11
620.9031
 21
697.4008
  0
LINE
  8
15_0F
  6
CONTINUOUS
 62
4
 10
593.9031
 20
697.3008
 11
594.9031
 21
697.3008
  0
LINE
  8
15_0F
  6
CONTINUOUS
 62
4
 10
593.9031
 20
697.3008
 11
593.9031
 21
696.5008
  0
LINE
  8
15_0F
  6
CONTINUOUS
 62
4
 10
616.9032
 20
697.3008
 11
615.9031
 21
697.3008
  0
LINE
  8
15_0F
  6
CONTINUOUS
 62
4
 10
616.9032
 20
697.3008
 11
616.9032
 21
696.5008
  0
LINE
  8
15_0F
  6
CONTINUOUS
 62
4
 10
579.0031
 20
692.4962
 11
578.4912
 21
691.6095
  0
LINE
  8
15_0F
  6
CONTINUOUS
 62
4
 10
580.1031
 20
692.2014
 11
579.5902
 21
691.3130
  0
LINE
  8
15_0F
  6
CONTINUOUS
 62
4
 10
631.8031
 20
692.4962
 11
632.3150
 21
691.6095
  0
LINE
  8
15_0F
  6
CONTINUOUS
 62
4
 10
630.7031
 20
692.2014
 11
631.2160
 21
691.3130
  0
LINE
  8
15_0F
  6
CONTINUOUS
 62
4
 10
598.3739
 20
674.9008
 11
612.4324
 21
674.9008
  0
LINE
  8
0_00
  6
CONTINUOUS
 62
4
 10
587.1031
 20
697.4008
 11
587.4031
 21
697.1008
  0
LINE
  8
0_00
  6
CONTINUOUS
 62
4
 10
584.9031
 20
697.4008
 11
587.1031
 21
697.4008
  0
LINE
  8
0_00
  6
CONTINUOUS
 62
4
 10
584.6032
 20
696.9008
 11
584.9031
 21
697.4008
  0
LINE
  8
0_00
  6
CONTINUOUS
 62
4
 10
587.7031
 20
697.4008
 11
587.4031
 21
697.1008
  0
LINE
  8
0_00
  6
CONTINUOUS
 62
4
 10
589.9031
 20
697.4008
 11
587.7031
 21
697.4008
  0
LINE
  8
0_00
  6
CONTINUOUS
 62
4
 10
584.6032
 20
695.8008
 11
584.9031
 21
695.4008
  0
LINE
  8
0_00
  6
CONTINUOUS
 62
4
 10
590.2031
 20
696.5008
 11
589.9031
 21
697.4008
  0
LINE
  8
0_00
  6
CONTINUOUS
 62
4
 10
627.0031
 20
709.1270
 11
631.5630
 21
709.1270
  0
LINE
  8
0_00
  6
CONTINUOUS
 62
4
 10
627.3031
 20
708.1192
 11
627.3031
 21
707.3270
  0
LINE
  8
0_00
  6
CONTINUOUS
 62
4
 10
626.5031
 20
708.6270
 11
626.5031
 21
707.3270
  0
LINE
  8
0_00
  6
CONTINUOUS
 62
4
 10
632.4672
 20
693.1667
 11
632.3375
 21
693.7983
  0
LINE
  8
0_00
  6
CONTINUOUS
 62
4
 10
624.4916
 20
720.2822
 11
625.0543
 21
720.8450
  0
LINE
  8
0_00
  6
CONTINUOUS
 62
4
 10
623.7846
 20
720.9894
 11
624.3472
 21
721.5520
  0
LINE
  8
0_00
  6
CONTINUOUS
 62
4
 10
632.4968
 20
708.1277
 11
627.5108
 21
708.3190
  0
LINE
  8
0_00
  6
CONTINUOUS
 62
4
 10
633.1802
 20
703.0277
 11
633.0745
 21
703.0277
  0
LINE
  8
0_00
  6
CONTINUOUS
 62
4
 10
633.0788
 20
704.5277
 11
632.8467
 21
704.5277
  0
LINE
  8
0_00
  6
CONTINUOUS
 62
4
 10
632.6509
 20
704.2871
 11
632.8786
 21
703.1872
  0
LINE
  8
0_00
  6
CONTINUOUS
 62
4
 10
633.1860
 20
700.9270
 11
632.0759
 21
700.8299
  0
LINE
  8
0_00
  6
CONTINUOUS
 62
4
 10
583.8045
 20
709.1258
 11
579.2446
 21
709.1255
  0
LINE
  8
0_00
  6
CONTINUOUS
 62
4
 10
583.5044
 20
708.1179
 11
583.5045
 21
707.3257
  0
LINE
  8
0_00
  6
CONTINUOUS
 62
4
 10
584.3044
 20
708.6257
 11
584.3045
 21
707.3258
  0
LINE
  8
0_00
  6
CONTINUOUS
 62
4
 10
578.3413
 20
693.1651
 11
578.4710
 21
693.7968
  0
LINE
  8
0_00
  6
CONTINUOUS
 62
4
 10
586.3152
 20
720.2811
 11
585.7525
 21
720.8437
  0
LINE
  8
0_00
  6
CONTINUOUS
 62
4
 10
587.0223
 20
720.9883
 11
586.4595
 21
721.5509
  0
LINE
  8
0_00
  6
CONTINUOUS
 62
4
 10
578.3108
 20
708.1261
 11
583.2968
 21
708.3177
  0
LINE
  8
0_00
  6
CONTINUOUS
 62
4
 10
577.6276
 20
703.0261
 11
577.7334
 21
703.0261
  0
LINE
  8
0_00
  6
CONTINUOUS
 62
4
 10
577.7291
 20
704.5260
 11
577.9611
 21
704.5260
  0
LINE
  8
0_00
  6
CONTINUOUS
 62
4
 10
578.1569
 20
704.2855
 11
577.9292
 21
703.1856
  0
LINE
  8
0_00
  6
CONTINUOUS
 62
4
 10
577.6219
 20
700.9254
 11
578.7322
 21
700.8284
  0
LINE
  8
15_0F
  6
CONTINUOUS
 62
4
 10
146.8451
 20
140.9319
 11
206.2451
 21
140.9319
  0
LINE
  8
0_00
  6
CONTINUOUS
 62
6
 10
728.1291
 20
751.6302
 11
728.1291
 21
775.4795
  0
LINE
  8
0_00
  6
CONTINUOUS
 62
6
 10
738.6290
 20
751.6302
 11
738.6290
 21
775.4795
  0
LINE
  8
0_00
  6
CONTINUOUS
 62
6
 10
728.1291
 20
769.4795
 11
738.6290
 21
769.4795
  0
LINE
  8
0_00
  6
CONTINUOUS
 62
6
 10
698.7290
 20
769.4795
 11
728.1291
 21
769.4795
  0
LINE
  8
0_00
  6
CONTINUOUS
 62
6
 10
728.1291
 20
769.4795
 11
720.7929
 21
771.0389
  0
LINE
  8
0_00
  6
CONTINUOUS
 62
6
 10
728.1291
 20
769.4795
 11
720.7929
 21
767.9201
  0
LINE
  8
0_00
  6
CONTINUOUS
 62
6
 10
756.6290
 20
769.4795
 11
738.6290
 21
769.4795
  0
LINE
  8
0_00
  6
CONTINUOUS
 62
6
 10
738.6290
 20
769.4795
 11
745.9651
 21
767.9201
  0
LINE
  8
0_00
  6
CONTINUOUS
 62
6
 10
738.6290
 20
769.4795
 11
745.9651
 21
771.0389
  0
LINE
  8
13_0D
  6
CONTINUOUS
 62
6
 10
576.4048
 20
713.2589
 11
576.4048
 21
773.5779
  0
LINE
  8
13_0D
  6
CONTINUOUS
 62
6
 10
634.4048
 20
713.2589
 11
634.4048
 21
773.5779
  0
LINE
  8
13_0D
  6
CONTINUOUS
 62
6
 10
576.4048
 20
769.0779
 11
634.4048
 21
769.0779
  0
LINE
  8
13_0D
  6
CONTINUOUS
 62
6
 10
576.4048
 20
769.0779
 11
583.7409
 21
767.5185
  0
LINE
  8
13_0D
  6
CONTINUOUS
 62
6
 10
576.4048
 20
769.0779
 11
583.7409
 21
770.6373
  0
LINE
  8
13_0D
  6
CONTINUOUS
 62
6
 10
634.4048
 20
769.0779
 11
627.0687
 21
770.6373
  0
LINE
  8
13_0D
  6
CONTINUOUS
 62
6
 10
634.4048
 20
769.0779
 11
627.0687
 21
767.5185
  0
CIRCLE
  8
0_00
  6
CONTINUOUS
 62
4
 10
587.6303
 20
289.5646
 40
4.2500
  0
CIRCLE
  8
0_00
  6
CONTINUOUS
 62
4
 10
672.6302
 20
289.5646
 40
4.2500
  0
CIRCLE
  8
0_00
  6
CONTINUOUS
 62
4
 10
652.1303
 20
289.5646
 40
4.2500
  0
CIRCLE
  8
0_00
  6
CONTINUOUS
 62
4
 10
608.1302
 20
289.5646
 40
4.2500
  0
ARC
  8
0_00
  6
CONTINUOUS
 62
4
 10
609.6302
 20
317.5646
 40
3.1000
 50
45.0000
 51
58.5444
  0
ARC
  8
0_00
  6
CONTINUOUS
 62
4
 10
609.6302
 20
317.5646
 40
3.1000
 50
121.3667
 51
135.0000
  0
ARC
  8
0_00
  6
CONTINUOUS
 62
4
 10
609.6302
 20
317.5646
 40
3.1000
 50
211.4556
 51
225.0000
  0
ARC
  8
0_00
  6
CONTINUOUS
 62
4
 10
609.6302
 20
317.5646
 40
3.1000
 50
135.0000
 51
148.6333
  0
ARC
  8
0_00
  6
CONTINUOUS
 62
4
 10
609.6302
 20
317.5646
 40
3.1000
 50
31.4556
 51
45.0000
  0
ARC
  8
0_00
  6
CONTINUOUS
 62
4
 10
609.6302
 20
317.5646
 40
3.1000
 50
315.0000
 51
328.6334
  0
ARC
  8
0_00
  6
CONTINUOUS
 62
4
 10
609.6302
 20
317.5646
 40
3.1000
 50
225.0000
 51
238.5444
  0
ARC
  8
0_00
  6
CONTINUOUS
 62
4
 10
609.6302
 20
317.5646
 40
3.1000
 50
301.3667
 51
315.0000
  0
CIRCLE
  8
0_00
  6
CONTINUOUS
 62
4
 10
609.6302
 20
317.5646
 40
7.0000
  0
ARC
  8
0_00
  6
CONTINUOUS
 62
4
 10
650.6302
 20
261.5646
 40
3.1000
 50
45.0000
 51
58.5444
  0
ARC
  8
0_00
  6
CONTINUOUS
 62
4
 10
650.6302
 20
261.5646
 40
3.1000
 50
121.3667
 51
135.0000
  0
ARC
  8
0_00
  6
CONTINUOUS
 62
4
 10
650.6302
 20
261.5646
 40
3.1000
 50
211.4556
 51
225.0000
  0
ARC
  8
0_00
  6
CONTINUOUS
 62
4
 10
650.6302
 20
261.5646
 40
3.1000
 50
135.0000
 51
148.6333
  0
ARC
  8
0_00
  6
CONTINUOUS
 62
4
 10
650.6302
 20
261.5646
 40
3.1000
 50
31.4556
 51
45.0000
  0
ARC
  8
0_00
  6
CONTINUOUS
 62
4
 10
650.6302
 20
261.5646
 40
3.1000
 50
315.0000
 51
328.6334
  0
ARC
  8
0_00
  6
CONTINUOUS
 62
4
 10
650.6302
 20
261.5646
 40
3.1000
 50
225.0000
 51
238.5444
  0
ARC
  8
0_00
  6
CONTINUOUS
 62
4
 10
650.6302
 20
261.5646
 40
3.1000
 50
301.3667
 51
315.0000
  0
CIRCLE
  8
0_00
  6
CONTINUOUS
 62
4
 10
650.6302
 20
261.5646
 40
7.0000
  0
CIRCLE
  8
0_00
  6
CONTINUOUS
 62
4
 10
630.1303
 20
334.5646
 40
3.0000
  0
CIRCLE
  8
0_00
  6
CONTINUOUS
 62
6
 10
630.1303
 20
334.5646
 40
2.5000
  0
CIRCLE
  8
0_00
  6
CONTINUOUS
 62
4
 10
630.1303
 20
244.5646
 40
3.0000
  0
CIRCLE
  8
0_00
  6
CONTINUOUS
 62
6
 10
630.1303
 20
244.5646
 40
2.5000
  0
CIRCLE
  8
0_00
  6
CONTINUOUS
 62
4
 10
630.1303
 20
303.0646
 40
3.0000
  0
CIRCLE
  8
0_00
  6
CONTINUOUS
 62
6
 10
630.1303
 20
303.0646
 40
2.5000
  0
CIRCLE
  8
0_00
  6
CONTINUOUS
 62
4
 10
630.1303
 20
276.0646
 40
3.0000
  0
CIRCLE
  8
0_00
  6
CONTINUOUS
 62
6
 10
630.1303
 20
276.0646
 40
2.5000
  0
CIRCLE
  8
0_00
  6
CONTINUOUS
 62
4
 10
609.6302
 20
261.5646
 40
4.2500
  0
CIRCLE
  8
0_00
  6
CONTINUOUS
 62
4
 10
650.6302
 20
317.5646
 40
4.2500
  0
ARC
  8
0_00
  6
CONTINUOUS
 62
2
 10
1015.6104
 20
303.0646
 40
2.4500
 50
45.0000
 51
58.5444
  0
ARC
  8
0_00
  6
CONTINUOUS
 62
2
 10
1015.6104
 20
303.0646
 40
2.4500
 50
121.3667
 51
135.0000
  0
ARC
  8
0_00
  6
CONTINUOUS
 62
2
 10
1015.6104
 20
303.0646
 40
2.4500
 50
211.4556
 51
225.0000
  0
ARC
  8
0_00
  6
CONTINUOUS
 62
2
 10
1015.6104
 20
303.0646
 40
2.4500
 50
135.0000
 51
148.6333
  0
ARC
  8
0_00
  6
CONTINUOUS
 62
2
 10
1015.6104
 20
303.0646
 40
2.4500
 50
31.4556
 51
45.0000
  0
ARC
  8
0_00
  6
CONTINUOUS
 62
2
 10
1015.6104
 20
303.0646
 40
2.4500
 50
315.0000
 51
328.6334
  0
ARC
  8
0_00
  6
CONTINUOUS
 62
2
 10
1015.6104
 20
303.0646
 40
2.4500
 50
225.0000
 51
238.5444
  0
ARC
  8
0_00
  6
CONTINUOUS
 62
2
 10
1015.6104
 20
303.0646
 40
2.4500
 50
301.3667
 51
315.0000
  0
CIRCLE
  8
0_00
  6
CONTINUOUS
 62
2
 10
1015.6104
 20
303.0646
 40
5.9000
  0
ARC
  8
0_00
  6
CONTINUOUS
 62
2
 10
1015.6104
 20
276.0646
 40
2.4500
 50
45.0000
 51
58.5444
  0
ARC
  8
0_00
  6
CONTINUOUS
 62
2
 10
1015.6104
 20
276.0646
 40
2.4500
 50
121.3667
 51
135.0000
  0
ARC
  8
0_00
  6
CONTINUOUS
 62
2
 10
1015.6104
 20
276.0646
 40
2.4500
 50
211.4556
 51
225.0000
  0
ARC
  8
0_00
  6
CONTINUOUS
 62
2
 10
1015.6104
 20
276.0646
 40
2.4500
 50
135.0000
 51
148.6333
  0
ARC
  8
0_00
  6
CONTINUOUS
 62
2
 10
1015.6104
 20
276.0646
 40
2.4500
 50
31.4556
 51
45.0000
  0
ARC
  8
0_00
  6
CONTINUOUS
 62
2
 10
1015.6104
 20
276.0646
 40
2.4500
 50
315.0000
 51
328.6334
  0
ARC
  8
0_00
  6
CONTINUOUS
 62
2
 10
1015.6104
 20
276.0646
 40
2.4500
 50
225.0000
 51
238.5444
  0
ARC
  8
0_00
  6
CONTINUOUS
 62
2
 10
1015.6104
 20
276.0646
 40
2.4500
 50
301.3667
 51
315.0000
  0
CIRCLE
  8
0_00
  6
CONTINUOUS
 62
2
 10
1015.6104
 20
276.0646
 40
5.9000
  0
ARC
  8
0_00
  6
CONTINUOUS
 62
4
 10
1004.1104
 20
268.5646
 40
2.5000
 50
180.0000
 51
270.0000
  0
ARC
  8
0_00
  6
CONTINUOUS
 62
4
 10
1004.1104
 20
310.5646
 40
2.5000
 50
90.0000
 51
180.0000
  0
ARC
  8
0_00
  6
CONTINUOUS
 62
4
 10
1004.1104
 20
268.5646
 40
2.5000
 50
270.0000
 51
360.0000
  0
ARC
  8
0_00
  6
CONTINUOUS
 62
4
 10
1004.1104
 20
310.5646
 40
2.5000
 50
0.0000
 51
90.0000
  0
ARC
  8
0_00
  6
CONTINUOUS
 62
4
 10
1002.1103
 20
268.5646
 40
2.5000
 50
180.0000
 51
270.0000
  0
ARC
  8
0_00
  6
CONTINUOUS
 62
4
 10
1002.1103
 20
310.5646
 40
2.5000
 50
90.0000
 51
180.0000
  0
ARC
  8
0_00
  6
CONTINUOUS
 62
4
 10
1027.1104
 20
268.5646
 40
2.5000
 50
270.0000
 51
360.0000
  0
ARC
  8
0_00
  6
CONTINUOUS
 62
4
 10
1027.1104
 20
310.5646
 40
2.5000
 50
0.0000
 51
90.0000
  0
ARC
  8
0_00
  6
CONTINUOUS
 62
4
 10
1027.1104
 20
268.5646
 40
2.5000
 50
180.0000
 51
270.0000
  0
ARC
  8
0_00
  6
CONTINUOUS
 62
4
 10
1027.1104
 20
310.5646
 40
2.5000
 50
90.0000
 51
180.0000
  0
ARC
  8
0_00
  6
CONTINUOUS
 62
4
 10
1029.1103
 20
268.5646
 40
2.5000
 50
270.0000
 51
360.0000
  0
ARC
  8
0_00
  6
CONTINUOUS
 62
4
 10
1029.1103
 20
310.5646
 40
2.5000
 50
0.0000
 51
90.0000
  0
ARC
  8
3_03
  6
CONTINUOUS
 62
4
 10
728.9540
 20
701.9178
 40
0.4500
 50
90.0000
 51
180.0000
  0
ARC
  8
15_0F
  6
CONTINUOUS
 62
4
 10
728.9540
 20
693.0679
 40
0.4500
 50
180.0000
 51
270.0000
  0
ARC
  8
3_03
  6
CONTINUOUS
 62
4
 10
728.1291
 20
695.9643
 40
30.3450
 50
89.8197
 51
97.0407
  0
ARC
  8
3_03
  6
CONTINUOUS
 62
4
 10
724.5290
 20
725.1129
 40
0.9750
 50
97.0407
 51
180.0000
  0
ARC
  8
3_03
  6
CONTINUOUS
 62
4
 10
732.7040
 20
726.2342
 40
0.0750
 50
0.0000
 51
90.0000
  0
ARC
  8
3_03
  6
CONTINUOUS
 62
4
 10
732.7040
 20
719.1844
 40
0.0750
 50
270.0000
 51
360.0000
  0
ARC
  8
3_03
  6
CONTINUOUS
 62
4
 10
723.6291
 20
719.1844
 40
0.0750
 50
180.0000
 51
270.0000
  0
ARC
  8
0_00
  6
CONTINUOUS
 62
4
 10
283.2499
 20
190.0510
 40
2.5000
 50
270.0000
 51
360.0000
  0
ARC
  8
0_00
  6
CONTINUOUS
 62
4
 10
270.2499
 20
190.0510
 40
2.5000
 50
180.0000
 51
270.0000
  0
ARC
  8
0_00
  6
CONTINUOUS
 62
4
 10
270.2499
 20
276.5510
 40
2.5000
 50
90.0000
 51
180.0000
  0
ARC
  8
0_00
  6
CONTINUOUS
 62
4
 10
283.2499
 20
276.5510
 40
2.5000
 50
0.0000
 51
90.0000
  0
ARC
  8
0_00
  6
CONTINUOUS
 62
4
 10
777.1040
 20
704.1094
 40
0.3750
 50
270.0000
 51
360.0000
  0
ARC
  8
0_00
  6
CONTINUOUS
 62
4
 10
775.1539
 20
704.1094
 40
0.3750
 50
180.0000
 51
270.0000
  0
ARC
  8
0_00
  6
CONTINUOUS
 62
4
 10
775.1539
 20
717.0844
 40
0.3750
 50
90.0000
 51
180.0000
  0
ARC
  8
0_00
  6
CONTINUOUS
 62
4
 10
777.1040
 20
717.0844
 40
0.3750
 50
0.0000
 51
90.0000
  0
ARC
  8
0_00
  6
CONTINUOUS
 62
4
 10
932.1040
 20
704.1094
 40
0.3750
 50
270.0000
 51
360.0000
  0
ARC
  8
0_00
  6
CONTINUOUS
 62
4
 10
930.1540
 20
704.1094
 40
0.3750
 50
180.0000
 51
270.0000
  0
ARC
  8
0_00
  6
CONTINUOUS
 62
4
 10
930.1540
 20
717.0844
 40
0.3750
 50
90.0000
 51
180.0000
  0
ARC
  8
0_00
  6
CONTINUOUS
 62
4
 10
932.1040
 20
717.0844
 40
0.3750
 50
0.0000
 51
90.0000
  0
ARC
  8
0_00
  6
CONTINUOUS
 62
4
 10
1087.1040
 20
704.1094
 40
0.3750
 50
270.0000
 51
360.0000
  0
ARC
  8
0_00
  6
CONTINUOUS
 62
4
 10
1085.1541
 20
704.1094
 40
0.3750
 50
180.0000
 51
270.0000
  0
ARC
  8
0_00
  6
CONTINUOUS
 62
4
 10
1085.1541
 20
717.0844
 40
0.3750
 50
90.0000
 51
180.0000
  0
ARC
  8
0_00
  6
CONTINUOUS
 62
4
 10
1087.1040
 20
717.0844
 40
0.3750
 50
0.0000
 51
90.0000
  0
ARC
  8
0_00
  6
CONTINUOUS
 62
4
 10
435.7841
 20
679.6881
 40
5.0000
 50
180.0000
 51
229.0338
  0
ARC
  8
0_00
  6
CONTINUOUS
 62
4
 10
124.2975
 20
415.5679
 40
375.0000
 50
34.0115
 51
45.3615
  0
ARC
  8
0_00
  6
CONTINUOUS
 62
4
 10
104.6988
 20
298.3647
 40
500.0000
 50
44.1641
 51
49.0337
  0
ARC
  8
0_00
  6
CONTINUOUS
 62
4
 10
235.7841
 20
588.4012
 40
10.0000
 50
0.0000
 51
28.2628
  0
ARC
  8
0_00
  6
CONTINUOUS
 62
4
 10
282.7841
 20
597.5132
 40
10.0000
 50
0.0000
 51
37.6262
  0
ARC
  8
0_00
  6
CONTINUOUS
 62
4
 10
225.7841
 20
679.6881
 40
5.0000
 50
180.0000
 51
229.0338
  0
ARC
  8
0_00
  6
CONTINUOUS
 62
4
 10
-85.7025
 20
415.5679
 40
375.0000
 50
28.2628
 51
45.3615
  0
ARC
  8
0_00
  6
CONTINUOUS
 62
4
 10
-105.3012
 20
298.3647
 40
500.0000
 50
37.6262
 51
49.0337
  0
ARC
  8
0_00
  6
CONTINUOUS
 62
4
 10
235.7841
 20
588.4012
 40
10.0000
 50
0.0000
 51
28.2628
  0
ARC
  8
0_00
  6
CONTINUOUS
 62
4
 10
282.7841
 20
597.5132
 40
10.0000
 50
0.0000
 51
37.6262
  0
ARC
  8
0_00
  6
CONTINUOUS
 62
4
 10
235.7841
 20
588.4012
 40
10.0000
 50
0.0000
 51
28.2628
  0
ARC
  8
0_00
  6
CONTINUOUS
 62
4
 10
282.7841
 20
597.5132
 40
10.0000
 50
0.0000
 51
37.6262
  0
ARC
  8
3_03
  6
CONTINUOUS
 62
4
 10
189.2151
 20
558.4008
 40
0.5000
 50
90.0000
 51
171.5318
  0
ARC
  8
0_00
  6
CONTINUOUS
 62
4
 10
182.2841
 20
578.7992
 40
3.0000
 50
88.0908
 51
180.0000
  0
ARC
  8
0_00
  6
CONTINUOUS
 62
4
 10
356.2841
 20
572.9991
 40
3.0000
 50
0.0000
 51
88.0908
  0
ARC
  8
0_00
  6
CONTINUOUS
 62
4
 10
182.2841
 20
519.9008
 40
3.0000
 50
180.0000
 51
270.0000
  0
ARC
  8
0_00
  6
CONTINUOUS
 62
4
 10
356.2841
 20
518.9008
 40
3.0000
 50
270.0000
 51
360.0000
  0
ARC
  8
0_00
  6
CONTINUOUS
 62
4
 10
182.2841
 20
519.9008
 40
1.5000
 50
180.0000
 51
268.7569
  0
ARC
  8
0_00
  6
CONTINUOUS
 62
4
 10
182.2841
 20
578.7992
 40
1.5000
 50
88.0908
 51
180.0000
  0
ARC
  8
0_00
  6
CONTINUOUS
 62
4
 10
356.2841
 20
572.9991
 40
1.5000
 50
0.0000
 51
88.0908
  0
ARC
  8
0_00
  6
CONTINUOUS
 62
4
 10
356.2841
 20
518.9008
 40
1.5000
 50
271.2431
 51
360.0000
  0
ARC
  8
0_00
  6
CONTINUOUS
 62
4
 10
186.0337
 20
517.8484
 40
0.7500
 50
273.0000
 51
453.0000
  0
ARC
  8
0_00
  6
CONTINUOUS
 62
4
 10
352.5345
 20
516.8484
 40
0.7500
 50
87.0000
 51
267.0000
  0
CIRCLE
  8
0_00
  6
CONTINUOUS
 62
2
 10
208.2696
 20
557.7730
 40
0.1000
  0
CIRCLE
  8
0_00
  6
CONTINUOUS
 62
2
 10
206.5863
 20
553.3965
 40
0.1000
  0
CIRCLE
  8
0_00
  6
CONTINUOUS
 62
2
 10
202.8831
 20
551.3766
 40
0.1000
  0
CIRCLE
  8
0_00
  6
CONTINUOUS
 62
2
 10
206.2497
 20
548.0101
 40
0.1000
  0
CIRCLE
  8
0_00
  6
CONTINUOUS
 62
2
 10
208.9429
 20
549.1884
 40
0.1000
  0
CIRCLE
  8
0_00
  6
CONTINUOUS
 62
2
 10
205.4080
 20
543.6335
 40
0.1000
  0
CIRCLE
  8
0_00
  6
CONTINUOUS
 62
2
 10
199.0116
 20
545.6535
 40
0.1000
  0
CIRCLE
  8
0_00
  6
CONTINUOUS
 62
2
 10
196.9917
 20
547.3368
 40
0.1000
  0
CIRCLE
  8
0_00
  6
CONTINUOUS
 62
2
 10
197.1600
 20
538.4155
 40
0.1000
  0
CIRCLE
  8
0_00
  6
CONTINUOUS
 62
2
 10
204.7347
 20
536.7322
 40
0.1000
  0
CIRCLE
  8
0_00
  6
CONTINUOUS
 62
2
 10
201.7048
 20
541.2770
 40
0.1000
  0
CIRCLE
  8
0_00
  6
CONTINUOUS
 62
2
 10
200.0216
 20
536.2272
 40
0.1000
  0
CIRCLE
  8
0_00
  6
CONTINUOUS
 62
2
 10
196.6550
 20
531.5140
 40
0.1000
  0
CIRCLE
  8
0_00
  6
CONTINUOUS
 62
2
 10
203.7248
 20
528.8208
 40
0.1000
  0
CIRCLE
  8
0_00
  6
CONTINUOUS
 62
2
 10
204.9031
 20
532.3557
 40
0.1000
  0
CIRCLE
  8
0_00
  6
CONTINUOUS
 62
2
 10
201.0315
 20
531.6824
 40
0.1000
  0
CIRCLE
  8
0_00
  6
CONTINUOUS
 62
2
 10
198.0016
 20
523.2660
 40
0.1000
  0
CIRCLE
  8
0_00
  6
CONTINUOUS
 62
2
 10
207.5963
 20
536.0588
 40
0.1000
  0
CIRCLE
  8
0_00
  6
CONTINUOUS
 62
2
 10
205.5764
 20
526.4642
 40
0.1000
  0
CIRCLE
  8
0_00
  6
CONTINUOUS
 62
2
 10
205.2397
 20
518.5529
 40
0.1000
  0
CIRCLE
  8
0_00
  6
CONTINUOUS
 62
2
 10
201.3682
 20
526.2959
 40
0.1000
  0
CIRCLE
  8
0_00
  6
CONTINUOUS
 62
2
 10
198.3383
 20
518.2162
 40
0.1000
  0
CIRCLE
  8
0_00
  6
CONTINUOUS
 62
2
 10
200.8632
 20
519.3945
 40
0.1000
  0
CIRCLE
  8
0_00
  6
CONTINUOUS
 62
2
 10
201.5365
 20
512.3248
 40
0.1000
  0
CIRCLE
  8
0_00
  6
CONTINUOUS
 62
2
 10
207.5963
 20
516.3646
 40
0.1000
  0
CIRCLE
  8
0_00
  6
CONTINUOUS
 62
2
 10
207.0913
 20
521.7511
 40
0.1000
  0
CIRCLE
  8
0_00
  6
CONTINUOUS
 62
2
 10
205.7447
 20
508.9582
 40
0.1000
  0
CIRCLE
  8
0_00
  6
CONTINUOUS
 62
2
 10
198.6749
 20
510.4731
 40
0.1000
  0
CIRCLE
  8
0_00
  6
CONTINUOUS
 62
2
 10
197.4967
 20
506.0966
 40
0.1000
  0
CIRCLE
  8
0_00
  6
CONTINUOUS
 62
2
 10
201.8732
 20
503.2351
 40
0.1000
  0
CIRCLE
  8
0_00
  6
CONTINUOUS
 62
2
 10
202.4432
 20
506.9909
 40
0.1000
  0
CIRCLE
  8
0_00
  6
CONTINUOUS
 62
2
 10
204.8156
 20
500.8509
 40
0.1000
  0
CIRCLE
  8
0_00
  6
CONTINUOUS
 62
2
 10
202.7224
 20
495.1295
 40
0.1000
  0
CIRCLE
  8
0_00
  6
CONTINUOUS
 62
2
 10
206.7692
 20
497.7808
 40
0.1000
  0
CIRCLE
  8
0_00
  6
CONTINUOUS
 62
2
 10
198.2569
 20
496.5249
 40
0.1000
  0
CIRCLE
  8
0_00
  6
CONTINUOUS
 62
2
 10
197.9778
 20
499.8741
 40
0.1000
  0
CIRCLE
  8
0_00
  6
CONTINUOUS
 62
2
 10
202.7526
 20
490.7189
 40
0.1000
  0
CIRCLE
  8
0_00
  6
CONTINUOUS
 62
2
 10
198.5444
 20
487.3524
 40
0.1000
  0
CIRCLE
  8
0_00
  6
CONTINUOUS
 62
2
 10
205.6142
 20
488.8673
 40
0.1000
  0
CIRCLE
  8
0_00
  6
CONTINUOUS
 62
2
 10
206.7924
 20
484.4908
 40
0.1000
  0
CIRCLE
  8
0_00
  6
CONTINUOUS
 62
2
 10
202.4160
 20
481.6292
 40
0.1000
  0
CIRCLE
  8
0_00
  6
CONTINUOUS
 62
2
 10
201.8459
 20
485.3851
 40
0.1000
  0
CIRCLE
  8
0_00
  6
CONTINUOUS
 62
2
 10
199.4736
 20
479.2450
 40
0.1000
  0
CIRCLE
  8
0_00
  6
CONTINUOUS
 62
2
 10
197.5199
 20
476.1750
 40
0.1000
  0
CIRCLE
  8
0_00
  6
CONTINUOUS
 62
2
 10
206.0322
 20
474.9191
 40
0.1000
  0
CIRCLE
  8
0_00
  6
CONTINUOUS
 62
2
 10
206.3113
 20
478.2682
 40
0.1000
  0
ARC
  8
0_00
  6
CONTINUOUS
 62
2
 10
201.5668
 20
473.5236
 40
0.1000
 50
154.0798
 51
430.7844
  0
ARC
  8
0_00
  6
CONTINUOUS
 62
2
 10
217.2841
 20
540.9008
 40
8.0000
 50
90.0000
 51
180.0000
  0
CIRCLE
  8
0_00
  6
CONTINUOUS
 62
2
 10
212.8144
 20
551.0400
 40
0.1000
  0
CIRCLE
  8
0_00
  6
CONTINUOUS
 62
2
 10
334.5086
 20
553.7709
 40
0.1000
  0
CIRCLE
  8
0_00
  6
CONTINUOUS
 62
2
 10
333.6851
 20
546.7717
 40
0.1000
  0
CIRCLE
  8
0_00
  6
CONTINUOUS
 62
2
 10
339.9638
 20
548.1097
 40
0.1000
  0
CIRCLE
  8
0_00
  6
CONTINUOUS
 62
2
 10
340.8902
 20
549.9625
 40
0.1000
  0
CIRCLE
  8
0_00
  6
CONTINUOUS
 62
2
 10
343.7722
 20
545.7424
 40
0.1000
  0
CIRCLE
  8
0_00
  6
CONTINUOUS
 62
2
 10
341.4082
 20
538.4155
 40
0.1000
  0
CIRCLE
  8
0_00
  6
CONTINUOUS
 62
2
 10
333.8335
 20
536.7322
 40
0.1000
  0
CIRCLE
  8
0_00
  6
CONTINUOUS
 62
2
 10
338.5466
 20
536.2272
 40
0.1000
  0
CIRCLE
  8
0_00
  6
CONTINUOUS
 62
2
 10
341.9132
 20
531.5140
 40
0.1000
  0
CIRCLE
  8
0_00
  6
CONTINUOUS
 62
2
 10
334.8434
 20
528.8208
 40
0.1000
  0
CIRCLE
  8
0_00
  6
CONTINUOUS
 62
2
 10
333.6651
 20
532.3557
 40
0.1000
  0
CIRCLE
  8
0_00
  6
CONTINUOUS
 62
2
 10
337.5367
 20
531.6824
 40
0.1000
  0
CIRCLE
  8
0_00
  6
CONTINUOUS
 62
2
 10
340.5665
 20
523.2660
 40
0.1000
  0
CIRCLE
  8
0_00
  6
CONTINUOUS
 62
2
 10
337.2000
 20
526.2959
 40
0.1000
  0
CIRCLE
  8
0_00
  6
CONTINUOUS
 62
2
 10
340.2299
 20
518.2162
 40
0.1000
  0
CIRCLE
  8
0_00
  6
CONTINUOUS
 62
2
 10
337.7050
 20
519.3945
 40
0.1000
  0
CIRCLE
  8
0_00
  6
CONTINUOUS
 62
2
 10
337.0317
 20
512.3248
 40
0.1000
  0
CIRCLE
  8
0_00
  6
CONTINUOUS
 62
2
 10
339.8932
 20
510.4731
 40
0.1000
  0
CIRCLE
  8
0_00
  6
CONTINUOUS
 62
2
 10
341.0715
 20
506.0966
 40
0.1000
  0
CIRCLE
  8
0_00
  6
CONTINUOUS
 62
2
 10
336.6950
 20
503.2351
 40
0.1000
  0
CIRCLE
  8
0_00
  6
CONTINUOUS
 62
2
 10
336.1249
 20
506.9909
 40
0.1000
  0
CIRCLE
  8
0_00
  6
CONTINUOUS
 62
2
 10
333.7527
 20
500.8509
 40
0.1000
  0
CIRCLE
  8
0_00
  6
CONTINUOUS
 62
2
 10
335.8458
 20
495.1295
 40
0.1000
  0
CIRCLE
  8
0_00
  6
CONTINUOUS
 62
2
 10
340.3114
 20
496.5249
 40
0.1000
  0
CIRCLE
  8
0_00
  6
CONTINUOUS
 62
2
 10
340.5904
 20
499.8741
 40
0.1000
  0
CIRCLE
  8
0_00
  6
CONTINUOUS
 62
2
 10
334.0312
 20
543.6944
 40
0.1000
  0
CIRCLE
  8
0_00
  6
CONTINUOUS
 62
2
 10
338.9143
 20
542.8909
 40
0.1000
  0
CIRCLE
  8
0_00
  6
CONTINUOUS
 62
2
 10
337.4927
 20
539.9239
 40
0.1000
  0
CIRCLE
  8
0_00
  6
CONTINUOUS
 62
2
 10
341.5104
 20
544.8071
 40
0.1000
  0
CIRCLE
  8
0_00
  6
CONTINUOUS
 62
2
 10
334.9584
 20
549.5666
 40
0.1000
  0
CIRCLE
  8
0_00
  6
CONTINUOUS
 62
2
 10
338.1796
 20
490.7189
 40
0.1000
  0
CIRCLE
  8
0_00
  6
CONTINUOUS
 62
2
 10
333.9715
 20
487.3524
 40
0.1000
  0
CIRCLE
  8
0_00
  6
CONTINUOUS
 62
2
 10
341.0412
 20
488.8673
 40
0.1000
  0
CIRCLE
  8
0_00
  6
CONTINUOUS
 62
2
 10
342.2195
 20
484.4908
 40
0.1000
  0
CIRCLE
  8
0_00
  6
CONTINUOUS
 62
2
 10
337.8430
 20
481.6292
 40
0.1000
  0
CIRCLE
  8
0_00
  6
CONTINUOUS
 62
2
 10
337.2729
 20
485.3851
 40
0.1000
  0
CIRCLE
  8
0_00
  6
CONTINUOUS
 62
2
 10
334.9006
 20
479.2450
 40
0.1000
  0
CIRCLE
  8
0_00
  6
CONTINUOUS
 62
2
 10
336.9938
 20
473.5236
 40
0.1000
  0
CIRCLE
  8
0_00
  6
CONTINUOUS
 62
2
 10
341.4593
 20
474.9191
 40
0.1000
  0
CIRCLE
  8
0_00
  6
CONTINUOUS
 62
2
 10
341.7384
 20
478.2682
 40
0.1000
  0
ARC
  8
0_00
  6
CONTINUOUS
 62
2
 10
321.2841
 20
540.9008
 40
4.0000
 50
0.0000
 51
90.0000
  0
ARC
  8
0_00
  6
CONTINUOUS
 62
4
 10
321.2841
 20
540.9008
 40
8.0000
 50
0.0000
 51
90.0000
  0
CIRCLE
  8
0_00
  6
CONTINUOUS
 62
2
 10
333.0676
 20
556.4470
 40
0.1000
  0
CIRCLE
  8
0_00
  6
CONTINUOUS
 62
2
 10
330.8031
 20
549.5508
 40
0.1000
  0
CIRCLE
  8
0_00
  6
CONTINUOUS
 62
2
 10
329.6709
 20
553.7709
 40
0.1000
  0
CIRCLE
  8
0_00
  6
CONTINUOUS
 62
2
 10
324.6274
 20
551.4034
 40
0.1000
  0
CIRCLE
  8
0_00
  6
CONTINUOUS
 62
2
 10
327.9211
 20
550.0654
 40
0.1000
  0
CIRCLE
  8
0_00
  6
CONTINUOUS
 62
2
 10
330.2885
 20
546.6687
 40
0.1000
  0
CIRCLE
  8
0_00
  6
CONTINUOUS
 62
2
 10
322.9369
 20
556.2536
 40
0.1000
  0
CIRCLE
  8
0_00
  6
CONTINUOUS
 62
2
 10
321.2081
 20
553.4134
 40
0.1000
  0
CIRCLE
  8
0_00
  6
CONTINUOUS
 62
2
 10
327.6293
 20
556.0067
 40
0.1000
  0
CIRCLE
  8
0_00
  6
CONTINUOUS
 62
2
 10
319.6028
 20
550.9437
 40
0.1000
  0
CIRCLE
  8
0_00
  6
CONTINUOUS
 62
2
 10
330.9719
 20
536.0588
 40
0.1000
  0
CIRCLE
  8
0_00
  6
CONTINUOUS
 62
2
 10
332.9918
 20
526.4642
 40
0.1000
  0
CIRCLE
  8
0_00
  6
CONTINUOUS
 62
2
 10
333.3285
 20
518.5529
 40
0.1000
  0
CIRCLE
  8
0_00
  6
CONTINUOUS
 62
2
 10
330.9719
 20
516.3646
 40
0.1000
  0
CIRCLE
  8
0_00
  6
CONTINUOUS
 62
2
 10
331.4769
 20
521.7511
 40
0.1000
  0
CIRCLE
  8
0_00
  6
CONTINUOUS
 62
2
 10
332.8235
 20
508.9582
 40
0.1000
  0
CIRCLE
  8
0_00
  6
CONTINUOUS
 62
2
 10
331.7990
 20
497.7808
 40
0.1000
  0
CIRCLE
  8
0_00
  6
CONTINUOUS
 62
2
 10
333.0422
 20
539.8003
 40
0.1000
  0
CIRCLE
  8
0_00
  6
CONTINUOUS
 62
2
 10
332.9469
 20
476.1750
 40
0.1000
  0
ARC
  8
0_00
  6
CONTINUOUS
 62
2
 10
321.2841
 20
540.9008
 40
6.0000
 50
0.0000
 51
90.0000
  0
ARC
  8
0_00
  6
CONTINUOUS
 62
2
 10
321.2841
 20
540.9008
 40
2.0000
 50
0.0000
 51
90.0000
  0
CIRCLE
  8
0_00
  6
CONTINUOUS
 62
2
 10
230.4887
 20
551.0400
 40
0.1000
  0
CIRCLE
  8
0_00
  6
CONTINUOUS
 62
2
 10
231.6670
 20
554.9115
 40
0.1000
  0
CIRCLE
  8
0_00
  6
CONTINUOUS
 62
2
 10
223.5873
 20
555.0798
 40
0.1000
  0
CIRCLE
  8
0_00
  6
CONTINUOUS
 62
2
 10
219.2108
 20
551.7133
 40
0.1000
  0
CIRCLE
  8
0_00
  6
CONTINUOUS
 62
2
 10
226.4489
 20
551.2083
 40
0.1000
  0
CIRCLE
  8
0_00
  6
CONTINUOUS
 62
2
 10
218.5375
 20
555.7531
 40
0.1000
  0
CIRCLE
  8
0_00
  6
CONTINUOUS
 62
2
 10
215.5076
 20
553.5649
 40
0.1000
  0
CIRCLE
  8
0_00
  6
CONTINUOUS
 62
2
 10
213.1511
 20
554.7431
 40
0.1000
  0
CIRCLE
  8
0_00
  6
CONTINUOUS
 62
2
 10
287.6202
 20
555.0188
 40
0.1000
  0
CIRCLE
  8
0_00
  6
CONTINUOUS
 62
2
 10
286.6324
 20
552.5490
 40
0.1000
  0
CIRCLE
  8
0_00
  6
CONTINUOUS
 62
2
 10
292.0657
 20
553.6604
 40
0.1000
  0
CIRCLE
  8
0_00
  6
CONTINUOUS
 62
2
 10
288.9786
 20
551.3142
 40
0.1000
  0
CIRCLE
  8
0_00
  6
CONTINUOUS
 62
2
 10
280.2112
 20
551.3142
 40
0.1000
  0
CIRCLE
  8
0_00
  6
CONTINUOUS
 62
2
 10
282.0634
 20
553.7839
 40
0.1000
  0
CIRCLE
  8
0_00
  6
CONTINUOUS
 62
2
 10
281.5695
 20
556.1301
 40
0.1000
  0
CIRCLE
  8
0_00
  6
CONTINUOUS
 62
2
 10
275.1483
 20
555.2658
 40
0.1000
  0
CIRCLE
  8
0_00
  6
CONTINUOUS
 62
2
 10
275.3952
 20
553.0430
 40
0.1000
  0
CIRCLE
  8
0_00
  6
CONTINUOUS
 62
2
 10
270.8263
 20
551.6847
 40
0.1000
  0
CIRCLE
  8
0_00
  6
CONTINUOUS
 62
2
 10
270.0854
 20
554.2778
 40
0.1000
  0
CIRCLE
  8
0_00
  6
CONTINUOUS
 62
2
 10
265.2695
 20
557.3650
 40
0.1000
  0
CIRCLE
  8
0_00
  6
CONTINUOUS
 62
2
 10
263.9111
 20
553.9074
 40
0.1000
  0
CIRCLE
  8
0_00
  6
CONTINUOUS
 62
2
 10
260.5770
 20
552.9195
 40
0.1000
  0
CIRCLE
  8
0_00
  6
CONTINUOUS
 62
2
 10
265.2695
 20
551.0673
 40
0.1000
  0
CIRCLE
  8
0_00
  6
CONTINUOUS
 62
2
 10
253.4149
 20
551.0673
 40
0.1000
  0
CIRCLE
  8
0_00
  6
CONTINUOUS
 62
2
 10
257.8604
 20
555.7597
 40
0.1000
  0
CIRCLE
  8
0_00
  6
CONTINUOUS
 62
2
 10
258.3543
 20
552.4255
 40
0.1000
  0
CIRCLE
  8
0_00
  6
CONTINUOUS
 62
2
 10
252.6740
 20
555.5127
 40
0.1000
  0
CIRCLE
  8
0_00
  6
CONTINUOUS
 62
2
 10
247.9816
 20
553.0430
 40
0.1000
  0
CIRCLE
  8
0_00
  6
CONTINUOUS
 62
2
 10
246.4998
 20
556.6240
 40
0.1000
  0
CIRCLE
  8
0_00
  6
CONTINUOUS
 62
2
 10
262.6763
 20
557.2414
 40
0.1000
  0
CIRCLE
  8
0_00
  6
CONTINUOUS
 62
2
 10
315.8982
 20
551.9316
 40
0.1000
  0
CIRCLE
  8
0_00
  6
CONTINUOUS
 62
2
 10
316.6392
 20
555.5127
 40
0.1000
  0
CIRCLE
  8
0_00
  6
CONTINUOUS
 62
2
 10
307.0074
 20
555.3892
 40
0.1000
  0
CIRCLE
  8
0_00
  6
CONTINUOUS
 62
2
 10
307.6248
 20
552.5490
 40
0.1000
  0
CIRCLE
  8
0_00
  6
CONTINUOUS
 62
2
 10
312.8111
 20
554.7718
 40
0.1000
  0
CIRCLE
  8
0_00
  6
CONTINUOUS
 62
2
 10
311.3293
 20
551.9316
 40
0.1000
  0
CIRCLE
  8
0_00
  6
CONTINUOUS
 62
2
 10
303.3028
 20
553.1665
 40
0.1000
  0
CIRCLE
  8
0_00
  6
CONTINUOUS
 62
2
 10
300.3392
 20
555.2658
 40
0.1000
  0
CIRCLE
  8
0_00
  6
CONTINUOUS
 62
2
 10
295.1528
 20
553.9074
 40
0.1000
  0
CIRCLE
  8
0_00
  6
CONTINUOUS
 62
2
 10
299.8452
 20
552.6725
 40
0.1000
  0
CIRCLE
  8
0_00
  6
CONTINUOUS
 62
2
 10
294.6589
 20
556.6240
 40
0.1000
  0
CIRCLE
  8
0_00
  6
CONTINUOUS
 62
2
 10
294.1649
 20
551.0673
 40
0.1000
  0
CIRCLE
  8
0_00
  6
CONTINUOUS
 62
2
 10
300.7096
 20
550.2028
 40
0.1000
  0
CIRCLE
  8
0_00
  6
CONTINUOUS
 62
2
 10
240.4200
 20
555.5847
 40
0.1000
  0
CIRCLE
  8
0_00
  6
CONTINUOUS
 62
2
 10
237.8951
 20
552.2183
 40
0.1000
  0
CIRCLE
  8
0_00
  6
CONTINUOUS
 62
2
 10
242.6083
 20
551.3766
 40
0.1000
  0
CIRCLE
  8
0_00
  6
CONTINUOUS
 62
2
 10
337.0818
 20
551.9181
 40
0.1000
  0
CIRCLE
  8
0_00
  6
CONTINUOUS
 62
2
 10
201.0315
 20
549.1884
 40
0.1000
  0
CIRCLE
  8
0_00
  6
CONTINUOUS
 62
2
 10
337.8430
 20
474.0596
 40
0.1000
  0
CIRCLE
  8
0_00
  6
CONTINUOUS
 62
2
 10
334.9006
 20
471.6753
 40
0.1000
  0
CIRCLE
  8
0_00
  6
CONTINUOUS
 62
2
 10
336.9938
 20
465.9539
 40
0.1000
  0
CIRCLE
  8
0_00
  6
CONTINUOUS
 62
2
 10
341.4593
 20
467.3494
 40
0.1000
  0
CIRCLE
  8
0_00
  6
CONTINUOUS
 62
2
 10
341.7384
 20
470.6985
 40
0.1000
  0
CIRCLE
  8
0_00
  6
CONTINUOUS
 62
2
 10
332.9469
 20
468.6053
 40
0.1000
  0
ARC
  8
0_00
  6
CONTINUOUS
 62
4
 10
733.6040
 20
703.3295
 40
1.5000
 50
0.0000
 51
28.2628
  0
ARC
  8
0_00
  6
CONTINUOUS
 62
4
 10
682.4412
 20
659.8239
 40
75.0000
 50
37.6262
 51
49.0337
  0
ARC
  8
0_00
  6
CONTINUOUS
 62
4
 10
740.6540
 20
704.6963
 40
1.5000
 50
0.0000
 51
37.6262
  0
ARC
  8
0_00
  6
CONTINUOUS
 62
4
 10
685.3810
 20
677.4044
 40
56.2500
 50
28.2628
 51
45.3615
  0
ARC
  8
0_00
  6
CONTINUOUS
 62
4
 10
732.1040
 20
717.0225
 40
0.7500
 50
180.0000
 51
229.0338
  0
ARC
  8
0_00
  6
CONTINUOUS
 62
4
 10
631.9048
 20
679.6881
 40
5.0000
 50
180.0000
 51
229.0338
  0
ARC
  8
0_00
  6
CONTINUOUS
 62
4
 10
320.4182
 20
415.5679
 40
375.0000
 50
34.0115
 51
45.3615
  0
ARC
  8
0_00
  6
CONTINUOUS
 62
4
 10
300.8195
 20
298.3647
 40
500.0000
 50
44.1641
 51
49.0337
  0
ARC
  8
0_00
  6
DASHED
 62
2
 10
282.7841
 20
576.9723
 40
15.3286
 50
65.3218
 51
114.6782
  0
ARC
  8
0_00
  6
DASHED
 62
2
 10
255.7841
 20
576.9723
 40
15.3286
 50
65.3218
 51
114.6782
  0
ARC
  8
12_0C
  6
CONTINUOUS
 62
2
 10
217.2841
 20
694.2403
 40
5.1605
 50
39.1846
 51
140.8154
  0
ARC
  8
12_0C
  6
CONTINUOUS
 62
2
 10
181.2841
 20
694.2403
 40
5.1605
 50
39.1846
 51
140.8154
  0
ARC
  8
0_00
  6
CONTINUOUS
 62
4
 10
213.2964
 20
697.3008
 40
0.4000
 50
194.0363
 51
270.0000
  0
ARC
  8
0_00
  6
CONTINUOUS
 62
4
 10
212.3474
 20
698.2107
 40
0.3000
 50
14.0362
 51
87.5372
  0
ARC
  8
0_00
  6
CONTINUOUS
 62
4
 10
224.6118
 20
697.5009
 40
0.6000
 50
270.0000
 51
388.8667
  0
ARC
  8
0_00
  6
CONTINUOUS
 62
4
 10
227.5341
 20
700.1526
 40
0.3000
 50
275.0000
 51
371.6000
  0
ARC
  8
0_00
  6
CONTINUOUS
 62
4
 10
226.7341
 20
699.4301
 40
0.3500
 50
95.0000
 51
185.0988
  0
ARC
  8
0_00
  6
CONTINUOUS
 62
4
 10
225.6841
 20
699.7900
 40
1.0000
 50
95.0000
 51
180.0000
  0
ARC
  8
0_00
  6
CONTINUOUS
 62
4
 10
226.4089
 20
701.1583
 40
0.3000
 50
275.0000
 51
371.6000
  0
ARC
  8
0_00
  6
CONTINUOUS
 62
4
 10
226.6820
 20
704.8008
 40
0.7000
 50
90.0000
 51
191.6000
  0
ARC
  8
0_00
  6
CONTINUOUS
 62
4
 10
228.3776
 20
699.5768
 40
2.0000
 50
185.0988
 51
249.7122
  0
ARC
  8
0_00
  6
CONTINUOUS
 62
4
 10
228.3776
 20
699.5768
 40
3.7000
 50
183.4043
 51
208.8667
  0
ARC
  8
0_00
  6
CONTINUOUS
 62
4
 10
185.2718
 20
697.3008
 40
0.4000
 50
270.0000
 51
345.9637
  0
ARC
  8
0_00
  6
CONTINUOUS
 62
4
 10
186.2208
 20
698.2107
 40
0.3000
 50
92.4628
 51
165.9637
  0
ARC
  8
0_00
  6
CONTINUOUS
 62
4
 10
173.9563
 20
697.5009
 40
0.6000
 50
151.1333
 51
270.0000
  0
ARC
  8
0_00
  6
CONTINUOUS
 62
4
 10
171.0341
 20
700.1526
 40
0.3000
 50
168.4000
 51
265.0000
  0
ARC
  8
0_00
  6
CONTINUOUS
 62
4
 10
171.8341
 20
699.4301
 40
0.3500
 50
354.9012
 51
445.0000
  0
ARC
  8
0_00
  6
CONTINUOUS
 62
4
 10
172.8841
 20
699.7900
 40
1.0000
 50
0.0000
 51
85.0000
  0
ARC
  8
0_00
  6
CONTINUOUS
 62
4
 10
172.1593
 20
701.1583
 40
0.3000
 50
168.4000
 51
265.0000
  0
ARC
  8
0_00
  6
CONTINUOUS
 62
4
 10
171.8861
 20
704.8008
 40
0.7000
 50
348.4000
 51
450.0000
  0
ARC
  8
0_00
  6
CONTINUOUS
 62
4
 10
170.1906
 20
699.5768
 40
2.0000
 50
290.2878
 51
354.9012
  0
ARC
  8
0_00
  6
CONTINUOUS
 62
4
 10
170.1906
 20
699.5768
 40
3.7000
 50
331.1333
 51
356.5957
  0
ARC
  8
0_00
  6
CONTINUOUS
 62
4
 10
199.2841
 20
539.3009
 40
201.6000
 50
82.9521
 51
97.0479
  0
ARC
  8
0_00
  6
CONTINUOUS
 62
4
 10
175.2841
 20
733.4228
 40
6.0000
 50
97.0479
 51
180.0001
  0
ARC
  8
0_00
  6
CONTINUOUS
 62
4
 10
223.2841
 20
733.4228
 40
6.0000
 50
359.9999
 51
442.9521
  0
ARC
  8
14_0E
  6
CONTINUOUS
 62
4
 10
199.2841
 20
539.3009
 40
200.0000
 50
82.8930
 51
97.1069
  0
ARC
  8
14_0E
  6
CONTINUOUS
 62
4
 10
175.0841
 20
733.3981
 40
4.4000
 50
97.1069
 51
180.0000
  0
ARC
  8
14_0E
  6
CONTINUOUS
 62
4
 10
223.4841
 20
733.3981
 40
4.4000
 50
0.0000
 51
82.8930
  0
ARC
  8
0_00
  6
CONTINUOUS
 62
4
 10
169.9836
 20
694.6008
 40
0.7000
 50
180.0001
 51
360.0001
  0
ARC
  8
14_0E
  6
CONTINUOUS
 62
4
 10
170.1130
 20
699.6915
 40
2.0000
 50
286.5774
 51
349.1683
  0
ARC
  8
0_00
  6
CONTINUOUS
 62
4
 10
171.7336
 20
699.3815
 40
0.3500
 50
349.1683
 51
445.0000
  0
ARC
  8
0_00
  6
CONTINUOUS
 62
4
 10
171.0836
 20
700.1911
 40
0.4000
 50
168.6000
 51
265.0000
  0
ARC
  8
0_00
  6
CONTINUOUS
 62
4
 10
170.9622
 20
702.6246
 40
0.2000
 50
348.6000
 51
450.0000
  0
ARC
  8
0_00
  6
CONTINUOUS
 62
4
 10
171.0836
 20
705.2246
 40
0.4000
 50
90.0000
 51
180.0000
  0
ARC
  8
0_00
  6
CONTINUOUS
 62
4
 10
171.0836
 20
707.0246
 40
0.4000
 50
183.0566
 51
270.0000
  0
ARC
  8
0_00
  6
CONTINUOUS
 62
4
 10
173.9836
 20
705.4247
 40
0.6000
 50
180.0000
 51
270.0000
  0
ARC
  8
0_00
  6
CONTINUOUS
 62
4
 10
173.6836
 20
706.1246
 40
0.5000
 50
0.0000
 51
90.0000
  0
ARC
  8
0_00
  6
CONTINUOUS
 62
4
 10
173.9836
 20
705.0247
 40
0.2000
 50
270.0000
 51
360.0000
  0
ARC
  8
0_00
  6
CONTINUOUS
 62
4
 10
228.5840
 20
694.6008
 40
0.7000
 50
179.9999
 51
359.9999
  0
ARC
  8
14_0E
  6
CONTINUOUS
 62
4
 10
228.4546
 20
699.6915
 40
2.0000
 50
190.8317
 51
253.4226
  0
ARC
  8
0_00
  6
CONTINUOUS
 62
4
 10
226.8341
 20
699.3815
 40
0.3500
 50
95.0000
 51
190.8317
  0
ARC
  8
0_00
  6
CONTINUOUS
 62
4
 10
227.4840
 20
700.1911
 40
0.4000
 50
275.0000
 51
371.4000
  0
ARC
  8
0_00
  6
CONTINUOUS
 62
4
 10
224.8840
 20
706.1246
 40
0.5000
 50
90.0000
 51
180.0000
  0
ARC
  8
0_00
  6
CONTINUOUS
 62
4
 10
224.5840
 20
705.0247
 40
0.2000
 50
180.0000
 51
270.0000
  0
ARC
  8
0_00
  6
CONTINUOUS
 62
4
 10
224.5840
 20
705.4247
 40
0.6000
 50
270.0000
 51
360.0000
  0
ARC
  8
0_00
  6
CONTINUOUS
 62
4
 10
227.4840
 20
707.0246
 40
0.4000
 50
270.0000
 51
359.9999
  0
ARC
  8
0_00
  6
CONTINUOUS
 62
4
 10
227.4840
 20
705.2246
 40
0.4000
 50
0.0000
 51
90.0000
  0
ARC
  8
0_00
  6
CONTINUOUS
 62
4
 10
227.6055
 20
702.6246
 40
0.2000
 50
90.0000
 51
191.4000
  0
ARC
  8
0_00
  6
CONTINUOUS
 62
4
 10
587.6303
 20
332.3146
 40
4.2500
 50
0.0000
 51
180.0000
  0
ARC
  8
0_00
  6
CONTINUOUS
 62
4
 10
587.6303
 20
320.8146
 40
4.2500
 50
180.0000
 51
360.0000
  0
ARC
  8
0_00
  6
CONTINUOUS
 62
4
 10
587.6303
 20
246.8146
 40
4.2500
 50
180.0000
 51
360.0000
  0
ARC
  8
0_00
  6
CONTINUOUS
 62
4
 10
587.6303
 20
258.3146
 40
4.2500
 50
0.0000
 51
180.0000
  0
ARC
  8
0_00
  6
CONTINUOUS
 62
4
 10
672.6302
 20
332.3146
 40
4.2500
 50
0.0000
 51
180.0000
  0
ARC
  8
0_00
  6
CONTINUOUS
 62
4
 10
672.6302
 20
320.8146
 40
4.2500
 50
180.0000
 51
360.0000
  0
ARC
  8
0_00
  6
CONTINUOUS
 62
4
 10
672.6302
 20
246.8146
 40
4.2500
 50
180.0000
 51
360.0000
  0
ARC
  8
0_00
  6
CONTINUOUS
 62
4
 10
672.6302
 20
258.3146
 40
4.2500
 50
0.0000
 51
180.0000
  0
ARC
  8
0_00
  6
CONTINUOUS
 62
2
 10
276.7499
 20
173.6224
 40
15.3286
 50
65.3218
 51
114.6782
  0
ARC
  8
12_0C
  6
DASHED
 62
2
 10
266.2499
 20
290.8905
 40
5.1605
 50
39.1846
 51
140.8154
  0
ARC
  8
12_0C
  6
DASHED
 62
2
 10
287.2499
 20
290.8905
 40
5.1605
 50
39.1846
 51
140.8154
  0
ARC
  8
0_00
  6
CONTINUOUS
 62
3
 10
1089.6760
 20
72.2363
 40
0.5362
 50
270.0000
 51
450.0000
  0
ARC
  8
0_00
  6
CONTINUOUS
 62
3
 10
1088.1842
 20
77.0626
 40
0.6532
 50
0.0000
 51
180.0000
  0
ARC
  8
0_00
  6
CONTINUOUS
 62
3
 10
1089.1886
 20
83.4001
 40
1.9500
 50
333.9999
 51
450.0000
  0
CIRCLE
  8
0_00
  6
CONTINUOUS
 62
3
 10
1090.0660
 20
87.3000
 40
1.5600
  0
ARC
  8
0_00
  6
CONTINUOUS
 62
3
 10
1088.2811
 20
77.0626
 40
0.4500
 50
0.0000
 51
180.0000
  0
ARC
  8
0_00
  6
CONTINUOUS
 62
3
 10
1088.2811
 20
77.0626
 40
0.1500
 50
0.0000
 51
180.0000
  0
ARC
  8
0_00
  6
CONTINUOUS
 62
3
 10
1089.6760
 20
72.1725
 40
0.3000
 50
270.0000
 51
450.0000
  0
CIRCLE
  8
0_00
  6
CONTINUOUS
 62
3
 10
1090.0660
 20
87.3000
 40
1.3244
  0
CIRCLE
  8
0_00
  6
CONTINUOUS
 62
3
 10
1090.0660
 20
87.3000
 40
1.0256
  0
CIRCLE
  8
0_00
  6
CONTINUOUS
 62
3
 10
1090.0660
 20
87.3000
 40
0.7027
  0
CIRCLE
  8
0_00
  6
CONTINUOUS
 62
3
 10
1090.0660
 20
87.3000
 40
0.3440
  0
CIRCLE
  8
0_00
  6
CONTINUOUS
 62
3
 10
1090.0660
 20
87.3000
 40
0.1699
  0
CIRCLE
  8
0_00
  6
CONTINUOUS
 62
4
 10
881.0410
 20
82.2001
 40
3.7500
  0
CIRCLE
  8
0_00
  6
CONTINUOUS
 62
4
 10
881.0410
 20
82.2001
 40
6.0000
  0
ARC
  8
3_03
  6
CONTINUOUS
 62
4
 10
192.2470
 20
574.1165
 40
2.0000
 50
88.0908
 51
162.9351
  0
ARC
  8
3_03
  6
CONTINUOUS
 62
4
 10
194.7841
 20
577.7340
 40
0.3000
 50
88.0908
 51
180.0000
  0
ARC
  8
3_03
  6
CONTINUOUS
 62
4
 10
201.6841
 20
577.5040
 40
0.3000
 50
0.0000
 51
88.0908
  0
ARC
  8
3_03
  6
CONTINUOUS
 62
4
 10
189.4749
 20
562.7008
 40
0.5000
 50
162.9351
 51
270.0000
  0
ARC
  8
3_03
  6
CONTINUOUS
 62
4
 10
193.1247
 20
572.8866
 40
1.0000
 50
88.0908
 51
162.9351
  0
ARC
  8
3_03
  6
CONTINUOUS
 62
4
 10
201.4841
 20
576.1099
 40
0.5000
 50
268.0909
 51
360.0000
  0
ARC
  8
3_03
  6
CONTINUOUS
 62
4
 10
197.1841
 20
575.2527
 40
0.5000
 50
88.0908
 51
180.0000
  0
ARC
  8
3_03
  6
CONTINUOUS
 62
4
 10
346.3843
 20
570.9798
 40
2.0000
 50
20.6902
 51
88.0908
  0
ARC
  8
3_03
  6
CONTINUOUS
 62
4
 10
336.8841
 20
572.9973
 40
0.3000
 50
88.0908
 51
180.0000
  0
ARC
  8
3_03
  6
CONTINUOUS
 62
4
 10
348.7628
 20
562.7008
 40
0.5000
 50
270.0000
 51
380.6902
  0
ARC
  8
3_03
  6
CONTINUOUS
 62
4
 10
345.5445
 20
569.8070
 40
1.0000
 50
20.6902
 51
88.0908
  0
ARC
  8
3_03
  6
CONTINUOUS
 62
4
 10
337.0841
 20
571.5899
 40
0.5000
 50
180.0000
 51
268.0909
  0
ARC
  8
3_03
  6
CONTINUOUS
 62
4
 10
324.0841
 20
562.7008
 40
0.5000
 50
180.0000
 51
270.0000
  0
ARC
  8
3_03
  6
CONTINUOUS
 62
4
 10
322.5841
 20
564.9008
 40
1.0000
 50
0.0000
 51
180.0000
  0
ARC
  8
3_03
  6
CONTINUOUS
 62
4
 10
214.4841
 20
562.7008
 40
0.5000
 50
270.0000
 51
360.0000
  0
ARC
  8
3_03
  6
CONTINUOUS
 62
4
 10
215.9841
 20
564.9008
 40
1.0000
 50
0.0000
 51
180.0000
  0
ARC
  8
3_03
  6
CONTINUOUS
 62
4
 10
182.2841
 20
520.1008
 40
1.5000
 50
180.0000
 51
270.0000
  0
ARC
  8
3_03
  6
CONTINUOUS
 62
4
 10
189.2151
 20
558.4008
 40
0.5000
 50
90.0000
 51
171.5318
  0
ARC
  8
3_03
  6
CONTINUOUS
 62
4
 10
356.2841
 20
519.1008
 40
1.5000
 50
270.0000
 51
360.0000
  0
ARC
  8
3_03
  6
CONTINUOUS
 62
4
 10
349.3515
 20
558.4008
 40
0.5000
 50
8.2660
 51
90.0000
  0
ARC
  8
12_0C
  6
CONTINUOUS
 62
2
 10
427.2841
 20
694.2403
 40
5.1605
 50
39.1846
 51
140.8154
  0
ARC
  8
12_0C
  6
CONTINUOUS
 62
2
 10
391.2841
 20
694.2403
 40
5.1605
 50
39.1846
 51
140.8154
  0
ARC
  8
0_00
  6
CONTINUOUS
 62
4
 10
423.2964
 20
697.3008
 40
0.4000
 50
194.0363
 51
270.0000
  0
ARC
  8
0_00
  6
CONTINUOUS
 62
4
 10
422.3474
 20
698.2107
 40
0.3000
 50
14.0362
 51
87.5372
  0
ARC
  8
0_00
  6
CONTINUOUS
 62
4
 10
434.6119
 20
697.5009
 40
0.6000
 50
270.0000
 51
388.8667
  0
ARC
  8
0_00
  6
CONTINUOUS
 62
4
 10
437.5341
 20
700.1526
 40
0.3000
 50
275.0000
 51
371.6000
  0
ARC
  8
0_00
  6
CONTINUOUS
 62
4
 10
436.7341
 20
699.4301
 40
0.3500
 50
95.0000
 51
185.0988
  0
ARC
  8
0_00
  6
CONTINUOUS
 62
4
 10
435.6841
 20
699.7900
 40
1.0000
 50
95.0000
 51
180.0000
  0
ARC
  8
0_00
  6
CONTINUOUS
 62
4
 10
436.4089
 20
701.1583
 40
0.3000
 50
275.0000
 51
371.6000
  0
ARC
  8
0_00
  6
CONTINUOUS
 62
4
 10
436.6820
 20
704.8008
 40
0.7000
 50
90.0000
 51
191.6000
  0
ARC
  8
0_00
  6
CONTINUOUS
 62
4
 10
438.3776
 20
699.5768
 40
2.0000
 50
185.0988
 51
249.7122
  0
ARC
  8
0_00
  6
CONTINUOUS
 62
4
 10
438.3776
 20
699.5768
 40
3.7000
 50
183.4043
 51
208.8667
  0
ARC
  8
0_00
  6
CONTINUOUS
 62
4
 10
439.7846
 20
696.4395
 40
0.5000
 50
179.9995
 51
296.3368
  0
ARC
  8
0_00
  6
CONTINUOUS
 62
4
 10
437.4847
 20
705.2474
 40
0.4000
 50
359.4403
 51
449.9995
  0
ARC
  8
0_00
  6
CONTINUOUS
 62
4
 10
434.5847
 20
705.0474
 40
0.2000
 50
179.9995
 51
269.9996
  0
ARC
  8
0_00
  6
CONTINUOUS
 62
4
 10
434.5847
 20
705.4474
 40
0.6000
 50
269.9996
 51
359.9996
  0
ARC
  8
0_00
  6
CONTINUOUS
 62
4
 10
436.8347
 20
699.4042
 40
0.3500
 50
94.9995
 51
190.8312
  0
ARC
  8
14_0E
  6
CONTINUOUS
 62
4
 10
438.4552
 20
699.7142
 40
2.0000
 50
190.8312
 51
253.4221
  0
ARC
  8
0_00
  6
CONTINUOUS
 62
4
 10
437.4846
 20
700.2139
 40
0.4000
 50
274.9996
 51
371.3995
  0
ARC
  8
0_00
  6
CONTINUOUS
 62
4
 10
437.6061
 20
702.6473
 40
0.2000
 50
89.9995
 51
191.3996
  0
ARC
  8
0_00
  6
CONTINUOUS
 62
4
 10
435.3847
 20
705.9474
 40
1.0000
 50
89.9995
 51
179.9995
  0
ARC
  8
0_00
  6
CONTINUOUS
 62
4
 10
437.9847
 20
705.6473
 40
1.3000
 50
359.9996
 51
449.9995
  0
ARC
  8
0_00
  6
CONTINUOUS
 62
4
 10
409.2841
 20
671.1568
 40
60.0000
 50
56.5252
 51
123.4747
  0
ARC
  8
0_00
  6
CONTINUOUS
 62
4
 10
433.8841
 20
708.3590
 40
15.4000
 50
292.7488
 51
416.5252
  0
ARC
  8
0_00
  6
CONTINUOUS
 62
4
 10
439.2941
 20
695.4568
 40
1.4095
 50
179.9994
 51
292.7488
  0
ARC
  8
0_00
  6
CONTINUOUS
 62
4
 10
433.8841
 20
708.3590
 40
13.8000
 50
296.3368
 51
416.5252
  0
ARC
  8
0_00
  6
CONTINUOUS
 62
4
 10
409.2841
 20
671.1568
 40
58.4000
 50
56.5252
 51
123.4747
  0
ARC
  8
0_00
  6
CONTINUOUS
 62
4
 10
395.2718
 20
697.3008
 40
0.4000
 50
270.0000
 51
345.9637
  0
ARC
  8
0_00
  6
CONTINUOUS
 62
4
 10
396.2208
 20
698.2107
 40
0.3000
 50
92.4628
 51
165.9637
  0
ARC
  8
0_00
  6
CONTINUOUS
 62
4
 10
383.9563
 20
697.5009
 40
0.6000
 50
151.1333
 51
270.0000
  0
ARC
  8
0_00
  6
CONTINUOUS
 62
4
 10
381.0341
 20
700.1526
 40
0.3000
 50
168.4000
 51
265.0000
  0
ARC
  8
0_00
  6
CONTINUOUS
 62
4
 10
381.8341
 20
699.4301
 40
0.3500
 50
354.9012
 51
445.0000
  0
ARC
  8
0_00
  6
CONTINUOUS
 62
4
 10
382.8841
 20
699.7900
 40
1.0000
 50
0.0000
 51
85.0000
  0
ARC
  8
0_00
  6
CONTINUOUS
 62
4
 10
382.1593
 20
701.1583
 40
0.3000
 50
168.4000
 51
265.0000
  0
ARC
  8
0_00
  6
CONTINUOUS
 62
4
 10
381.8862
 20
704.8008
 40
0.7000
 50
348.4000
 51
450.0000
  0
ARC
  8
0_00
  6
CONTINUOUS
 62
4
 10
380.1906
 20
699.5768
 40
2.0000
 50
290.2878
 51
354.9012
  0
ARC
  8
0_00
  6
CONTINUOUS
 62
4
 10
380.1906
 20
699.5768
 40
3.7000
 50
331.1333
 51
356.5957
  0
ARC
  8
0_00
  6
CONTINUOUS
 62
4
 10
378.7836
 20
696.4395
 40
0.5000
 50
243.6632
 51
360.0004
  0
ARC
  8
0_00
  6
CONTINUOUS
 62
4
 10
381.0835
 20
705.2474
 40
0.4000
 50
89.9999
 51
180.5597
  0
ARC
  8
0_00
  6
CONTINUOUS
 62
4
 10
383.9835
 20
705.0474
 40
0.2000
 50
270.0005
 51
360.0004
  0
ARC
  8
0_00
  6
CONTINUOUS
 62
4
 10
383.9835
 20
705.4474
 40
0.6000
 50
180.0005
 51
270.0005
  0
ARC
  8
0_00
  6
CONTINUOUS
 62
4
 10
381.7335
 20
699.4042
 40
0.3500
 50
349.1688
 51
445.0004
  0
ARC
  8
14_0E
  6
CONTINUOUS
 62
4
 10
380.1129
 20
699.7142
 40
2.0000
 50
286.5779
 51
349.1688
  0
ARC
  8
0_00
  6
CONTINUOUS
 62
4
 10
381.0835
 20
700.2139
 40
0.4000
 50
168.6004
 51
265.0005
  0
ARC
  8
0_00
  6
CONTINUOUS
 62
4
 10
380.9621
 20
702.6473
 40
0.2000
 50
348.6005
 51
450.0004
  0
ARC
  8
0_00
  6
CONTINUOUS
 62
4
 10
383.1835
 20
705.9474
 40
1.0000
 50
0.0004
 51
90.0004
  0
ARC
  8
0_00
  6
CONTINUOUS
 62
4
 10
380.5835
 20
705.6473
 40
1.3000
 50
90.0004
 51
180.0005
  0
ARC
  8
0_00
  6
CONTINUOUS
 62
4
 10
384.6841
 20
708.3590
 40
15.4000
 50
123.4747
 51
247.2512
  0
ARC
  8
0_00
  6
CONTINUOUS
 62
4
 10
379.2741
 20
695.4568
 40
1.4095
 50
247.2512
 51
360.0006
  0
ARC
  8
0_00
  6
CONTINUOUS
 62
4
 10
384.6841
 20
708.3590
 40
13.8000
 50
123.4747
 51
243.6632
  0
ARC
  8
11_0B
  6
DASHED
 62
2
 10
237.9753
 20
546.0436
 40
0.3000
 50
175.0000
 51
255.0000
  0
ARC
  8
11_0B
  6
DASHED
 62
2
 10
237.6484
 20
542.3079
 40
0.3000
 50
175.0000
 51
255.0000
  0
ARC
  8
11_0B
  6
DASHED
 62
2
 10
237.3216
 20
538.5721
 40
0.3000
 50
175.0000
 51
255.0000
  0
ARC
  8
11_0B
  6
DASHED
 62
2
 10
236.9948
 20
534.8363
 40
0.3000
 50
175.0000
 51
255.0000
  0
ARC
  8
11_0B
  6
DASHED
 62
2
 10
236.8309
 20
531.2430
 40
0.4500
 50
175.0000
 51
205.0000
  0
ARC
  8
11_0B
  6
DASHED
 62
2
 10
244.5929
 20
546.0436
 40
0.3000
 50
285.0000
 51
365.0000
  0
ARC
  8
11_0B
  6
DASHED
 62
2
 10
244.9197
 20
542.3079
 40
0.3000
 50
285.0000
 51
365.0000
  0
ARC
  8
11_0B
  6
DASHED
 62
2
 10
245.2466
 20
538.5721
 40
0.3000
 50
285.0000
 51
365.0000
  0
ARC
  8
11_0B
  6
DASHED
 62
2
 10
245.5734
 20
534.8363
 40
0.3000
 50
285.0000
 51
365.0000
  0
ARC
  8
11_0B
  6
DASHED
 62
2
 10
245.7372
 20
531.2430
 40
0.4500
 50
335.0000
 51
365.0000
  0
ARC
  8
11_0B
  6
DASHED
 62
2
 10
238.1597
 20
532.6620
 40
0.1500
 50
265.0000
 51
355.0000
  0
ARC
  8
11_0B
  6
DASHED
 62
2
 10
244.4085
 20
532.6620
 40
0.1500
 50
185.0000
 51
275.0000
  0
ARC
  8
11_0B
  6
DASHED
 62
2
 10
238.4865
 20
536.3977
 40
0.1500
 50
265.0000
 51
355.0000
  0
ARC
  8
11_0B
  6
DASHED
 62
2
 10
244.0816
 20
536.3977
 40
0.1500
 50
185.0000
 51
275.0000
  0
ARC
  8
11_0B
  6
DASHED
 62
2
 10
238.8134
 20
540.1334
 40
0.1500
 50
265.0000
 51
355.0000
  0
ARC
  8
11_0B
  6
DASHED
 62
2
 10
243.7548
 20
540.1334
 40
0.1500
 50
185.0000
 51
275.0000
  0
ARC
  8
11_0B
  6
DASHED
 62
2
 10
239.1402
 20
543.8692
 40
0.1500
 50
265.0000
 51
355.0000
  0
ARC
  8
11_0B
  6
DASHED
 62
2
 10
243.4280
 20
543.8692
 40
0.1500
 50
185.0000
 51
275.0000
  0
ARC
  8
11_0B
  6
DASHED
 62
2
 10
239.0187
 20
547.6442
 40
0.1500
 50
265.0000
 51
355.0000
  0
ARC
  8
11_0B
  6
DASHED
 62
2
 10
243.5494
 20
547.6442
 40
0.1500
 50
185.0000
 51
275.0000
  0
ARC
  8
11_0B
  6
DASHED
 62
2
 10
244.4495
 20
533.9140
 40
0.3000
 50
105.0000
 51
185.0000
  0
ARC
  8
11_0B
  6
DASHED
 62
2
 10
238.2791
 20
534.0264
 40
0.1500
 50
355.0000
 51
435.0000
  0
ARC
  8
11_0B
  6
DASHED
 62
2
 10
244.1227
 20
537.6498
 40
0.3000
 50
105.0000
 51
185.0000
  0
ARC
  8
11_0B
  6
DASHED
 62
2
 10
238.4455
 20
537.6498
 40
0.3000
 50
355.0000
 51
435.0000
  0
ARC
  8
11_0B
  6
DASHED
 62
2
 10
243.7958
 20
541.3855
 40
0.3000
 50
105.0000
 51
185.0000
  0
ARC
  8
11_0B
  6
DASHED
 62
2
 10
238.7723
 20
541.3855
 40
0.3000
 50
355.0000
 51
435.0000
  0
ARC
  8
11_0B
  6
DASHED
 62
2
 10
243.4690
 20
545.1213
 40
0.3000
 50
105.0000
 51
185.0000
  0
ARC
  8
11_0B
  6
DASHED
 62
2
 10
239.0992
 20
545.1213
 40
0.3000
 50
355.0000
 51
435.0000
  0
ARC
  8
11_0B
  6
DASHED
 62
2
 10
239.0318
 20
549.5146
 40
0.3000
 50
355.0000
 51
440.0000
  0
ARC
  8
11_0B
  6
DASHED
 62
2
 10
243.5364
 20
549.5146
 40
0.3000
 50
100.0000
 51
185.0000
  0
ARC
  8
11_0B
  6
DASHED
 62
2
 10
246.9048
 20
548.4766
 40
0.3000
 50
335.0000
 51
425.0000
  0
ARC
  8
11_0B
  6
DASHED
 62
2
 10
246.7689
 20
548.5400
 40
0.3000
 50
65.0000
 51
155.0000
  0
ARC
  8
11_0B
  6
DASHED
 62
2
 10
235.6633
 20
548.4766
 40
0.3000
 50
115.0000
 51
205.0000
  0
ARC
  8
11_0B
  6
DASHED
 62
2
 10
235.7993
 20
548.5400
 40
0.3000
 50
25.0000
 51
115.0000
  0
ARC
  8
11_0B
  6
DASHED
 62
2
 10
293.9753
 20
546.0436
 40
0.3000
 50
175.0000
 51
255.0000
  0
ARC
  8
11_0B
  6
DASHED
 62
2
 10
293.6484
 20
542.3079
 40
0.3000
 50
175.0000
 51
255.0000
  0
ARC
  8
11_0B
  6
DASHED
 62
2
 10
293.3216
 20
538.5721
 40
0.3000
 50
175.0000
 51
255.0000
  0
ARC
  8
11_0B
  6
DASHED
 62
2
 10
292.9948
 20
534.8363
 40
0.3000
 50
175.0000
 51
255.0000
  0
ARC
  8
11_0B
  6
DASHED
 62
2
 10
292.8310
 20
531.2430
 40
0.4500
 50
175.0000
 51
205.0000
  0
ARC
  8
11_0B
  6
DASHED
 62
2
 10
300.5929
 20
546.0436
 40
0.3000
 50
285.0000
 51
365.0000
  0
ARC
  8
11_0B
  6
DASHED
 62
2
 10
300.9197
 20
542.3079
 40
0.3000
 50
285.0000
 51
365.0000
  0
ARC
  8
11_0B
  6
DASHED
 62
2
 10
301.2466
 20
538.5721
 40
0.3000
 50
285.0000
 51
365.0000
  0
ARC
  8
11_0B
  6
DASHED
 62
2
 10
301.5734
 20
534.8363
 40
0.3000
 50
285.0000
 51
365.0000
  0
ARC
  8
11_0B
  6
DASHED
 62
2
 10
301.7372
 20
531.2430
 40
0.4500
 50
335.0000
 51
365.0000
  0
ARC
  8
11_0B
  6
DASHED
 62
2
 10
294.1597
 20
532.6620
 40
0.1500
 50
265.0000
 51
355.0000
  0
ARC
  8
11_0B
  6
DASHED
 62
2
 10
300.4085
 20
532.6620
 40
0.1500
 50
185.0000
 51
275.0000
  0
ARC
  8
11_0B
  6
DASHED
 62
2
 10
294.4865
 20
536.3977
 40
0.1500
 50
265.0000
 51
355.0000
  0
ARC
  8
11_0B
  6
DASHED
 62
2
 10
300.0816
 20
536.3977
 40
0.1500
 50
185.0000
 51
275.0000
  0
ARC
  8
11_0B
  6
DASHED
 62
2
 10
294.8134
 20
540.1334
 40
0.1500
 50
265.0000
 51
355.0000
  0
ARC
  8
11_0B
  6
DASHED
 62
2
 10
299.7548
 20
540.1334
 40
0.1500
 50
185.0000
 51
275.0000
  0
ARC
  8
11_0B
  6
DASHED
 62
2
 10
295.1402
 20
543.8692
 40
0.1500
 50
265.0000
 51
355.0000
  0
ARC
  8
11_0B
  6
DASHED
 62
2
 10
299.4280
 20
543.8692
 40
0.1500
 50
185.0000
 51
275.0000
  0
ARC
  8
11_0B
  6
DASHED
 62
2
 10
295.0188
 20
547.6442
 40
0.1500
 50
265.0000
 51
355.0000
  0
ARC
  8
11_0B
  6
DASHED
 62
2
 10
299.5494
 20
547.6442
 40
0.1500
 50
185.0000
 51
275.0000
  0
ARC
  8
11_0B
  6
DASHED
 62
2
 10
300.4495
 20
533.9140
 40
0.3000
 50
105.0000
 51
185.0000
  0
ARC
  8
11_0B
  6
DASHED
 62
2
 10
294.2791
 20
534.0264
 40
0.1500
 50
355.0000
 51
435.0000
  0
ARC
  8
11_0B
  6
DASHED
 62
2
 10
300.1227
 20
537.6498
 40
0.3000
 50
105.0000
 51
185.0000
  0
ARC
  8
11_0B
  6
DASHED
 62
2
 10
294.4455
 20
537.6498
 40
0.3000
 50
355.0000
 51
435.0000
  0
ARC
  8
11_0B
  6
DASHED
 62
2
 10
299.7958
 20
541.3855
 40
0.3000
 50
105.0000
 51
185.0000
  0
ARC
  8
11_0B
  6
DASHED
 62
2
 10
294.7723
 20
541.3855
 40
0.3000
 50
355.0000
 51
435.0000
  0
ARC
  8
11_0B
  6
DASHED
 62
2
 10
299.4690
 20
545.1213
 40
0.3000
 50
105.0000
 51
185.0000
  0
ARC
  8
11_0B
  6
DASHED
 62
2
 10
295.0992
 20
545.1213
 40
0.3000
 50
355.0000
 51
435.0000
  0
ARC
  8
11_0B
  6
DASHED
 62
2
 10
295.0318
 20
549.5146
 40
0.3000
 50
355.0000
 51
440.0000
  0
ARC
  8
11_0B
  6
DASHED
 62
2
 10
299.5364
 20
549.5146
 40
0.3000
 50
100.0000
 51
185.0000
  0
ARC
  8
11_0B
  6
DASHED
 62
2
 10
302.9049
 20
548.4766
 40
0.3000
 50
335.0000
 51
425.0000
  0
ARC
  8
11_0B
  6
DASHED
 62
2
 10
302.7689
 20
548.5400
 40
0.3000
 50
65.0000
 51
155.0000
  0
ARC
  8
11_0B
  6
DASHED
 62
2
 10
291.6633
 20
548.4766
 40
0.3000
 50
115.0000
 51
205.0000
  0
ARC
  8
11_0B
  6
DASHED
 62
2
 10
291.7993
 20
548.5400
 40
0.3000
 50
25.0000
 51
115.0000
  0
ARC
  8
0_00
  6
CONTINUOUS
 62
2
 10
241.2841
 20
563.1008
 40
7.7000
 50
39.9831
 51
140.0169
  0
ARC
  8
0_00
  6
DASHED
 62
2
 10
297.2841
 20
563.1008
 40
7.7000
 50
39.9831
 51
140.0169
  0
ARC
  8
12_0C
  6
CONTINUOUS
 62
2
 10
623.4048
 20
694.5403
 40
5.1605
 50
39.1846
 51
140.8154
  0
ARC
  8
12_0C
  6
CONTINUOUS
 62
2
 10
587.4048
 20
694.5403
 40
5.1605
 50
39.1846
 51
140.8154
  0
ARC
  8
0_00
  6
CONTINUOUS
 62
4
 10
632.4031
 20
698.6009
 40
0.6000
 50
270.0000
 51
450.0000
  0
ARC
  8
0_00
  6
CONTINUOUS
 62
4
 10
605.4031
 20
701.9008
 40
29.0000
 50
201.7076
 51
269.4103
  0
ARC
  8
0_00
  6
CONTINUOUS
 62
4
 10
605.4031
 20
701.9008
 40
29.0000
 50
270.5897
 51
338.2924
  0
ARC
  8
0_00
  6
CONTINUOUS
 62
4
 10
580.6032
 20
697.4008
 40
0.5000
 50
180.0000
 51
270.0000
  0
ARC
  8
0_00
  6
CONTINUOUS
 62
4
 10
630.2031
 20
697.4008
 40
0.5000
 50
270.0000
 51
360.0000
  0
ARC
  8
0_00
  6
CONTINUOUS
 62
4
 10
632.7031
 20
701.3814
 40
0.5000
 50
275.0000
 51
371.6000
  0
ARC
  8
0_00
  6
CONTINUOUS
 62
4
 10
631.7031
 20
700.8925
 40
1.0000
 50
95.0000
 51
180.0000
  0
ARC
  8
0_00
  6
CONTINUOUS
 62
4
 10
627.9359
 20
702.2260
 40
5.0000
 50
11.6000
 51
45.0000
  0
ARC
  8
0_00
  6
CONTINUOUS
 62
4
 10
627.9359
 20
702.2260
 40
4.1000
 50
11.6000
 51
45.0000
  0
ARC
  8
0_00
  6
CONTINUOUS
 62
4
 10
578.4032
 20
698.6009
 40
0.6000
 50
90.0000
 51
270.0000
  0
ARC
  8
0_00
  6
CONTINUOUS
 62
4
 10
578.1031
 20
701.3814
 40
0.5000
 50
168.4000
 51
265.0000
  0
ARC
  8
0_00
  6
CONTINUOUS
 62
4
 10
580.9531
 20
707.4508
 40
0.4500
 50
0.0000
 51
180.0000
  0
ARC
  8
0_00
  6
CONTINUOUS
 62
4
 10
579.1032
 20
700.8925
 40
1.0000
 50
0.0000
 51
85.0000
  0
ARC
  8
0_00
  6
CONTINUOUS
 62
4
 10
582.8703
 20
702.2260
 40
5.0000
 50
135.0000
 51
168.4000
  0
ARC
  8
0_00
  6
CONTINUOUS
 62
4
 10
582.8703
 20
702.2260
 40
4.1000
 50
135.0000
 51
168.4000
  0
ARC
  8
0_00
  6
CONTINUOUS
 62
4
 10
580.4031
 20
706.9713
 40
1.0000
 50
315.0000
 51
360.0000
  0
ARC
  8
0_00
  6
CONTINUOUS
 62
4
 10
629.8531
 20
707.4508
 40
0.4500
 50
0.0000
 51
180.0000
  0
ARC
  8
0_00
  6
CONTINUOUS
 62
4
 10
630.4032
 20
706.9713
 40
1.0000
 50
180.0000
 51
225.0000
  0
ARC
  8
15_0F
  6
CONTINUOUS
 62
4
 10
605.4031
 20
701.9008
 40
27.9000
 50
202.3023
 51
255.4075
  0
ARC
  8
15_0F
  6
CONTINUOUS
 62
4
 10
605.4031
 20
701.9008
 40
27.9000
 50
284.5926
 51
337.6978
  0
ARC
  8
15_0F
  6
CONTINUOUS
 62
4
 10
578.9242
 20
691.3595
 40
0.5000
 50
150.0000
 51
201.7076
  0
ARC
  8
15_0F
  6
CONTINUOUS
 62
4
 10
631.8820
 20
691.3595
 40
0.5000
 50
338.2924
 51
390.0000
  0
ARC
  8
0_00
  6
CONTINUOUS
 62
4
 10
631.5630
 20
709.4270
 40
0.3000
 50
270.0000
 51
397.7143
  0
ARC
  8
0_00
  6
CONTINUOUS
 62
4
 10
627.0031
 20
708.6270
 40
0.5000
 50
90.0000
 51
180.0000
  0
ARC
  8
0_00
  6
CONTINUOUS
 62
4
 10
605.4031
 20
701.9008
 40
29.0000
 50
342.4088
 51
449.9966
  0
ARC
  8
0_00
  6
CONTINUOUS
 62
4
 10
632.7610
 20
693.2270
 40
0.3000
 50
191.6000
 51
342.4088
  0
ARC
  8
0_00
  6
CONTINUOUS
 62
4
 10
605.4031
 20
701.9008
 40
27.5000
 50
46.4693
 51
89.9727
  0
ARC
  8
0_00
  6
CONTINUOUS
 62
4
 10
605.4031
 20
701.9008
 40
27.5000
 50
16.2813
 51
43.5307
  0
ARC
  8
0_00
  6
CONTINUOUS
 62
4
 10
605.4031
 20
701.9008
 40
27.8000
 50
5.4220
 51
12.9434
  0
ARC
  8
0_00
  6
CONTINUOUS
 62
4
 10
605.4031
 20
701.9008
 40
27.8000
 50
357.9926
 51
362.3232
  0
ARC
  8
0_00
  6
CONTINUOUS
 62
4
 10
605.4031
 20
701.9008
 40
27.8000
 50
345.9079
 51
353.8593
  0
ARC
  8
0_00
  6
CONTINUOUS
 62
4
 10
635.2762
 20
694.4016
 40
3.0000
 50
165.9079
 51
191.6000
  0
ARC
  8
0_00
  6
CONTINUOUS
 62
4
 10
605.4031
 20
701.9008
 40
26.5000
 50
43.9189
 51
46.0811
  0
ARC
  8
0_00
  6
CONTINUOUS
 62
4
 10
625.1957
 20
720.7035
 40
0.2000
 50
43.5307
 51
135.0000
  0
ARC
  8
0_00
  6
CONTINUOUS
 62
4
 10
624.2058
 20
721.6935
 40
0.2000
 50
315.0000
 51
406.4693
  0
ARC
  8
0_00
  6
CONTINUOUS
 62
4
 10
627.5031
 20
708.1192
 40
0.2000
 50
87.8021
 51
180.0000
  0
ARC
  8
0_00
  6
CONTINUOUS
 62
4
 10
626.9031
 20
707.3270
 40
0.4000
 50
180.0000
 51
360.0000
  0
ARC
  8
0_00
  6
CONTINUOUS
 62
4
 10
633.0745
 20
703.2278
 40
0.2000
 50
191.7000
 51
270.0000
  0
ARC
  8
0_00
  6
CONTINUOUS
 62
4
 10
632.8467
 20
704.3277
 40
0.2000
 50
90.0000
 51
191.7000
  0
ARC
  8
0_00
  6
CONTINUOUS
 62
4
 10
632.0934
 20
700.6306
 40
0.2000
 50
95.0000
 51
195.1391
  0
ARC
  8
13_0D
  6
CONTINUOUS
 62
4
 10
634.7961
 20
701.3619
 40
3.0000
 50
195.1391
 51
234.2555
  0
ARC
  8
0_00
  6
CONTINUOUS
 62
4
 10
579.2446
 20
709.4254
 40
0.3000
 50
142.2891
 51
270.0034
  0
ARC
  8
0_00
  6
CONTINUOUS
 62
4
 10
583.8045
 20
708.6257
 40
0.5000
 50
0.0034
 51
90.0034
  0
ARC
  8
0_00
  6
CONTINUOUS
 62
4
 10
605.4048
 20
701.9008
 40
29.0000
 50
90.0000
 51
197.5946
  0
ARC
  8
0_00
  6
CONTINUOUS
 62
4
 10
578.0475
 20
693.2254
 40
0.3000
 50
197.5946
 51
348.4034
  0
ARC
  8
0_00
  6
CONTINUOUS
 62
4
 10
605.4048
 20
701.9008
 40
27.5000
 50
90.0307
 51
133.5341
  0
ARC
  8
0_00
  6
CONTINUOUS
 62
4
 10
605.4048
 20
701.9008
 40
27.5000
 50
136.4727
 51
163.7221
  0
ARC
  8
0_00
  6
CONTINUOUS
 62
4
 10
605.4048
 20
701.9008
 40
27.8000
 50
167.0600
 51
174.5814
  0
ARC
  8
0_00
  6
CONTINUOUS
 62
4
 10
605.4048
 20
701.9008
 40
27.8000
 50
177.6802
 51
182.0108
  0
ARC
  8
0_00
  6
CONTINUOUS
 62
4
 10
605.4048
 20
701.9008
 40
27.8000
 50
186.1442
 51
194.0955
  0
ARC
  8
0_00
  6
CONTINUOUS
 62
4
 10
575.5322
 20
694.3997
 40
3.0000
 50
348.4034
 51
374.0955
  0
ARC
  8
0_00
  6
CONTINUOUS
 62
4
 10
605.4048
 20
701.9008
 40
26.5000
 50
133.9223
 51
136.0845
  0
ARC
  8
0_00
  6
CONTINUOUS
 62
4
 10
585.6111
 20
720.7023
 40
0.2000
 50
45.0034
 51
136.4727
  0
ARC
  8
0_00
  6
CONTINUOUS
 62
4
 10
586.6009
 20
721.6924
 40
0.2000
 50
133.5341
 51
225.0034
  0
ARC
  8
0_00
  6
CONTINUOUS
 62
4
 10
583.3044
 20
708.1179
 40
0.2000
 50
0.0034
 51
92.2013
  0
ARC
  8
0_00
  6
CONTINUOUS
 62
4
 10
583.9046
 20
707.3258
 40
0.4000
 50
180.0034
 51
360.0034
  0
ARC
  8
0_00
  6
CONTINUOUS
 62
4
 10
577.7334
 20
703.2261
 40
0.2000
 50
270.0034
 51
348.3034
  0
ARC
  8
0_00
  6
CONTINUOUS
 62
4
 10
577.9611
 20
704.3261
 40
0.2000
 50
348.3034
 51
450.0034
  0
ARC
  8
0_00
  6
CONTINUOUS
 62
4
 10
578.7147
 20
700.6290
 40
0.2000
 50
344.8643
 51
445.0034
  0
ARC
  8
13_0D
  6
CONTINUOUS
 62
4
 10
576.0119
 20
701.3602
 40
3.0000
 50
305.7479
 51
344.8643
  0
TEXT
  8
0_00
 62
7
 10
74.6282
 20
439.6127
 40
7.50
 41
1.00
 50
0.0000
  1
下穴（φ６）現場加工
  0
TEXT
  8
0_00
 62
7
 10
77.8282
 20
427.6127
 40
7.50
 41
1.00
 50
0.0000
  1
下穴コーキング処理
  0
TEXT
  8
0_00
 62
7
 10
117.9256
 20
464.3236
 40
7.50
 41
1.00
 50
0.0000
  1
ナイロンアンカー
  0
TEXT
  8
0_00
 62
7
 10
136.1256
 20
452.3236
 40
7.50
 41
1.00
 50
0.0000
  1
φ６
  0
TEXT
  8
0_00
 62
7
 10
113.9749
 20
477.9922
 40
7.50
 41
1.00
 50
0.0000
  1
φ５×５０（１種）
  0
TEXT
  8
0_00
 62
7
 10
108.7749
 20
489.9923
 40
7.50
 41
1.00
 50
0.0000
  1
タッピンねじ・トラス
  0
TEXT
  8
15_0F
 62
7
 10
201.1241
 20
100.7827
 40
7.50
 41
1.00
 50
0.0000
  1
１）Ｌ、ＬＣは発注寸法とする。
  0
TEXT
  8
15_0F
 62
7
 10
201.1241
 20
85.7827
 40
7.50
 41
1.00
 50
0.0000
  1
　　（躯体寸法発注の場合、Ｌは標準割付寸法、ＬＣは標準寸法とする。）
  0
TEXT
  8
15_0F
 62
7
 10
704.3110
 20
74.7000
 40
7.50
 41
1.00
 50
0.0000
  1
納まり図
  0
TEXT
  8
15_0F
 62
7
 10
576.0610
 20
71.7000
 40
7.50
 41
1.00
 50
0.0000
  1
手すり付笠木
  0
TEXT
  8
15_0F
 62
7
 10
508.1110
 20
41.7000
 40
7.50
 41
1.00
 50
0.0000
  1
ＲＣ造
  0
TEXT
  8
15_0F
 62
7
 10
497.3110
 20
71.7000
 40
7.50
 41
1.00
 50
0.0000
  1
低・中・高層
  0
TEXT
  8
15_0F
 62
7
 10
552.1879
 20
42.8739
 40
6.00
 41
1.00
 50
0.0000
  1
ＫＯＡ、ＤＯＡ、ＭＯＡ型
  0
TEXT
  8
15_0F
 62
7
 10
824.1611
 20
70.2000
 40
7.50
 41
1.00
 50
0.0000
  1
１
  0
TEXT
  8
15_0F
 62
7
 10
852.6611
 20
70.2000
 40
7.50
 41
1.00
 50
0.0000
  1
３
  0
TEXT
  8
0_00
 62
7
 10
1099.6466
 20
182.5918
 40
7.50
 41
1.00
 50
0.0000
  1
笠木カバー芯
  0
TEXT
  8
0_00
 62
7
 10
273.2747
 20
664.6309
 40
7.50
 41
1.00
 50
0.0000
  1
デザイン柱
  0
TEXT
  8
0_00
 62
7
 10
159.0310
 20
627.9476
 40
7.50
 41
1.00
 50
0.0000
  1
丸さら小ねじ
  0
TEXT
  8
0_00
 62
7
 10
162.4773
 20
613.9086
 40
7.50
 41
1.00
 50
0.0000
  1
Ｍ６×１６
  0
TEXT
  8
0_00
 62
7
 10
149.5672
 20
602.2579
 40
7.50
 41
1.00
 50
0.0000
  1
下穴コーキング処理
  0
TEXT
  8
0_00
 62
7
 10
712.1388
 20
337.7090
 40
7.50
 41
1.00
 50
0.0000
  1
ベース
  0
TEXT
  8
15_0F
 62
7
 10
701.8089
 20
792.4795
 40
7.50
 41
1.00
 50
0.0000
  1
１１０≦ＬＣ［２５０］≦４５５
  0
TEXT
  8
15_0F
 62
7
 10
850.0290
 20
792.4795
 40
7.50
 41
1.00
 50
0.0000
  1
Ｌ
  0
TEXT
  8
15_0F
 62
7
 10
972.6291
 20
792.4795
 40
7.50
 41
1.00
 50
0.0000
  1
２２５≦Ｌ≦１３６５
  0
TEXT
  8
15_0F
 62
7
 10
1123.2914
 20
792.4795
 40
7.50
 41
1.00
 50
0.0000
  1
Ｌ
  0
TEXT
  8
0_00
 62
2
 10
104.2841
 20
800.0786
 40
12.00
 41
1.00
 50
0.0000
  1
屋外側
  0
TEXT
  8
0_00
 62
2
 10
285.4841
 20
800.0786
 40
12.00
 41
1.00
 50
0.0000
  1
建物側
  0
TEXT
  8
15_0F
 62
7
 10
178.1147
 20
816.1847
 40
7.50
 41
1.00
 50
0.0000
  1
［ＫＯＡ型］
  0
TEXT
  8
15_0F
 62
7
 10
388.1147
 20
816.1847
 40
7.50
 41
1.00
 50
0.0000
  1
［DＯＡ型］
  0
TEXT
  8
0_00
 62
7
 10
248.0973
 20
755.5255
 40
7.50
 41
1.00
 50
0.0000
  1
Ｋ型笠木カバー
  0
TEXT
  8
0_00
 62
7
 10
453.0045
 20
744.0022
 40
7.50
 41
1.00
 50
0.0000
  1
Ｄ型笠木カバー
  0
TEXT
  8
0_00
 62
7
 10
201.4426
 20
248.9244
 40
7.50
 41
1.00
 50
0.0000
  1
デザイン柱
  0
TEXT
  8
15_0F
 62
7
 10
663.8385
 20
53.3556
 40
7.50
 41
1.00
 50
0.0000
  1
トップレール手すり［直線部］納まり図
  0
TEXT
  8
15_0F
 62
7
 10
696.2385
 20
41.3556
 40
7.50
 41
1.00
 50
0.0000
  1
（外向デザイン柱）
  0
TEXT
  8
15_0F
 62
7
 10
169.9841
 20
373.3015
 40
7.50
 41
1.00
 50
0.0000
  1
　　　 １８０、１９５、２１０、２４０、２７０
  0
TEXT
  8
15_0F
 62
7
 10
183.0341
 20
388.3016
 40
7.50
 41
1.00
 50
0.0000
  1
Ａ（笠木幅）＝１３５、１５０、１６５、　
  0
TEXT
  8
0_00
 62
7
 10
218.8841
 20
423.7378
 40
7.50
 41
1.00
 50
0.0000
  1
躯体寸法（推奨寸法Ａ－３０）
  0
TEXT
  8
0_00
 62
7
 10
226.4962
 20
408.9004
 40
7.50
 41
1.00
 50
0.0000
  1
（最大躯体寸法Ａ－２０）
  0
TEXT
  8
0_00
 62
7
 10
374.0811
 20
589.3747
 40
7.50
 41
1.00
 50
0.0000
  1
ブラケット
  0
TEXT
  8
15_0F
 62
7
 10
921.3946
 20
737.2417
 40
7.50
 41
1.00
 50
0.0000
  1
Ａ
  0
TEXT
  8
15_0F
 62
7
 10
1121.0244
 20
658.0197
 40
7.50
 41
1.00
 50
0.0000
  1
Ｂ
  0
TEXT
  8
15_0F
 62
7
 10
921.3946
 20
672.7457
 40
7.50
 41
1.00
 50
0.0000
  1
Ａ
  0
TEXT
  8
15_0F
 62
7
 10
891.6925
 20
658.0197
 40
7.50
 41
1.00
 50
0.0000
  1
Ｂ
  0
TEXT
  8
15_0F
 62
7
 10
584.2355
 20
816.1847
 40
7.50
 41
1.00
 50
0.0000
  1
［ＭＯＡ型］
  0
TEXT
  8
0_00
 62
7
 10
649.1253
 20
744.0022
 40
7.50
 41
1.00
 50
0.0000
  1
Ｍ型笠木カバー
  0
TEXT
  8
0_00
 62
7
 10
317.4590
 20
591.7747
 40
7.50
 41
1.00
 50
0.0000
  1
笠木
  0
TEXT
  8
15_0F
 62
7
 10
201.0905
 20
70.2001
 40
7.50
 41
1.00
 50
0.0000
  1
２）［　］内寸法は標準寸法とする。
  0
TEXT
  8
15_0F
 62
7
 10
622.9302
 20
436.5023
 40
6.75
 41
0.75
 50
0.0000
  1
60
  0
TEXT
  8
15_0F
 62
7
 10
498.6263
 20
281.0308
 40
6.75
 41
0.75
 50
90.0000
  1
56
  0
TEXT
  8
15_0F
 62
7
 10
1094.6386
 20
282.3646
 40
6.75
 41
0.75
 50
90.0000
  1
47
  0
TEXT
  8
15_0F
 62
7
 10
758.0703
 20
486.5023
 40
7.50
 41
1.00
 50
0.0000
  1
２２５≦Ｌ（柱スパン寸法）≦１３６５
  0
TEXT
  8
0_00
 62
7
 10
619.3303
 20
458.6250
 40
6.75
 41
0.75
 50
0.0000
  1
110
  0
TEXT
  8
15_0F
 62
7
 10
1085.9603
 20
529.7059
 40
7.50
 41
1.00
 50
0.0000
  1
外観姿図（１：２０）
  0
TEXT
  8
0_00
 62
7
 10
262.0841
 20
448.0246
 40
6.75
 41
0.75
 50
0.0000
  1
56
  0
TEXT
  8
0_00
 62
7
 10
192.0841
 20
772.0779
 40
6.75
 41
0.75
 50
0.0000
  1
60
  0
TEXT
  8
0_00
 62
7
 10
70.2905
 20
40.2001
 40
7.50
 41
1.00
 50
0.0000
  1
適用製品
  0
TEXT
  8
0_00
 62
7
 10
130.2905
 20
40.2001
 40
7.50
 41
1.00
 50
0.0000
  1
適用日付
  0
TEXT
  8
0_00
 62
7
 10
178.5905
 20
100.2001
 40
7.50
 41
1.00
 50
0.0000
  1
記事
  0
TEXT
  8
0_00
 62
7
 10
472.5611
 20
85.2001
 40
7.50
 41
1.00
 50
0.0000
  1
階層仕様
  0
TEXT
  8
0_00
 62
7
 10
472.5611
 20
55.2000
 40
7.50
 41
1.00
 50
0.0000
  1
適用躯体
  0
TEXT
  8
0_00
 62
7
 10
630.0610
 20
85.2001
 40
7.50
 41
1.00
 50
0.0000
  1
名　称
  0
TEXT
  8
0_00
 62
7
 10
630.0610
 20
55.2000
 40
7.50
 41
1.00
 50
0.0000
  1
図　名
  0
TEXT
  8
0_00
 62
7
 10
814.9368
 20
100.2458
 40
7.50
 41
1.00
 50
0.0000
  1
Ｎｏ．
  0
TEXT
  8
0_00
 62
7
 10
1123.5610
 20
100.2001
 40
7.50
 41
1.00
 50
0.0000
  1
適　　　　　　　　用
  0
TEXT
  8
0_00
 62
7
 10
1078.4111
 20
100.2001
 40
7.50
 41
1.00
 50
0.0000
  1
個数
  0
TEXT
  8
0_00
 62
7
 10
1023.2110
 20
100.2001
 40
7.50
 41
1.00
 50
0.0000
  1
材　　質
  0
TEXT
  8
0_00
 62
7
 10
926.1610
 20
100.2001
 40
7.50
 41
1.00
 50
0.0000
  1
部　　　品　　　名
  0
TEXT
  8
0_00
 62
7
 10
895.9360
 20
100.2001
 40
7.50
 41
1.00
 50
0.0000
  1
品番
  0
TEXT
  8
0_00
 62
7
 10
850.8611
 20
100.2001
 40
7.50
 41
1.00
 50
0.0000
  1
図　　番
  0
TEXT
  8
0_00
 62
7
 10
816.6610
 20
85.2001
 40
7.50
 41
1.00
 50
0.0000
  1
尺度
  0
TEXT
  8
0_00
 62
7
 10
816.6610
 20
55.2000
 40
7.50
 41
1.00
 50
0.0000
  1
日付
  0
TEXT
  8
0_00
 62
7
 10
928.3942
 20
85.2001
 40
7.50
 41
1.00
 50
0.0000
  1
承認
  0
TEXT
  8
0_00
 62
7
 10
970.5611
 20
85.2001
 40
7.50
 41
1.00
 50
0.0000
  1
検図
  0
TEXT
  8
0_00
 62
7
 10
1006.8610
 20
85.2001
 40
7.50
 41
1.00
 50
0.0000
  1
設計
  0
TEXT
  8
0_00
 62
7
 10
1044.2110
 20
85.2001
 40
7.50
 41
1.00
 50
0.0000
  1
製図
  0
TEXT
  8
0_00
 62
7
 10
1074.5110
 20
55.2000
 40
7.50
 41
1.00
 50
0.0000
  1
図番
  0
TEXT
  8
0_00
 62
2
 10
1103.9219
 20
74.2350
 40
12.00
 41
1.00
 50
0.0000
  1
文化シヤッター株式会社
  0
TEXT
  8
0_00
 62
7
 10
200.7905
 20
862.9501
 40
7.50
 41
1.00
 50
180.0000
  1
図番
  0
TEXT
  8
0_00
 62
7
 10
799.0510
 20
854.0169
 40
6.00
 41
1.00
 50
0.0000
  1
ＮＯ
  0
TEXT
  8
0_00
 62
7
 10
825.2111
 20
853.9501
 40
7.50
 41
1.00
 50
0.0000
  1
個　数
  0
TEXT
  8
0_00
 62
7
 10
870.3611
 20
853.9501
 40
7.50
 41
1.00
 50
0.0000
  1
日　　付
  0
TEXT
  8
0_00
 62
7
 10
984.2111
 20
853.9501
 40
7.50
 41
1.00
 50
0.0000
  1
訂　　　正　　　記　　　事
  0
TEXT
  8
0_00
 62
7
 10
838.4111
 20
70.2000
 40
6.75
 41
0.75
 50
0.0000
  1
:
  0
TEXT
  8
0_00
 62
7
 10
1137.8712
 20
26.7000
 40
6.00
 41
1.00
 50
0.0000
  1
ＪＩＳ　Ａ－３
  0
TEXT
  8
0_00
 62
7
 10
1179.4986
 20
26.6983
 40
6.00
 41
1.00
 50
0.0000
  1
（２９７×４２０）
  0
TEXT
  8
0_00
 62
7
 10
1153.1111
 20
853.9501
 40
7.50
 41
1.00
 50
0.0000
  1
担　当
  0
TEXT
  8
0_00
 62
7
 10
1189.1111
 20
853.9501
 40
7.50
 41
1.00
 50
0.0000
  1
承　認
  0
TEXT
  8
0_00
 62
7
 10
551.3111
 20
85.2001
 40
7.50
 41
1.00
 50
0.0000
  1
機種名
  0
TEXT
  8
0_00
 62
7
 10
551.3111
 20
55.2000
 40
7.50
 41
1.00
 50
0.0000
  1
型　式
  0
TEXT
  8
0_00
 62
7
 10
1124.6778
 20
246.6146
 40
6.75
 41
0.75
 50
90.0000
  1
70
  0
TEXT
  8
0_00
 62
7
 10
622.1803
 20
411.3490
 40
6.75
 41
0.75
 50
0.0000
  1
41
  0
TEXT
  8
0_00
 62
7
 10
111.9244
 20
541.4508
 40
6.75
 41
0.75
 50
90.0000
  1
65
  0
TEXT
  8
0_00
 62
7
 10
411.9244
 20
537.9508
 40
6.75
 41
0.75
 50
90.0000
  1
60
  0
TEXT
  8
0_00
 62
7
 10
91.9244
 20
587.9008
 40
7.50
 41
1.00
 50
90.0000
  1
Ｈ（トップレール手すり高さ寸法）＝１６２
  0
TEXT
  8
0_00
 62
7
 10
91.9244
 20
535.5009
 40
6.75
 41
0.75
 50
90.0000
  1
20
  0
TEXT
  8
0_00
 62
7
 10
227.0841
 20
792.0779
 40
6.75
 41
0.75
 50
0.0000
  1
70
  0
TEXT
  8
0_00
 62
7
 10
482.9249
 20
705.4021
 40
6.75
 41
0.75
 50
90.0000
  1
37
  0
TEXT
  8
0_00
 62
7
 10
346.8586
 20
636.1796
 40
7.50
 41
1.00
 50
90.0000
  1
Ｈ＝１５２
  0
TEXT
  8
0_00
 62
7
 10
402.8984
 20
772.0779
 40
6.75
 41
0.75
 50
0.0000
  1
80
  0
TEXT
  8
0_00
 62
7
 10
976.2103
 20
458.6250
 40
6.75
 41
0.75
 50
0.0000
  1
32
  0
TEXT
  8
0_00
 62
7
 10
1194.5440
 20
710.6862
 40
6.75
 41
0.75
 50
90.0000
  1
H
  0
TEXT
  8
15_0F
 62
7
 10
328.0841
 20
423.7378
 40
6.75
 41
0.75
 50
0.0000
  1
n
  0
TEXT
  8
15_0F
 62
7
 10
368.2841
 20
423.7378
 40
6.75
 41
0.75
 50
0.0000
  1
10
  0
TEXT
  8
15_0F
 62
7
 10
155.8841
 20
423.7378
 40
6.75
 41
0.75
 50
0.0000
  1
10
  0
TEXT
  8
15_0F
 62
7
 10
203.2841
 20
423.7378
 40
6.75
 41
0.75
 50
0.0000
  1
n
  0
TEXT
  8
0_00
 62
7
 10
111.9244
 20
710.2008
 40
6.75
 41
0.75
 50
90.0000
  1
47
  0
TEXT
  8
15_0F
 62
7
 10
503.0451
 20
152.2623
 40
7.50
 41
1.00
 50
0.0000
  1
Ｂ－Ｂ矢視図
  0
TEXT
  8
15_0F
 62
7
 10
107.7451
 20
361.8319
 40
7.50
 41
1.00
 50
0.0000
  1
Ａ－Ａ矢視図
  0
TEXT
  8
0_00
 62
7
 10
542.9793
 20
635.9236
 40
7.50
 41
1.00
 50
90.0000
  1
Ｈ＝１５２
  0
TEXT
  8
15_0F
 62
7
 10
147.7451
 20
141.8318
 40
7.50
 41
1.00
 50
0.0000
  1
デザイン柱内観図
  0
TEXT
  8
0_00
 62
7
 10
704.7290
 20
772.4795
 40
6.75
 41
0.75
 50
0.0000
  1
70
  0
TEXT
  8
13_0D
 62
7
 10
594.6048
 20
770.5779
 40
6.75
 41
0.75
 50
0.0000
  1
φ58
  0
POINT
  8
0_00
 62
4
 10
245.7841
 20
590.9008
  0
POINT
  8
0_00
 62
4
 10
292.7841
 20
600.9008
  0
POINT
  8
0_00
 62
4
 10
292.7841
 20
600.9008
  0
POINT
  8
0_00
 62
4
 10
245.7841
 20
590.9008
  0
POINT
  8
0_00
 62
4
 10
292.7841
 20
600.9008
  0
POINT
  8
0_00
 62
4
 10
245.7841
 20
590.9008
  0
POINT
  8
0_00
 62
5
 10
0.0000
 20
0.0000
  0
POINT
  8
0_00
 62
5
 10
733.6682
 20
24.5135
  0
POINT
  8
0_00
 62
5
 10
359.2841
 20
575.9008
  0
POINT
  8
0_00
 62
4
 10
269.2841
 20
580.9008
  0
POINT
  8
0_00
 62
5
 10
199.2841
 20
696.9008
  0
POINT
  8
0_00
 62
4
 10
199.2841
 20
695.4008
  0
POINT
  8
0_00
 62
2
 10
24.0905
 20
14.9991
  0
POINT
  8
0_00
 62
2
 10
24.0905
 20
14.9991
  0
POINT
  8
0_00
 62
2
 10
84.6905
 20
59.7001
  0
POINT
  8
0_00
 62
2
 10
84.6905
 20
74.7001
  0
POINT
  8
0_00
 62
2
 10
84.6905
 20
89.7001
  0
POINT
  8
0_00
 62
2
 10
84.6905
 20
104.7001
  0
POINT
  8
0_00
 62
2
 10
518.9110
 20
76.2000
  0
POINT
  8
0_00
 62
2
 10
518.9110
 20
46.2000
  0
POINT
  8
0_00
 62
2
 10
718.7110
 20
79.2000
  0
POINT
  8
0_00
 62
2
 10
718.7110
 20
49.2000
  0
POINT
  8
0_00
 62
2
 10
1097.7610
 20
52.2000
  0
POINT
  8
0_00
 62
2
 10
1014.0610
 20
59.7001
  0
POINT
  8
0_00
 62
2
 10
144.6905
 20
59.7001
  0
POINT
  8
0_00
 62
2
 10
144.6905
 20
74.7001
  0
POINT
  8
0_00
 62
2
 10
144.6905
 20
89.7001
  0
POINT
  8
0_00
 62
2
 10
144.6905
 20
104.7001
  0
POINT
  8
0_00
 62
2
 10
856.2610
 20
74.7000
  0
POINT
  8
0_00
 62
2
 10
827.7610
 20
74.7000
  0
POINT
  8
0_00
 62
2
 10
204.6905
 20
104.7001
  0
POINT
  8
0_00
 62
2
 10
204.6905
 20
89.7001
  0
POINT
  8
0_00
 62
2
 10
204.6905
 20
74.7001
  0
POINT
  8
0_00
 62
2
 10
204.6905
 20
59.7001
  0
POINT
  8
0_00
 62
2
 10
204.6905
 20
44.7001
  0
POINT
  8
0_00
 62
2
 10
1051.4110
 20
59.7001
  0
POINT
  8
0_00
 62
2
 10
84.6905
 20
44.7001
  0
POINT
  8
0_00
 62
2
 10
144.6905
 20
44.7001
  0
POINT
  8
0_00
 62
2
 10
174.6905
 20
858.4501
  0
POINT
  8
0_00
 62
2
 10
862.6360
 20
49.2000
  0
POINT
  8
0_00
 62
2
 10
597.6610
 20
76.2000
  0
POINT
  8
0_00
 62
2
 10
597.6610
 20
46.2000
  0
POINT
  8
0_00
 62
6
 10
241.2841
 20
558.9008
  0
POINT
  8
0_00
 62
6
 10
297.2841
 20
558.9008
  0
POINT
  8
0_00
 62
2
 10
241.2841
 20
567.7008
  0
POINT
  8
0_00
 62
2
 10
241.2841
 20
567.7008
  0
POINT
  8
0_00
 62
2
 10
241.2841
 20
567.7008
  0
POINT
  8
0_00
 62
6
 10
297.2841
 20
567.7008
  0
POINT
  8
0_00
 62
6
 10
297.2841
 20
567.7008
  0
POINT
  8
0_00
 62
6
 10
297.2841
 20
567.7008
  0
POINT
  8
15_0F
 62
6
 10
349.2841
 20
420.7378
  0
POINT
  8
15_0F
 62
6
 10
189.2841
 20
420.7378
  0
ENDSEC
  0
EOF
