999
  
  0
SECTION
  2
HEADER
  9
$EXTMIN
 10
0
 20
0
  9
$EXTMAX
 10
1260
 20
888
  9
$LTSCALE
 40
3.00
  9
$PDMODE
 70
33
  9
$PDSIZE
 40
1.80
  0
ENDSEC
  0
SECTION
  2
TABLES
  0
TABLE
  2
LTYPE
 70
9
  0
LTYPE
  2
CONTINUOUS
 70
64
  3
実線
 72
65
 73
0
 40
0.00
  0
LTYPE
  2
DASHED
 70
64
  3
__  __  __  __  __  __  __ 
 72
65
 73
2
 40
1.00
 49
0.50
 49
-0.50
  0
LTYPE
  2
HIDDEN1
 70
64
  3
____    ____    ____    ___
 72
65
 73
2
 40
2.20
 49
1.20
 49
-1.00
  0
LTYPE
  2
HIDDEN2
 70
64
  3
______  ______  ______  ___
 72
65
 73
2
 40
4.50
 49
3.50
 49
-1.00
  0
LTYPE
  2
CENTER1
 70
64
  3
_______ _ _______ _ _______
 72
65
 73
4
 40
20.00
 49
17.00
 49
-1.00
 49
1.00
 49
-1.00
  0
LTYPE
  2
CENTER2
 70
64
  3
___________  __  __________
 72
65
 73
4
 40
40.00
 49
34.00
 49
-2.00
 49
2.00
 49
-2.00
  0
LTYPE
  2
PHANTOM1
 70
64
  3
______ _ _ ______ _ _ _____
 72
65
 73
6
 40
20.00
 49
15.00
 49
-1.00
 49
1.00
 49
-1.00
 49
1.00
 49
-1.00
  0
LTYPE
  2
PHANTOM2
 70
64
  3
__________  _  _  _________
 72
65
 73
6
 40
40.00
 49
30.00
 49
-2.00
 49
2.00
 49
-2.00
 49
2.00
 49
-2.00
  0
LTYPE
  2
DOT
 70
64
  3
 .  .  .  .  .  .  .  .  . 
 72
65
 73
2
 40
1.00
 49
0.00
 49
-1.00
  0
ENDTAB
  0
TABLE
  2
STYLE
 70
1
  0
STYLE
  2
STANDARD
 70
64
 40
0.0
 41
1.0
 42
0.0
 50
0.0
 71
0
  3
ROMANS
  4
BIGFONT
  0
ENDTAB
  0
TABLE
  2
LAYER
 70
9
  0
LAYER
  2
0_00
 70
64
 62
7
  6
CONTINUOUS
  0
LAYER
  2
3_03
 70
64
 62
7
  6
CONTINUOUS
  0
LAYER
  2
6_06
 70
64
 62
7
  6
CONTINUOUS
  0
LAYER
  2
11_0B
 70
64
 62
7
  6
CONTINUOUS
  0
LAYER
  2
12_0C
 70
64
 62
7
  6
CONTINUOUS
  0
LAYER
  2
13_0D
 70
64
 62
7
  6
CONTINUOUS
  0
LAYER
  2
14_0E
 70
64
 62
7
  6
CONTINUOUS
  0
LAYER
  2
15_0F
 70
64
 62
7
  6
CONTINUOUS
  0
LAYER
  2
16_10
 70
64
 62
7
  6
CONTINUOUS
  0
ENDTAB
  0
ENDSEC
  0
SECTION
  2
ENTITIES
  0
LINE
  8
0_00
  6
CENTER1
 62
6
 10
254.2841
 20
612.2599
 11
254.2841
 21
379.7334
  0
LINE
  8
0_00
  6
CENTER1
 62
6
 10
202.2841
 20
702.0324
 11
202.2841
 21
679.7528
  0
LINE
  8
0_00
  6
CENTER1
 62
6
 10
166.2841
 20
701.7539
 11
166.2841
 21
680.1242
  0
LINE
  8
0_00
  6
CENTER1
 62
6
 10
184.2841
 20
763.8085
 11
184.2841
 21
659.3047
  0
LINE
  8
0_00
  6
CENTER1
 62
6
 10
240.7841
 20
565.0779
 11
240.7841
 21
595.6607
  0
LINE
  8
0_00
  6
CENTER1
 62
6
 10
267.7841
 20
565.0779
 11
267.7841
 21
595.6607
  0
LINE
  8
0_00
  6
CENTER1
 62
6
 10
635.8980
 20
289.5646
 11
1118.7722
 21
289.5646
  0
LINE
  8
0_00
  6
CONTINUOUS
 62
2
 10
915.0350
 20
391.1254
 11
889.0177
 21
294.0275
  0
LINE
  8
0_00
  6
CONTINUOUS
 62
2
 10
910.6882
 20
392.2901
 11
883.5063
 21
290.8455
  0
LINE
  8
0_00
  6
CONTINUOUS
 62
2
 10
907.3943
 20
284.4447
 11
881.5702
 21
188.0674
  0
LINE
  8
0_00
  6
CONTINUOUS
 62
2
 10
885.9169
 20
186.9026
 11
912.9057
 21
287.6267
  0
LINE
  8
0_00
  6
CONTINUOUS
 62
2
 10
889.0177
 20
294.0275
 11
912.9057
 21
287.6267
  0
LINE
  8
0_00
  6
CONTINUOUS
 62
2
 10
907.3943
 20
284.4447
 11
883.5063
 21
290.8455
  0
LINE
  8
0_00
  6
CENTER1
 62
6
 10
1055.6104
 20
325.2839
 11
1055.6104
 21
253.2625
  0
LINE
  8
0_00
  6
CENTER1
 62
6
 10
1043.9156
 20
303.0646
 11
1067.1733
 21
303.0646
  0
LINE
  8
0_00
  6
CENTER1
 62
6
 10
1043.9156
 20
276.0646
 11
1067.1733
 21
276.0646
  0
LINE
  8
0_00
  6
CONTINUOUS
 62
2
 10
1054.3345
 20
305.1545
 11
1055.2034
 21
304.3158
  0
LINE
  8
0_00
  6
CONTINUOUS
 62
2
 10
1055.2034
 20
304.3158
 11
1055.6104
 21
304.1673
  0
LINE
  8
0_00
  6
CONTINUOUS
 62
2
 10
1055.6104
 20
304.1673
 11
1055.9954
 21
304.3076
  0
LINE
  8
0_00
  6
CONTINUOUS
 62
2
 10
1055.9954
 20
304.3076
 11
1056.8918
 21
305.1518
  0
LINE
  8
0_00
  6
CONTINUOUS
 62
2
 10
1053.5205
 20
304.3406
 11
1054.3592
 21
303.4716
  0
LINE
  8
0_00
  6
CONTINUOUS
 62
2
 10
1054.3592
 20
303.4716
 11
1054.5077
 21
303.0646
  0
LINE
  8
0_00
  6
CONTINUOUS
 62
2
 10
1054.5077
 20
303.0646
 11
1054.3674
 21
302.6797
  0
LINE
  8
0_00
  6
CONTINUOUS
 62
2
 10
1054.3674
 20
302.6797
 11
1053.5231
 21
301.7832
  0
LINE
  8
0_00
  6
CONTINUOUS
 62
2
 10
1057.7002
 20
301.7887
 11
1056.8616
 21
302.6577
  0
LINE
  8
0_00
  6
CONTINUOUS
 62
2
 10
1056.8616
 20
302.6577
 11
1056.7130
 21
303.0646
  0
LINE
  8
0_00
  6
CONTINUOUS
 62
2
 10
1056.7130
 20
303.0646
 11
1056.8533
 21
303.4496
  0
LINE
  8
0_00
  6
CONTINUOUS
 62
2
 10
1056.8533
 20
303.4496
 11
1057.6975
 21
304.3461
  0
LINE
  8
0_00
  6
CONTINUOUS
 62
2
 10
1056.8862
 20
300.9747
 11
1056.0174
 21
301.8135
  0
LINE
  8
0_00
  6
CONTINUOUS
 62
2
 10
1056.0174
 20
301.8135
 11
1055.6104
 21
301.9619
  0
LINE
  8
0_00
  6
CONTINUOUS
 62
2
 10
1055.6104
 20
301.9619
 11
1055.2254
 21
301.8217
  0
LINE
  8
0_00
  6
CONTINUOUS
 62
2
 10
1055.2254
 20
301.8217
 11
1054.3289
 21
300.9775
  0
LINE
  8
0_00
  6
CONTINUOUS
 62
2
 10
1054.3345
 20
278.1545
 11
1055.2034
 21
277.3158
  0
LINE
  8
0_00
  6
CONTINUOUS
 62
2
 10
1055.2034
 20
277.3158
 11
1055.6104
 21
277.1673
  0
LINE
  8
0_00
  6
CONTINUOUS
 62
2
 10
1055.6104
 20
277.1673
 11
1055.9954
 21
277.3076
  0
LINE
  8
0_00
  6
CONTINUOUS
 62
2
 10
1055.9954
 20
277.3076
 11
1056.8918
 21
278.1518
  0
LINE
  8
0_00
  6
CONTINUOUS
 62
2
 10
1053.5205
 20
277.3406
 11
1054.3592
 21
276.4716
  0
LINE
  8
0_00
  6
CONTINUOUS
 62
2
 10
1054.3592
 20
276.4716
 11
1054.5077
 21
276.0646
  0
LINE
  8
0_00
  6
CONTINUOUS
 62
2
 10
1054.5077
 20
276.0646
 11
1054.3674
 21
275.6797
  0
LINE
  8
0_00
  6
CONTINUOUS
 62
2
 10
1054.3674
 20
275.6797
 11
1053.5231
 21
274.7832
  0
LINE
  8
0_00
  6
CONTINUOUS
 62
2
 10
1057.7002
 20
274.7887
 11
1056.8616
 21
275.6577
  0
LINE
  8
0_00
  6
CONTINUOUS
 62
2
 10
1056.8616
 20
275.6577
 11
1056.7130
 21
276.0646
  0
LINE
  8
0_00
  6
CONTINUOUS
 62
2
 10
1056.7130
 20
276.0646
 11
1056.8533
 21
276.4496
  0
LINE
  8
0_00
  6
CONTINUOUS
 62
2
 10
1056.8533
 20
276.4496
 11
1057.6975
 21
277.3461
  0
LINE
  8
0_00
  6
CONTINUOUS
 62
2
 10
1056.8862
 20
273.9747
 11
1056.0174
 21
274.8134
  0
LINE
  8
0_00
  6
CONTINUOUS
 62
2
 10
1056.0174
 20
274.8134
 11
1055.6104
 21
274.9619
  0
LINE
  8
0_00
  6
CONTINUOUS
 62
2
 10
1055.6104
 20
274.9619
 11
1055.2254
 21
274.8217
  0
LINE
  8
0_00
  6
CONTINUOUS
 62
2
 10
1055.2254
 20
274.8217
 11
1054.3289
 21
273.9775
  0
LINE
  8
0_00
  6
CONTINUOUS
 62
4
 10
1041.6104
 20
268.5646
 11
1041.6104
 21
310.5646
  0
LINE
  8
0_00
  6
CONTINUOUS
 62
4
 10
1046.6104
 20
266.0646
 11
1046.6104
 21
310.5646
  0
LINE
  8
0_00
  6
CONTINUOUS
 62
4
 10
1046.6104
 20
266.0646
 11
1042.1104
 21
266.0646
  0
LINE
  8
0_00
  6
CONTINUOUS
 62
4
 10
1039.6103
 20
268.5646
 11
1039.6103
 21
310.5646
  0
LINE
  8
0_00
  6
CONTINUOUS
 62
4
 10
1064.6104
 20
266.0646
 11
1046.6104
 21
266.0646
  0
LINE
  8
0_00
  6
CONTINUOUS
 62
4
 10
1069.6103
 20
268.5646
 11
1069.6103
 21
310.5646
  0
LINE
  8
0_00
  6
CONTINUOUS
 62
4
 10
1064.6104
 20
266.0646
 11
1064.6104
 21
310.5646
  0
LINE
  8
0_00
  6
CONTINUOUS
 62
4
 10
1069.1104
 20
266.0646
 11
1064.6104
 21
266.0646
  0
LINE
  8
0_00
  6
CONTINUOUS
 62
4
 10
1071.6104
 20
268.5646
 11
1071.6104
 21
310.5646
  0
LINE
  8
0_00
  6
CONTINUOUS
 62
4
 10
1069.1104
 20
313.0646
 11
1042.1104
 21
313.0646
  0
LINE
  8
0_00
  6
CONTINUOUS
 62
4
 10
730.7541
 20
561.6547
 11
1163.0290
 21
561.6547
  0
LINE
  8
0_00
  6
CENTER1
 62
6
 10
738.6290
 20
736.6302
 11
738.6290
 21
676.4014
  0
LINE
  8
0_00
  6
CENTER1
 62
6
 10
776.1290
 20
736.6302
 11
776.1290
 21
676.4014
  0
LINE
  8
0_00
  6
CONTINUOUS
 62
4
 10
732.7790
 20
719.1544
 11
1161.0040
 21
719.1544
  0
LINE
  8
0_00
  6
CONTINUOUS
 62
4
 10
732.7790
 20
726.2044
 11
1161.0040
 21
726.2044
  0
LINE
  8
0_00
  6
CONTINUOUS
 62
4
 10
856.2540
 20
689.1544
 11
1161.0040
 21
689.1544
  0
LINE
  8
15_0F
  6
CONTINUOUS
 62
4
 10
1161.0040
 20
679.4043
 11
856.2540
 21
679.4043
  0
LINE
  8
3_03
  6
CONTINUOUS
 62
4
 10
728.5040
 20
679.8544
 11
728.5040
 21
688.7043
  0
LINE
  8
0_00
  6
CONTINUOUS
 62
4
 10
730.7541
 20
679.4043
 11
730.7541
 21
561.6547
  0
LINE
  8
3_03
  6
CONTINUOUS
 62
4
 10
732.7040
 20
726.3092
 11
728.2245
 21
726.3092
  0
LINE
  8
3_03
  6
CONTINUOUS
 62
4
 10
723.6291
 20
719.1094
 11
732.7040
 21
719.1094
  0
LINE
  8
3_03
  6
CONTINUOUS
 62
4
 10
732.7790
 20
719.1544
 11
732.7790
 21
726.2342
  0
LINE
  8
3_03
  6
CONTINUOUS
 62
4
 10
723.5540
 20
725.1129
 11
723.5540
 21
719.1844
  0
LINE
  8
0_00
  6
CONTINUOUS
 62
4
 10
853.6290
 20
689.5594
 11
853.6290
 21
679.0147
  0
LINE
  8
0_00
  6
CONTINUOUS
 62
4
 10
856.2540
 20
689.3644
 11
856.2540
 21
679.0147
  0
LINE
  8
0_00
  6
CONTINUOUS
 62
4
 10
851.0040
 20
689.3644
 11
851.0040
 21
679.0147
  0
LINE
  8
0_00
  6
CONTINUOUS
 62
4
 10
853.6290
 20
689.5594
 11
851.0040
 21
689.3644
  0
LINE
  8
0_00
  6
CONTINUOUS
 62
4
 10
853.6290
 20
689.5594
 11
856.2540
 21
689.3644
  0
LINE
  8
0_00
  6
CONTINUOUS
 62
4
 10
851.0040
 20
679.0147
 11
856.2540
 21
679.0147
  0
LINE
  8
0_00
  6
CONTINUOUS
 62
4
 10
851.0040
 20
689.1544
 11
728.9540
 21
689.1544
  0
LINE
  8
15_0F
  6
CONTINUOUS
 62
4
 10
728.9540
 20
679.4043
 11
851.0040
 21
679.4043
  0
LINE
  8
0_00
  6
CONTINUOUS
 62
6
 10
152.8778
 20
350.1127
 11
55.1282
 21
350.1127
  0
LINE
  8
0_00
  6
CONTINUOUS
 62
6
 10
170.7506
 20
374.8236
 11
99.7830
 21
374.8236
  0
LINE
  8
0_00
  6
CONTINUOUS
 62
6
 10
189.3162
 20
400.4923
 11
89.9770
 21
400.4923
  0
LINE
  8
0_00
  6
CENTER1
 62
6
 10
728.1291
 20
736.6302
 11
728.1291
 21
709.8385
  0
LINE
  8
0_00
  6
CENTER1
 62
6
 10
894.6686
 20
219.5647
 11
1121.2845
 21
219.5647
  0
LINE
  8
0_00
  6
CONTINUOUS
 62
6
 10
1107.1402
 20
218.9498
 11
1133.6466
 21
179.5918
  0
LINE
  8
0_00
  6
CONTINUOUS
 62
6
 10
1107.1402
 20
218.9498
 11
1109.9448
 21
211.9939
  0
LINE
  8
0_00
  6
CONTINUOUS
 62
6
 10
1107.1402
 20
218.9498
 11
1112.5314
 21
213.7360
  0
LINE
  8
0_00
  6
CONTINUOUS
 62
6
 10
1133.6466
 20
179.5918
 11
1188.8466
 21
179.5918
  0
LINE
  8
0_00
  6
CONTINUOUS
 62
6
 10
152.8778
 20
350.1127
 11
224.5341
 21
449.1845
  0
LINE
  8
0_00
  6
CONTINUOUS
 62
6
 10
224.5341
 20
449.1845
 11
218.9713
 21
444.1541
  0
LINE
  8
0_00
  6
CONTINUOUS
 62
6
 10
224.5341
 20
449.1845
 11
221.4982
 21
442.3264
  0
LINE
  8
0_00
  6
CONTINUOUS
 62
4
 10
650.5263
 20
379.5646
 11
907.2785
 21
379.5646
  0
LINE
  8
0_00
  6
CONTINUOUS
 62
4
 10
911.9372
 20
379.5646
 11
1124.0823
 21
379.5646
  0
LINE
  8
0_00
  6
CONTINUOUS
 62
4
 10
650.5263
 20
199.5646
 11
884.6509
 21
199.5646
  0
LINE
  8
0_00
  6
CONTINUOUS
 62
4
 10
889.3097
 20
199.5646
 11
1121.2845
 21
199.5646
  0
LINE
  8
15_0F
  6
CONTINUOUS
 62
4
 10
650.1612
 20
214.5646
 11
888.6702
 21
214.5646
  0
LINE
  8
15_0F
  6
CONTINUOUS
 62
4
 10
650.5263
 20
200.8646
 11
884.9992
 21
200.8646
  0
LINE
  8
15_0F
  6
CONTINUOUS
 62
4
 10
903.2593
 20
364.5646
 11
650.1612
 21
364.5646
  0
LINE
  8
15_0F
  6
CONTINUOUS
 62
4
 10
650.1612
 20
378.2647
 11
906.9302
 21
378.2647
  0
LINE
  8
0_00
  6
CONTINUOUS
 62
6
 10
235.3952
 20
643.8515
 11
253.7747
 21
662.2310
  0
LINE
  8
0_00
  6
CONTINUOUS
 62
6
 10
235.3952
 20
643.8515
 11
241.6852
 21
647.9363
  0
LINE
  8
0_00
  6
CONTINUOUS
 62
6
 10
235.3952
 20
643.8515
 11
239.4800
 21
650.1415
  0
LINE
  8
0_00
  6
CONTINUOUS
 62
6
 10
253.7747
 20
662.2310
 11
298.7747
 21
662.2310
  0
LINE
  8
0_00
  6
CONTINUOUS
 62
6
 10
237.5277
 20
589.1572
 11
201.1373
 21
625.5477
  0
LINE
  8
0_00
  6
CONTINUOUS
 62
6
 10
237.5277
 20
589.1572
 11
233.4429
 21
595.4473
  0
LINE
  8
0_00
  6
CONTINUOUS
 62
6
 10
237.5277
 20
589.1572
 11
231.2377
 21
593.2420
  0
LINE
  8
0_00
  6
CONTINUOUS
 62
6
 10
201.1373
 20
625.5477
 11
139.5310
 21
625.5477
  0
LINE
  8
0_00
  6
CONTINUOUS
 62
6
 10
226.8270
 20
599.8579
 11
130.0672
 21
599.8579
  0
LINE
  8
15_0F
  6
CONTINUOUS
 62
6
 10
776.1290
 20
751.6302
 11
776.1290
 21
779.5060
  0
LINE
  8
15_0F
  6
CONTINUOUS
 62
6
 10
738.6290
 20
751.6302
 11
738.6290
 21
779.5060
  0
LINE
  8
15_0F
  6
CONTINUOUS
 62
6
 10
738.6290
 20
773.5060
 11
776.1290
 21
773.5060
  0
LINE
  8
15_0F
  6
CONTINUOUS
 62
6
 10
738.6290
 20
773.5060
 11
745.9651
 21
771.9467
  0
LINE
  8
15_0F
  6
CONTINUOUS
 62
6
 10
738.6290
 20
773.5060
 11
745.9651
 21
775.0653
  0
LINE
  8
15_0F
  6
CONTINUOUS
 62
6
 10
776.1290
 20
773.5060
 11
768.7928
 21
775.0653
  0
LINE
  8
15_0F
  6
CONTINUOUS
 62
6
 10
776.1290
 20
773.5060
 11
768.7928
 21
771.9467
  0
LINE
  8
15_0F
  6
CONTINUOUS
 62
6
 10
931.1290
 20
751.6302
 11
931.1290
 21
779.5060
  0
LINE
  8
15_0F
  6
CONTINUOUS
 62
6
 10
776.1290
 20
773.5060
 11
931.1290
 21
773.5060
  0
LINE
  8
15_0F
  6
CONTINUOUS
 62
6
 10
776.1290
 20
773.5060
 11
783.4651
 21
771.9467
  0
LINE
  8
15_0F
  6
CONTINUOUS
 62
6
 10
776.1290
 20
773.5060
 11
783.4651
 21
775.0653
  0
LINE
  8
15_0F
  6
CONTINUOUS
 62
6
 10
931.1290
 20
773.5060
 11
923.7929
 21
775.0653
  0
LINE
  8
15_0F
  6
CONTINUOUS
 62
6
 10
931.1290
 20
773.5060
 11
923.7929
 21
771.9467
  0
LINE
  8
15_0F
  6
CONTINUOUS
 62
6
 10
1086.1290
 20
751.6302
 11
1086.1290
 21
779.5060
  0
LINE
  8
15_0F
  6
CONTINUOUS
 62
6
 10
931.1290
 20
773.5060
 11
1086.1290
 21
773.5060
  0
LINE
  8
15_0F
  6
CONTINUOUS
 62
6
 10
931.1290
 20
773.5060
 11
938.4651
 21
771.9467
  0
LINE
  8
15_0F
  6
CONTINUOUS
 62
6
 10
931.1290
 20
773.5060
 11
938.4651
 21
775.0653
  0
LINE
  8
15_0F
  6
CONTINUOUS
 62
6
 10
1086.1290
 20
773.5060
 11
1078.7930
 21
775.0653
  0
LINE
  8
15_0F
  6
CONTINUOUS
 62
6
 10
1086.1290
 20
773.5060
 11
1078.7930
 21
771.9467
  0
LINE
  8
15_0F
  6
CONTINUOUS
 62
6
 10
1086.1290
 20
773.5060
 11
1161.0040
 21
773.5060
  0
LINE
  8
15_0F
  6
CONTINUOUS
 62
6
 10
1086.1290
 20
773.5060
 11
1093.4650
 21
771.9467
  0
LINE
  8
15_0F
  6
CONTINUOUS
 62
6
 10
1086.1290
 20
773.5060
 11
1093.4650
 21
775.0653
  0
LINE
  8
0_00
  6
CONTINUOUS
 62
4
 10
88.0841
 20
798.8786
 11
119.2841
 21
798.8786
  0
LINE
  8
0_00
  6
CONTINUOUS
 62
4
 10
119.2841
 20
798.8786
 11
119.2841
 21
813.2786
  0
LINE
  8
0_00
  6
CONTINUOUS
 62
4
 10
88.0841
 20
813.2786
 11
119.2841
 21
813.2786
  0
LINE
  8
0_00
  6
CONTINUOUS
 62
4
 10
88.0841
 20
798.8786
 11
88.0841
 21
813.2786
  0
LINE
  8
0_00
  6
CONTINUOUS
 62
4
 10
269.2841
 20
798.8786
 11
300.4841
 21
798.8786
  0
LINE
  8
0_00
  6
CONTINUOUS
 62
4
 10
300.4841
 20
798.8786
 11
300.4841
 21
813.2786
  0
LINE
  8
0_00
  6
CONTINUOUS
 62
4
 10
269.2841
 20
813.2786
 11
300.4841
 21
813.2786
  0
LINE
  8
0_00
  6
CONTINUOUS
 62
4
 10
269.2841
 20
798.8786
 11
269.2841
 21
813.2786
  0
LINE
  8
0_00
  6
CENTER1
 62
6
 10
412.2841
 20
711.7763
 11
412.2841
 21
689.4967
  0
LINE
  8
0_00
  6
CENTER1
 62
6
 10
376.2841
 20
711.4978
 11
376.2841
 21
689.8681
  0
LINE
  8
0_00
  6
CENTER1
 62
6
 10
394.2841
 20
748.3845
 11
394.2841
 21
669.0487
  0
LINE
  8
0_00
  6
CONTINUOUS
 62
4
 10
372.7841
 20
705.1448
 11
415.7841
 21
705.1448
  0
LINE
  8
0_00
  6
CONTINUOUS
 62
4
 10
415.7841
 20
705.1448
 11
415.7841
 21
689.4321
  0
LINE
  8
0_00
  6
DASHED
 62
4
 10
372.7841
 20
692.1448
 11
415.7841
 21
692.1448
  0
LINE
  8
0_00
  6
CONTINUOUS
 62
4
 10
372.7841
 20
705.1448
 11
372.7841
 21
692.1448
  0
LINE
  8
0_00
  6
CONTINUOUS
 62
4
 10
230.7841
 20
580.9008
 11
230.7841
 21
588.4012
  0
LINE
  8
0_00
  6
CONTINUOUS
 62
4
 10
277.7841
 20
580.9008
 11
277.7841
 21
597.5132
  0
LINE
  8
0_00
  6
CONTINUOUS
 62
6
 10
230.7841
 20
590.9008
 11
277.7841
 21
590.9008
  0
LINE
  8
0_00
  6
CONTINUOUS
 62
4
 10
162.7841
 20
695.4008
 11
205.7841
 21
695.4008
  0
LINE
  8
0_00
  6
CONTINUOUS
 62
4
 10
205.7841
 20
695.4008
 11
205.7841
 21
679.6881
  0
LINE
  8
0_00
  6
DASHED
 62
4
 10
162.7841
 20
682.4008
 11
205.7841
 21
682.4008
  0
LINE
  8
0_00
  6
CONTINUOUS
 62
4
 10
162.7841
 20
695.4008
 11
162.7841
 21
682.4008
  0
LINE
  8
0_00
  6
CONTINUOUS
 62
6
 10
212.8210
 20
737.3492
 11
228.5973
 21
753.1256
  0
LINE
  8
0_00
  6
CONTINUOUS
 62
6
 10
212.8210
 20
737.3492
 11
219.1110
 21
741.4340
  0
LINE
  8
0_00
  6
CONTINUOUS
 62
6
 10
212.8210
 20
737.3492
 11
216.9058
 21
743.6393
  0
LINE
  8
0_00
  6
CONTINUOUS
 62
6
 10
228.5973
 20
753.1256
 11
287.9973
 21
753.1256
  0
LINE
  8
0_00
  6
CONTINUOUS
 62
6
 10
418.1211
 20
735.9626
 11
433.5045
 21
751.3461
  0
LINE
  8
0_00
  6
CONTINUOUS
 62
6
 10
418.1211
 20
735.9626
 11
424.4111
 21
740.0473
  0
LINE
  8
0_00
  6
CONTINUOUS
 62
6
 10
418.1211
 20
735.9626
 11
422.2059
 21
742.2527
  0
LINE
  8
0_00
  6
CONTINUOUS
 62
6
 10
433.5045
 20
751.3461
 11
492.9045
 21
751.3461
  0
LINE
  8
15_0F
  6
CONTINUOUS
 62
6
 10
164.2841
 20
296.8763
 11
344.2841
 21
296.8763
  0
LINE
  8
15_0F
  6
CONTINUOUS
 62
6
 10
164.2841
 20
296.8763
 11
171.6202
 21
295.3169
  0
LINE
  8
15_0F
  6
CONTINUOUS
 62
6
 10
164.2841
 20
296.8763
 11
171.6202
 21
298.4356
  0
LINE
  8
15_0F
  6
CONTINUOUS
 62
6
 10
344.2841
 20
296.8763
 11
336.9480
 21
298.4356
  0
LINE
  8
15_0F
  6
CONTINUOUS
 62
6
 10
344.2841
 20
296.8763
 11
336.9480
 21
295.3169
  0
LINE
  8
0_00
  6
CONTINUOUS
 62
6
 10
179.2841
 20
332.7378
 11
329.2841
 21
332.7378
  0
LINE
  8
0_00
  6
CONTINUOUS
 62
6
 10
179.2841
 20
332.7378
 11
186.6202
 21
331.1785
  0
LINE
  8
0_00
  6
CONTINUOUS
 62
6
 10
179.2841
 20
332.7378
 11
186.6202
 21
334.2972
  0
LINE
  8
0_00
  6
CONTINUOUS
 62
6
 10
329.2841
 20
332.7378
 11
321.9480
 21
334.2972
  0
LINE
  8
0_00
  6
CONTINUOUS
 62
6
 10
329.2841
 20
332.7378
 11
321.9480
 21
331.1785
  0
LINE
  8
15_0F
  6
CONTINUOUS
 62
6
 10
344.2841
 20
414.7747
 11
344.2841
 21
294.2026
  0
LINE
  8
15_0F
  6
CONTINUOUS
 62
6
 10
329.2841
 20
373.0119
 11
329.2841
 21
328.4511
  0
LINE
  8
15_0F
  6
CONTINUOUS
 62
6
 10
164.2841
 20
414.7747
 11
164.2841
 21
294.0148
  0
LINE
  8
15_0F
  6
CONTINUOUS
 62
6
 10
179.2841
 20
373.1504
 11
179.2841
 21
327.9544
  0
LINE
  8
0_00
  6
CONTINUOUS
 62
4
 10
742.1540
 20
702.2344
 11
742.1540
 21
704.6963
  0
LINE
  8
0_00
  6
CONTINUOUS
 62
4
 10
735.1040
 20
702.2344
 11
735.1040
 21
703.3295
  0
LINE
  8
0_00
  6
CONTINUOUS
 62
4
 10
731.3540
 20
719.1094
 11
731.3540
 21
717.0225
  0
LINE
  8
0_00
  6
CONTINUOUS
 62
4
 10
724.9040
 20
719.1094
 11
724.9040
 21
717.4294
  0
LINE
  8
0_00
  6
CONTINUOUS
 62
2
 10
948.1889
 20
741.9884
 11
948.1889
 21
662.4924
  0
LINE
  8
0_00
  6
CONTINUOUS
 62
2
 10
948.1889
 20
741.9884
 11
932.3994
 21
741.9884
  0
LINE
  8
0_00
  6
CONTINUOUS
 62
2
 10
932.3994
 20
741.9884
 11
939.7354
 21
740.4291
  0
LINE
  8
0_00
  6
CONTINUOUS
 62
2
 10
932.3994
 20
741.9884
 11
939.7354
 21
743.5478
  0
LINE
  8
0_00
  6
CONTINUOUS
 62
2
 10
948.1889
 20
662.4924
 11
932.3994
 21
662.4924
  0
LINE
  8
0_00
  6
CONTINUOUS
 62
2
 10
932.3994
 20
662.4924
 11
939.7354
 21
660.9331
  0
LINE
  8
0_00
  6
CONTINUOUS
 62
2
 10
932.3994
 20
662.4924
 11
939.7354
 21
664.0518
  0
LINE
  8
0_00
  6
CONTINUOUS
 62
2
 10
895.5995
 20
686.7216
 11
1008.5026
 21
686.7216
  0
LINE
  8
0_00
  6
CONTINUOUS
 62
2
 10
1008.5026
 20
686.7216
 11
1008.5026
 21
711.3330
  0
LINE
  8
0_00
  6
CONTINUOUS
 62
2
 10
1008.5026
 20
711.3330
 11
1124.9314
 21
711.3330
  0
LINE
  8
0_00
  6
CONTINUOUS
 62
2
 10
1124.9314
 20
711.3330
 11
1124.9314
 21
662.9406
  0
LINE
  8
0_00
  6
CONTINUOUS
 62
2
 10
1124.9314
 20
662.9406
 11
1126.4908
 21
670.2766
  0
LINE
  8
0_00
  6
CONTINUOUS
 62
2
 10
1124.9314
 20
662.9406
 11
1123.3721
 21
670.2766
  0
LINE
  8
0_00
  6
CONTINUOUS
 62
2
 10
895.5995
 20
686.7216
 11
895.5995
 21
662.9406
  0
LINE
  8
0_00
  6
CONTINUOUS
 62
2
 10
895.5995
 20
662.9406
 11
897.1588
 21
670.2766
  0
LINE
  8
0_00
  6
CONTINUOUS
 62
2
 10
895.5995
 20
662.9406
 11
894.0401
 21
670.2766
  0
LINE
  8
0_00
  6
CENTER1
 62
6
 10
608.4048
 20
712.0324
 11
608.4048
 21
689.7528
  0
LINE
  8
0_00
  6
CENTER1
 62
6
 10
572.4048
 20
711.7538
 11
572.4048
 21
690.1241
  0
LINE
  8
0_00
  6
CENTER1
 62
6
 10
590.4048
 20
748.6405
 11
590.4048
 21
669.3047
  0
LINE
  8
0_00
  6
CONTINUOUS
 62
4
 10
568.9048
 20
705.4008
 11
611.9048
 21
705.4008
  0
LINE
  8
0_00
  6
CONTINUOUS
 62
4
 10
611.9048
 20
705.4008
 11
611.9048
 21
689.6881
  0
LINE
  8
0_00
  6
DASHED
 62
4
 10
568.9048
 20
692.4008
 11
611.9048
 21
692.4008
  0
LINE
  8
0_00
  6
CONTINUOUS
 62
4
 10
568.9048
 20
705.4008
 11
568.9048
 21
692.4008
  0
LINE
  8
0_00
  6
CONTINUOUS
 62
6
 10
610.6682
 20
732.6451
 11
629.6253
 21
751.6021
  0
LINE
  8
0_00
  6
CONTINUOUS
 62
6
 10
610.6682
 20
732.6451
 11
616.9583
 21
736.7299
  0
LINE
  8
0_00
  6
CONTINUOUS
 62
6
 10
610.6682
 20
732.6451
 11
614.7530
 21
738.9352
  0
LINE
  8
0_00
  6
CONTINUOUS
 62
6
 10
629.6253
 20
751.6021
 11
689.0253
 21
751.6021
  0
LINE
  8
0_00
  6
CONTINUOUS
 62
6
 10
735.0484
 20
703.7344
 11
742.1540
 21
703.7344
  0
LINE
  8
15_0F
  6
CONTINUOUS
 62
6
 10
242.0916
 20
481.9008
 11
217.7352
 21
506.2573
  0
LINE
  8
15_0F
  6
CONTINUOUS
 62
6
 10
242.0916
 20
481.9008
 11
238.0068
 21
488.1909
  0
LINE
  8
15_0F
  6
CONTINUOUS
 62
6
 10
242.0916
 20
481.9008
 11
235.8016
 21
485.9856
  0
LINE
  8
3_03
  6
CONTINUOUS
 62
4
 10
306.5841
 20
476.9008
 11
306.5841
 21
474.4008
  0
LINE
  8
3_03
  6
CONTINUOUS
 62
4
 10
308.5841
 20
476.9008
 11
308.5841
 21
474.7008
  0
LINE
  8
0_00
  6
CONTINUOUS
 62
4
 10
306.2841
 20
470.9008
 11
202.2841
 21
470.9008
  0
LINE
  8
0_00
  6
CENTER1
 62
6
 10
282.2841
 20
486.2514
 11
282.2841
 21
421.1829
  0
LINE
  8
0_00
  6
CENTER1
 62
6
 10
226.2841
 20
486.2514
 11
226.2841
 21
421.1829
  0
LINE
  8
0_00
  6
CONTINUOUS
 62
4
 10
306.2841
 20
470.9008
 11
202.2841
 21
470.9008
  0
LINE
  8
0_00
  6
CONTINUOUS
 62
4
 10
246.5341
 20
481.9008
 11
246.5341
 21
485.6556
  0
LINE
  8
0_00
  6
CONTINUOUS
 62
4
 10
262.0341
 20
485.1143
 11
262.0341
 21
481.9008
  0
LINE
  8
0_00
  6
CONTINUOUS
 62
2
 10
297.6299
 20
487.3734
 11
297.5078
 21
483.8756
  0
LINE
  8
0_00
  6
CONTINUOUS
 62
2
 10
211.1826
 20
490.3922
 11
211.0604
 21
486.8943
  0
LINE
  8
0_00
  6
CONTINUOUS
 62
2
 10
297.5078
 20
483.8756
 11
211.0604
 21
486.8943
  0
LINE
  8
0_00
  6
CONTINUOUS
 62
2
 10
297.6194
 20
487.0736
 11
211.1721
 21
490.0924
  0
LINE
  8
0_00
  6
CONTINUOUS
 62
2
 10
297.6299
 20
487.3734
 11
211.1826
 21
490.3922
  0
LINE
  8
0_00
  6
CONTINUOUS
 62
4
 10
277.7841
 20
495.9008
 11
277.7841
 21
490.5980
  0
LINE
  8
0_00
  6
CONTINUOUS
 62
4
 10
230.7841
 20
492.2043
 11
230.7841
 21
495.9008
  0
LINE
  8
0_00
  6
CONTINUOUS
 62
4
 10
277.2841
 20
496.4008
 11
230.2841
 21
496.4008
  0
LINE
  8
0_00
  6
CONTINUOUS
 62
4
 10
277.7841
 20
495.9008
 11
277.7841
 21
490.5980
  0
LINE
  8
0_00
  6
CONTINUOUS
 62
4
 10
230.7841
 20
492.2043
 11
230.7841
 21
495.9008
  0
LINE
  8
15_0F
  6
DASHED
 62
2
 10
232.7841
 20
494.9008
 11
275.7841
 21
494.9008
  0
LINE
  8
15_0F
  6
DASHED
 62
2
 10
275.7841
 20
496.4008
 11
275.7841
 21
494.9008
  0
LINE
  8
15_0F
  6
DASHED
 62
2
 10
232.7841
 20
496.4008
 11
232.7841
 21
494.9008
  0
LINE
  8
0_00
  6
CONTINUOUS
 62
4
 10
229.7841
 20
492.2043
 11
229.7841
 21
495.9008
  0
LINE
  8
0_00
  6
CONTINUOUS
 62
4
 10
229.7841
 20
492.2043
 11
229.7841
 21
495.9008
  0
LINE
  8
11_0B
  6
DASHED
 62
2
 10
225.7841
 20
462.9008
 11
226.7841
 21
462.9008
  0
LINE
  8
11_0B
  6
DASHED
 62
2
 10
281.7841
 20
462.9008
 11
282.7841
 21
462.9008
  0
LINE
  8
0_00
  6
CONTINUOUS
 62
4
 10
202.2841
 20
470.9008
 11
306.2841
 21
470.9008
  0
LINE
  8
0_00
  6
CONTINUOUS
 62
6
 10
332.8953
 20
478.1889
 11
354.5811
 21
499.8747
  0
LINE
  8
0_00
  6
CONTINUOUS
 62
6
 10
332.8953
 20
478.1889
 11
339.1853
 21
482.2736
  0
LINE
  8
0_00
  6
CONTINUOUS
 62
6
 10
332.8953
 20
478.1889
 11
336.9801
 21
484.4789
  0
LINE
  8
3_03
  6
CONTINUOUS
 62
4
 10
164.2841
 20
431.9008
 11
164.2841
 21
490.7992
  0
LINE
  8
3_03
  6
CONTINUOUS
 62
4
 10
170.9842
 20
429.0947
 11
167.2841
 21
428.9008
  0
LINE
  8
3_03
  6
CONTINUOUS
 62
4
 10
170.9840
 20
430.6969
 11
167.2501
 21
430.5013
  0
LINE
  8
3_03
  6
CONTINUOUS
 62
4
 10
165.8841
 20
431.9008
 11
165.8841
 21
490.6958
  0
LINE
  8
6_06
  6
CONTINUOUS
 62
2
 10
185.9841
 20
489.6274
 11
185.9841
 21
491.5766
  0
LINE
  8
6_06
  6
CONTINUOUS
 62
2
 10
180.9841
 20
489.7940
 11
180.9841
 21
491.7432
  0
LINE
  8
3_03
  6
CONTINUOUS
 62
4
 10
167.7841
 20
430.6008
 11
167.2841
 21
430.6008
  0
LINE
  8
3_03
  6
CONTINUOUS
 62
4
 10
167.7841
 20
430.6008
 11
173.7206
 21
470.4745
  0
LINE
  8
3_03
  6
CONTINUOUS
 62
4
 10
170.4841
 20
470.9008
 11
165.7841
 21
432.1008
  0
LINE
  8
3_03
  6
CONTINUOUS
 62
4
 10
170.4841
 20
470.9008
 11
175.3350
 21
486.7034
  0
LINE
  8
3_03
  6
CONTINUOUS
 62
4
 10
177.3136
 20
488.1154
 11
179.4841
 21
488.0430
  0
LINE
  8
3_03
  6
CONTINUOUS
 62
4
 10
179.7941
 20
490.0338
 11
179.9841
 21
490.0275
  0
LINE
  8
3_03
  6
CONTINUOUS
 62
4
 10
186.6941
 20
489.8038
 11
186.4841
 21
489.8108
  0
LINE
  8
3_03
  6
CONTINUOUS
 62
4
 10
179.9841
 20
489.8274
 11
186.4841
 21
489.6107
  0
LINE
  8
3_03
  6
CONTINUOUS
 62
4
 10
179.4841
 20
488.0430
 11
179.4841
 21
489.7340
  0
LINE
  8
3_03
  6
CONTINUOUS
 62
4
 10
186.9841
 20
489.5040
 11
186.9841
 21
488.1099
  0
LINE
  8
3_03
  6
CONTINUOUS
 62
4
 10
179.9841
 20
489.8274
 11
179.9841
 21
490.0275
  0
LINE
  8
3_03
  6
CONTINUOUS
 62
4
 10
186.4841
 20
489.8108
 11
186.4841
 21
489.6107
  0
LINE
  8
3_03
  6
CONTINUOUS
 62
4
 10
177.1687
 20
485.1801
 11
173.9970
 21
474.8476
  0
LINE
  8
3_03
  6
CONTINUOUS
 62
4
 10
178.1580
 20
485.8860
 11
181.6841
 21
485.7685
  0
LINE
  8
3_03
  6
CONTINUOUS
 62
4
 10
181.6841
 20
487.2527
 11
181.6841
 21
485.7685
  0
LINE
  8
3_03
  6
CONTINUOUS
 62
4
 10
186.4674
 20
487.6102
 11
182.2008
 21
487.7524
  0
LINE
  8
6_06
  6
CONTINUOUS
 62
2
 10
180.9841
 20
491.0362
 11
181.6684
 21
491.7204
  0
LINE
  8
6_06
  6
CONTINUOUS
 62
2
 10
180.9841
 20
490.3290
 11
182.3527
 21
491.6976
  0
LINE
  8
6_06
  6
CONTINUOUS
 62
2
 10
181.1506
 20
489.7885
 11
183.0370
 21
491.6749
  0
LINE
  8
6_06
  6
CONTINUOUS
 62
2
 10
181.8349
 20
489.7657
 11
183.7213
 21
491.6520
  0
LINE
  8
6_06
  6
CONTINUOUS
 62
2
 10
182.5192
 20
489.7429
 11
184.4056
 21
491.6292
  0
LINE
  8
6_06
  6
CONTINUOUS
 62
2
 10
183.2035
 20
489.7201
 11
185.0899
 21
491.6064
  0
LINE
  8
6_06
  6
CONTINUOUS
 62
2
 10
183.8878
 20
489.6973
 11
185.7742
 21
491.5836
  0
LINE
  8
6_06
  6
CONTINUOUS
 62
2
 10
184.5721
 20
489.6745
 11
185.9841
 21
491.0864
  0
LINE
  8
6_06
  6
CONTINUOUS
 62
2
 10
185.2564
 20
489.6517
 11
185.9841
 21
490.3793
  0
LINE
  8
6_06
  6
CONTINUOUS
 62
2
 10
185.9407
 20
489.6288
 11
185.9841
 21
489.6722
  0
LINE
  8
0_00
  6
CONTINUOUS
 62
4
 10
179.2841
 20
384.8683
 11
179.2841
 21
460.9008
  0
LINE
  8
0_00
  6
PHANTOM1
 62
2
 10
174.2841
 20
465.3590
 11
174.2841
 21
384.8683
  0
LINE
  8
0_00
  6
CONTINUOUS
 62
4
 10
194.2841
 20
452.9008
 11
194.2841
 21
384.8683
  0
LINE
  8
0_00
  6
CONTINUOUS
 62
2
 10
194.4624
 20
454.5804
 11
196.1420
 21
452.9008
  0
LINE
  8
3_03
  6
CONTINUOUS
 62
4
 10
189.2841
 20
470.9008
 11
179.2841
 21
460.9008
  0
LINE
  8
0_00
  6
CONTINUOUS
 62
2
 10
202.2841
 20
460.9008
 11
202.2841
 21
452.9008
  0
LINE
  8
0_00
  6
CONTINUOUS
 62
2
 10
199.8386
 20
460.5179
 11
202.2841
 21
458.0724
  0
LINE
  8
0_00
  6
CONTINUOUS
 62
2
 10
197.9214
 20
459.6066
 11
202.2841
 21
455.2440
  0
LINE
  8
0_00
  6
CONTINUOUS
 62
2
 10
196.3898
 20
458.3099
 11
201.7988
 21
452.9008
  0
LINE
  8
0_00
  6
CONTINUOUS
 62
2
 10
195.2185
 20
456.6527
 11
198.9704
 21
452.9008
  0
LINE
  8
0_00
  6
CONTINUOUS
 62
2
 10
202.2841
 20
460.9008
 11
194.2841
 21
452.9008
  0
LINE
  8
0_00
  6
CONTINUOUS
 62
2
 10
198.5089
 20
459.9541
 11
195.2309
 21
456.6760
  0
LINE
  8
0_00
  6
CONTINUOUS
 62
2
 10
202.2841
 20
458.0724
 11
197.1125
 21
452.9008
  0
LINE
  8
0_00
  6
CONTINUOUS
 62
2
 10
202.2841
 20
455.2440
 11
199.9409
 21
452.9008
  0
LINE
  8
0_00
  6
CONTINUOUS
 62
2
 10
202.2841
 20
460.9008
 11
194.2841
 21
452.9008
  0
LINE
  8
0_00
  6
CONTINUOUS
 62
2
 10
198.5089
 20
459.9541
 11
195.2309
 21
456.6760
  0
LINE
  8
0_00
  6
CONTINUOUS
 62
2
 10
202.2841
 20
458.0724
 11
197.1125
 21
452.9008
  0
LINE
  8
0_00
  6
CONTINUOUS
 62
2
 10
202.2841
 20
455.2440
 11
199.9409
 21
452.9008
  0
LINE
  8
0_00
  6
CONTINUOUS
 62
2
 10
223.0566
 20
452.9008
 11
194.2841
 21
424.1283
  0
LINE
  8
0_00
  6
CONTINUOUS
 62
2
 10
227.2993
 20
452.9008
 11
194.2841
 21
419.8857
  0
LINE
  8
0_00
  6
CONTINUOUS
 62
2
 10
231.5419
 20
452.9008
 11
194.2841
 21
415.6430
  0
LINE
  8
0_00
  6
CONTINUOUS
 62
2
 10
302.2526
 20
452.9008
 11
234.2201
 21
384.8683
  0
LINE
  8
0_00
  6
CONTINUOUS
 62
2
 10
306.2841
 20
452.6897
 11
238.4627
 21
384.8683
  0
LINE
  8
0_00
  6
CONTINUOUS
 62
2
 10
306.2841
 20
448.4471
 11
242.7054
 21
384.8683
  0
LINE
  8
0_00
  6
CONTINUOUS
 62
4
 10
202.2841
 20
460.9008
 11
306.2841
 21
460.9008
  0
LINE
  8
0_00
  6
CONTINUOUS
 62
2
 10
202.2841
 20
458.9008
 11
306.2841
 21
458.9008
  0
LINE
  8
0_00
  6
CONTINUOUS
 62
2
 10
202.2841
 20
456.9008
 11
306.2841
 21
456.9008
  0
LINE
  8
0_00
  6
CONTINUOUS
 62
2
 10
202.2841
 20
454.9008
 11
306.2841
 21
454.9008
  0
LINE
  8
0_00
  6
CONTINUOUS
 62
4
 10
194.2841
 20
452.9008
 11
306.2841
 21
452.9008
  0
LINE
  8
3_03
  6
CONTINUOUS
 62
4
 10
344.2841
 20
484.9991
 11
344.2841
 21
430.9008
  0
LINE
  8
3_03
  6
CONTINUOUS
 62
4
 10
341.2841
 20
427.9008
 11
337.5840
 21
428.0947
  0
LINE
  8
3_03
  6
CONTINUOUS
 62
4
 10
342.6841
 20
484.9025
 11
342.6841
 21
430.9008
  0
LINE
  8
3_03
  6
CONTINUOUS
 62
4
 10
341.3181
 20
429.5013
 11
337.5841
 21
429.6969
  0
LINE
  8
6_06
  6
CONTINUOUS
 62
2
 10
322.5841
 20
485.0740
 11
322.5841
 21
487.0232
  0
LINE
  8
6_06
  6
CONTINUOUS
 62
2
 10
327.5841
 20
484.9074
 11
327.5841
 21
486.8566
  0
LINE
  8
3_03
  6
CONTINUOUS
 62
4
 10
340.7841
 20
429.6008
 11
341.2841
 21
429.6008
  0
LINE
  8
3_03
  6
CONTINUOUS
 62
4
 10
342.7841
 20
431.1009
 11
338.0841
 21
470.9008
  0
LINE
  8
3_03
  6
CONTINUOUS
 62
4
 10
334.8463
 20
470.4727
 11
340.7841
 21
429.6008
  0
LINE
  8
3_03
  6
CONTINUOUS
 62
4
 10
333.2554
 20
483.6863
 11
338.0841
 21
470.9008
  0
LINE
  8
3_03
  6
CONTINUOUS
 62
4
 10
321.8941
 20
485.2971
 11
322.0841
 21
485.2908
  0
LINE
  8
3_03
  6
CONTINUOUS
 62
4
 10
328.5841
 20
485.0741
 11
331.4510
 21
484.9786
  0
LINE
  8
3_03
  6
CONTINUOUS
 62
4
 10
322.0841
 20
485.0907
 11
328.5841
 21
484.8740
  0
LINE
  8
3_03
  6
CONTINUOUS
 62
4
 10
321.5841
 20
484.9973
 11
321.5841
 21
483.5899
  0
LINE
  8
3_03
  6
CONTINUOUS
 62
4
 10
322.0841
 20
485.2908
 11
322.0841
 21
485.0907
  0
LINE
  8
3_03
  6
CONTINUOUS
 62
4
 10
328.5841
 20
485.0741
 11
328.5841
 21
484.8740
  0
LINE
  8
3_03
  6
CONTINUOUS
 62
4
 10
334.2306
 20
474.8774
 11
331.4800
 21
482.1604
  0
LINE
  8
3_03
  6
CONTINUOUS
 62
4
 10
330.5778
 20
482.8065
 11
322.0674
 21
483.0901
  0
LINE
  8
6_06
  6
CONTINUOUS
 62
2
 10
322.5841
 20
486.3162
 11
323.2684
 21
487.0004
  0
LINE
  8
6_06
  6
CONTINUOUS
 62
2
 10
322.5841
 20
485.6090
 11
323.9527
 21
486.9776
  0
LINE
  8
6_06
  6
CONTINUOUS
 62
2
 10
322.7506
 20
485.0685
 11
324.6370
 21
486.9548
  0
LINE
  8
6_06
  6
CONTINUOUS
 62
2
 10
323.4349
 20
485.0457
 11
325.3213
 21
486.9320
  0
LINE
  8
6_06
  6
CONTINUOUS
 62
2
 10
324.1192
 20
485.0229
 11
326.0056
 21
486.9092
  0
LINE
  8
6_06
  6
CONTINUOUS
 62
2
 10
324.8035
 20
485.0001
 11
326.6899
 21
486.8864
  0
LINE
  8
6_06
  6
CONTINUOUS
 62
2
 10
325.4878
 20
484.9773
 11
327.3742
 21
486.8636
  0
LINE
  8
6_06
  6
CONTINUOUS
 62
2
 10
326.1721
 20
484.9545
 11
327.5841
 21
486.3664
  0
LINE
  8
6_06
  6
CONTINUOUS
 62
2
 10
326.8564
 20
484.9317
 11
327.5841
 21
485.6593
  0
LINE
  8
6_06
  6
CONTINUOUS
 62
2
 10
327.5407
 20
484.9088
 11
327.5841
 21
484.9522
  0
LINE
  8
0_00
  6
PHANTOM1
 62
2
 10
334.2841
 20
465.3590
 11
334.2841
 21
384.8683
  0
LINE
  8
0_00
  6
CONTINUOUS
 62
4
 10
329.2841
 20
460.9008
 11
329.2841
 21
384.8683
  0
LINE
  8
0_00
  6
CONTINUOUS
 62
4
 10
329.2841
 20
460.9008
 11
319.2841
 21
470.9008
  0
LINE
  8
3_03
  6
CONTINUOUS
 62
4
 10
306.2841
 20
474.4008
 11
306.5841
 21
474.4008
  0
LINE
  8
3_03
  6
CONTINUOUS
 62
4
 10
306.5841
 20
474.4008
 11
306.5841
 21
476.9008
  0
LINE
  8
3_03
  6
CONTINUOUS
 62
4
 10
309.0841
 20
474.2008
 11
333.7628
 21
474.2008
  0
LINE
  8
3_03
  6
CONTINUOUS
 62
4
 10
308.5841
 20
474.7008
 11
308.5841
 21
476.9008
  0
LINE
  8
0_00
  6
CONTINUOUS
 62
4
 10
314.2841
 20
452.9008
 11
314.2841
 21
384.8683
  0
LINE
  8
0_00
  6
CONTINUOUS
 62
4
 10
306.2841
 20
452.9008
 11
306.2841
 21
384.8683
  0
LINE
  8
0_00
  6
CONTINUOUS
 62
2
 10
310.2841
 20
452.9008
 11
310.2841
 21
384.8683
  0
LINE
  8
0_00
  6
CONTINUOUS
 62
2
 10
308.2841
 20
452.9008
 11
308.2841
 21
384.8683
  0
LINE
  8
0_00
  6
CONTINUOUS
 62
2
 10
312.2841
 20
452.9008
 11
312.2841
 21
384.8683
  0
LINE
  8
3_03
  6
CONTINUOUS
 62
4
 10
201.9841
 20
476.9008
 11
201.9841
 21
474.4008
  0
LINE
  8
3_03
  6
CONTINUOUS
 62
4
 10
199.4841
 20
474.2008
 11
174.4749
 21
474.2008
  0
LINE
  8
3_03
  6
CONTINUOUS
 62
4
 10
199.9841
 20
476.9008
 11
199.9841
 21
474.7008
  0
LINE
  8
0_00
  6
CONTINUOUS
 62
4
 10
202.2841
 20
470.9008
 11
202.2841
 21
471.9008
  0
LINE
  8
3_03
  6
CONTINUOUS
 62
4
 10
201.9841
 20
474.4008
 11
202.2841
 21
474.4008
  0
LINE
  8
3_03
  6
CONTINUOUS
 62
4
 10
174.2151
 20
470.9008
 11
334.3515
 21
470.9008
  0
LINE
  8
0_00
  6
CENTER1
 62
6
 10
226.2841
 20
486.2514
 11
226.2841
 21
421.1829
  0
LINE
  8
3_03
  6
CONTINUOUS
 62
4
 10
167.2841
 20
493.8008
 11
341.3840
 21
487.9975
  0
LINE
  8
3_03
  6
CONTINUOUS
 62
4
 10
167.4341
 20
492.1950
 11
341.3307
 21
486.3984
  0
LINE
  8
0_00
  6
CONTINUOUS
 62
6
 10
354.5811
 20
499.8747
 11
399.5811
 21
499.8747
  0
LINE
  8
15_0F
  6
CONTINUOUS
 62
6
 10
217.7352
 20
506.2573
 11
143.9352
 21
506.2573
  0
LINE
  8
0_00
  6
CENTER1
 62
6
 10
750.1302
 20
391.9575
 11
750.1302
 21
185.8069
  0
LINE
  8
0_00
  6
CENTER1
 62
6
 10
750.1302
 20
386.9259
 11
750.1302
 21
190.0635
  0
LINE
  8
0_00
  6
CONTINUOUS
 62
2
 10
780.1303
 20
362.8646
 11
720.1303
 21
362.8646
  0
LINE
  8
0_00
  6
CONTINUOUS
 62
2
 10
780.1303
 20
357.8646
 11
720.1303
 21
357.8646
  0
LINE
  8
0_00
  6
CONTINUOUS
 62
4
 10
720.1303
 20
373.3646
 11
780.1303
 21
373.3646
  0
LINE
  8
0_00
  6
CONTINUOUS
 62
4
 10
720.1303
 20
368.0646
 11
780.1303
 21
368.0646
  0
LINE
  8
0_00
  6
CONTINUOUS
 62
4
 10
720.1303
 20
364.3646
 11
780.1303
 21
364.3646
  0
LINE
  8
0_00
  6
CONTINUOUS
 62
4
 10
720.1303
 20
356.8646
 11
780.1303
 21
356.8646
  0
LINE
  8
0_00
  6
CONTINUOUS
 62
4
 10
720.1303
 20
343.8646
 11
780.1303
 21
343.8646
  0
LINE
  8
0_00
  6
CONTINUOUS
 62
4
 10
720.1303
 20
341.8646
 11
780.1303
 21
341.8646
  0
LINE
  8
0_00
  6
CONTINUOUS
 62
4
 10
780.1303
 20
377.9646
 11
780.1303
 21
341.5646
  0
LINE
  8
0_00
  6
CONTINUOUS
 62
2
 10
775.1303
 20
357.8646
 11
780.1303
 21
362.8646
  0
LINE
  8
0_00
  6
CONTINUOUS
 62
2
 10
772.3018
 20
357.8646
 11
777.3018
 21
362.8646
  0
LINE
  8
0_00
  6
CONTINUOUS
 62
2
 10
769.4734
 20
357.8646
 11
774.4734
 21
362.8646
  0
LINE
  8
0_00
  6
CONTINUOUS
 62
2
 10
766.6451
 20
357.8646
 11
771.6450
 21
362.8646
  0
LINE
  8
0_00
  6
CONTINUOUS
 62
2
 10
763.8165
 20
357.8646
 11
768.8166
 21
362.8646
  0
LINE
  8
0_00
  6
CONTINUOUS
 62
2
 10
760.9881
 20
357.8646
 11
765.9882
 21
362.8646
  0
LINE
  8
0_00
  6
CONTINUOUS
 62
2
 10
758.1597
 20
357.8646
 11
763.1597
 21
362.8646
  0
LINE
  8
0_00
  6
CONTINUOUS
 62
2
 10
755.3313
 20
357.8646
 11
760.3313
 21
362.8646
  0
LINE
  8
0_00
  6
CONTINUOUS
 62
2
 10
752.5029
 20
357.8646
 11
757.5029
 21
362.8646
  0
LINE
  8
0_00
  6
CONTINUOUS
 62
2
 10
749.6744
 20
357.8646
 11
754.6744
 21
362.8646
  0
LINE
  8
0_00
  6
CONTINUOUS
 62
2
 10
746.8460
 20
357.8646
 11
751.8460
 21
362.8646
  0
LINE
  8
0_00
  6
CONTINUOUS
 62
2
 10
744.0176
 20
357.8646
 11
749.0175
 21
362.8646
  0
LINE
  8
0_00
  6
CONTINUOUS
 62
2
 10
741.1891
 20
357.8646
 11
746.1892
 21
362.8646
  0
LINE
  8
0_00
  6
CONTINUOUS
 62
2
 10
738.3608
 20
357.8646
 11
743.3607
 21
362.8646
  0
LINE
  8
0_00
  6
CONTINUOUS
 62
2
 10
735.5323
 20
357.8646
 11
740.5323
 21
362.8646
  0
LINE
  8
0_00
  6
CONTINUOUS
 62
2
 10
732.7038
 20
357.8646
 11
737.7039
 21
362.8646
  0
LINE
  8
0_00
  6
CONTINUOUS
 62
2
 10
729.8754
 20
357.8646
 11
734.8754
 21
362.8646
  0
LINE
  8
0_00
  6
CONTINUOUS
 62
2
 10
727.0470
 20
357.8646
 11
732.0470
 21
362.8646
  0
LINE
  8
0_00
  6
CONTINUOUS
 62
2
 10
724.2186
 20
357.8646
 11
729.2186
 21
362.8646
  0
LINE
  8
0_00
  6
CONTINUOUS
 62
2
 10
721.3901
 20
357.8646
 11
726.3901
 21
362.8646
  0
LINE
  8
0_00
  6
CONTINUOUS
 62
2
 10
720.1303
 20
359.4332
 11
723.5617
 21
362.8646
  0
LINE
  8
0_00
  6
CONTINUOUS
 62
2
 10
720.1303
 20
362.2616
 11
720.7332
 21
362.8646
  0
LINE
  8
0_00
  6
CONTINUOUS
 62
2
 10
777.9586
 20
357.8646
 11
780.1303
 21
360.0362
  0
LINE
  8
0_00
  6
CONTINUOUS
 62
2
 10
780.1303
 20
221.2646
 11
720.1303
 21
221.2646
  0
LINE
  8
0_00
  6
CONTINUOUS
 62
2
 10
780.1303
 20
216.2646
 11
720.1303
 21
216.2646
  0
LINE
  8
0_00
  6
CONTINUOUS
 62
4
 10
720.1303
 20
235.2646
 11
780.1303
 21
235.2646
  0
LINE
  8
0_00
  6
CONTINUOUS
 62
4
 10
720.1303
 20
237.2646
 11
780.1303
 21
237.2646
  0
LINE
  8
0_00
  6
CONTINUOUS
 62
4
 10
720.1303
 20
222.2646
 11
780.1303
 21
222.2646
  0
LINE
  8
0_00
  6
CONTINUOUS
 62
4
 10
720.1303
 20
211.0646
 11
780.1303
 21
211.0646
  0
LINE
  8
0_00
  6
CONTINUOUS
 62
4
 10
720.1303
 20
205.7646
 11
780.1303
 21
205.7646
  0
LINE
  8
0_00
  6
CONTINUOUS
 62
4
 10
780.1303
 20
237.5646
 11
780.1303
 21
201.1646
  0
LINE
  8
0_00
  6
CONTINUOUS
 62
4
 10
720.1303
 20
237.5646
 11
720.1303
 21
201.1646
  0
LINE
  8
0_00
  6
CONTINUOUS
 62
4
 10
720.1303
 20
377.9646
 11
720.1303
 21
341.5646
  0
LINE
  8
0_00
  6
CONTINUOUS
 62
2
 10
775.1303
 20
216.2646
 11
780.1303
 21
221.2646
  0
LINE
  8
0_00
  6
CONTINUOUS
 62
2
 10
772.3018
 20
216.2646
 11
777.3018
 21
221.2646
  0
LINE
  8
0_00
  6
CONTINUOUS
 62
2
 10
769.4734
 20
216.2646
 11
774.4734
 21
221.2646
  0
LINE
  8
0_00
  6
CONTINUOUS
 62
2
 10
766.6451
 20
216.2646
 11
771.6450
 21
221.2646
  0
LINE
  8
0_00
  6
CONTINUOUS
 62
2
 10
763.8165
 20
216.2646
 11
768.8166
 21
221.2646
  0
LINE
  8
0_00
  6
CONTINUOUS
 62
2
 10
760.9881
 20
216.2646
 11
765.9882
 21
221.2646
  0
LINE
  8
0_00
  6
CONTINUOUS
 62
2
 10
758.1597
 20
216.2646
 11
763.1597
 21
221.2646
  0
LINE
  8
0_00
  6
CONTINUOUS
 62
2
 10
755.3313
 20
216.2646
 11
760.3313
 21
221.2646
  0
LINE
  8
0_00
  6
CONTINUOUS
 62
2
 10
752.5029
 20
216.2646
 11
757.5029
 21
221.2646
  0
LINE
  8
0_00
  6
CONTINUOUS
 62
2
 10
749.6744
 20
216.2646
 11
754.6744
 21
221.2646
  0
LINE
  8
0_00
  6
CONTINUOUS
 62
2
 10
746.8460
 20
216.2646
 11
751.8460
 21
221.2646
  0
LINE
  8
0_00
  6
CONTINUOUS
 62
2
 10
744.0176
 20
216.2646
 11
749.0175
 21
221.2646
  0
LINE
  8
0_00
  6
CONTINUOUS
 62
2
 10
741.1891
 20
216.2646
 11
746.1892
 21
221.2646
  0
LINE
  8
0_00
  6
CONTINUOUS
 62
2
 10
738.3608
 20
216.2646
 11
743.3607
 21
221.2646
  0
LINE
  8
0_00
  6
CONTINUOUS
 62
2
 10
735.5323
 20
216.2646
 11
740.5323
 21
221.2646
  0
LINE
  8
0_00
  6
CONTINUOUS
 62
2
 10
732.7038
 20
216.2646
 11
737.7039
 21
221.2646
  0
LINE
  8
0_00
  6
CONTINUOUS
 62
2
 10
729.8754
 20
216.2646
 11
734.8754
 21
221.2646
  0
LINE
  8
0_00
  6
CONTINUOUS
 62
2
 10
727.0470
 20
216.2646
 11
732.0470
 21
221.2646
  0
LINE
  8
0_00
  6
CONTINUOUS
 62
2
 10
724.2186
 20
216.2646
 11
729.2186
 21
221.2646
  0
LINE
  8
0_00
  6
CONTINUOUS
 62
2
 10
721.3901
 20
216.2646
 11
726.3901
 21
221.2646
  0
LINE
  8
0_00
  6
CONTINUOUS
 62
2
 10
720.1303
 20
217.8332
 11
723.5617
 21
221.2646
  0
LINE
  8
0_00
  6
CONTINUOUS
 62
2
 10
720.1303
 20
220.6616
 11
720.7332
 21
221.2646
  0
LINE
  8
0_00
  6
CONTINUOUS
 62
2
 10
777.9586
 20
216.2646
 11
780.1303
 21
218.4362
  0
LINE
  8
0_00
  6
CONTINUOUS
 62
6
 10
750.1302
 20
416.1884
 11
750.1302
 21
397.1149
  0
LINE
  8
15_0F
  6
DASHED
 62
2
 10
246.5341
 20
485.6556
 11
246.5341
 21
570.9008
  0
LINE
  8
15_0F
  6
DASHED
 62
2
 10
262.0341
 20
485.1143
 11
262.0341
 21
570.9008
  0
LINE
  8
0_00
  6
CONTINUOUS
 62
4
 10
232.7841
 20
496.4008
 11
232.7841
 21
574.9008
  0
LINE
  8
0_00
  6
CONTINUOUS
 62
4
 10
275.7841
 20
496.4008
 11
275.7841
 21
574.9008
  0
LINE
  8
0_00
  6
CONTINUOUS
 62
4
 10
230.7839
 20
580.9008
 11
277.7839
 21
580.9008
  0
LINE
  8
0_00
  6
CONTINUOUS
 62
4
 10
277.7839
 20
580.9008
 11
277.7839
 21
574.9008
  0
LINE
  8
0_00
  6
CONTINUOUS
 62
4
 10
230.7839
 20
580.9008
 11
230.7839
 21
574.9008
  0
LINE
  8
0_00
  6
CONTINUOUS
 62
4
 10
230.7839
 20
574.9008
 11
277.7839
 21
574.9008
  0
LINE
  8
0_00
  6
DASHED
 62
2
 10
275.7841
 20
575.9008
 11
275.7841
 21
574.9008
  0
LINE
  8
0_00
  6
DASHED
 62
2
 10
232.7841
 20
575.9008
 11
232.7841
 21
574.9008
  0
LINE
  8
0_00
  6
DASHED
 62
2
 10
230.7839
 20
575.9008
 11
277.7839
 21
575.9008
  0
LINE
  8
0_00
  6
CENTER1
 62
6
 10
272.2841
 20
583.6290
 11
272.2841
 21
541.8309
  0
LINE
  8
0_00
  6
CENTER1
 62
6
 10
258.7841
 20
583.6290
 11
258.7841
 21
541.8309
  0
LINE
  8
0_00
  6
CENTER1
 62
6
 10
249.7841
 20
583.6290
 11
249.7841
 21
541.8309
  0
LINE
  8
0_00
  6
CENTER1
 62
6
 10
236.2841
 20
583.6290
 11
236.2841
 21
541.8309
  0
LINE
  8
0_00
  6
DASHED
 62
2
 10
246.5341
 20
570.9008
 11
262.0341
 21
570.9008
  0
LINE
  8
0_00
  6
CONTINUOUS
 62
4
 10
741.8540
 20
689.5594
 11
741.8540
 21
701.3344
  0
LINE
  8
0_00
  6
CONTINUOUS
 62
4
 10
735.4040
 20
689.5594
 11
735.4040
 21
701.3344
  0
LINE
  8
0_00
  6
CONTINUOUS
 62
4
 10
735.1040
 20
702.2344
 11
742.1540
 21
702.2344
  0
LINE
  8
0_00
  6
CONTINUOUS
 62
4
 10
742.1540
 20
702.2344
 11
742.1540
 21
701.3344
  0
LINE
  8
0_00
  6
CONTINUOUS
 62
4
 10
735.1040
 20
702.2344
 11
735.1040
 21
701.3344
  0
LINE
  8
0_00
  6
CONTINUOUS
 62
4
 10
735.1040
 20
701.3344
 11
742.1540
 21
701.3344
  0
LINE
  8
0_00
  6
CONTINUOUS
 62
4
 10
742.1540
 20
689.4844
 11
742.1540
 21
689.1544
  0
LINE
  8
0_00
  6
CONTINUOUS
 62
4
 10
735.1040
 20
689.1544
 11
735.1040
 21
689.4844
  0
LINE
  8
0_00
  6
CONTINUOUS
 62
4
 10
742.0789
 20
689.5594
 11
735.0290
 21
689.5594
  0
LINE
  8
0_00
  6
CONTINUOUS
 62
4
 10
742.1540
 20
689.4844
 11
742.1540
 21
689.1544
  0
LINE
  8
0_00
  6
CONTINUOUS
 62
4
 10
735.1040
 20
689.1544
 11
735.1040
 21
689.4844
  0
LINE
  8
0_00
  6
CONTINUOUS
 62
4
 10
734.9539
 20
689.1544
 11
734.9539
 21
689.4844
  0
LINE
  8
0_00
  6
CONTINUOUS
 62
4
 10
734.9539
 20
689.1544
 11
734.9539
 21
689.4844
  0
LINE
  8
0_00
  6
CONTINUOUS
 62
4
 10
778.2290
 20
703.7044
 11
778.2290
 21
719.1544
  0
LINE
  8
0_00
  6
CONTINUOUS
 62
4
 10
774.0289
 20
703.7044
 11
774.0289
 21
719.1544
  0
LINE
  8
0_00
  6
CONTINUOUS
 62
4
 10
777.4790
 20
704.0793
 11
777.4790
 21
717.0544
  0
LINE
  8
0_00
  6
CONTINUOUS
 62
4
 10
774.7790
 20
704.0793
 11
774.7790
 21
717.0544
  0
LINE
  8
0_00
  6
CONTINUOUS
 62
4
 10
775.1539
 20
717.4294
 11
777.1040
 21
717.4294
  0
LINE
  8
0_00
  6
CONTINUOUS
 62
4
 10
774.0289
 20
703.7044
 11
773.7290
 21
702.2044
  0
LINE
  8
0_00
  6
CONTINUOUS
 62
4
 10
778.2290
 20
703.7044
 11
778.5290
 21
702.2044
  0
LINE
  8
0_00
  6
CONTINUOUS
 62
4
 10
777.1040
 20
703.7044
 11
775.1539
 21
703.7044
  0
LINE
  8
0_00
  6
CONTINUOUS
 62
4
 10
774.6291
 20
705.2044
 11
774.1790
 21
705.2044
  0
LINE
  8
0_00
  6
CONTINUOUS
 62
4
 10
774.1790
 20
716.6794
 11
774.6291
 21
716.6794
  0
LINE
  8
0_00
  6
CONTINUOUS
 62
4
 10
777.6290
 20
716.6794
 11
778.0790
 21
716.6794
  0
LINE
  8
0_00
  6
CONTINUOUS
 62
4
 10
777.6290
 20
705.2044
 11
778.0790
 21
705.2044
  0
LINE
  8
16_10
  6
CONTINUOUS
 62
4
 10
773.7290
 20
702.2044
 11
773.7290
 21
701.3044
  0
LINE
  8
16_10
  6
CONTINUOUS
 62
4
 10
778.5290
 20
701.3044
 11
773.7290
 21
701.3044
  0
LINE
  8
16_10
  6
CONTINUOUS
 62
4
 10
773.7290
 20
701.7869
 11
773.7290
 21
701.3044
  0
LINE
  8
16_10
  6
CONTINUOUS
 62
4
 10
778.5290
 20
702.2044
 11
778.5290
 21
701.3044
  0
LINE
  8
16_10
  6
CONTINUOUS
 62
4
 10
774.0289
 20
701.3044
 11
774.0289
 21
689.5594
  0
LINE
  8
16_10
  6
CONTINUOUS
 62
4
 10
778.2290
 20
701.3044
 11
778.2290
 21
689.5594
  0
LINE
  8
0_00
  6
CONTINUOUS
 62
4
 10
778.5290
 20
702.2044
 11
773.7290
 21
702.2044
  0
LINE
  8
0_00
  6
CONTINUOUS
 62
4
 10
773.6540
 20
689.4844
 11
773.6540
 21
689.1544
  0
LINE
  8
0_00
  6
CONTINUOUS
 62
4
 10
778.6040
 20
689.4844
 11
778.6040
 21
689.1544
  0
LINE
  8
0_00
  6
CONTINUOUS
 62
4
 10
778.5290
 20
689.5594
 11
773.7290
 21
689.5594
  0
LINE
  8
0_00
  6
CENTER1
 62
6
 10
931.1290
 20
736.6302
 11
931.1290
 21
676.4014
  0
LINE
  8
0_00
  6
CONTINUOUS
 62
4
 10
933.2291
 20
703.7044
 11
933.2291
 21
719.1544
  0
LINE
  8
0_00
  6
CONTINUOUS
 62
4
 10
929.0290
 20
703.7044
 11
929.0290
 21
719.1544
  0
LINE
  8
0_00
  6
CONTINUOUS
 62
4
 10
932.4790
 20
704.0793
 11
932.4790
 21
717.0544
  0
LINE
  8
0_00
  6
CONTINUOUS
 62
4
 10
929.7790
 20
704.0793
 11
929.7790
 21
717.0544
  0
LINE
  8
0_00
  6
CONTINUOUS
 62
4
 10
930.1540
 20
717.4294
 11
932.1040
 21
717.4294
  0
LINE
  8
0_00
  6
CONTINUOUS
 62
4
 10
929.0290
 20
703.7044
 11
928.7290
 21
702.2044
  0
LINE
  8
0_00
  6
CONTINUOUS
 62
4
 10
933.2291
 20
703.7044
 11
933.5290
 21
702.2044
  0
LINE
  8
0_00
  6
CONTINUOUS
 62
4
 10
932.1040
 20
703.7044
 11
930.1540
 21
703.7044
  0
LINE
  8
0_00
  6
CONTINUOUS
 62
4
 10
929.6290
 20
705.2044
 11
929.1790
 21
705.2044
  0
LINE
  8
0_00
  6
CONTINUOUS
 62
4
 10
929.1790
 20
716.6794
 11
929.6290
 21
716.6794
  0
LINE
  8
0_00
  6
CONTINUOUS
 62
4
 10
932.6290
 20
716.6794
 11
933.0790
 21
716.6794
  0
LINE
  8
0_00
  6
CONTINUOUS
 62
4
 10
932.6290
 20
705.2044
 11
933.0790
 21
705.2044
  0
LINE
  8
16_10
  6
CONTINUOUS
 62
4
 10
928.7290
 20
702.2044
 11
928.7290
 21
701.3044
  0
LINE
  8
16_10
  6
CONTINUOUS
 62
4
 10
933.5290
 20
701.3044
 11
928.7290
 21
701.3044
  0
LINE
  8
16_10
  6
CONTINUOUS
 62
4
 10
928.7290
 20
701.7869
 11
928.7290
 21
701.3044
  0
LINE
  8
16_10
  6
CONTINUOUS
 62
4
 10
933.5290
 20
702.2044
 11
933.5290
 21
701.3044
  0
LINE
  8
16_10
  6
CONTINUOUS
 62
4
 10
929.0290
 20
701.3044
 11
929.0290
 21
689.5594
  0
LINE
  8
16_10
  6
CONTINUOUS
 62
4
 10
933.2291
 20
701.3044
 11
933.2291
 21
689.5594
  0
LINE
  8
0_00
  6
CONTINUOUS
 62
4
 10
933.5290
 20
702.2044
 11
928.7290
 21
702.2044
  0
LINE
  8
0_00
  6
CONTINUOUS
 62
4
 10
928.6540
 20
689.4844
 11
928.6540
 21
689.1544
  0
LINE
  8
0_00
  6
CONTINUOUS
 62
4
 10
933.6040
 20
689.4844
 11
933.6040
 21
689.1544
  0
LINE
  8
0_00
  6
CONTINUOUS
 62
4
 10
933.5290
 20
689.5594
 11
928.7290
 21
689.5594
  0
LINE
  8
0_00
  6
CENTER1
 62
6
 10
1086.1290
 20
736.6302
 11
1086.1290
 21
676.4014
  0
LINE
  8
0_00
  6
CONTINUOUS
 62
4
 10
1088.2289
 20
703.7044
 11
1088.2289
 21
719.1544
  0
LINE
  8
0_00
  6
CONTINUOUS
 62
4
 10
1084.0291
 20
703.7044
 11
1084.0291
 21
719.1544
  0
LINE
  8
0_00
  6
CONTINUOUS
 62
4
 10
1087.4790
 20
704.0793
 11
1087.4790
 21
717.0544
  0
LINE
  8
0_00
  6
CONTINUOUS
 62
4
 10
1084.7791
 20
704.0793
 11
1084.7791
 21
717.0544
  0
LINE
  8
0_00
  6
CONTINUOUS
 62
4
 10
1085.1541
 20
717.4294
 11
1087.1040
 21
717.4294
  0
LINE
  8
0_00
  6
CONTINUOUS
 62
4
 10
1084.0291
 20
703.7044
 11
1083.7290
 21
702.2044
  0
LINE
  8
0_00
  6
CONTINUOUS
 62
4
 10
1088.2289
 20
703.7044
 11
1088.5291
 21
702.2044
  0
LINE
  8
0_00
  6
CONTINUOUS
 62
4
 10
1087.1040
 20
703.7044
 11
1085.1541
 21
703.7044
  0
LINE
  8
0_00
  6
CONTINUOUS
 62
4
 10
1084.6290
 20
705.2044
 11
1084.1789
 21
705.2044
  0
LINE
  8
0_00
  6
CONTINUOUS
 62
4
 10
1084.1789
 20
716.6794
 11
1084.6290
 21
716.6794
  0
LINE
  8
0_00
  6
CONTINUOUS
 62
4
 10
1087.6290
 20
716.6794
 11
1088.0790
 21
716.6794
  0
LINE
  8
0_00
  6
CONTINUOUS
 62
4
 10
1087.6290
 20
705.2044
 11
1088.0790
 21
705.2044
  0
LINE
  8
16_10
  6
CONTINUOUS
 62
4
 10
1083.7290
 20
702.2044
 11
1083.7290
 21
701.3044
  0
LINE
  8
16_10
  6
CONTINUOUS
 62
4
 10
1088.5291
 20
701.3044
 11
1083.7290
 21
701.3044
  0
LINE
  8
16_10
  6
CONTINUOUS
 62
4
 10
1083.7290
 20
701.7869
 11
1083.7290
 21
701.3044
  0
LINE
  8
16_10
  6
CONTINUOUS
 62
4
 10
1088.5291
 20
702.2044
 11
1088.5291
 21
701.3044
  0
LINE
  8
16_10
  6
CONTINUOUS
 62
4
 10
1084.0291
 20
701.3044
 11
1084.0291
 21
689.5594
  0
LINE
  8
16_10
  6
CONTINUOUS
 62
4
 10
1088.2289
 20
701.3044
 11
1088.2289
 21
689.5594
  0
LINE
  8
0_00
  6
CONTINUOUS
 62
4
 10
1088.5291
 20
702.2044
 11
1083.7290
 21
702.2044
  0
LINE
  8
0_00
  6
CONTINUOUS
 62
4
 10
1083.6541
 20
689.4844
 11
1083.6541
 21
689.1544
  0
LINE
  8
0_00
  6
CONTINUOUS
 62
4
 10
1088.6040
 20
689.4844
 11
1088.6040
 21
689.1544
  0
LINE
  8
0_00
  6
CONTINUOUS
 62
4
 10
1088.5291
 20
689.5594
 11
1083.7290
 21
689.5594
  0
LINE
  8
0_00
  6
DASHED
 62
2
 10
428.3505
 20
372.8074
 11
578.3504
 21
372.8074
  0
LINE
  8
0_00
  6
CENTER1
 62
6
 10
487.8505
 20
381.5367
 11
487.8505
 21
356.7315
  0
LINE
  8
0_00
  6
CENTER1
 62
6
 10
508.8505
 20
381.5367
 11
508.8505
 21
356.7315
  0
LINE
  8
0_00
  6
DASHED
 62
2
 10
428.3505
 20
374.5075
 11
578.3504
 21
374.5075
  0
LINE
  8
0_00
  6
CONTINUOUS
 62
4
 10
428.3505
 20
371.3074
 11
578.3504
 21
371.3074
  0
LINE
  8
0_00
  6
CONTINUOUS
 62
4
 10
507.3505
 20
270.8075
 11
507.3505
 21
357.3075
  0
LINE
  8
0_00
  6
CONTINUOUS
 62
4
 10
489.3505
 20
270.8075
 11
489.3505
 21
357.3075
  0
LINE
  8
0_00
  6
CONTINUOUS
 62
4
 10
491.8504
 20
359.8075
 11
504.8505
 21
359.8075
  0
LINE
  8
0_00
  6
CONTINUOUS
 62
4
 10
484.3504
 20
268.3075
 11
482.3505
 21
258.3075
  0
LINE
  8
0_00
  6
CONTINUOUS
 62
4
 10
512.3504
 20
268.3075
 11
514.3504
 21
258.3075
  0
LINE
  8
0_00
  6
CONTINUOUS
 62
4
 10
504.8505
 20
268.3075
 11
491.8504
 21
268.3075
  0
LINE
  8
0_00
  6
CONTINUOUS
 62
4
 10
488.3504
 20
278.3075
 11
485.3505
 21
278.3075
  0
LINE
  8
0_00
  6
CONTINUOUS
 62
4
 10
485.3505
 20
354.8075
 11
488.3504
 21
354.8075
  0
LINE
  8
0_00
  6
CONTINUOUS
 62
4
 10
508.3504
 20
354.8075
 11
511.3505
 21
354.8075
  0
LINE
  8
0_00
  6
CONTINUOUS
 62
4
 10
508.3504
 20
278.3075
 11
511.3505
 21
278.3075
  0
LINE
  8
0_00
  6
CENTER1
 62
6
 10
498.3505
 20
426.4366
 11
498.3505
 21
236.8681
  0
LINE
  8
0_00
  6
CONTINUOUS
 62
6
 10
484.3504
 20
306.4736
 11
463.5432
 21
327.2809
  0
LINE
  8
0_00
  6
CONTINUOUS
 62
6
 10
484.3504
 20
306.4736
 11
480.2656
 21
312.7636
  0
LINE
  8
0_00
  6
CONTINUOUS
 62
6
 10
484.3504
 20
306.4736
 11
478.0604
 21
310.5583
  0
LINE
  8
0_00
  6
CONTINUOUS
 62
6
 10
463.5432
 20
327.2809
 11
418.5432
 21
327.2809
  0
LINE
  8
0_00
  6
CONTINUOUS
 62
4
 10
428.3505
 20
418.3075
 11
578.3504
 21
418.3075
  0
LINE
  8
0_00
  6
DASHED
 62
2
 10
512.3504
 20
371.3074
 11
512.3504
 21
372.8074
  0
LINE
  8
0_00
  6
CONTINUOUS
 62
4
 10
512.3504
 20
268.3075
 11
512.3504
 21
371.3074
  0
LINE
  8
0_00
  6
DASHED
 62
2
 10
484.3504
 20
371.3074
 11
484.3504
 21
372.8074
  0
LINE
  8
0_00
  6
CONTINUOUS
 62
4
 10
484.3504
 20
268.3075
 11
484.3504
 21
371.3074
  0
LINE
  8
0_00
  6
CONTINUOUS
 62
4
 10
484.3504
 20
252.3075
 11
484.3504
 21
198.9897
  0
LINE
  8
0_00
  6
DASHED
 62
2
 10
491.3505
 20
248.3075
 11
491.3505
 21
198.9897
  0
LINE
  8
0_00
  6
DASHED
 62
2
 10
505.3504
 20
248.3075
 11
505.3504
 21
198.9897
  0
LINE
  8
0_00
  6
CONTINUOUS
 62
4
 10
512.3504
 20
252.3075
 11
512.3504
 21
198.9897
  0
LINE
  8
0_00
  6
DASHED
 62
2
 10
505.3504
 20
248.3075
 11
491.3505
 21
248.3075
  0
LINE
  8
0_00
  6
CENTER1
 62
6
 10
508.8505
 20
263.0003
 11
508.8505
 21
217.5254
  0
LINE
  8
0_00
  6
CENTER1
 62
6
 10
487.8505
 20
263.0003
 11
487.8505
 21
217.5254
  0
LINE
  8
0_00
  6
DASHED
 62
2
 10
274.1841
 20
590.9008
 11
261.3841
 21
590.9008
  0
LINE
  8
0_00
  6
DASHED
 62
2
 10
270.4341
 20
587.5009
 11
270.4341
 21
570.9008
  0
LINE
  8
0_00
  6
DASHED
 62
2
 10
265.1341
 20
587.5009
 11
265.1341
 21
570.9008
  0
LINE
  8
0_00
  6
DASHED
 62
2
 10
274.1841
 20
590.9008
 11
270.7841
 21
587.5009
  0
LINE
  8
0_00
  6
DASHED
 62
2
 10
261.3841
 20
590.9008
 11
264.7841
 21
587.5009
  0
LINE
  8
0_00
  6
DASHED
 62
2
 10
270.7841
 20
587.5009
 11
264.7841
 21
587.5009
  0
LINE
  8
0_00
  6
DASHED
 62
2
 10
270.7841
 20
587.5009
 11
270.7841
 21
570.9008
  0
LINE
  8
0_00
  6
DASHED
 62
2
 10
264.7841
 20
587.5009
 11
264.7841
 21
570.9008
  0
LINE
  8
0_00
  6
DASHED
 62
2
 10
270.7841
 20
570.9008
 11
264.7841
 21
570.9008
  0
LINE
  8
0_00
  6
DASHED
 62
2
 10
247.1841
 20
590.9008
 11
234.3841
 21
590.9008
  0
LINE
  8
0_00
  6
DASHED
 62
2
 10
243.4341
 20
587.5009
 11
243.4341
 21
570.9008
  0
LINE
  8
0_00
  6
DASHED
 62
2
 10
238.1341
 20
587.5009
 11
238.1341
 21
570.9008
  0
LINE
  8
0_00
  6
DASHED
 62
2
 10
247.1841
 20
590.9008
 11
243.7841
 21
587.5009
  0
LINE
  8
0_00
  6
DASHED
 62
2
 10
234.3841
 20
590.9008
 11
237.7841
 21
587.5009
  0
LINE
  8
0_00
  6
DASHED
 62
2
 10
243.7841
 20
587.5009
 11
237.7841
 21
587.5009
  0
LINE
  8
0_00
  6
DASHED
 62
2
 10
243.7841
 20
587.5009
 11
243.7841
 21
570.9008
  0
LINE
  8
0_00
  6
DASHED
 62
2
 10
237.7841
 20
587.5009
 11
237.7841
 21
570.9008
  0
LINE
  8
0_00
  6
DASHED
 62
2
 10
243.7841
 20
570.9008
 11
237.7841
 21
570.9008
  0
LINE
  8
0_00
  6
DASHED
 62
2
 10
204.0341
 20
697.1008
 11
204.0341
 21
685.1008
  0
LINE
  8
0_00
  6
DASHED
 62
2
 10
200.5341
 20
697.1008
 11
200.5341
 21
685.1008
  0
LINE
  8
0_00
  6
DASHED
 62
2
 10
204.2841
 20
697.1008
 11
204.2841
 21
685.1008
  0
LINE
  8
0_00
  6
DASHED
 62
2
 10
200.2841
 20
697.1008
 11
200.2841
 21
685.1008
  0
LINE
  8
0_00
  6
DASHED
 62
2
 10
204.2841
 20
685.1008
 11
200.2841
 21
685.1008
  0
LINE
  8
12_0C
  6
CONTINUOUS
 62
2
 10
198.2841
 20
697.1008
 11
206.2841
 21
697.1008
  0
LINE
  8
12_0C
  6
CONTINUOUS
 62
2
 10
198.2841
 20
697.5009
 11
206.2841
 21
697.5009
  0
LINE
  8
12_0C
  6
CONTINUOUS
 62
2
 10
206.2841
 20
697.1008
 11
206.2841
 21
697.5009
  0
LINE
  8
12_0C
  6
CONTINUOUS
 62
2
 10
198.2841
 20
697.1008
 11
198.2841
 21
697.5009
  0
LINE
  8
0_00
  6
DASHED
 62
2
 10
168.0341
 20
697.1008
 11
168.0341
 21
685.1008
  0
LINE
  8
0_00
  6
DASHED
 62
2
 10
164.5341
 20
697.1008
 11
164.5341
 21
685.1008
  0
LINE
  8
0_00
  6
DASHED
 62
2
 10
168.2841
 20
697.1008
 11
168.2841
 21
685.1008
  0
LINE
  8
0_00
  6
DASHED
 62
2
 10
164.2841
 20
697.1008
 11
164.2841
 21
685.1008
  0
LINE
  8
0_00
  6
DASHED
 62
2
 10
168.2841
 20
685.1008
 11
164.2841
 21
685.1008
  0
LINE
  8
12_0C
  6
CONTINUOUS
 62
2
 10
162.2841
 20
697.1008
 11
170.2841
 21
697.1008
  0
LINE
  8
12_0C
  6
CONTINUOUS
 62
2
 10
162.2841
 20
697.5009
 11
170.2841
 21
697.5009
  0
LINE
  8
12_0C
  6
CONTINUOUS
 62
2
 10
170.2841
 20
697.1008
 11
170.2841
 21
697.5009
  0
LINE
  8
12_0C
  6
CONTINUOUS
 62
2
 10
162.2841
 20
697.1008
 11
162.2841
 21
697.5009
  0
LINE
  8
0_00
  6
CONTINUOUS
 62
4
 10
184.2841
 20
697.2009
 11
183.9841
 21
696.9008
  0
LINE
  8
0_00
  6
CONTINUOUS
 62
4
 10
196.5841
 20
696.9008
 11
184.5841
 21
696.9008
  0
LINE
  8
0_00
  6
CONTINUOUS
 62
4
 10
184.2841
 20
697.2009
 11
184.5841
 21
696.9008
  0
LINE
  8
14_0E
  6
CONTINUOUS
 62
4
 10
197.3603
 20
698.5104
 11
188.2841
 21
698.9008
  0
LINE
  8
0_00
  6
CONTINUOUS
 62
4
 10
184.2841
 20
697.2009
 11
184.5841
 21
696.9008
  0
LINE
  8
0_00
  6
CONTINUOUS
 62
4
 10
171.9841
 20
696.9008
 11
183.9841
 21
696.9008
  0
LINE
  8
0_00
  6
CONTINUOUS
 62
4
 10
184.2841
 20
697.2009
 11
183.9841
 21
696.9008
  0
LINE
  8
14_0E
  6
CONTINUOUS
 62
4
 10
171.2079
 20
698.5104
 11
180.2841
 21
698.9008
  0
LINE
  8
0_00
  6
CONTINUOUS
 62
4
 10
188.2841
 20
698.9008
 11
180.2841
 21
698.9008
  0
LINE
  8
0_00
  6
CONTINUOUS
 62
4
 10
196.5841
 20
696.9008
 11
196.9841
 21
695.4008
  0
LINE
  8
0_00
  6
CONTINUOUS
 62
2
 10
199.7841
 20
697.1008
 11
204.7841
 21
697.1008
  0
LINE
  8
0_00
  6
CONTINUOUS
 62
4
 10
196.9841
 20
695.4008
 11
211.6841
 21
695.4008
  0
LINE
  8
0_00
  6
CONTINUOUS
 62
4
 10
202.2841
 20
695.7009
 11
201.9841
 21
695.4008
  0
LINE
  8
0_00
  6
CONTINUOUS
 62
4
 10
202.2841
 20
695.7009
 11
202.5841
 21
695.4008
  0
LINE
  8
0_00
  6
CONTINUOUS
 62
4
 10
209.6118
 20
696.9008
 11
205.0841
 21
696.9008
  0
LINE
  8
0_00
  6
CONTINUOUS
 62
4
 10
204.7841
 20
697.1008
 11
205.0841
 21
696.9008
  0
LINE
  8
0_00
  6
CONTINUOUS
 62
4
 10
199.4841
 20
696.9008
 11
198.2964
 21
696.9008
  0
LINE
  8
0_00
  6
CONTINUOUS
 62
4
 10
199.7841
 20
697.1008
 11
199.4841
 21
696.9008
  0
LINE
  8
0_00
  6
CONTINUOUS
 62
4
 10
197.6384
 20
698.2835
 11
197.9084
 21
697.2038
  0
LINE
  8
0_00
  6
CONTINUOUS
 62
4
 10
211.6841
 20
695.4008
 11
212.6841
 21
696.4009
  0
LINE
  8
0_00
  6
CONTINUOUS
 62
4
 10
212.6841
 20
696.4009
 11
212.6841
 21
697.7008
  0
LINE
  8
0_00
  6
CONTINUOUS
 62
4
 10
212.6841
 20
696.9008
 11
212.6841
 21
696.4009
  0
LINE
  8
0_00
  6
CONTINUOUS
 62
4
 10
211.7036
 20
699.7788
 11
212.5602
 21
699.8537
  0
LINE
  8
0_00
  6
CONTINUOUS
 62
4
 10
210.5969
 20
700.7861
 11
211.4350
 21
700.8595
  0
LINE
  8
0_00
  6
CONTINUOUS
 62
4
 10
209.6841
 20
699.7900
 11
209.6841
 21
699.3571
  0
LINE
  8
0_00
  6
CONTINUOUS
 62
4
 10
212.8280
 20
700.2129
 11
211.7425
 21
705.5008
  0
LINE
  8
0_00
  6
CONTINUOUS
 62
4
 10
210.9963
 20
704.6600
 11
211.7028
 21
701.2186
  0
LINE
  8
0_00
  6
CONTINUOUS
 62
4
 10
211.6821
 20
705.5008
 11
211.7425
 21
705.5008
  0
LINE
  8
0_00
  6
CONTINUOUS
 62
4
 10
171.9841
 20
696.9008
 11
171.5841
 21
695.4008
  0
LINE
  8
0_00
  6
CONTINUOUS
 62
2
 10
168.7841
 20
697.1008
 11
163.7841
 21
697.1008
  0
LINE
  8
0_00
  6
CONTINUOUS
 62
4
 10
171.5841
 20
695.4008
 11
156.8841
 21
695.4008
  0
LINE
  8
0_00
  6
CONTINUOUS
 62
4
 10
166.2841
 20
695.7009
 11
166.5841
 21
695.4008
  0
LINE
  8
0_00
  6
CONTINUOUS
 62
4
 10
166.2841
 20
695.7009
 11
165.9841
 21
695.4008
  0
LINE
  8
0_00
  6
CONTINUOUS
 62
4
 10
158.9563
 20
696.9008
 11
163.4841
 21
696.9008
  0
LINE
  8
0_00
  6
CONTINUOUS
 62
4
 10
163.7841
 20
697.1008
 11
163.4841
 21
696.9008
  0
LINE
  8
0_00
  6
CONTINUOUS
 62
4
 10
169.0841
 20
696.9008
 11
170.2718
 21
696.9008
  0
LINE
  8
0_00
  6
CONTINUOUS
 62
4
 10
168.7841
 20
697.1008
 11
169.0841
 21
696.9008
  0
LINE
  8
0_00
  6
CONTINUOUS
 62
4
 10
170.9297
 20
698.2835
 11
170.6599
 21
697.2038
  0
LINE
  8
0_00
  6
CONTINUOUS
 62
4
 10
156.8841
 20
695.4008
 11
155.8841
 21
696.4009
  0
LINE
  8
0_00
  6
CONTINUOUS
 62
4
 10
155.8841
 20
696.4009
 11
155.8841
 21
697.7008
  0
LINE
  8
0_00
  6
CONTINUOUS
 62
4
 10
155.8841
 20
696.9008
 11
155.8841
 21
696.4009
  0
LINE
  8
0_00
  6
CONTINUOUS
 62
4
 10
156.8646
 20
699.7788
 11
156.0079
 21
699.8537
  0
LINE
  8
0_00
  6
CONTINUOUS
 62
4
 10
157.9713
 20
700.7861
 11
157.1331
 21
700.8595
  0
LINE
  8
0_00
  6
CONTINUOUS
 62
4
 10
158.8841
 20
699.7900
 11
158.8841
 21
699.3571
  0
LINE
  8
0_00
  6
CONTINUOUS
 62
4
 10
155.7402
 20
700.2129
 11
156.8257
 21
705.5008
  0
LINE
  8
0_00
  6
CONTINUOUS
 62
4
 10
157.5719
 20
704.6600
 11
156.8654
 21
701.2186
  0
LINE
  8
0_00
  6
CONTINUOUS
 62
4
 10
156.8861
 20
705.5008
 11
156.8257
 21
705.5008
  0
LINE
  8
0_00
  6
CONTINUOUS
 62
4
 10
160.7841
 20
696.9008
 11
162.2841
 21
696.9008
  0
LINE
  8
0_00
  6
CONTINUOUS
 62
4
 10
214.2841
 20
733.4228
 11
214.2840
 21
694.6008
  0
LINE
  8
0_00
  6
CONTINUOUS
 62
4
 10
212.8841
 20
733.3981
 11
212.8840
 21
707.0246
  0
LINE
  8
0_00
  6
CONTINUOUS
 62
4
 10
155.6841
 20
733.3981
 11
155.6841
 21
707.0033
  0
LINE
  8
0_00
  6
CONTINUOUS
 62
4
 10
154.2841
 20
733.4228
 11
154.2842
 21
694.5957
  0
LINE
  8
0_00
  6
CONTINUOUS
 62
4
 10
155.6836
 20
697.7747
 11
155.6836
 21
694.6008
  0
LINE
  8
0_00
  6
CONTINUOUS
 62
4
 10
156.7641
 20
699.7301
 11
156.0487
 21
699.7927
  0
LINE
  8
0_00
  6
CONTINUOUS
 62
4
 10
155.6915
 20
700.2702
 11
156.1582
 21
702.5851
  0
LINE
  8
0_00
  6
CONTINUOUS
 62
4
 10
155.9622
 20
702.8247
 11
155.6836
 21
702.8247
  0
LINE
  8
0_00
  6
CONTINUOUS
 62
4
 10
155.6836
 20
702.8247
 11
155.6836
 21
705.2246
  0
LINE
  8
0_00
  6
CONTINUOUS
 62
4
 10
158.3836
 20
705.6246
 11
156.0836
 21
705.6246
  0
LINE
  8
0_00
  6
CONTINUOUS
 62
4
 10
158.6836
 20
706.6246
 11
156.0836
 21
706.6246
  0
LINE
  8
0_00
  6
CONTINUOUS
 62
4
 10
158.3836
 20
705.6246
 11
158.3836
 21
705.4247
  0
LINE
  8
0_00
  6
CONTINUOUS
 62
4
 10
159.1836
 20
706.1246
 11
159.1836
 21
705.0247
  0
LINE
  8
0_00
  6
CONTINUOUS
 62
4
 10
212.8840
 20
694.6008
 11
212.8840
 21
697.7747
  0
LINE
  8
0_00
  6
CONTINUOUS
 62
4
 10
211.8035
 20
699.7301
 11
212.5189
 21
699.7927
  0
LINE
  8
0_00
  6
CONTINUOUS
 62
4
 10
212.8761
 20
700.2702
 11
212.4094
 21
702.5851
  0
LINE
  8
0_00
  6
CONTINUOUS
 62
4
 10
209.3840
 20
706.1246
 11
209.3840
 21
705.0247
  0
LINE
  8
0_00
  6
CONTINUOUS
 62
4
 10
210.1840
 20
705.6246
 11
210.1840
 21
705.4247
  0
LINE
  8
0_00
  6
CONTINUOUS
 62
4
 10
210.1840
 20
705.6246
 11
212.4841
 21
705.6246
  0
LINE
  8
0_00
  6
CONTINUOUS
 62
4
 10
209.8840
 20
706.6246
 11
212.4841
 21
706.6246
  0
LINE
  8
0_00
  6
CONTINUOUS
 62
4
 10
212.8840
 20
702.8247
 11
212.8840
 21
705.2246
  0
LINE
  8
0_00
  6
CONTINUOUS
 62
4
 10
212.6054
 20
702.8247
 11
212.8840
 21
702.8247
  0
LINE
  8
15_0F
  6
CONTINUOUS
 62
6
 10
720.1303
 20
390.7646
 11
720.1303
 21
449.5023
  0
LINE
  8
15_0F
  6
CONTINUOUS
 62
6
 10
780.1303
 20
378.7821
 11
780.1303
 21
449.5023
  0
LINE
  8
15_0F
  6
CONTINUOUS
 62
6
 10
720.1303
 20
443.5023
 11
780.1303
 21
443.5023
  0
LINE
  8
15_0F
  6
CONTINUOUS
 62
6
 10
720.1303
 20
443.5023
 11
727.4664
 21
441.9430
  0
LINE
  8
15_0F
  6
CONTINUOUS
 62
6
 10
720.1303
 20
443.5023
 11
727.4664
 21
445.0616
  0
LINE
  8
15_0F
  6
CONTINUOUS
 62
6
 10
780.1303
 20
443.5023
 11
772.7942
 21
445.0616
  0
LINE
  8
15_0F
  6
CONTINUOUS
 62
6
 10
780.1303
 20
443.5023
 11
772.7942
 21
441.9430
  0
LINE
  8
15_0F
  6
CONTINUOUS
 62
6
 10
703.3350
 20
317.5646
 11
615.6263
 21
317.5646
  0
LINE
  8
15_0F
  6
CONTINUOUS
 62
6
 10
744.0458
 20
261.5646
 11
615.6263
 21
261.5646
  0
LINE
  8
15_0F
  6
CONTINUOUS
 62
6
 10
621.6263
 20
317.5646
 11
621.6263
 21
261.5646
  0
LINE
  8
15_0F
  6
CONTINUOUS
 62
6
 10
621.6263
 20
317.5646
 11
620.0669
 21
310.2285
  0
LINE
  8
15_0F
  6
CONTINUOUS
 62
6
 10
621.6263
 20
317.5646
 11
623.1856
 21
310.2285
  0
LINE
  8
15_0F
  6
CONTINUOUS
 62
6
 10
621.6263
 20
261.5646
 11
623.1856
 21
268.9007
  0
LINE
  8
15_0F
  6
CONTINUOUS
 62
6
 10
621.6263
 20
261.5646
 11
620.0669
 21
268.9007
  0
LINE
  8
15_0F
  6
CONTINUOUS
 62
6
 10
1084.1789
 20
313.0646
 11
1143.6387
 21
313.0646
  0
LINE
  8
15_0F
  6
CONTINUOUS
 62
6
 10
1082.3009
 20
266.0646
 11
1143.6387
 21
266.0646
  0
LINE
  8
15_0F
  6
CONTINUOUS
 62
6
 10
1137.6387
 20
313.0646
 11
1137.6387
 21
266.0646
  0
LINE
  8
15_0F
  6
CONTINUOUS
 62
6
 10
1137.6387
 20
313.0646
 11
1136.0793
 21
305.7285
  0
LINE
  8
15_0F
  6
CONTINUOUS
 62
6
 10
1137.6387
 20
313.0646
 11
1139.1980
 21
305.7285
  0
LINE
  8
15_0F
  6
CONTINUOUS
 62
6
 10
1137.6387
 20
266.0646
 11
1139.1980
 21
273.4007
  0
LINE
  8
15_0F
  6
CONTINUOUS
 62
6
 10
1137.6387
 20
266.0646
 11
1136.0793
 21
273.4007
  0
LINE
  8
15_0F
  6
CONTINUOUS
 62
6
 10
1055.6104
 20
340.2839
 11
1055.6104
 21
469.5023
  0
LINE
  8
15_0F
  6
CONTINUOUS
 62
6
 10
750.1302
 20
463.5023
 11
1055.6104
 21
463.5023
  0
LINE
  8
15_0F
  6
CONTINUOUS
 62
6
 10
750.1302
 20
463.5023
 11
757.4664
 21
461.9430
  0
LINE
  8
15_0F
  6
CONTINUOUS
 62
6
 10
750.1302
 20
463.5023
 11
757.4664
 21
465.0617
  0
LINE
  8
15_0F
  6
CONTINUOUS
 62
6
 10
1055.6104
 20
463.5023
 11
1048.2743
 21
465.0617
  0
LINE
  8
15_0F
  6
CONTINUOUS
 62
6
 10
1055.6104
 20
463.5023
 11
1048.2743
 21
461.9430
  0
LINE
  8
15_0F
  6
CONTINUOUS
 62
6
 10
750.1302
 20
456.2982
 11
750.1302
 21
469.5023
  0
LINE
  8
15_0F
  6
CONTINUOUS
 62
4
 10
1085.0603
 20
528.8060
 11
1158.8604
 21
528.8060
  0
LINE
  8
0_00
  6
CONTINUOUS
 62
6
 10
226.2841
 20
418.1829
 11
226.2841
 21
354.0246
  0
LINE
  8
0_00
  6
CONTINUOUS
 62
6
 10
282.2841
 20
418.1829
 11
282.2841
 21
354.0246
  0
LINE
  8
0_00
  6
CONTINUOUS
 62
6
 10
226.2841
 20
357.0246
 11
282.2841
 21
357.0246
  0
LINE
  8
0_00
  6
CONTINUOUS
 62
6
 10
226.2841
 20
357.0246
 11
233.6202
 21
355.4652
  0
LINE
  8
0_00
  6
CONTINUOUS
 62
6
 10
226.2841
 20
357.0246
 11
233.6202
 21
358.5839
  0
LINE
  8
0_00
  6
CONTINUOUS
 62
6
 10
282.2841
 20
357.0246
 11
274.9480
 21
358.5839
  0
LINE
  8
0_00
  6
CONTINUOUS
 62
6
 10
282.2841
 20
357.0246
 11
274.9480
 21
355.4652
  0
LINE
  8
0_00
  6
CONTINUOUS
 62
6
 10
214.2841
 20
748.4701
 11
214.2841
 21
772.0779
  0
LINE
  8
0_00
  6
CONTINUOUS
 62
6
 10
154.2841
 20
748.4701
 11
154.2841
 21
772.0779
  0
LINE
  8
0_00
  6
CONTINUOUS
 62
6
 10
154.2841
 20
769.0779
 11
214.2841
 21
769.0779
  0
LINE
  8
0_00
  6
CONTINUOUS
 62
6
 10
154.2841
 20
769.0779
 11
161.6202
 21
767.5185
  0
LINE
  8
0_00
  6
CONTINUOUS
 62
6
 10
154.2841
 20
769.0779
 11
161.6202
 21
770.6373
  0
LINE
  8
0_00
  6
CONTINUOUS
 62
6
 10
214.2841
 20
769.0779
 11
206.9480
 21
770.6373
  0
LINE
  8
0_00
  6
CONTINUOUS
 62
6
 10
214.2841
 20
769.0779
 11
206.9480
 21
767.5185
  0
LINE
  8
0_00
  6
CONTINUOUS
 62
3
 10
547.4110
 20
97.2001
 11
547.4110
 21
37.2000
  0
LINE
  8
0_00
  6
CONTINUOUS
 62
7
 10
54.6905
 20
112.2001
 11
1218.5110
 21
112.2001
  0
LINE
  8
0_00
  6
CONTINUOUS
 62
3
 10
1218.5110
 20
851.7001
 11
1218.5110
 21
865.2001
  0
LINE
  8
0_00
  6
CONTINUOUS
 62
7
 10
1218.5110
 20
37.2000
 11
1218.5110
 21
851.7001
  0
LINE
  8
0_00
  6
CONTINUOUS
 62
3
 10
54.6905
 20
851.7001
 11
54.6905
 21
865.2001
  0
LINE
  8
0_00
  6
CONTINUOUS
 62
7
 10
54.6905
 20
37.2000
 11
54.6905
 21
851.7001
  0
LINE
  8
0_00
  6
CONTINUOUS
 62
7
 10
54.6905
 20
851.7001
 11
1218.5110
 21
851.7001
  0
LINE
  8
0_00
  6
CONTINUOUS
 62
7
 10
54.6905
 20
37.2000
 11
1218.5110
 21
37.2000
  0
LINE
  8
0_00
  6
CONTINUOUS
 62
3
 10
39.6905
 20
22.2000
 11
39.6905
 21
865.2001
  0
LINE
  8
0_00
  6
CONTINUOUS
 62
3
 10
1233.5110
 20
22.2000
 11
1233.5110
 21
865.2001
  0
LINE
  8
0_00
  6
CONTINUOUS
 62
3
 10
39.6905
 20
865.2001
 11
1233.5110
 21
865.2001
  0
LINE
  8
0_00
  6
CONTINUOUS
 62
3
 10
1070.6111
 20
37.2000
 11
1070.6111
 21
112.2001
  0
LINE
  8
0_00
  6
CONTINUOUS
 62
3
 10
54.6905
 20
97.2001
 11
812.7610
 21
97.2001
  0
LINE
  8
0_00
  6
CONTINUOUS
 62
7
 10
812.7610
 20
97.2001
 11
1218.5110
 21
97.2001
  0
LINE
  8
0_00
  6
CONTINUOUS
 62
3
 10
1070.6111
 20
67.2000
 11
1218.5110
 21
67.2000
  0
LINE
  8
0_00
  6
CONTINUOUS
 62
3
 10
1100.6111
 20
112.2001
 11
1100.6111
 21
97.2001
  0
LINE
  8
0_00
  6
CONTINUOUS
 62
3
 10
812.7610
 20
37.2000
 11
812.7610
 21
97.2001
  0
LINE
  8
0_00
  6
CONTINUOUS
 62
7
 10
812.7610
 20
97.2001
 11
812.7610
 21
112.2001
  0
LINE
  8
0_00
  6
CONTINUOUS
 62
3
 10
836.7610
 20
97.2001
 11
836.7610
 21
112.2001
  0
LINE
  8
0_00
  6
CONTINUOUS
 62
3
 10
912.5110
 20
37.2000
 11
912.5110
 21
112.2001
  0
LINE
  8
0_00
  6
CONTINUOUS
 62
3
 10
1004.6111
 20
97.2001
 11
1004.6111
 21
112.2001
  0
LINE
  8
0_00
  6
CONTINUOUS
 62
3
 10
1032.2110
 20
37.2000
 11
1032.2110
 21
97.2001
  0
LINE
  8
0_00
  6
CONTINUOUS
 62
3
 10
995.9110
 20
37.2000
 11
995.9110
 21
97.2001
  0
LINE
  8
0_00
  6
CONTINUOUS
 62
3
 10
959.6110
 20
37.2000
 11
959.6110
 21
97.2001
  0
LINE
  8
0_00
  6
CONTINUOUS
 62
3
 10
468.6610
 20
37.2000
 11
468.6610
 21
112.2001
  0
LINE
  8
0_00
  6
CONTINUOUS
 62
3
 10
626.1610
 20
37.2000
 11
626.1610
 21
97.2001
  0
LINE
  8
0_00
  6
CONTINUOUS
 62
3
 10
54.6905
 20
82.2001
 11
468.6610
 21
82.2001
  0
LINE
  8
0_00
  6
CONTINUOUS
 62
3
 10
54.6905
 20
67.2000
 11
912.5110
 21
67.2000
  0
LINE
  8
0_00
  6
CONTINUOUS
 62
3
 10
174.6905
 20
52.2000
 11
468.6610
 21
52.2000
  0
LINE
  8
0_00
  6
CONTINUOUS
 62
7
 10
54.6905
 20
52.2000
 11
174.6905
 21
52.2000
  0
LINE
  8
0_00
  6
CONTINUOUS
 62
3
 10
818.0110
 20
851.7001
 11
818.0110
 21
865.2001
  0
LINE
  8
0_00
  6
CONTINUOUS
 62
3
 10
788.0110
 20
851.7001
 11
788.0110
 21
865.2001
  0
LINE
  8
0_00
  6
CONTINUOUS
 62
3
 10
204.6905
 20
851.7001
 11
204.6905
 21
865.2001
  0
LINE
  8
0_00
  6
CONTINUOUS
 62
3
 10
854.0110
 20
851.7001
 11
854.0110
 21
865.2001
  0
LINE
  8
0_00
  6
CONTINUOUS
 62
3
 10
915.5110
 20
851.7001
 11
915.5110
 21
865.2001
  0
LINE
  8
0_00
  6
CONTINUOUS
 62
3
 10
1146.5110
 20
851.7001
 11
1146.5110
 21
865.2001
  0
LINE
  8
0_00
  6
CONTINUOUS
 62
3
 10
114.6905
 20
112.2001
 11
114.6905
 21
37.2000
  0
LINE
  8
0_00
  6
CONTINUOUS
 62
7
 10
174.6905
 20
112.2001
 11
174.6905
 21
37.2000
  0
LINE
  8
0_00
  6
CONTINUOUS
 62
3
 10
869.7610
 20
67.2000
 11
869.7610
 21
97.2001
  0
LINE
  8
0_00
  6
CONTINUOUS
 62
3
 10
893.7610
 20
112.2001
 11
893.7610
 21
97.2001
  0
LINE
  8
0_00
  6
CONTINUOUS
 62
3
 10
912.5110
 20
82.2001
 11
1070.6111
 21
82.2001
  0
LINE
  8
0_00
  6
CONTINUOUS
 62
3
 10
1076.6111
 20
71.7000
 11
1078.5610
 21
71.7000
  0
LINE
  8
0_00
  6
CONTINUOUS
 62
3
 10
1078.5610
 20
71.7000
 11
1078.5610
 21
91.2000
  0
LINE
  8
0_00
  6
CONTINUOUS
 62
3
 10
1078.5610
 20
91.2000
 11
1076.6111
 21
91.2000
  0
LINE
  8
0_00
  6
CONTINUOUS
 62
3
 10
1076.6111
 20
71.7000
 11
1076.6111
 21
91.2000
  0
LINE
  8
0_00
  6
CONTINUOUS
 62
3
 10
1079.3410
 20
71.7000
 11
1081.2911
 21
71.7000
  0
LINE
  8
0_00
  6
CONTINUOUS
 62
3
 10
1081.2911
 20
71.7000
 11
1081.2911
 21
91.2000
  0
LINE
  8
0_00
  6
CONTINUOUS
 62
3
 10
1081.2911
 20
91.2000
 11
1079.3410
 21
91.2000
  0
LINE
  8
0_00
  6
CONTINUOUS
 62
3
 10
1079.3410
 20
71.7000
 11
1079.3410
 21
91.2000
  0
LINE
  8
0_00
  6
CONTINUOUS
 62
3
 10
1082.0711
 20
71.7000
 11
1084.0210
 21
71.7000
  0
LINE
  8
0_00
  6
CONTINUOUS
 62
3
 10
1084.0210
 20
71.7000
 11
1084.0210
 21
91.2000
  0
LINE
  8
0_00
  6
CONTINUOUS
 62
3
 10
1084.0210
 20
91.2000
 11
1082.0711
 21
91.2000
  0
LINE
  8
0_00
  6
CONTINUOUS
 62
3
 10
1082.0711
 20
71.7000
 11
1082.0711
 21
91.2000
  0
LINE
  8
0_00
  6
CONTINUOUS
 62
3
 10
1084.8010
 20
71.7000
 11
1086.7511
 21
71.7000
  0
LINE
  8
0_00
  6
CONTINUOUS
 62
3
 10
1086.7511
 20
91.2000
 11
1084.8010
 21
91.2000
  0
LINE
  8
0_00
  6
CONTINUOUS
 62
3
 10
1084.8010
 20
71.7000
 11
1084.8010
 21
91.2000
  0
LINE
  8
0_00
  6
CONTINUOUS
 62
3
 10
1092.4061
 20
71.7000
 11
1100.0110
 21
71.7000
  0
LINE
  8
0_00
  6
CONTINUOUS
 62
3
 10
1100.0110
 20
71.7000
 11
1100.0110
 21
73.4550
  0
LINE
  8
0_00
  6
CONTINUOUS
 62
3
 10
1100.0110
 20
73.4550
 11
1092.4061
 21
73.4550
  0
LINE
  8
0_00
  6
CONTINUOUS
 62
3
 10
1092.4061
 20
73.4550
 11
1092.4061
 21
71.7000
  0
LINE
  8
0_00
  6
CONTINUOUS
 62
3
 10
1092.4061
 20
74.2350
 11
1100.0110
 21
74.2350
  0
LINE
  8
0_00
  6
CONTINUOUS
 62
3
 10
1100.0110
 20
74.2350
 11
1100.0110
 21
75.9900
  0
LINE
  8
0_00
  6
CONTINUOUS
 62
3
 10
1100.0110
 20
75.9900
 11
1092.4061
 21
75.9900
  0
LINE
  8
0_00
  6
CONTINUOUS
 62
3
 10
1092.4061
 20
75.9900
 11
1092.4061
 21
74.2350
  0
LINE
  8
0_00
  6
CONTINUOUS
 62
3
 10
1092.4061
 20
76.7700
 11
1100.0110
 21
76.7700
  0
LINE
  8
0_00
  6
CONTINUOUS
 62
3
 10
1100.0110
 20
76.7700
 11
1100.0110
 21
78.5250
  0
LINE
  8
0_00
  6
CONTINUOUS
 62
3
 10
1100.0110
 20
78.5250
 11
1092.4061
 21
78.5250
  0
LINE
  8
0_00
  6
CONTINUOUS
 62
3
 10
1092.4061
 20
78.5250
 11
1092.4061
 21
76.7700
  0
LINE
  8
0_00
  6
CONTINUOUS
 62
3
 10
1092.4061
 20
79.3050
 11
1100.0110
 21
79.3050
  0
LINE
  8
0_00
  6
CONTINUOUS
 62
3
 10
1100.0110
 20
79.3050
 11
1100.0110
 21
81.0600
  0
LINE
  8
0_00
  6
CONTINUOUS
 62
3
 10
1100.0110
 20
81.0600
 11
1092.4061
 21
81.0600
  0
LINE
  8
0_00
  6
CONTINUOUS
 62
3
 10
1092.4061
 20
81.0600
 11
1092.4061
 21
79.3050
  0
LINE
  8
0_00
  6
CONTINUOUS
 62
3
 10
1092.4061
 20
81.8401
 11
1100.0110
 21
81.8401
  0
LINE
  8
0_00
  6
CONTINUOUS
 62
3
 10
1100.0110
 20
81.8401
 11
1100.0110
 21
83.5950
  0
LINE
  8
0_00
  6
CONTINUOUS
 62
3
 10
1100.0110
 20
83.5950
 11
1092.4061
 21
83.5950
  0
LINE
  8
0_00
  6
CONTINUOUS
 62
3
 10
1092.4061
 20
83.5950
 11
1092.4061
 21
81.8401
  0
LINE
  8
0_00
  6
CONTINUOUS
 62
3
 10
1092.4061
 20
84.3751
 11
1100.0110
 21
84.3751
  0
LINE
  8
0_00
  6
CONTINUOUS
 62
3
 10
1100.0110
 20
84.3751
 11
1100.0110
 21
86.1300
  0
LINE
  8
0_00
  6
CONTINUOUS
 62
3
 10
1100.0110
 20
86.1300
 11
1092.4061
 21
86.1300
  0
LINE
  8
0_00
  6
CONTINUOUS
 62
3
 10
1092.4061
 20
86.1300
 11
1092.4061
 21
84.3751
  0
LINE
  8
0_00
  6
CONTINUOUS
 62
3
 10
1092.4061
 20
86.9101
 11
1100.0110
 21
86.9101
  0
LINE
  8
0_00
  6
CONTINUOUS
 62
3
 10
1100.0110
 20
86.9101
 11
1100.0110
 21
88.6650
  0
LINE
  8
0_00
  6
CONTINUOUS
 62
3
 10
1100.0110
 20
88.6650
 11
1092.4061
 21
88.6650
  0
LINE
  8
0_00
  6
CONTINUOUS
 62
3
 10
1092.4061
 20
88.6650
 11
1092.4061
 21
86.9101
  0
LINE
  8
0_00
  6
CONTINUOUS
 62
3
 10
1092.4061
 20
89.4451
 11
1100.0110
 21
89.4451
  0
LINE
  8
0_00
  6
CONTINUOUS
 62
3
 10
1100.0110
 20
89.4451
 11
1100.0110
 21
91.2000
  0
LINE
  8
0_00
  6
CONTINUOUS
 62
3
 10
1100.0110
 20
91.2000
 11
1092.4061
 21
91.2000
  0
LINE
  8
0_00
  6
CONTINUOUS
 62
3
 10
1092.4061
 20
91.2000
 11
1092.4061
 21
89.4451
  0
LINE
  8
0_00
  6
CONTINUOUS
 62
3
 10
1087.5311
 20
71.7000
 11
1087.5311
 21
77.0626
  0
LINE
  8
0_00
  6
CONTINUOUS
 62
3
 10
1088.8375
 20
72.7725
 11
1088.8375
 21
77.0626
  0
LINE
  8
0_00
  6
CONTINUOUS
 62
3
 10
1087.5311
 20
71.7000
 11
1089.6760
 21
71.7000
  0
LINE
  8
0_00
  6
CONTINUOUS
 62
3
 10
1088.8375
 20
72.7725
 11
1089.6760
 21
72.7725
  0
LINE
  8
0_00
  6
CONTINUOUS
 62
3
 10
1089.6050
 20
79.8056
 11
1090.4561
 21
78.1351
  0
LINE
  8
0_00
  6
CONTINUOUS
 62
3
 10
1090.9410
 20
82.5453
 11
1089.6047
 21
79.8055
  0
LINE
  8
0_00
  6
CONTINUOUS
 62
3
 10
1086.7511
 20
85.3501
 11
1086.7511
 21
91.2000
  0
LINE
  8
0_00
  6
CONTINUOUS
 62
3
 10
1086.7511
 20
85.3501
 11
1089.1886
 21
85.3501
  0
LINE
  8
0_00
  6
CONTINUOUS
 62
3
 10
1086.7511
 20
84.1801
 11
1087.8333
 21
84.1801
  0
LINE
  8
0_00
  6
CONTINUOUS
 62
3
 10
1086.7511
 20
78.1351
 11
1090.4561
 21
78.1351
  0
LINE
  8
0_00
  6
CONTINUOUS
 62
3
 10
1086.7511
 20
81.9611
 11
1087.8334
 21
84.1801
  0
LINE
  8
0_00
  6
CONTINUOUS
 62
3
 10
1086.7511
 20
81.9613
 11
1086.7511
 21
84.1801
  0
LINE
  8
0_00
  6
CONTINUOUS
 62
3
 10
1086.7511
 20
78.1351
 11
1086.7511
 21
71.7000
  0
LINE
  8
0_00
  6
CONTINUOUS
 62
3
 10
1076.9110
 20
91.2000
 11
1076.9110
 21
71.7000
  0
LINE
  8
0_00
  6
CONTINUOUS
 62
3
 10
1077.2110
 20
91.2000
 11
1077.2110
 21
71.7000
  0
LINE
  8
0_00
  6
CONTINUOUS
 62
3
 10
1077.5110
 20
91.2000
 11
1077.5110
 21
71.7000
  0
LINE
  8
0_00
  6
CONTINUOUS
 62
3
 10
1077.8109
 20
91.2000
 11
1077.8109
 21
71.7000
  0
LINE
  8
0_00
  6
CONTINUOUS
 62
3
 10
1078.1111
 20
91.2000
 11
1078.1111
 21
71.7000
  0
LINE
  8
0_00
  6
CONTINUOUS
 62
3
 10
1079.6411
 20
91.2000
 11
1079.6411
 21
71.7000
  0
LINE
  8
0_00
  6
CONTINUOUS
 62
3
 10
1079.9410
 20
91.2000
 11
1079.9410
 21
71.7000
  0
LINE
  8
0_00
  6
CONTINUOUS
 62
3
 10
1080.2410
 20
91.2000
 11
1080.2410
 21
71.7000
  0
LINE
  8
0_00
  6
CONTINUOUS
 62
3
 10
1080.5410
 20
91.2000
 11
1080.5410
 21
71.7000
  0
LINE
  8
0_00
  6
CONTINUOUS
 62
3
 10
1080.8410
 20
91.2000
 11
1080.8410
 21
71.7000
  0
LINE
  8
0_00
  6
CONTINUOUS
 62
3
 10
1081.1411
 20
91.2000
 11
1081.1411
 21
71.7000
  0
LINE
  8
0_00
  6
CONTINUOUS
 62
3
 10
1082.3709
 20
91.2000
 11
1082.3709
 21
71.7000
  0
LINE
  8
0_00
  6
CONTINUOUS
 62
3
 10
1082.6711
 20
91.2000
 11
1082.6711
 21
71.7000
  0
LINE
  8
0_00
  6
CONTINUOUS
 62
3
 10
1082.9711
 20
91.2000
 11
1082.9711
 21
71.7000
  0
LINE
  8
0_00
  6
CONTINUOUS
 62
3
 10
1083.2710
 20
91.2000
 11
1083.2710
 21
71.7000
  0
LINE
  8
0_00
  6
CONTINUOUS
 62
3
 10
1083.5711
 20
91.2000
 11
1083.5711
 21
71.7000
  0
LINE
  8
0_00
  6
CONTINUOUS
 62
3
 10
1083.8709
 20
91.2000
 11
1083.8709
 21
71.7000
  0
LINE
  8
0_00
  6
CONTINUOUS
 62
3
 10
1092.4061
 20
72.0001
 11
1100.0110
 21
72.0001
  0
LINE
  8
0_00
  6
CONTINUOUS
 62
3
 10
1092.4061
 20
72.3001
 11
1100.0110
 21
72.3001
  0
LINE
  8
0_00
  6
CONTINUOUS
 62
3
 10
1092.4061
 20
72.6000
 11
1100.0110
 21
72.6000
  0
LINE
  8
0_00
  6
CONTINUOUS
 62
3
 10
1092.4061
 20
72.9000
 11
1100.0110
 21
72.9000
  0
LINE
  8
0_00
  6
CONTINUOUS
 62
3
 10
1092.4061
 20
73.2000
 11
1100.0110
 21
73.2000
  0
LINE
  8
0_00
  6
CONTINUOUS
 62
3
 10
1092.4061
 20
74.5351
 11
1100.0110
 21
74.5351
  0
LINE
  8
0_00
  6
CONTINUOUS
 62
3
 10
1092.4061
 20
74.8351
 11
1100.0110
 21
74.8351
  0
LINE
  8
0_00
  6
CONTINUOUS
 62
3
 10
1092.4061
 20
75.1350
 11
1100.0110
 21
75.1350
  0
LINE
  8
0_00
  6
CONTINUOUS
 62
3
 10
1092.4061
 20
75.4350
 11
1100.0110
 21
75.4350
  0
LINE
  8
0_00
  6
CONTINUOUS
 62
3
 10
1092.4061
 20
75.7350
 11
1100.0110
 21
75.7350
  0
LINE
  8
0_00
  6
CONTINUOUS
 62
3
 10
1092.4061
 20
77.0701
 11
1100.0110
 21
77.0701
  0
LINE
  8
0_00
  6
CONTINUOUS
 62
3
 10
1092.4061
 20
77.3701
 11
1100.0110
 21
77.3701
  0
LINE
  8
0_00
  6
CONTINUOUS
 62
3
 10
1092.4061
 20
77.6700
 11
1100.0110
 21
77.6700
  0
LINE
  8
0_00
  6
CONTINUOUS
 62
3
 10
1092.4061
 20
77.9700
 11
1100.0110
 21
77.9700
  0
LINE
  8
0_00
  6
CONTINUOUS
 62
3
 10
1092.4061
 20
78.2701
 11
1100.0110
 21
78.2701
  0
LINE
  8
0_00
  6
CONTINUOUS
 62
3
 10
1092.4061
 20
79.6051
 11
1100.0110
 21
79.6051
  0
LINE
  8
0_00
  6
CONTINUOUS
 62
3
 10
1092.4061
 20
79.9051
 11
1100.0110
 21
79.9051
  0
LINE
  8
0_00
  6
CONTINUOUS
 62
3
 10
1092.4061
 20
80.2050
 11
1100.0110
 21
80.2050
  0
LINE
  8
0_00
  6
CONTINUOUS
 62
3
 10
1092.4061
 20
80.5050
 11
1100.0110
 21
80.5050
  0
LINE
  8
0_00
  6
CONTINUOUS
 62
3
 10
1092.4061
 20
80.8051
 11
1100.0110
 21
80.8051
  0
LINE
  8
0_00
  6
CONTINUOUS
 62
3
 10
1092.4061
 20
82.1401
 11
1100.0110
 21
82.1401
  0
LINE
  8
0_00
  6
CONTINUOUS
 62
3
 10
1092.4061
 20
82.4401
 11
1100.0110
 21
82.4401
  0
LINE
  8
0_00
  6
CONTINUOUS
 62
3
 10
1092.4061
 20
82.7400
 11
1100.0110
 21
82.7400
  0
LINE
  8
0_00
  6
CONTINUOUS
 62
3
 10
1092.4061
 20
83.0400
 11
1100.0110
 21
83.0400
  0
LINE
  8
0_00
  6
CONTINUOUS
 62
3
 10
1092.4061
 20
83.3401
 11
1100.0110
 21
83.3401
  0
LINE
  8
0_00
  6
CONTINUOUS
 62
3
 10
1100.0110
 20
84.6751
 11
1092.4061
 21
84.6751
  0
LINE
  8
0_00
  6
CONTINUOUS
 62
3
 10
1100.0110
 20
84.9751
 11
1092.4061
 21
84.9751
  0
LINE
  8
0_00
  6
CONTINUOUS
 62
3
 10
1100.0110
 20
85.2750
 11
1092.4061
 21
85.2750
  0
LINE
  8
0_00
  6
CONTINUOUS
 62
3
 10
1100.0110
 20
85.5750
 11
1092.4061
 21
85.5750
  0
LINE
  8
0_00
  6
CONTINUOUS
 62
3
 10
1100.0110
 20
85.8751
 11
1092.4061
 21
85.8751
  0
LINE
  8
0_00
  6
CONTINUOUS
 62
3
 10
1092.4061
 20
87.2101
 11
1100.0110
 21
87.2101
  0
LINE
  8
0_00
  6
CONTINUOUS
 62
3
 10
1092.4061
 20
87.5101
 11
1100.0110
 21
87.5101
  0
LINE
  8
0_00
  6
CONTINUOUS
 62
3
 10
1092.4061
 20
87.8100
 11
1100.0110
 21
87.8100
  0
LINE
  8
0_00
  6
CONTINUOUS
 62
3
 10
1092.4061
 20
88.1100
 11
1100.0110
 21
88.1100
  0
LINE
  8
0_00
  6
CONTINUOUS
 62
3
 10
1092.4061
 20
88.4101
 11
1100.0110
 21
88.4101
  0
LINE
  8
0_00
  6
CONTINUOUS
 62
3
 10
1092.4061
 20
89.7451
 11
1100.0110
 21
89.7451
  0
LINE
  8
0_00
  6
CONTINUOUS
 62
3
 10
1092.4061
 20
90.0451
 11
1100.0110
 21
90.0451
  0
LINE
  8
0_00
  6
CONTINUOUS
 62
3
 10
1092.4061
 20
90.3450
 11
1100.0110
 21
90.3450
  0
LINE
  8
0_00
  6
CONTINUOUS
 62
3
 10
1092.4061
 20
90.6450
 11
1100.0110
 21
90.6450
  0
LINE
  8
0_00
  6
CONTINUOUS
 62
3
 10
1092.4061
 20
90.9451
 11
1100.0110
 21
90.9451
  0
LINE
  8
0_00
  6
CONTINUOUS
 62
3
 10
1085.1010
 20
91.2000
 11
1085.1010
 21
71.7000
  0
LINE
  8
0_00
  6
CONTINUOUS
 62
3
 10
1085.4011
 20
91.2000
 11
1085.4011
 21
71.7000
  0
LINE
  8
0_00
  6
CONTINUOUS
 62
3
 10
1085.7009
 20
91.2000
 11
1085.7009
 21
71.7000
  0
LINE
  8
0_00
  6
CONTINUOUS
 62
3
 10
1086.0008
 20
91.2000
 11
1086.0008
 21
71.7000
  0
LINE
  8
0_00
  6
CONTINUOUS
 62
3
 10
1086.3010
 20
91.2000
 11
1086.3010
 21
71.7000
  0
LINE
  8
0_00
  6
CONTINUOUS
 62
3
 10
1086.6010
 20
91.2000
 11
1086.6010
 21
71.7000
  0
LINE
  8
0_00
  6
CONTINUOUS
 62
3
 10
1087.8311
 20
71.7000
 11
1087.8311
 21
77.0626
  0
LINE
  8
0_00
  6
CONTINUOUS
 62
3
 10
1088.1312
 20
71.7000
 11
1088.1312
 21
77.0626
  0
LINE
  8
0_00
  6
CONTINUOUS
 62
3
 10
1088.4310
 20
71.7000
 11
1088.4310
 21
77.0626
  0
LINE
  8
0_00
  6
CONTINUOUS
 62
3
 10
1088.7309
 20
71.7000
 11
1088.7309
 21
77.0626
  0
LINE
  8
0_00
  6
CONTINUOUS
 62
3
 10
1088.8375
 20
72.4725
 11
1089.6760
 21
72.4725
  0
LINE
  8
0_00
  6
CONTINUOUS
 62
3
 10
1088.8375
 20
72.1725
 11
1089.6760
 21
72.1725
  0
LINE
  8
0_00
  6
CONTINUOUS
 62
3
 10
1088.8375
 20
71.8725
 11
1089.6760
 21
71.8725
  0
LINE
  8
0_00
  6
CONTINUOUS
 62
3
 10
1090.2825
 20
78.4758
 11
1086.7853
 21
78.4758
  0
LINE
  8
0_00
  6
CONTINUOUS
 62
3
 10
1090.1032
 20
78.8278
 11
1086.7853
 21
78.8278
  0
LINE
  8
0_00
  6
CONTINUOUS
 62
3
 10
1089.8939
 20
79.2384
 11
1086.7779
 21
79.2384
  0
LINE
  8
0_00
  6
CONTINUOUS
 62
3
 10
1089.7204
 20
79.5787
 11
1086.7744
 21
79.5787
  0
LINE
  8
0_00
  6
CONTINUOUS
 62
3
 10
1091.0859
 20
83.5262
 11
1089.1502
 21
79.5579
  0
LINE
  8
0_00
  6
CONTINUOUS
 62
3
 10
1090.9896
 20
84.0133
 11
1088.8107
 21
79.5458
  0
LINE
  8
0_00
  6
CONTINUOUS
 62
3
 10
1090.8083
 20
84.3258
 11
1088.4914
 21
79.5758
  0
LINE
  8
0_00
  6
CONTINUOUS
 62
3
 10
1090.6029
 20
84.5893
 11
1088.1454
 21
79.5508
  0
LINE
  8
0_00
  6
CONTINUOUS
 62
3
 10
1090.4008
 20
84.8596
 11
1087.8790
 21
79.6887
  0
LINE
  8
0_00
  6
CONTINUOUS
 62
3
 10
1090.1371
 20
85.0026
 11
1087.4908
 21
79.5774
  0
LINE
  8
0_00
  6
CONTINUOUS
 62
3
 10
1089.8761
 20
85.1521
 11
1087.1534
 21
79.5697
  0
LINE
  8
0_00
  6
CONTINUOUS
 62
3
 10
1089.5665
 20
85.2017
 11
1086.8386
 21
79.6087
  0
LINE
  8
0_00
  6
CONTINUOUS
 62
3
 10
1089.2498
 20
85.2367
 11
1086.7053
 21
80.0197
  0
LINE
  8
0_00
  6
CONTINUOUS
 62
3
 10
1088.9374
 20
85.2802
 11
1086.7329
 21
80.7607
  0
LINE
  8
0_00
  6
CONTINUOUS
 62
3
 10
1088.5957
 20
85.2643
 11
1086.6388
 21
81.2521
  0
LINE
  8
0_00
  6
CONTINUOUS
 62
3
 10
1087.9926
 20
84.4801
 11
1086.7511
 21
84.4801
  0
LINE
  8
0_00
  6
CONTINUOUS
 62
3
 10
1088.2355
 20
84.7801
 11
1086.7511
 21
84.7801
  0
LINE
  8
0_00
  6
CONTINUOUS
 62
3
 10
1088.3496
 20
85.0800
 11
1086.7511
 21
85.0800
  0
LINE
  8
0_00
  6
CONTINUOUS
 62
3
 10
796.2610
 20
852.4893
 11
809.7610
 21
852.4893
  0
LINE
  8
0_00
  6
CONTINUOUS
 62
3
 10
797.1685
 20
854.0609
 11
796.2610
 21
852.4893
  0
LINE
  8
0_00
  6
CONTINUOUS
 62
3
 10
800.8929
 20
860.5119
 11
803.0110
 21
864.1806
  0
LINE
  8
0_00
  6
CONTINUOUS
 62
3
 10
808.8538
 20
854.0609
 11
809.7610
 21
852.4893
  0
LINE
  8
0_00
  6
CONTINUOUS
 62
3
 10
805.1292
 20
860.5119
 11
803.0110
 21
864.1806
  0
LINE
  8
0_00
  6
CONTINUOUS
 62
3
 10
1218.5110
 20
154.2001
 11
1221.5110
 21
154.2001
  0
LINE
  8
0_00
  6
CONTINUOUS
 62
3
 10
1218.5110
 20
175.2001
 11
1221.5110
 21
175.2001
  0
LINE
  8
0_00
  6
CONTINUOUS
 62
3
 10
1218.5110
 20
196.2001
 11
1221.5110
 21
196.2001
  0
LINE
  8
0_00
  6
CONTINUOUS
 62
3
 10
1218.5110
 20
217.2001
 11
1221.5110
 21
217.2001
  0
LINE
  8
0_00
  6
CONTINUOUS
 62
3
 10
1218.5110
 20
238.2001
 11
1221.5110
 21
238.2001
  0
LINE
  8
0_00
  6
CONTINUOUS
 62
3
 10
1218.5110
 20
259.2001
 11
1221.5110
 21
259.2001
  0
LINE
  8
0_00
  6
CONTINUOUS
 62
3
 10
1218.5110
 20
280.2001
 11
1221.5110
 21
280.2001
  0
LINE
  8
0_00
  6
CONTINUOUS
 62
3
 10
1218.5110
 20
301.2001
 11
1221.5110
 21
301.2001
  0
LINE
  8
0_00
  6
CONTINUOUS
 62
3
 10
1218.5110
 20
322.2001
 11
1221.5110
 21
322.2001
  0
LINE
  8
0_00
  6
CONTINUOUS
 62
3
 10
1218.5110
 20
343.2001
 11
1221.5110
 21
343.2001
  0
LINE
  8
0_00
  6
CONTINUOUS
 62
3
 10
1218.5110
 20
364.2001
 11
1221.5110
 21
364.2001
  0
LINE
  8
0_00
  6
CONTINUOUS
 62
3
 10
1218.5110
 20
385.2001
 11
1221.5110
 21
385.2001
  0
LINE
  8
0_00
  6
CONTINUOUS
 62
3
 10
1218.5110
 20
406.2001
 11
1221.5110
 21
406.2001
  0
LINE
  8
0_00
  6
CONTINUOUS
 62
3
 10
1218.5110
 20
427.2001
 11
1221.5110
 21
427.2001
  0
LINE
  8
0_00
  6
CONTINUOUS
 62
3
 10
1218.5110
 20
448.2001
 11
1221.5110
 21
448.2001
  0
LINE
  8
0_00
  6
CONTINUOUS
 62
3
 10
1218.5110
 20
469.2001
 11
1221.5110
 21
469.2001
  0
LINE
  8
0_00
  6
CONTINUOUS
 62
3
 10
1218.5110
 20
490.2001
 11
1221.5110
 21
490.2001
  0
LINE
  8
0_00
  6
CONTINUOUS
 62
3
 10
1218.5110
 20
833.7001
 11
1221.5110
 21
833.7001
  0
LINE
  8
0_00
  6
CONTINUOUS
 62
3
 10
1218.5110
 20
815.7001
 11
1221.5110
 21
815.7001
  0
LINE
  8
0_00
  6
CONTINUOUS
 62
3
 10
1218.5110
 20
797.7001
 11
1221.5110
 21
797.7001
  0
LINE
  8
0_00
  6
CONTINUOUS
 62
3
 10
1218.5110
 20
779.7001
 11
1221.5110
 21
779.7001
  0
LINE
  8
0_00
  6
CONTINUOUS
 62
3
 10
1218.5110
 20
761.7001
 11
1221.5110
 21
761.7001
  0
LINE
  8
0_00
  6
CONTINUOUS
 62
3
 10
1218.5110
 20
743.7001
 11
1221.5110
 21
743.7001
  0
LINE
  8
0_00
  6
CONTINUOUS
 62
3
 10
1218.5110
 20
511.2001
 11
1221.5110
 21
511.2001
  0
LINE
  8
0_00
  6
CONTINUOUS
 62
3
 10
1218.5110
 20
532.2001
 11
1221.5110
 21
532.2001
  0
LINE
  8
0_00
  6
CONTINUOUS
 62
3
 10
1218.5110
 20
553.2001
 11
1221.5110
 21
553.2001
  0
LINE
  8
0_00
  6
CONTINUOUS
 62
3
 10
1218.5110
 20
574.2001
 11
1221.5110
 21
574.2001
  0
LINE
  8
0_00
  6
CONTINUOUS
 62
3
 10
1218.5110
 20
595.2001
 11
1221.5110
 21
595.2001
  0
LINE
  8
0_00
  6
CONTINUOUS
 62
3
 10
1218.5110
 20
616.2001
 11
1221.5110
 21
616.2001
  0
LINE
  8
0_00
  6
CONTINUOUS
 62
3
 10
1218.5110
 20
637.2000
 11
1221.5110
 21
637.2000
  0
LINE
  8
0_00
  6
CONTINUOUS
 62
3
 10
1218.5110
 20
658.2000
 11
1221.5110
 21
658.2000
  0
LINE
  8
0_00
  6
CONTINUOUS
 62
3
 10
1218.5110
 20
679.2000
 11
1221.5110
 21
679.2000
  0
LINE
  8
0_00
  6
CONTINUOUS
 62
3
 10
1218.5110
 20
700.2001
 11
1221.5110
 21
700.2001
  0
LINE
  8
0_00
  6
CONTINUOUS
 62
3
 10
1218.5110
 20
721.2001
 11
1221.5110
 21
721.2001
  0
LINE
  8
0_00
  6
CENTER1
 62
3
 10
881.0410
 20
73.2001
 11
881.0410
 21
91.2001
  0
LINE
  8
0_00
  6
CONTINUOUS
 62
4
 10
891.5411
 20
78.4501
 11
891.5411
 21
85.9501
  0
LINE
  8
0_00
  6
CONTINUOUS
 62
4
 10
905.0410
 20
76.2001
 11
905.0410
 21
88.2001
  0
LINE
  8
0_00
  6
CONTINUOUS
 62
4
 10
891.5411
 20
85.9501
 11
905.0410
 21
88.2001
  0
LINE
  8
0_00
  6
CONTINUOUS
 62
4
 10
891.5411
 20
78.4501
 11
905.0410
 21
76.2001
  0
LINE
  8
0_00
  6
CENTER1
 62
3
 10
872.0411
 20
82.2001
 11
907.3555
 21
82.2001
  0
LINE
  8
0_00
  6
CONTINUOUS
 62
3
 10
1191.5110
 20
37.2000
 11
1191.5110
 21
67.2000
  0
LINE
  8
0_00
  6
CONTINUOUS
 62
3
 10
39.6905
 20
22.2000
 11
1233.5110
 21
22.2000
  0
LINE
  8
0_00
  6
CONTINUOUS
 62
3
 10
1182.5110
 20
865.2001
 11
1182.5110
 21
851.7001
  0
LINE
  8
0_00
  6
CONTINUOUS
 62
3
 10
0.0000
 20
443.7000
 11
39.6905
 21
443.7000
  0
LINE
  8
0_00
  6
CONTINUOUS
 62
3
 10
626.1610
 20
22.2000
 11
626.1610
 21
0.0000
  0
LINE
  8
0_00
  6
CONTINUOUS
 62
3
 10
626.1610
 20
865.2001
 11
626.1610
 21
891.0000
  0
LINE
  8
0_00
  6
CONTINUOUS
 62
3
 10
1233.5110
 20
443.7000
 11
1260.0000
 21
443.7000
  0
LINE
  8
0_00
  6
CONTINUOUS
 62
6
 10
728.1291
 20
739.6303
 11
728.1291
 21
776.6828
  0
LINE
  8
0_00
  6
CONTINUOUS
 62
6
 10
738.6290
 20
739.6303
 11
738.6290
 21
776.6828
  0
LINE
  8
0_00
  6
CONTINUOUS
 62
6
 10
728.1291
 20
773.6828
 11
738.6290
 21
773.6828
  0
LINE
  8
0_00
  6
CONTINUOUS
 62
6
 10
703.7290
 20
773.6828
 11
728.1291
 21
773.6828
  0
LINE
  8
0_00
  6
CONTINUOUS
 62
6
 10
728.1291
 20
773.6828
 11
720.7929
 21
775.2421
  0
LINE
  8
0_00
  6
CONTINUOUS
 62
6
 10
728.1291
 20
773.6828
 11
720.7929
 21
772.1234
  0
LINE
  8
0_00
  6
CONTINUOUS
 62
6
 10
1122.3665
 20
219.5647
 11
1170.6779
 21
219.5647
  0
LINE
  8
0_00
  6
CONTINUOUS
 62
6
 10
1143.6903
 20
289.5646
 11
1170.6779
 21
289.5646
  0
LINE
  8
0_00
  6
CONTINUOUS
 62
6
 10
1167.6779
 20
289.5646
 11
1167.6779
 21
219.5647
  0
LINE
  8
0_00
  6
CONTINUOUS
 62
6
 10
1167.6779
 20
289.5646
 11
1166.1185
 21
282.2285
  0
LINE
  8
0_00
  6
CONTINUOUS
 62
6
 10
1167.6779
 20
289.5646
 11
1169.2372
 21
282.2285
  0
LINE
  8
0_00
  6
CONTINUOUS
 62
6
 10
1167.6779
 20
219.5647
 11
1169.2372
 21
226.9007
  0
LINE
  8
0_00
  6
CONTINUOUS
 62
6
 10
1167.6779
 20
219.5647
 11
1166.1185
 21
226.9007
  0
LINE
  8
0_00
  6
CONTINUOUS
 62
6
 10
770.6303
 20
296.5750
 11
770.6303
 21
426.5023
  0
LINE
  8
0_00
  6
CONTINUOUS
 62
6
 10
729.6302
 20
352.0184
 11
729.6302
 21
426.5023
  0
LINE
  8
0_00
  6
CONTINUOUS
 62
6
 10
729.6302
 20
423.5023
 11
770.6303
 21
423.5023
  0
LINE
  8
0_00
  6
CONTINUOUS
 62
6
 10
729.6302
 20
423.5023
 11
736.9664
 21
421.9430
  0
LINE
  8
0_00
  6
CONTINUOUS
 62
6
 10
729.6302
 20
423.5023
 11
736.9664
 21
425.0617
  0
LINE
  8
0_00
  6
CONTINUOUS
 62
6
 10
770.6303
 20
423.5023
 11
763.2942
 21
425.0617
  0
LINE
  8
0_00
  6
CONTINUOUS
 62
6
 10
770.6303
 20
423.5023
 11
763.2942
 21
421.9430
  0
LINE
  8
0_00
  6
CONTINUOUS
 62
6
 10
162.6037
 20
428.9008
 11
96.9244
 21
428.9008
  0
LINE
  8
0_00
  6
CONTINUOUS
 62
6
 10
162.6037
 20
493.9008
 11
96.9244
 21
493.9008
  0
LINE
  8
0_00
  6
CONTINUOUS
 62
6
 10
99.9244
 20
493.9008
 11
99.9244
 21
428.9008
  0
LINE
  8
0_00
  6
CONTINUOUS
 62
6
 10
99.9244
 20
493.9008
 11
98.3650
 21
486.5647
  0
LINE
  8
0_00
  6
CONTINUOUS
 62
6
 10
99.9244
 20
493.9008
 11
101.4837
 21
486.5647
  0
LINE
  8
0_00
  6
CONTINUOUS
 62
6
 10
99.9244
 20
428.9008
 11
101.4837
 21
436.2370
  0
LINE
  8
0_00
  6
CONTINUOUS
 62
6
 10
99.9244
 20
428.9008
 11
98.3650
 21
436.2370
  0
LINE
  8
0_00
  6
CONTINUOUS
 62
6
 10
346.8865
 20
427.9008
 11
402.9244
 21
427.9008
  0
LINE
  8
0_00
  6
CONTINUOUS
 62
6
 10
346.8865
 20
487.9008
 11
402.9244
 21
487.9008
  0
LINE
  8
0_00
  6
CONTINUOUS
 62
6
 10
399.9244
 20
487.9008
 11
399.9244
 21
427.9008
  0
LINE
  8
0_00
  6
CONTINUOUS
 62
6
 10
399.9244
 20
487.9008
 11
398.3650
 21
480.5647
  0
LINE
  8
0_00
  6
CONTINUOUS
 62
6
 10
399.9244
 20
487.9008
 11
401.4837
 21
480.5647
  0
LINE
  8
0_00
  6
CONTINUOUS
 62
6
 10
399.9244
 20
427.9008
 11
401.4837
 21
435.2369
  0
LINE
  8
0_00
  6
CONTINUOUS
 62
6
 10
399.9244
 20
427.9008
 11
398.3650
 21
435.2369
  0
LINE
  8
0_00
  6
CONTINUOUS
 62
6
 10
169.2841
 20
740.9008
 11
73.9244
 21
740.9008
  0
LINE
  8
0_00
  6
CONTINUOUS
 62
6
 10
239.2841
 20
490.9008
 11
73.9244
 21
490.9008
  0
LINE
  8
0_00
  6
CONTINUOUS
 62
6
 10
79.9244
 20
740.9008
 11
79.9244
 21
490.9008
  0
LINE
  8
0_00
  6
CONTINUOUS
 62
6
 10
79.9244
 20
740.9008
 11
78.3650
 21
733.5647
  0
LINE
  8
0_00
  6
CONTINUOUS
 62
6
 10
79.9244
 20
740.9008
 11
81.4837
 21
733.5647
  0
LINE
  8
0_00
  6
CONTINUOUS
 62
6
 10
79.9244
 20
490.9008
 11
81.4837
 21
498.2369
  0
LINE
  8
0_00
  6
CONTINUOUS
 62
6
 10
79.9244
 20
490.9008
 11
78.3650
 21
498.2369
  0
LINE
  8
0_00
  6
CONTINUOUS
 62
6
 10
164.2841
 20
470.9008
 11
73.9244
 21
470.9008
  0
LINE
  8
0_00
  6
CONTINUOUS
 62
6
 10
79.9244
 20
490.9008
 11
79.9244
 21
470.9008
  0
LINE
  8
0_00
  6
CONTINUOUS
 62
6
 10
79.9244
 20
441.5008
 11
79.9244
 21
470.9008
  0
LINE
  8
0_00
  6
CONTINUOUS
 62
6
 10
79.9244
 20
470.9008
 11
78.3650
 21
463.5647
  0
LINE
  8
0_00
  6
CONTINUOUS
 62
6
 10
79.9244
 20
470.9008
 11
81.4837
 21
463.5647
  0
LINE
  8
0_00
  6
CONTINUOUS
 62
6
 10
184.2841
 20
782.0520
 11
184.2841
 21
795.0779
  0
LINE
  8
0_00
  6
CONTINUOUS
 62
6
 10
184.2841
 20
789.0779
 11
254.2841
 21
789.0779
  0
LINE
  8
0_00
  6
CONTINUOUS
 62
6
 10
184.2841
 20
789.0779
 11
191.6202
 21
787.5186
  0
LINE
  8
0_00
  6
CONTINUOUS
 62
6
 10
184.2841
 20
789.0779
 11
191.6202
 21
790.6371
  0
LINE
  8
0_00
  6
CONTINUOUS
 62
6
 10
254.2841
 20
789.0779
 11
246.9480
 21
790.6371
  0
LINE
  8
0_00
  6
CONTINUOUS
 62
6
 10
254.2841
 20
789.0779
 11
246.9480
 21
787.5186
  0
LINE
  8
0_00
  6
CONTINUOUS
 62
6
 10
254.2841
 20
627.2599
 11
254.2841
 21
646.4612
  0
LINE
  8
0_00
  6
CONTINUOUS
 62
6
 10
254.2841
 20
678.0458
 11
254.2841
 21
749.0897
  0
LINE
  8
0_00
  6
CONTINUOUS
 62
6
 10
254.2841
 20
768.5856
 11
254.2841
 21
795.0779
  0
LINE
  8
0_00
  6
DASHED
 62
2
 10
414.0341
 20
706.8447
 11
414.0341
 21
694.8448
  0
LINE
  8
0_00
  6
DASHED
 62
2
 10
410.5341
 20
706.8447
 11
410.5341
 21
694.8448
  0
LINE
  8
0_00
  6
DASHED
 62
2
 10
414.2841
 20
706.8447
 11
414.2841
 21
694.8448
  0
LINE
  8
0_00
  6
DASHED
 62
2
 10
410.2841
 20
706.8447
 11
410.2841
 21
694.8448
  0
LINE
  8
0_00
  6
DASHED
 62
2
 10
414.2841
 20
694.8448
 11
410.2841
 21
694.8448
  0
LINE
  8
12_0C
  6
CONTINUOUS
 62
2
 10
408.2841
 20
706.8447
 11
416.2841
 21
706.8447
  0
LINE
  8
12_0C
  6
CONTINUOUS
 62
2
 10
408.2841
 20
707.2447
 11
416.2841
 21
707.2447
  0
LINE
  8
12_0C
  6
CONTINUOUS
 62
2
 10
416.2841
 20
706.8447
 11
416.2841
 21
707.2447
  0
LINE
  8
12_0C
  6
CONTINUOUS
 62
2
 10
408.2841
 20
706.8447
 11
408.2841
 21
707.2447
  0
LINE
  8
0_00
  6
DASHED
 62
2
 10
378.0341
 20
706.8447
 11
378.0341
 21
694.8448
  0
LINE
  8
0_00
  6
DASHED
 62
2
 10
374.5341
 20
706.8447
 11
374.5341
 21
694.8448
  0
LINE
  8
0_00
  6
DASHED
 62
2
 10
378.2841
 20
706.8447
 11
378.2841
 21
694.8448
  0
LINE
  8
0_00
  6
DASHED
 62
2
 10
374.2841
 20
706.8447
 11
374.2841
 21
694.8448
  0
LINE
  8
0_00
  6
DASHED
 62
2
 10
378.2841
 20
694.8448
 11
374.2841
 21
694.8448
  0
LINE
  8
12_0C
  6
CONTINUOUS
 62
2
 10
372.2841
 20
706.8447
 11
380.2841
 21
706.8447
  0
LINE
  8
12_0C
  6
CONTINUOUS
 62
2
 10
372.2841
 20
707.2447
 11
380.2841
 21
707.2447
  0
LINE
  8
12_0C
  6
CONTINUOUS
 62
2
 10
380.2841
 20
706.8447
 11
380.2841
 21
707.2447
  0
LINE
  8
12_0C
  6
CONTINUOUS
 62
2
 10
372.2841
 20
706.8447
 11
372.2841
 21
707.2447
  0
LINE
  8
0_00
  6
CONTINUOUS
 62
4
 10
394.2841
 20
706.9448
 11
393.9841
 21
706.6448
  0
LINE
  8
0_00
  6
CONTINUOUS
 62
4
 10
406.5841
 20
706.6448
 11
394.5841
 21
706.6448
  0
LINE
  8
0_00
  6
CONTINUOUS
 62
4
 10
394.2841
 20
706.9448
 11
394.5841
 21
706.6448
  0
LINE
  8
14_0E
  6
CONTINUOUS
 62
4
 10
407.3603
 20
708.2544
 11
398.2841
 21
708.6448
  0
LINE
  8
0_00
  6
CONTINUOUS
 62
4
 10
394.2841
 20
706.9448
 11
394.5841
 21
706.6448
  0
LINE
  8
0_00
  6
CONTINUOUS
 62
4
 10
381.9841
 20
706.6448
 11
393.9841
 21
706.6448
  0
LINE
  8
0_00
  6
CONTINUOUS
 62
4
 10
394.2841
 20
706.9448
 11
393.9841
 21
706.6448
  0
LINE
  8
14_0E
  6
CONTINUOUS
 62
4
 10
381.2079
 20
708.2544
 11
390.2841
 21
708.6448
  0
LINE
  8
0_00
  6
CONTINUOUS
 62
4
 10
398.2841
 20
708.6448
 11
390.2841
 21
708.6448
  0
LINE
  8
0_00
  6
CONTINUOUS
 62
4
 10
406.9841
 20
705.1448
 11
411.9841
 21
705.1448
  0
LINE
  8
0_00
  6
CONTINUOUS
 62
4
 10
406.5841
 20
706.6448
 11
406.9841
 21
705.1448
  0
LINE
  8
0_00
  6
CONTINUOUS
 62
4
 10
409.7841
 20
706.8447
 11
414.7841
 21
706.8447
  0
LINE
  8
0_00
  6
CONTINUOUS
 62
4
 10
412.5841
 20
705.1448
 11
421.6841
 21
705.1448
  0
LINE
  8
0_00
  6
CONTINUOUS
 62
4
 10
412.2841
 20
705.4448
 11
411.9841
 21
705.1448
  0
LINE
  8
0_00
  6
CONTINUOUS
 62
4
 10
412.2841
 20
705.4448
 11
412.5841
 21
705.1448
  0
LINE
  8
0_00
  6
CONTINUOUS
 62
4
 10
419.6119
 20
706.6448
 11
415.0841
 21
706.6448
  0
LINE
  8
0_00
  6
CONTINUOUS
 62
4
 10
414.7841
 20
706.8447
 11
415.0841
 21
706.6448
  0
LINE
  8
0_00
  6
CONTINUOUS
 62
4
 10
409.4841
 20
706.6448
 11
408.2964
 21
706.6448
  0
LINE
  8
0_00
  6
CONTINUOUS
 62
4
 10
409.7841
 20
706.8447
 11
409.4841
 21
706.6448
  0
LINE
  8
0_00
  6
CONTINUOUS
 62
4
 10
407.6384
 20
708.0275
 11
407.9083
 21
706.9477
  0
LINE
  8
0_00
  6
CONTINUOUS
 62
4
 10
421.6841
 20
705.1448
 11
422.6841
 21
706.1447
  0
LINE
  8
0_00
  6
CONTINUOUS
 62
4
 10
422.6841
 20
706.1447
 11
422.6841
 21
707.4449
  0
LINE
  8
0_00
  6
CONTINUOUS
 62
4
 10
422.6841
 20
706.6448
 11
422.6841
 21
706.1447
  0
LINE
  8
0_00
  6
CONTINUOUS
 62
4
 10
421.7036
 20
709.5227
 11
422.5602
 21
709.5976
  0
LINE
  8
0_00
  6
CONTINUOUS
 62
4
 10
420.5969
 20
710.5302
 11
421.4350
 21
710.6034
  0
LINE
  8
0_00
  6
CONTINUOUS
 62
4
 10
419.6841
 20
709.5340
 11
419.6841
 21
709.1010
  0
LINE
  8
0_00
  6
CONTINUOUS
 62
4
 10
422.8279
 20
709.9568
 11
421.7425
 21
715.2448
  0
LINE
  8
0_00
  6
CONTINUOUS
 62
4
 10
420.9964
 20
714.4040
 11
421.7027
 21
710.9626
  0
LINE
  8
0_00
  6
CONTINUOUS
 62
4
 10
421.6820
 20
715.2448
 11
421.7425
 21
715.2448
  0
LINE
  8
0_00
  6
CONTINUOUS
 62
4
 10
424.2847
 20
715.3913
 11
424.2846
 21
706.1835
  0
LINE
  8
0_00
  6
CONTINUOUS
 62
4
 10
422.8846
 20
707.5414
 11
422.8846
 21
705.2008
  0
LINE
  8
0_00
  6
CONTINUOUS
 62
4
 10
422.8846
 20
712.5913
 11
422.8846
 21
714.9874
  0
LINE
  8
0_00
  6
CONTINUOUS
 62
4
 10
420.1847
 20
715.3914
 11
422.4846
 21
715.3914
  0
LINE
  8
0_00
  6
CONTINUOUS
 62
4
 10
419.3847
 20
715.6913
 11
419.3847
 21
714.7914
  0
LINE
  8
0_00
  6
CONTINUOUS
 62
4
 10
420.1847
 20
715.3914
 11
420.1847
 21
715.1913
  0
LINE
  8
0_00
  6
CONTINUOUS
 62
4
 10
421.8041
 20
709.4968
 11
422.5195
 21
709.5594
  0
LINE
  8
0_00
  6
CONTINUOUS
 62
4
 10
422.8768
 20
710.0370
 11
422.4100
 21
712.3518
  0
LINE
  8
0_00
  6
CONTINUOUS
 62
4
 10
422.6060
 20
712.5913
 11
422.8846
 21
712.5913
  0
LINE
  8
0_00
  6
CONTINUOUS
 62
4
 10
420.3847
 20
716.6913
 11
422.9847
 21
716.6912
  0
LINE
  8
0_00
  6
CONTINUOUS
 62
4
 10
381.5841
 20
705.1448
 11
376.5841
 21
705.1448
  0
LINE
  8
0_00
  6
CONTINUOUS
 62
4
 10
381.9841
 20
706.6448
 11
381.5841
 21
705.1448
  0
LINE
  8
0_00
  6
CONTINUOUS
 62
4
 10
378.7841
 20
706.8447
 11
373.7841
 21
706.8447
  0
LINE
  8
0_00
  6
CONTINUOUS
 62
4
 10
375.9841
 20
705.1448
 11
366.8841
 21
705.1448
  0
LINE
  8
0_00
  6
CONTINUOUS
 62
4
 10
376.2841
 20
705.4448
 11
376.5841
 21
705.1448
  0
LINE
  8
0_00
  6
CONTINUOUS
 62
4
 10
376.2841
 20
705.4448
 11
375.9841
 21
705.1448
  0
LINE
  8
0_00
  6
CONTINUOUS
 62
4
 10
368.9564
 20
706.6448
 11
373.4841
 21
706.6448
  0
LINE
  8
0_00
  6
CONTINUOUS
 62
4
 10
373.7841
 20
706.8447
 11
373.4841
 21
706.6448
  0
LINE
  8
0_00
  6
CONTINUOUS
 62
4
 10
379.0841
 20
706.6448
 11
380.2718
 21
706.6448
  0
LINE
  8
0_00
  6
CONTINUOUS
 62
4
 10
378.7841
 20
706.8447
 11
379.0841
 21
706.6448
  0
LINE
  8
0_00
  6
CONTINUOUS
 62
4
 10
380.9297
 20
708.0275
 11
380.6599
 21
706.9477
  0
LINE
  8
0_00
  6
CONTINUOUS
 62
4
 10
366.8841
 20
705.1448
 11
365.8841
 21
706.1447
  0
LINE
  8
0_00
  6
CONTINUOUS
 62
4
 10
365.8841
 20
706.1447
 11
365.8841
 21
707.4449
  0
LINE
  8
0_00
  6
CONTINUOUS
 62
4
 10
365.8841
 20
706.6448
 11
365.8841
 21
706.1447
  0
LINE
  8
0_00
  6
CONTINUOUS
 62
4
 10
366.8646
 20
709.5227
 11
366.0079
 21
709.5976
  0
LINE
  8
0_00
  6
CONTINUOUS
 62
4
 10
367.9712
 20
710.5302
 11
367.1331
 21
710.6034
  0
LINE
  8
0_00
  6
CONTINUOUS
 62
4
 10
368.8841
 20
709.5340
 11
368.8841
 21
709.1010
  0
LINE
  8
0_00
  6
CONTINUOUS
 62
4
 10
365.7402
 20
709.9568
 11
366.8257
 21
715.2448
  0
LINE
  8
0_00
  6
CONTINUOUS
 62
4
 10
367.5719
 20
714.4040
 11
366.8654
 21
710.9626
  0
LINE
  8
0_00
  6
CONTINUOUS
 62
4
 10
366.8861
 20
715.2448
 11
366.8257
 21
715.2448
  0
LINE
  8
0_00
  6
CONTINUOUS
 62
4
 10
364.2835
 20
715.3913
 11
364.2836
 21
706.1835
  0
LINE
  8
0_00
  6
CONTINUOUS
 62
4
 10
365.6836
 20
707.5414
 11
365.6836
 21
705.2008
  0
LINE
  8
0_00
  6
CONTINUOUS
 62
4
 10
365.6835
 20
712.5913
 11
365.6835
 21
714.9874
  0
LINE
  8
0_00
  6
CONTINUOUS
 62
4
 10
368.3835
 20
715.3914
 11
366.0835
 21
715.3914
  0
LINE
  8
0_00
  6
CONTINUOUS
 62
4
 10
369.1834
 20
715.6913
 11
369.1835
 21
714.7914
  0
LINE
  8
0_00
  6
CONTINUOUS
 62
4
 10
368.3835
 20
715.3914
 11
368.3835
 21
715.1913
  0
LINE
  8
0_00
  6
CONTINUOUS
 62
4
 10
366.7641
 20
709.4968
 11
366.0487
 21
709.5594
  0
LINE
  8
0_00
  6
CONTINUOUS
 62
4
 10
365.6914
 20
710.0370
 11
366.1582
 21
712.3518
  0
LINE
  8
0_00
  6
CONTINUOUS
 62
4
 10
365.9621
 20
712.5913
 11
365.6835
 21
712.5913
  0
LINE
  8
0_00
  6
CONTINUOUS
 62
4
 10
368.1835
 20
716.6913
 11
365.5835
 21
716.6912
  0
LINE
  8
0_00
  6
CONTINUOUS
 62
4
 10
370.7841
 20
706.6448
 11
372.2841
 21
706.6448
  0
LINE
  8
0_00
  6
CONTINUOUS
 62
4
 10
419.2841
 20
705.1448
 11
369.2841
 21
705.1448
  0
LINE
  8
0_00
  6
CONTINUOUS
 62
6
 10
409.2841
 20
740.9008
 11
476.9249
 21
740.9008
  0
LINE
  8
0_00
  6
CONTINUOUS
 62
6
 10
439.2941
 20
703.7913
 11
476.9249
 21
703.7913
  0
LINE
  8
0_00
  6
CONTINUOUS
 62
6
 10
470.9249
 20
740.9008
 11
470.9249
 21
703.7913
  0
LINE
  8
0_00
  6
CONTINUOUS
 62
6
 10
470.9249
 20
740.9008
 11
469.3656
 21
733.5647
  0
LINE
  8
0_00
  6
CONTINUOUS
 62
6
 10
470.9249
 20
740.9008
 11
472.4843
 21
733.5647
  0
LINE
  8
0_00
  6
CONTINUOUS
 62
6
 10
470.9249
 20
703.7913
 11
472.4843
 21
711.1274
  0
LINE
  8
0_00
  6
CONTINUOUS
 62
6
 10
470.9249
 20
703.7913
 11
469.3656
 21
711.1274
  0
LINE
  8
0_00
  6
CONTINUOUS
 62
6
 10
379.2841
 20
740.9008
 11
328.8586
 21
740.9008
  0
LINE
  8
0_00
  6
CONTINUOUS
 62
6
 10
334.8586
 20
740.9008
 11
334.8586
 21
604.8243
  0
LINE
  8
0_00
  6
CONTINUOUS
 62
6
 10
334.8586
 20
740.9008
 11
333.2992
 21
733.5647
  0
LINE
  8
0_00
  6
CONTINUOUS
 62
6
 10
334.8586
 20
740.9008
 11
336.4180
 21
733.5647
  0
LINE
  8
0_00
  6
CONTINUOUS
 62
6
 10
354.2841
 20
733.1030
 11
354.2841
 21
784.8218
  0
LINE
  8
0_00
  6
CONTINUOUS
 62
6
 10
354.2841
 20
778.8218
 11
434.2841
 21
778.8218
  0
LINE
  8
0_00
  6
CONTINUOUS
 62
6
 10
354.2841
 20
778.8218
 11
361.6202
 21
777.2625
  0
LINE
  8
0_00
  6
CONTINUOUS
 62
6
 10
354.2841
 20
778.8218
 11
361.6202
 21
780.3811
  0
LINE
  8
0_00
  6
CONTINUOUS
 62
6
 10
434.2841
 20
778.8218
 11
426.9480
 21
780.3811
  0
LINE
  8
0_00
  6
CONTINUOUS
 62
6
 10
434.2841
 20
778.8218
 11
426.9480
 21
777.2625
  0
LINE
  8
0_00
  6
CONTINUOUS
 62
6
 10
434.2841
 20
733.1030
 11
434.2841
 21
745.8651
  0
LINE
  8
0_00
  6
CONTINUOUS
 62
6
 10
434.2841
 20
766.2017
 11
434.2841
 21
784.8218
  0
LINE
  8
0_00
  6
CONTINUOUS
 62
6
 10
1039.6103
 20
325.5647
 11
1039.6103
 21
449.5023
  0
LINE
  8
0_00
  6
CONTINUOUS
 62
6
 10
1071.6104
 20
325.5647
 11
1071.6104
 21
449.5023
  0
LINE
  8
0_00
  6
CONTINUOUS
 62
6
 10
1039.6103
 20
443.5023
 11
1071.6104
 21
443.5023
  0
LINE
  8
0_00
  6
CONTINUOUS
 62
6
 10
1010.2103
 20
443.5023
 11
1039.6103
 21
443.5023
  0
LINE
  8
0_00
  6
CONTINUOUS
 62
6
 10
1039.6103
 20
443.5023
 11
1032.2743
 21
445.0616
  0
LINE
  8
0_00
  6
CONTINUOUS
 62
6
 10
1039.6103
 20
443.5023
 11
1032.2743
 21
441.9430
  0
LINE
  8
0_00
  6
CONTINUOUS
 62
6
 10
1089.6104
 20
443.5023
 11
1071.6104
 21
443.5023
  0
LINE
  8
0_00
  6
CONTINUOUS
 62
6
 10
1071.6104
 20
443.5023
 11
1078.9466
 21
441.9430
  0
LINE
  8
0_00
  6
CONTINUOUS
 62
6
 10
1071.6104
 20
443.5023
 11
1078.9466
 21
445.0616
  0
LINE
  8
0_00
  6
CONTINUOUS
 62
6
 10
1176.0040
 20
726.2044
 11
1203.5439
 21
726.2044
  0
LINE
  8
0_00
  6
CONTINUOUS
 62
6
 10
1176.0040
 20
689.1544
 11
1203.5439
 21
689.1544
  0
LINE
  8
0_00
  6
CONTINUOUS
 62
6
 10
1197.5440
 20
726.2044
 11
1197.5440
 21
689.1544
  0
LINE
  8
0_00
  6
CONTINUOUS
 62
6
 10
1197.5440
 20
744.2043
 11
1197.5440
 21
726.2044
  0
LINE
  8
0_00
  6
CONTINUOUS
 62
6
 10
1197.5440
 20
726.2044
 11
1199.1033
 21
733.5405
  0
LINE
  8
0_00
  6
CONTINUOUS
 62
6
 10
1197.5440
 20
726.2044
 11
1195.9846
 21
733.5405
  0
LINE
  8
0_00
  6
CONTINUOUS
 62
6
 10
1197.5440
 20
671.1543
 11
1197.5440
 21
689.1544
  0
LINE
  8
0_00
  6
CONTINUOUS
 62
6
 10
1197.5440
 20
689.1544
 11
1195.9846
 21
681.8183
  0
LINE
  8
0_00
  6
CONTINUOUS
 62
6
 10
1197.5440
 20
689.1544
 11
1199.1033
 21
681.8183
  0
LINE
  8
15_0F
  6
CONTINUOUS
 62
6
 10
329.2841
 20
358.0119
 11
329.2841
 21
326.7378
  0
LINE
  8
15_0F
  6
CONTINUOUS
 62
6
 10
334.2841
 20
362.2986
 11
334.2841
 21
326.7378
  0
LINE
  8
15_0F
  6
CONTINUOUS
 62
6
 10
329.2841
 20
332.7378
 11
334.2841
 21
332.7378
  0
LINE
  8
15_0F
  6
CONTINUOUS
 62
6
 10
307.0841
 20
332.7378
 11
329.2841
 21
332.7378
  0
LINE
  8
15_0F
  6
CONTINUOUS
 62
6
 10
329.2841
 20
332.7378
 11
321.9480
 21
334.2972
  0
LINE
  8
15_0F
  6
CONTINUOUS
 62
6
 10
329.2841
 20
332.7378
 11
321.9480
 21
331.1785
  0
LINE
  8
15_0F
  6
CONTINUOUS
 62
6
 10
344.2841
 20
399.7747
 11
344.2841
 21
326.7378
  0
LINE
  8
15_0F
  6
CONTINUOUS
 62
6
 10
334.2841
 20
332.7378
 11
344.2841
 21
332.7378
  0
LINE
  8
15_0F
  6
CONTINUOUS
 62
6
 10
373.6841
 20
332.7378
 11
344.2841
 21
332.7378
  0
LINE
  8
15_0F
  6
CONTINUOUS
 62
6
 10
344.2841
 20
332.7378
 11
351.6202
 21
331.1785
  0
LINE
  8
15_0F
  6
CONTINUOUS
 62
6
 10
344.2841
 20
332.7378
 11
351.6202
 21
334.2972
  0
LINE
  8
15_0F
  6
CONTINUOUS
 62
6
 10
174.2841
 20
362.2986
 11
174.2841
 21
326.7378
  0
LINE
  8
15_0F
  6
CONTINUOUS
 62
6
 10
164.2841
 20
399.7747
 11
164.2841
 21
326.7378
  0
LINE
  8
15_0F
  6
CONTINUOUS
 62
6
 10
164.2841
 20
332.7378
 11
174.2841
 21
332.7378
  0
LINE
  8
15_0F
  6
CONTINUOUS
 62
6
 10
134.8841
 20
332.7378
 11
164.2841
 21
332.7378
  0
LINE
  8
15_0F
  6
CONTINUOUS
 62
6
 10
164.2841
 20
332.7378
 11
156.9480
 21
334.2972
  0
LINE
  8
15_0F
  6
CONTINUOUS
 62
6
 10
164.2841
 20
332.7378
 11
156.9480
 21
331.1785
  0
LINE
  8
15_0F
  6
CONTINUOUS
 62
6
 10
179.2841
 20
358.1504
 11
179.2841
 21
326.7378
  0
LINE
  8
15_0F
  6
CONTINUOUS
 62
6
 10
174.2841
 20
332.7378
 11
179.2841
 21
332.7378
  0
LINE
  8
15_0F
  6
CONTINUOUS
 62
6
 10
201.4841
 20
332.7378
 11
179.2841
 21
332.7378
  0
LINE
  8
15_0F
  6
CONTINUOUS
 62
6
 10
179.2841
 20
332.7378
 11
186.6202
 21
331.1785
  0
LINE
  8
15_0F
  6
CONTINUOUS
 62
6
 10
179.2841
 20
332.7378
 11
186.6202
 21
334.2972
  0
LINE
  8
0_00
  6
CONTINUOUS
 62
6
 10
139.9836
 20
693.9008
 11
93.9244
 21
693.9008
  0
LINE
  8
0_00
  6
CONTINUOUS
 62
6
 10
154.2841
 20
740.9008
 11
93.9244
 21
740.9008
  0
LINE
  8
0_00
  6
CONTINUOUS
 62
6
 10
99.9244
 20
740.9008
 11
99.9244
 21
693.9008
  0
LINE
  8
0_00
  6
CONTINUOUS
 62
6
 10
99.9244
 20
740.9008
 11
98.3650
 21
733.5647
  0
LINE
  8
0_00
  6
CONTINUOUS
 62
6
 10
99.9244
 20
740.9008
 11
101.4837
 21
733.5647
  0
LINE
  8
0_00
  6
CONTINUOUS
 62
6
 10
99.9244
 20
693.9008
 11
101.4837
 21
701.2369
  0
LINE
  8
0_00
  6
CONTINUOUS
 62
6
 10
99.9244
 20
693.9008
 11
98.3650
 21
701.2369
  0
LINE
  8
15_0F
  6
CONTINUOUS
 62
4
 10
622.1451
 20
151.3623
 11
667.1451
 21
151.3623
  0
LINE
  8
15_0F
  6
CONTINUOUS
 62
4
 10
91.8452
 20
272.9319
 11
136.8451
 21
272.9319
  0
LINE
  8
0_00
  6
DASHED
 62
2
 10
610.1548
 20
707.4008
 11
610.1548
 21
695.4008
  0
LINE
  8
0_00
  6
DASHED
 62
2
 10
606.6548
 20
707.4008
 11
606.6548
 21
695.4008
  0
LINE
  8
0_00
  6
DASHED
 62
2
 10
610.4048
 20
707.4008
 11
610.4048
 21
695.4008
  0
LINE
  8
0_00
  6
DASHED
 62
2
 10
606.4048
 20
707.4008
 11
606.4048
 21
695.4008
  0
LINE
  8
0_00
  6
DASHED
 62
2
 10
610.4048
 20
695.4008
 11
606.4048
 21
695.4008
  0
LINE
  8
12_0C
  6
CONTINUOUS
 62
2
 10
604.4048
 20
707.4008
 11
612.4048
 21
707.4008
  0
LINE
  8
12_0C
  6
CONTINUOUS
 62
2
 10
604.4048
 20
707.8008
 11
612.4048
 21
707.8008
  0
LINE
  8
12_0C
  6
CONTINUOUS
 62
2
 10
612.4048
 20
707.4008
 11
612.4048
 21
707.8008
  0
LINE
  8
12_0C
  6
CONTINUOUS
 62
2
 10
604.4048
 20
707.4008
 11
604.4048
 21
707.8008
  0
LINE
  8
0_00
  6
DASHED
 62
2
 10
574.1548
 20
707.4008
 11
574.1548
 21
695.4008
  0
LINE
  8
0_00
  6
DASHED
 62
2
 10
570.6548
 20
707.4008
 11
570.6548
 21
695.4008
  0
LINE
  8
0_00
  6
DASHED
 62
2
 10
574.4048
 20
707.4008
 11
574.4048
 21
695.4008
  0
LINE
  8
0_00
  6
DASHED
 62
2
 10
570.4048
 20
707.4008
 11
570.4048
 21
695.4008
  0
LINE
  8
0_00
  6
DASHED
 62
2
 10
574.4048
 20
695.4008
 11
570.4048
 21
695.4008
  0
LINE
  8
12_0C
  6
CONTINUOUS
 62
2
 10
568.4048
 20
707.4008
 11
576.4048
 21
707.4008
  0
LINE
  8
12_0C
  6
CONTINUOUS
 62
2
 10
568.4048
 20
707.8008
 11
576.4048
 21
707.8008
  0
LINE
  8
12_0C
  6
CONTINUOUS
 62
2
 10
576.4048
 20
707.4008
 11
576.4048
 21
707.8008
  0
LINE
  8
12_0C
  6
CONTINUOUS
 62
2
 10
568.4048
 20
707.4008
 11
568.4048
 21
707.8008
  0
LINE
  8
0_00
  6
CONTINUOUS
 62
6
 10
575.4048
 20
740.9008
 11
524.9793
 21
740.9008
  0
LINE
  8
0_00
  6
CONTINUOUS
 62
6
 10
530.9793
 20
740.9008
 11
530.9793
 21
604.8243
  0
LINE
  8
0_00
  6
CONTINUOUS
 62
6
 10
530.9793
 20
740.9008
 11
529.4200
 21
733.5647
  0
LINE
  8
0_00
  6
CONTINUOUS
 62
6
 10
530.9793
 20
740.9008
 11
532.5386
 21
733.5647
  0
LINE
  8
0_00
  6
CONTINUOUS
 62
4
 10
579.9032
 20
708.1008
 11
577.9031
 21
708.1008
  0
LINE
  8
0_00
  6
CONTINUOUS
 62
4
 10
579.9032
 20
708.1008
 11
579.9032
 21
707.3008
  0
LINE
  8
0_00
  6
CONTINUOUS
 62
4
 10
577.9031
 20
708.1008
 11
577.9031
 21
706.5008
  0
LINE
  8
0_00
  6
CONTINUOUS
 62
4
 10
600.9032
 20
708.1008
 11
602.9031
 21
708.1008
  0
LINE
  8
0_00
  6
CONTINUOUS
 62
4
 10
600.9032
 20
708.1008
 11
600.9032
 21
707.3008
  0
LINE
  8
0_00
  6
CONTINUOUS
 62
4
 10
602.9031
 20
708.1008
 11
602.9031
 21
706.5008
  0
LINE
  8
0_00
  6
CONTINUOUS
 62
4
 10
564.0031
 20
708.0008
 11
564.0031
 21
702.4962
  0
LINE
  8
0_00
  6
CONTINUOUS
 62
4
 10
616.8031
 20
708.0008
 11
616.8031
 21
702.4962
  0
LINE
  8
0_00
  6
CONTINUOUS
 62
4
 10
565.1032
 20
707.4008
 11
565.1032
 21
710.8925
  0
LINE
  8
0_00
  6
CONTINUOUS
 62
4
 10
615.7031
 20
707.4008
 11
615.7031
 21
710.8925
  0
LINE
  8
0_00
  6
CONTINUOUS
 62
4
 10
616.8031
 20
709.2008
 11
616.8031
 21
710.8008
  0
LINE
  8
0_00
  6
CONTINUOUS
 62
4
 10
617.4031
 20
709.2008
 11
616.8031
 21
709.2008
  0
LINE
  8
0_00
  6
CONTINUOUS
 62
4
 10
617.4031
 20
708.0008
 11
616.8031
 21
708.0008
  0
LINE
  8
0_00
  6
CONTINUOUS
 62
4
 10
590.4032
 20
683.2008
 11
590.1047
 21
682.9024
  0
LINE
  8
0_00
  6
CONTINUOUS
 62
4
 10
590.4032
 20
683.2008
 11
590.7016
 21
682.9024
  0
LINE
  8
0_00
  6
CONTINUOUS
 62
4
 10
565.6031
 20
706.9008
 11
569.6031
 21
706.9008
  0
LINE
  8
0_00
  6
CONTINUOUS
 62
4
 10
565.1032
 20
705.8008
 11
569.6031
 21
705.8008
  0
LINE
  8
0_00
  6
CONTINUOUS
 62
4
 10
610.9031
 20
705.4008
 11
569.9031
 21
705.4008
  0
LINE
  8
0_00
  6
CONTINUOUS
 62
4
 10
608.7031
 20
707.4008
 11
608.4031
 21
707.1009
  0
LINE
  8
0_00
  6
CONTINUOUS
 62
4
 10
610.9031
 20
707.4008
 11
608.7031
 21
707.4008
  0
LINE
  8
0_00
  6
CONTINUOUS
 62
4
 10
611.2031
 20
706.9008
 11
610.9031
 21
707.4008
  0
LINE
  8
0_00
  6
CONTINUOUS
 62
4
 10
608.1031
 20
707.4008
 11
608.4031
 21
707.1009
  0
LINE
  8
0_00
  6
CONTINUOUS
 62
4
 10
605.9031
 20
707.4008
 11
608.1031
 21
707.4008
  0
LINE
  8
0_00
  6
CONTINUOUS
 62
4
 10
615.2031
 20
706.9008
 11
611.2031
 21
706.9008
  0
LINE
  8
0_00
  6
CONTINUOUS
 62
4
 10
590.1031
 20
706.5008
 11
590.4032
 21
706.2008
  0
LINE
  8
0_00
  6
CONTINUOUS
 62
4
 10
590.7031
 20
706.5008
 11
590.4032
 21
706.2008
  0
LINE
  8
0_00
  6
CONTINUOUS
 62
4
 10
617.7467
 20
710.8834
 11
616.8031
 21
710.8008
  0
LINE
  8
0_00
  6
CONTINUOUS
 62
4
 10
616.6160
 20
711.8887
 11
617.1806
 21
711.9380
  0
LINE
  8
0_00
  6
CONTINUOUS
 62
4
 10
618.1929
 20
711.4820
 11
617.8338
 21
713.2314
  0
LINE
  8
0_00
  6
CONTINUOUS
 62
4
 10
616.9522
 20
713.0504
 11
617.1806
 21
711.9380
  0
LINE
  8
0_00
  6
CONTINUOUS
 62
4
 10
615.3031
 20
716.9298
 11
616.4715
 21
715.7615
  0
LINE
  8
0_00
  6
CONTINUOUS
 62
4
 10
614.6960
 20
716.2641
 11
615.8351
 21
715.1251
  0
LINE
  8
0_00
  6
CONTINUOUS
 62
4
 10
564.0031
 20
709.2008
 11
564.0031
 21
710.8008
  0
LINE
  8
0_00
  6
CONTINUOUS
 62
4
 10
563.4031
 20
709.2008
 11
564.0031
 21
709.2008
  0
LINE
  8
0_00
  6
CONTINUOUS
 62
4
 10
563.4031
 20
708.0008
 11
564.0031
 21
708.0008
  0
LINE
  8
0_00
  6
CONTINUOUS
 62
4
 10
563.0596
 20
710.8834
 11
564.0031
 21
710.8008
  0
LINE
  8
0_00
  6
CONTINUOUS
 62
4
 10
564.1902
 20
711.8887
 11
563.6257
 21
711.9380
  0
LINE
  8
0_00
  6
CONTINUOUS
 62
4
 10
562.6133
 20
711.4820
 11
562.9724
 21
713.2314
  0
LINE
  8
0_00
  6
CONTINUOUS
 62
4
 10
563.8541
 20
713.0504
 11
563.6257
 21
711.9380
  0
LINE
  8
0_00
  6
CONTINUOUS
 62
4
 10
565.5031
 20
716.9298
 11
564.3348
 21
715.7615
  0
LINE
  8
0_00
  6
CONTINUOUS
 62
4
 10
566.4032
 20
717.4508
 11
566.4032
 21
716.9713
  0
LINE
  8
0_00
  6
CONTINUOUS
 62
4
 10
565.5031
 20
717.4508
 11
565.5031
 21
716.9298
  0
LINE
  8
0_00
  6
CONTINUOUS
 62
4
 10
566.1102
 20
716.2641
 11
564.9712
 21
715.1251
  0
LINE
  8
0_00
  6
CONTINUOUS
 62
4
 10
590.7031
 20
706.5008
 11
601.9031
 21
706.5008
  0
LINE
  8
0_00
  6
CONTINUOUS
 62
4
 10
602.9031
 20
706.5008
 11
605.6031
 21
706.5008
  0
LINE
  8
0_00
  6
CONTINUOUS
 62
4
 10
575.2031
 20
706.5008
 11
577.9031
 21
706.5008
  0
LINE
  8
0_00
  6
CONTINUOUS
 62
4
 10
578.9031
 20
706.5008
 11
590.1031
 21
706.5008
  0
LINE
  8
0_00
  6
CONTINUOUS
 62
4
 10
614.4031
 20
717.4508
 11
614.4031
 21
716.9713
  0
LINE
  8
0_00
  6
CONTINUOUS
 62
4
 10
615.3031
 20
717.4508
 11
615.3031
 21
716.9298
  0
LINE
  8
15_0F
  6
CONTINUOUS
 62
4
 10
565.1032
 20
705.8008
 11
565.1032
 21
702.2014
  0
LINE
  8
0_00
  6
CONTINUOUS
 62
4
 10
615.7031
 20
705.8008
 11
611.2031
 21
705.8008
  0
LINE
  8
0_00
  6
CONTINUOUS
 62
4
 10
611.2031
 20
705.8008
 11
610.9031
 21
705.4008
  0
LINE
  8
15_0F
  6
CONTINUOUS
 62
4
 10
615.7031
 20
705.8008
 11
615.7031
 21
702.2014
  0
LINE
  8
0_00
  6
CONTINUOUS
 62
4
 10
605.6031
 20
706.5008
 11
605.9031
 21
707.4008
  0
LINE
  8
15_0F
  6
CONTINUOUS
 62
4
 10
578.9031
 20
707.3008
 11
579.9032
 21
707.3008
  0
LINE
  8
15_0F
  6
CONTINUOUS
 62
4
 10
578.9031
 20
707.3008
 11
578.9031
 21
706.5008
  0
LINE
  8
15_0F
  6
CONTINUOUS
 62
4
 10
601.9031
 20
707.3008
 11
600.9032
 21
707.3008
  0
LINE
  8
15_0F
  6
CONTINUOUS
 62
4
 10
601.9031
 20
707.3008
 11
601.9031
 21
706.5008
  0
LINE
  8
15_0F
  6
CONTINUOUS
 62
4
 10
564.0031
 20
702.4962
 11
563.4912
 21
701.6095
  0
LINE
  8
15_0F
  6
CONTINUOUS
 62
4
 10
565.1032
 20
702.2014
 11
564.5902
 21
701.3130
  0
LINE
  8
15_0F
  6
CONTINUOUS
 62
4
 10
616.8031
 20
702.4962
 11
617.3150
 21
701.6095
  0
LINE
  8
15_0F
  6
CONTINUOUS
 62
4
 10
615.7031
 20
702.2014
 11
616.2160
 21
701.3130
  0
LINE
  8
15_0F
  6
CONTINUOUS
 62
4
 10
583.3739
 20
684.9008
 11
597.4324
 21
684.9008
  0
LINE
  8
0_00
  6
CONTINUOUS
 62
4
 10
572.1031
 20
707.4008
 11
572.4031
 21
707.1009
  0
LINE
  8
0_00
  6
CONTINUOUS
 62
4
 10
569.9031
 20
707.4008
 11
572.1031
 21
707.4008
  0
LINE
  8
0_00
  6
CONTINUOUS
 62
4
 10
569.6031
 20
706.9008
 11
569.9031
 21
707.4008
  0
LINE
  8
0_00
  6
CONTINUOUS
 62
4
 10
572.7031
 20
707.4008
 11
572.4031
 21
707.1009
  0
LINE
  8
0_00
  6
CONTINUOUS
 62
4
 10
574.9032
 20
707.4008
 11
572.7031
 21
707.4008
  0
LINE
  8
0_00
  6
CONTINUOUS
 62
4
 10
569.6031
 20
705.8008
 11
569.9031
 21
705.4008
  0
LINE
  8
0_00
  6
CONTINUOUS
 62
4
 10
575.2031
 20
706.5008
 11
574.9032
 21
707.4008
  0
LINE
  8
0_00
  6
CONTINUOUS
 62
4
 10
612.0031
 20
719.1270
 11
616.5630
 21
719.1270
  0
LINE
  8
0_00
  6
CONTINUOUS
 62
4
 10
612.3031
 20
718.1192
 11
612.3031
 21
717.3271
  0
LINE
  8
0_00
  6
CONTINUOUS
 62
4
 10
611.5031
 20
718.6270
 11
611.5031
 21
717.3271
  0
LINE
  8
0_00
  6
CONTINUOUS
 62
4
 10
617.4672
 20
703.1667
 11
617.3375
 21
703.7984
  0
LINE
  8
0_00
  6
CONTINUOUS
 62
4
 10
609.4916
 20
730.2822
 11
610.0543
 21
730.8450
  0
LINE
  8
0_00
  6
CONTINUOUS
 62
4
 10
608.7845
 20
730.9893
 11
609.3472
 21
731.5520
  0
LINE
  8
0_00
  6
CONTINUOUS
 62
4
 10
617.4968
 20
718.1277
 11
612.5108
 21
718.3190
  0
LINE
  8
0_00
  6
CONTINUOUS
 62
4
 10
618.1803
 20
713.0277
 11
618.0745
 21
713.0277
  0
LINE
  8
0_00
  6
CONTINUOUS
 62
4
 10
618.0787
 20
714.5277
 11
617.8467
 21
714.5277
  0
LINE
  8
0_00
  6
CONTINUOUS
 62
4
 10
617.6509
 20
714.2871
 11
617.8786
 21
713.1872
  0
LINE
  8
0_00
  6
CONTINUOUS
 62
4
 10
618.1860
 20
710.9270
 11
617.0759
 21
710.8299
  0
LINE
  8
0_00
  6
CONTINUOUS
 62
4
 10
568.8045
 20
719.1258
 11
564.2445
 21
719.1255
  0
LINE
  8
0_00
  6
CONTINUOUS
 62
4
 10
568.5045
 20
718.1179
 11
568.5045
 21
717.3257
  0
LINE
  8
0_00
  6
CONTINUOUS
 62
4
 10
569.3044
 20
718.6257
 11
569.3045
 21
717.3257
  0
LINE
  8
0_00
  6
CONTINUOUS
 62
4
 10
563.3413
 20
703.1650
 11
563.4710
 21
703.7967
  0
LINE
  8
0_00
  6
CONTINUOUS
 62
4
 10
571.3152
 20
730.2811
 11
570.7525
 21
730.8437
  0
LINE
  8
0_00
  6
CONTINUOUS
 62
4
 10
572.0223
 20
730.9883
 11
571.4595
 21
731.5509
  0
LINE
  8
0_00
  6
CONTINUOUS
 62
4
 10
563.3108
 20
718.1261
 11
568.2968
 21
718.3178
  0
LINE
  8
0_00
  6
CONTINUOUS
 62
4
 10
562.6276
 20
713.0261
 11
562.7334
 21
713.0261
  0
LINE
  8
0_00
  6
CONTINUOUS
 62
4
 10
562.7291
 20
714.5260
 11
562.9611
 21
714.5261
  0
LINE
  8
0_00
  6
CONTINUOUS
 62
4
 10
563.1569
 20
714.2856
 11
562.9292
 21
713.1856
  0
LINE
  8
0_00
  6
CONTINUOUS
 62
4
 10
562.6219
 20
710.9253
 11
563.7322
 21
710.8283
  0
LINE
  8
3_03
  6
CONTINUOUS
 62
4
 10
201.9841
 20
474.4008
 11
201.9841
 21
476.9008
  0
LINE
  8
0_00
  6
CONTINUOUS
 62
4
 10
199.9841
 20
474.7008
 11
199.9841
 21
476.9008
  0
LINE
  8
0_00
  6
DASHED
 62
2
 10
228.7841
 20
479.7009
 11
228.7841
 21
434.0310
  0
LINE
  8
0_00
  6
CONTINUOUS
 62
2
 10
220.3841
 20
479.7009
 11
232.1841
 21
479.7009
  0
LINE
  8
0_00
  6
CONTINUOUS
 62
2
 10
232.1841
 20
480.0486
 11
232.1841
 21
479.7009
  0
LINE
  8
0_00
  6
DASHED
 62
2
 10
228.0341
 20
479.7009
 11
228.0341
 21
432.7319
  0
LINE
  8
0_00
  6
DASHED
 62
2
 10
226.2841
 20
429.7008
 11
228.7841
 21
434.0310
  0
LINE
  8
0_00
  6
DASHED
 62
2
 10
223.7841
 20
479.7009
 11
223.7841
 21
434.0310
  0
LINE
  8
0_00
  6
CONTINUOUS
 62
2
 10
220.3841
 20
480.0486
 11
220.3841
 21
479.7009
  0
LINE
  8
0_00
  6
DASHED
 62
2
 10
224.5341
 20
479.7009
 11
224.5341
 21
432.7319
  0
LINE
  8
0_00
  6
DASHED
 62
2
 10
226.2841
 20
429.7008
 11
223.7841
 21
434.0310
  0
LINE
  8
0_00
  6
CONTINUOUS
 62
2
 10
220.3841
 20
480.0486
 11
232.1841
 21
480.0486
  0
LINE
  8
11_0B
  6
DASHED
 62
2
 10
223.2841
 20
470.9008
 11
223.2841
 21
461.9511
  0
LINE
  8
11_0B
  6
DASHED
 62
2
 10
222.8102
 20
459.5993
 11
222.6764
 21
458.0697
  0
LINE
  8
11_0B
  6
DASHED
 62
2
 10
222.4834
 20
455.8635
 11
222.3496
 21
454.3340
  0
LINE
  8
11_0B
  6
DASHED
 62
2
 10
222.1566
 20
452.1279
 11
222.0228
 21
450.5983
  0
LINE
  8
11_0B
  6
DASHED
 62
2
 10
221.8297
 20
448.3921
 11
221.6959
 21
446.8625
  0
LINE
  8
11_0B
  6
DASHED
 62
2
 10
221.5029
 20
444.6564
 11
221.3827
 21
443.2822
  0
LINE
  8
11_0B
  6
DASHED
 62
2
 10
229.2841
 20
470.9008
 11
229.2841
 21
461.9511
  0
LINE
  8
11_0B
  6
DASHED
 62
2
 10
229.7579
 20
459.5993
 11
229.8918
 21
458.0697
  0
LINE
  8
11_0B
  6
DASHED
 62
2
 10
230.0848
 20
455.8635
 11
230.2186
 21
454.3340
  0
LINE
  8
11_0B
  6
DASHED
 62
2
 10
230.4116
 20
452.1279
 11
230.5454
 21
450.5983
  0
LINE
  8
11_0B
  6
DASHED
 62
2
 10
230.7384
 20
448.3921
 11
230.8722
 21
446.8625
  0
LINE
  8
11_0B
  6
DASHED
 62
2
 10
231.0653
 20
444.6564
 11
231.1855
 21
443.2822
  0
LINE
  8
11_0B
  6
DASHED
 62
2
 10
223.2841
 20
470.9008
 11
229.2841
 21
470.9008
  0
LINE
  8
11_0B
  6
DASHED
 62
2
 10
225.9091
 20
464.9008
 11
226.6591
 21
464.9008
  0
LINE
  8
11_0B
  6
DASHED
 62
2
 10
226.6591
 20
464.9008
 11
228.7508
 21
440.9922
  0
LINE
  8
11_0B
  6
DASHED
 62
2
 10
223.8173
 20
440.9922
 11
225.9091
 21
464.9008
  0
LINE
  8
11_0B
  6
DASHED
 62
2
 10
222.3231
 20
441.1229
 11
223.8173
 21
440.9922
  0
LINE
  8
11_0B
  6
DASHED
 62
2
 10
228.7508
 20
440.9922
 11
230.2451
 21
441.1229
  0
LINE
  8
11_0B
  6
DASHED
 62
2
 10
230.2451
 20
441.1229
 11
231.1450
 21
443.0528
  0
LINE
  8
11_0B
  6
DASHED
 62
2
 10
222.3231
 20
441.1229
 11
221.4231
 21
443.0528
  0
LINE
  8
11_0B
  6
DASHED
 62
2
 10
221.3722
 20
443.1621
 11
223.9872
 21
442.9333
  0
LINE
  8
11_0B
  6
DASHED
 62
2
 10
228.5810
 20
442.9333
 11
231.1960
 21
443.1621
  0
LINE
  8
11_0B
  6
DASHED
 62
2
 10
221.5029
 20
444.6564
 11
223.1466
 21
444.5126
  0
LINE
  8
11_0B
  6
DASHED
 62
2
 10
229.4216
 20
444.5126
 11
231.0653
 21
444.6564
  0
LINE
  8
11_0B
  6
DASHED
 62
2
 10
221.8297
 20
448.3921
 11
223.4734
 21
448.2483
  0
LINE
  8
11_0B
  6
DASHED
 62
2
 10
229.0947
 20
448.2483
 11
230.7384
 21
448.3921
  0
LINE
  8
11_0B
  6
DASHED
 62
2
 10
222.1566
 20
452.1279
 11
223.8003
 21
451.9840
  0
LINE
  8
11_0B
  6
DASHED
 62
2
 10
228.7679
 20
451.9840
 11
230.4116
 21
452.1279
  0
LINE
  8
11_0B
  6
DASHED
 62
2
 10
222.4834
 20
455.8635
 11
224.1271
 21
455.7198
  0
LINE
  8
11_0B
  6
DASHED
 62
2
 10
228.4410
 20
455.7198
 11
230.0848
 21
455.8635
  0
LINE
  8
11_0B
  6
DASHED
 62
2
 10
222.8102
 20
459.5993
 11
224.0057
 21
459.4947
  0
LINE
  8
11_0B
  6
DASHED
 62
2
 10
228.5625
 20
459.4947
 11
229.7579
 21
459.5993
  0
LINE
  8
11_0B
  6
DASHED
 62
2
 10
223.9786
 20
457.4641
 11
223.8283
 21
455.7459
  0
LINE
  8
11_0B
  6
DASHED
 62
2
 10
223.6518
 20
453.7284
 11
223.5014
 21
452.0102
  0
LINE
  8
11_0B
  6
DASHED
 62
2
 10
223.3249
 20
449.9927
 11
223.1746
 21
448.2745
  0
LINE
  8
11_0B
  6
DASHED
 62
2
 10
222.9981
 20
446.2570
 11
222.8478
 21
444.5387
  0
LINE
  8
11_0B
  6
DASHED
 62
2
 10
229.7204
 20
444.5387
 11
229.5701
 21
446.2570
  0
LINE
  8
11_0B
  6
DASHED
 62
2
 10
229.3936
 20
448.2745
 11
229.2433
 21
449.9927
  0
LINE
  8
11_0B
  6
DASHED
 62
2
 10
229.0667
 20
452.0102
 11
228.9164
 21
453.7284
  0
LINE
  8
11_0B
  6
DASHED
 62
2
 10
228.7399
 20
455.7459
 11
228.5896
 21
457.4641
  0
LINE
  8
11_0B
  6
DASHED
 62
2
 10
229.3718
 20
446.2039
 11
230.6510
 21
446.5466
  0
LINE
  8
11_0B
  6
DASHED
 62
2
 10
223.3179
 20
446.1713
 11
221.9171
 21
446.5466
  0
LINE
  8
11_0B
  6
DASHED
 62
2
 10
229.0451
 20
449.9396
 11
230.3242
 21
450.2823
  0
LINE
  8
11_0B
  6
DASHED
 62
2
 10
223.5231
 20
449.9396
 11
222.2439
 21
450.2823
  0
LINE
  8
11_0B
  6
DASHED
 62
2
 10
228.7182
 20
453.6753
 11
229.9974
 21
454.0181
  0
LINE
  8
11_0B
  6
DASHED
 62
2
 10
223.8500
 20
453.6753
 11
222.5708
 21
454.0181
  0
LINE
  8
11_0B
  6
DASHED
 62
2
 10
228.3914
 20
457.4111
 11
229.6706
 21
457.7538
  0
LINE
  8
11_0B
  6
DASHED
 62
2
 10
224.1768
 20
457.4111
 11
222.8976
 21
457.7538
  0
LINE
  8
11_0B
  6
DASHED
 62
2
 10
223.8562
 20
459.5078
 11
224.0581
 21
461.8146
  0
LINE
  8
11_0B
  6
DASHED
 62
2
 10
228.7119
 20
459.5078
 11
228.5101
 21
461.8146
  0
LINE
  8
11_0B
  6
DASHED
 62
2
 10
224.3980
 20
457.0951
 11
224.2896
 21
455.8561
  0
LINE
  8
11_0B
  6
DASHED
 62
2
 10
224.0712
 20
453.3593
 11
223.9628
 21
452.1204
  0
LINE
  8
11_0B
  6
DASHED
 62
2
 10
223.7444
 20
449.6236
 11
223.6360
 21
448.3846
  0
LINE
  8
11_0B
  6
DASHED
 62
2
 10
223.4285
 20
446.0133
 11
223.3091
 21
444.6489
  0
LINE
  8
11_0B
  6
DASHED
 62
2
 10
229.2591
 20
444.6489
 11
229.1507
 21
445.8879
  0
LINE
  8
11_0B
  6
DASHED
 62
2
 10
228.9322
 20
448.3846
 11
228.8238
 21
449.6236
  0
LINE
  8
11_0B
  6
DASHED
 62
2
 10
228.6054
 20
452.1204
 11
228.4970
 21
453.3593
  0
LINE
  8
11_0B
  6
DASHED
 62
2
 10
228.2786
 20
455.8561
 11
228.1702
 21
457.0951
  0
LINE
  8
11_0B
  6
DASHED
 62
2
 10
224.0839
 20
461.8100
 11
223.2841
 21
461.9511
  0
LINE
  8
11_0B
  6
DASHED
 62
2
 10
228.4843
 20
461.8100
 11
229.2841
 21
461.9511
  0
LINE
  8
11_0B
  6
DASHED
 62
2
 10
230.0848
 20
455.8635
 11
232.1767
 21
460.3498
  0
LINE
  8
11_0B
  6
DASHED
 62
2
 10
231.4970
 20
460.6668
 11
229.2220
 21
455.7881
  0
LINE
  8
11_0B
  6
DASHED
 62
2
 10
222.4834
 20
455.8635
 11
220.3915
 21
460.3498
  0
LINE
  8
11_0B
  6
DASHED
 62
2
 10
221.0712
 20
460.6668
 11
223.3461
 21
455.7881
  0
LINE
  8
11_0B
  6
DASHED
 62
2
 10
232.0316
 20
460.7485
 11
231.8957
 21
460.8118
  0
LINE
  8
11_0B
  6
DASHED
 62
2
 10
220.5366
 20
460.7485
 11
220.6725
 21
460.8118
  0
LINE
  8
11_0B
  6
DASHED
 62
2
 10
224.3307
 20
461.4884
 11
224.1682
 21
459.6311
  0
LINE
  8
11_0B
  6
DASHED
 62
2
 10
228.2375
 20
461.4884
 11
228.5896
 21
457.4641
  0
LINE
  8
11_0B
  6
DASHED
 62
2
 10
279.2841
 20
470.9008
 11
279.2841
 21
461.9511
  0
LINE
  8
11_0B
  6
DASHED
 62
2
 10
278.8102
 20
459.5993
 11
278.6764
 21
458.0697
  0
LINE
  8
11_0B
  6
DASHED
 62
2
 10
278.4834
 20
455.8635
 11
278.3496
 21
454.3340
  0
LINE
  8
11_0B
  6
DASHED
 62
2
 10
278.1566
 20
452.1279
 11
278.0228
 21
450.5983
  0
LINE
  8
11_0B
  6
DASHED
 62
2
 10
277.8298
 20
448.3921
 11
277.6959
 21
446.8625
  0
LINE
  8
11_0B
  6
DASHED
 62
2
 10
277.5029
 20
444.6564
 11
277.3827
 21
443.2822
  0
LINE
  8
11_0B
  6
DASHED
 62
2
 10
285.2841
 20
470.9008
 11
285.2841
 21
461.9511
  0
LINE
  8
11_0B
  6
DASHED
 62
2
 10
285.7579
 20
459.5993
 11
285.8918
 21
458.0697
  0
LINE
  8
11_0B
  6
DASHED
 62
2
 10
286.0848
 20
455.8635
 11
286.2186
 21
454.3340
  0
LINE
  8
11_0B
  6
DASHED
 62
2
 10
286.4116
 20
452.1279
 11
286.5455
 21
450.5983
  0
LINE
  8
11_0B
  6
DASHED
 62
2
 10
286.7384
 20
448.3921
 11
286.8723
 21
446.8625
  0
LINE
  8
11_0B
  6
DASHED
 62
2
 10
287.0653
 20
444.6564
 11
287.1855
 21
443.2822
  0
LINE
  8
11_0B
  6
DASHED
 62
2
 10
279.2841
 20
470.9008
 11
285.2841
 21
470.9008
  0
LINE
  8
11_0B
  6
DASHED
 62
2
 10
281.9091
 20
464.9008
 11
282.6591
 21
464.9008
  0
LINE
  8
11_0B
  6
DASHED
 62
2
 10
282.6591
 20
464.9008
 11
284.7508
 21
440.9922
  0
LINE
  8
11_0B
  6
DASHED
 62
2
 10
279.8174
 20
440.9922
 11
281.9091
 21
464.9008
  0
LINE
  8
11_0B
  6
DASHED
 62
2
 10
278.3231
 20
441.1229
 11
279.8174
 21
440.9922
  0
LINE
  8
11_0B
  6
DASHED
 62
2
 10
284.7508
 20
440.9922
 11
286.2451
 21
441.1229
  0
LINE
  8
11_0B
  6
DASHED
 62
2
 10
286.2451
 20
441.1229
 11
287.1451
 21
443.0528
  0
LINE
  8
11_0B
  6
DASHED
 62
2
 10
278.3231
 20
441.1229
 11
277.4231
 21
443.0528
  0
LINE
  8
11_0B
  6
DASHED
 62
2
 10
277.3721
 20
443.1621
 11
279.9872
 21
442.9333
  0
LINE
  8
11_0B
  6
DASHED
 62
2
 10
284.5810
 20
442.9333
 11
287.1960
 21
443.1621
  0
LINE
  8
11_0B
  6
DASHED
 62
2
 10
277.5029
 20
444.6564
 11
279.1466
 21
444.5126
  0
LINE
  8
11_0B
  6
DASHED
 62
2
 10
285.4216
 20
444.5126
 11
287.0653
 21
444.6564
  0
LINE
  8
11_0B
  6
DASHED
 62
2
 10
277.8298
 20
448.3921
 11
279.4734
 21
448.2483
  0
LINE
  8
11_0B
  6
DASHED
 62
2
 10
285.0947
 20
448.2483
 11
286.7384
 21
448.3921
  0
LINE
  8
11_0B
  6
DASHED
 62
2
 10
278.1566
 20
452.1279
 11
279.8003
 21
451.9840
  0
LINE
  8
11_0B
  6
DASHED
 62
2
 10
284.7679
 20
451.9840
 11
286.4116
 21
452.1279
  0
LINE
  8
11_0B
  6
DASHED
 62
2
 10
278.4834
 20
455.8635
 11
280.1271
 21
455.7198
  0
LINE
  8
11_0B
  6
DASHED
 62
2
 10
284.4410
 20
455.7198
 11
286.0848
 21
455.8635
  0
LINE
  8
11_0B
  6
DASHED
 62
2
 10
278.8102
 20
459.5993
 11
280.0057
 21
459.4947
  0
LINE
  8
11_0B
  6
DASHED
 62
2
 10
284.5625
 20
459.4947
 11
285.7579
 21
459.5993
  0
LINE
  8
11_0B
  6
DASHED
 62
2
 10
279.9786
 20
457.4641
 11
279.8283
 21
455.7459
  0
LINE
  8
11_0B
  6
DASHED
 62
2
 10
279.6518
 20
453.7284
 11
279.5014
 21
452.0102
  0
LINE
  8
11_0B
  6
DASHED
 62
2
 10
279.3249
 20
449.9927
 11
279.1746
 21
448.2745
  0
LINE
  8
11_0B
  6
DASHED
 62
2
 10
278.9981
 20
446.2570
 11
278.8478
 21
444.5387
  0
LINE
  8
11_0B
  6
DASHED
 62
2
 10
285.7204
 20
444.5387
 11
285.5701
 21
446.2570
  0
LINE
  8
11_0B
  6
DASHED
 62
2
 10
285.3936
 20
448.2745
 11
285.2433
 21
449.9927
  0
LINE
  8
11_0B
  6
DASHED
 62
2
 10
285.0667
 20
452.0102
 11
284.9164
 21
453.7284
  0
LINE
  8
11_0B
  6
DASHED
 62
2
 10
284.7399
 20
455.7459
 11
284.5896
 21
457.4641
  0
LINE
  8
11_0B
  6
DASHED
 62
2
 10
285.3719
 20
446.2039
 11
286.6511
 21
446.5466
  0
LINE
  8
11_0B
  6
DASHED
 62
2
 10
279.3179
 20
446.1713
 11
277.9172
 21
446.5466
  0
LINE
  8
11_0B
  6
DASHED
 62
2
 10
285.0450
 20
449.9396
 11
286.3242
 21
450.2823
  0
LINE
  8
11_0B
  6
DASHED
 62
2
 10
279.5231
 20
449.9396
 11
278.2440
 21
450.2823
  0
LINE
  8
11_0B
  6
DASHED
 62
2
 10
284.7182
 20
453.6753
 11
285.9974
 21
454.0181
  0
LINE
  8
11_0B
  6
DASHED
 62
2
 10
279.8500
 20
453.6753
 11
278.5708
 21
454.0181
  0
LINE
  8
11_0B
  6
DASHED
 62
2
 10
284.3914
 20
457.4111
 11
285.6706
 21
457.7538
  0
LINE
  8
11_0B
  6
DASHED
 62
2
 10
280.1768
 20
457.4111
 11
278.8976
 21
457.7538
  0
LINE
  8
11_0B
  6
DASHED
 62
2
 10
279.8562
 20
459.5078
 11
280.0581
 21
461.8146
  0
LINE
  8
11_0B
  6
DASHED
 62
2
 10
284.7120
 20
459.5078
 11
284.5101
 21
461.8146
  0
LINE
  8
11_0B
  6
DASHED
 62
2
 10
280.3980
 20
457.0951
 11
280.2896
 21
455.8561
  0
LINE
  8
11_0B
  6
DASHED
 62
2
 10
280.0712
 20
453.3593
 11
279.9628
 21
452.1204
  0
LINE
  8
11_0B
  6
DASHED
 62
2
 10
279.7443
 20
449.6236
 11
279.6359
 21
448.3846
  0
LINE
  8
11_0B
  6
DASHED
 62
2
 10
279.4285
 20
446.0133
 11
279.3091
 21
444.6489
  0
LINE
  8
11_0B
  6
DASHED
 62
2
 10
285.2591
 20
444.6489
 11
285.1507
 21
445.8879
  0
LINE
  8
11_0B
  6
DASHED
 62
2
 10
284.9322
 20
448.3846
 11
284.8238
 21
449.6236
  0
LINE
  8
11_0B
  6
DASHED
 62
2
 10
284.6054
 20
452.1204
 11
284.4970
 21
453.3593
  0
LINE
  8
11_0B
  6
DASHED
 62
2
 10
284.2786
 20
455.8561
 11
284.1702
 21
457.0951
  0
LINE
  8
11_0B
  6
DASHED
 62
2
 10
280.0839
 20
461.8100
 11
279.2841
 21
461.9511
  0
LINE
  8
11_0B
  6
DASHED
 62
2
 10
284.4843
 20
461.8100
 11
285.2841
 21
461.9511
  0
LINE
  8
11_0B
  6
DASHED
 62
2
 10
286.0848
 20
455.8635
 11
288.1767
 21
460.3498
  0
LINE
  8
11_0B
  6
DASHED
 62
2
 10
287.4970
 20
460.6668
 11
285.2220
 21
455.7881
  0
LINE
  8
11_0B
  6
DASHED
 62
2
 10
278.4834
 20
455.8635
 11
276.3914
 21
460.3498
  0
LINE
  8
11_0B
  6
DASHED
 62
2
 10
277.0712
 20
460.6668
 11
279.3461
 21
455.7881
  0
LINE
  8
11_0B
  6
DASHED
 62
2
 10
288.0316
 20
460.7485
 11
287.8957
 21
460.8118
  0
LINE
  8
11_0B
  6
DASHED
 62
2
 10
276.5366
 20
460.7485
 11
276.6725
 21
460.8118
  0
LINE
  8
11_0B
  6
DASHED
 62
2
 10
280.3307
 20
461.4884
 11
280.1682
 21
459.6311
  0
LINE
  8
11_0B
  6
DASHED
 62
2
 10
284.2375
 20
461.4884
 11
284.5896
 21
457.4641
  0
LINE
  8
0_00
  6
DASHED
 62
2
 10
284.7841
 20
479.7009
 11
284.7841
 21
434.0310
  0
LINE
  8
0_00
  6
DASHED
 62
2
 10
276.3841
 20
479.7009
 11
288.1841
 21
479.7009
  0
LINE
  8
0_00
  6
DASHED
 62
2
 10
288.1841
 20
480.0486
 11
288.1841
 21
479.7009
  0
LINE
  8
0_00
  6
DASHED
 62
2
 10
284.0341
 20
479.7009
 11
284.0341
 21
432.7319
  0
LINE
  8
0_00
  6
DASHED
 62
2
 10
282.2841
 20
429.7008
 11
284.7841
 21
434.0310
  0
LINE
  8
0_00
  6
DASHED
 62
2
 10
279.7841
 20
479.7009
 11
279.7841
 21
434.0310
  0
LINE
  8
0_00
  6
DASHED
 62
2
 10
276.3841
 20
480.0486
 11
276.3841
 21
479.7009
  0
LINE
  8
0_00
  6
DASHED
 62
2
 10
280.5341
 20
479.7009
 11
280.5341
 21
432.7319
  0
LINE
  8
0_00
  6
DASHED
 62
2
 10
282.2841
 20
429.7008
 11
279.7841
 21
434.0310
  0
LINE
  8
0_00
  6
DASHED
 62
2
 10
276.3841
 20
480.0486
 11
288.1841
 21
480.0486
  0
LINE
  8
0_00
  6
CONTINUOUS
 62
4
 10
202.2841
 20
487.2009
 11
202.2841
 21
474.2008
  0
LINE
  8
0_00
  6
CONTINUOUS
 62
4
 10
306.2841
 20
483.7008
 11
306.2841
 21
474.2008
  0
LINE
  8
0_00
  6
CONTINUOUS
 62
4
 10
201.9841
 20
474.2008
 11
306.5841
 21
474.2008
  0
LINE
  8
0_00
  6
CONTINUOUS
 62
4
 10
202.2841
 20
477.4008
 11
306.2841
 21
477.4008
  0
LINE
  8
0_00
  6
CONTINUOUS
 62
4
 10
253.9841
 20
477.4008
 11
254.2841
 21
477.1008
  0
LINE
  8
0_00
  6
CONTINUOUS
 62
4
 10
254.2841
 20
477.1008
 11
254.5841
 21
477.4008
  0
LINE
  8
0_00
  6
CONTINUOUS
 62
4
 10
234.2841
 20
481.9008
 11
274.2841
 21
481.9008
  0
LINE
  8
0_00
  6
CONTINUOUS
 62
4
 10
234.2841
 20
481.9008
 11
234.2841
 21
479.7009
  0
LINE
  8
0_00
  6
CONTINUOUS
 62
4
 10
274.2841
 20
481.9008
 11
274.2841
 21
479.7009
  0
LINE
  8
0_00
  6
CONTINUOUS
 62
4
 10
216.7841
 20
479.7009
 11
291.7841
 21
479.7009
  0
LINE
  8
14_0E
  6
CONTINUOUS
 62
4
 10
202.2841
 20
487.2009
 11
231.7841
 21
486.2081
  0
LINE
  8
0_00
  6
CONTINUOUS
 62
4
 10
276.7841
 20
484.6936
 11
306.2841
 21
483.7008
  0
LINE
  8
0_00
  6
CONTINUOUS
 62
4
 10
291.7841
 20
479.7009
 11
291.7841
 21
477.4410
  0
LINE
  8
0_00
  6
CONTINUOUS
 62
4
 10
216.7841
 20
479.7009
 11
216.7841
 21
477.4008
  0
LINE
  8
15_0F
  6
CONTINUOUS
 62
4
 10
231.7841
 20
480.4897
 11
231.7841
 21
486.2081
  0
LINE
  8
15_0F
  6
CONTINUOUS
 62
4
 10
276.7841
 20
479.7009
 11
276.7841
 21
484.6936
  0
LINE
  8
12_0C
  6
CONTINUOUS
 62
2
 10
232.7841
 20
485.0435
 11
232.7841
 21
486.0135
  0
LINE
  8
12_0C
  6
CONTINUOUS
 62
2
 10
239.7841
 20
485.0435
 11
239.7841
 21
486.0135
  0
LINE
  8
12_0C
  6
DASHED
 62
2
 10
238.2841
 20
486.0135
 11
238.2841
 21
506.1935
  0
LINE
  8
12_0C
  6
DASHED
 62
2
 10
237.7841
 20
486.0135
 11
237.7841
 21
510.5753
  0
LINE
  8
12_0C
  6
DASHED
 62
2
 10
234.2841
 20
486.0135
 11
234.2841
 21
506.1935
  0
LINE
  8
12_0C
  6
DASHED
 62
2
 10
234.7841
 20
486.0135
 11
234.7841
 21
510.5753
  0
LINE
  8
12_0C
  6
DASHED
 62
2
 10
238.2841
 20
506.1935
 11
237.7341
 21
511.0135
  0
LINE
  8
12_0C
  6
DASHED
 62
2
 10
234.2841
 20
506.1935
 11
234.8341
 21
511.0135
  0
LINE
  8
12_0C
  6
DASHED
 62
2
 10
237.7341
 20
511.0135
 11
234.8341
 21
511.0135
  0
LINE
  8
0_00
  6
CONTINUOUS
 62
2
 10
239.7841
 20
486.0135
 11
232.7841
 21
486.0135
  0
LINE
  8
12_0C
  6
CONTINUOUS
 62
2
 10
268.7841
 20
483.7864
 11
268.7841
 21
484.7564
  0
LINE
  8
12_0C
  6
CONTINUOUS
 62
2
 10
275.7841
 20
483.7864
 11
275.7841
 21
484.7564
  0
LINE
  8
12_0C
  6
DASHED
 62
2
 10
274.2841
 20
484.7564
 11
274.2841
 21
504.9364
  0
LINE
  8
12_0C
  6
DASHED
 62
2
 10
273.7841
 20
484.7564
 11
273.7841
 21
509.3182
  0
LINE
  8
12_0C
  6
DASHED
 62
2
 10
270.2841
 20
484.7564
 11
270.2841
 21
504.9364
  0
LINE
  8
12_0C
  6
DASHED
 62
2
 10
270.7841
 20
484.7564
 11
270.7841
 21
509.3182
  0
LINE
  8
12_0C
  6
DASHED
 62
2
 10
274.2841
 20
504.9364
 11
273.7341
 21
509.7564
  0
LINE
  8
12_0C
  6
DASHED
 62
2
 10
270.2841
 20
504.9364
 11
270.8341
 21
509.7564
  0
LINE
  8
12_0C
  6
DASHED
 62
2
 10
273.7341
 20
509.7564
 11
270.8341
 21
509.7564
  0
LINE
  8
0_00
  6
CONTINUOUS
 62
2
 10
275.7841
 20
484.7564
 11
268.7841
 21
484.7564
  0
LINE
  8
0_00
  6
CONTINUOUS
 62
2
 10
754.4301
 20
297.3146
 11
750.3303
 21
297.3146
  0
LINE
  8
0_00
  6
CONTINUOUS
 62
2
 10
749.9303
 20
297.3146
 11
745.8304
 21
297.3146
  0
LINE
  8
0_00
  6
CONTINUOUS
 62
2
 10
757.1302
 20
291.0646
 11
757.1302
 21
289.7646
  0
LINE
  8
0_00
  6
CONTINUOUS
 62
2
 10
757.1302
 20
289.3646
 11
757.1302
 21
288.0646
  0
LINE
  8
0_00
  6
CONTINUOUS
 62
2
 10
745.7985
 20
296.2646
 11
747.1316
 21
296.2646
  0
LINE
  8
0_00
  6
CONTINUOUS
 62
2
 10
754.4620
 20
296.2646
 11
753.1290
 21
296.2646
  0
LINE
  8
0_00
  6
CONTINUOUS
 62
2
 10
752.1302
 20
294.8146
 11
752.1302
 21
293.3146
  0
LINE
  8
0_00
  6
CONTINUOUS
 62
2
 10
748.1303
 20
294.8146
 11
748.1303
 21
293.3146
  0
LINE
  8
0_00
  6
CONTINUOUS
 62
2
 10
749.3802
 20
296.0646
 11
750.8803
 21
296.0646
  0
LINE
  8
0_00
  6
CONTINUOUS
 62
2
 10
750.8803
 20
296.0646
 11
750.8803
 21
295.5902
  0
LINE
  8
0_00
  6
CONTINUOUS
 62
2
 10
749.3802
 20
296.0646
 11
749.3802
 21
295.5902
  0
LINE
  8
0_00
  6
CONTINUOUS
 62
2
 10
751.6559
 20
294.8146
 11
752.1302
 21
294.8146
  0
LINE
  8
0_00
  6
CONTINUOUS
 62
2
 10
751.6559
 20
293.3146
 11
752.1302
 21
293.3146
  0
LINE
  8
0_00
  6
CONTINUOUS
 62
2
 10
748.1303
 20
294.8146
 11
748.6047
 21
294.8146
  0
LINE
  8
0_00
  6
CONTINUOUS
 62
2
 10
748.1303
 20
293.3146
 11
748.6047
 21
293.3146
  0
LINE
  8
0_00
  6
CONTINUOUS
 62
2
 10
748.4533
 20
292.0646
 11
748.7377
 21
292.0646
  0
LINE
  8
0_00
  6
CONTINUOUS
 62
2
 10
751.5229
 20
292.0646
 11
751.8073
 21
292.0646
  0
LINE
  8
0_00
  6
CONTINUOUS
 62
2
 10
756.0303
 20
291.0646
 11
756.0303
 21
288.0646
  0
LINE
  8
0_00
  6
CONTINUOUS
 62
2
 10
756.9303
 20
289.5646
 11
757.1302
 21
289.7646
  0
LINE
  8
0_00
  6
CONTINUOUS
 62
2
 10
756.9303
 20
289.5646
 11
757.1302
 21
289.3646
  0
LINE
  8
0_00
  6
CONTINUOUS
 62
2
 10
749.9303
 20
297.3146
 11
750.1302
 21
297.1146
  0
LINE
  8
0_00
  6
CONTINUOUS
 62
2
 10
750.3303
 20
297.3146
 11
750.1302
 21
297.1146
  0
LINE
  8
0_00
  6
CONTINUOUS
 62
2
 10
743.1302
 20
291.0646
 11
743.1302
 21
289.7646
  0
LINE
  8
0_00
  6
CONTINUOUS
 62
2
 10
743.1302
 20
289.3646
 11
743.1302
 21
288.0646
  0
LINE
  8
0_00
  6
CONTINUOUS
 62
2
 10
744.2303
 20
291.0646
 11
744.2303
 21
288.0646
  0
LINE
  8
0_00
  6
CONTINUOUS
 62
2
 10
743.3303
 20
289.5646
 11
743.1302
 21
289.7646
  0
LINE
  8
0_00
  6
CONTINUOUS
 62
2
 10
743.3303
 20
289.5646
 11
743.1302
 21
289.3646
  0
LINE
  8
0_00
  6
CONTINUOUS
 62
2
 10
754.4301
 20
281.8147
 11
750.3303
 21
281.8147
  0
LINE
  8
0_00
  6
CONTINUOUS
 62
2
 10
749.9303
 20
281.8147
 11
745.8304
 21
281.8147
  0
LINE
  8
0_00
  6
CONTINUOUS
 62
2
 10
745.7985
 20
282.8646
 11
747.1316
 21
282.8646
  0
LINE
  8
0_00
  6
CONTINUOUS
 62
2
 10
754.4620
 20
282.8646
 11
753.1290
 21
282.8646
  0
LINE
  8
0_00
  6
CONTINUOUS
 62
2
 10
752.1302
 20
284.3146
 11
752.1302
 21
285.8146
  0
LINE
  8
0_00
  6
CONTINUOUS
 62
2
 10
748.1303
 20
284.3146
 11
748.1303
 21
285.8146
  0
LINE
  8
0_00
  6
CONTINUOUS
 62
2
 10
749.3802
 20
283.0646
 11
750.8803
 21
283.0646
  0
LINE
  8
0_00
  6
CONTINUOUS
 62
2
 10
750.8803
 20
283.0646
 11
750.8803
 21
283.5390
  0
LINE
  8
0_00
  6
CONTINUOUS
 62
2
 10
749.3802
 20
283.0646
 11
749.3802
 21
283.5390
  0
LINE
  8
0_00
  6
CONTINUOUS
 62
2
 10
751.6559
 20
284.3146
 11
752.1302
 21
284.3146
  0
LINE
  8
0_00
  6
CONTINUOUS
 62
2
 10
751.6559
 20
285.8146
 11
752.1302
 21
285.8146
  0
LINE
  8
0_00
  6
CONTINUOUS
 62
2
 10
748.1303
 20
284.3146
 11
748.6047
 21
284.3146
  0
LINE
  8
0_00
  6
CONTINUOUS
 62
2
 10
748.1303
 20
285.8146
 11
748.6047
 21
285.8146
  0
LINE
  8
0_00
  6
CONTINUOUS
 62
2
 10
748.4533
 20
287.0647
 11
748.7377
 21
287.0647
  0
LINE
  8
0_00
  6
CONTINUOUS
 62
2
 10
751.5229
 20
287.0647
 11
751.8073
 21
287.0647
  0
LINE
  8
0_00
  6
CONTINUOUS
 62
2
 10
749.9303
 20
281.8147
 11
750.1302
 21
282.0146
  0
LINE
  8
0_00
  6
CONTINUOUS
 62
2
 10
750.3303
 20
281.8147
 11
750.1302
 21
282.0146
  0
LINE
  8
0_00
  6
CENTER1
 62
6
 10
731.3803
 20
329.2960
 11
731.3803
 21
306.6951
  0
LINE
  8
0_00
  6
CENTER1
 62
6
 10
718.3351
 20
317.5646
 11
741.2147
 21
317.5646
  0
LINE
  8
0_00
  6
CONTINUOUS
 62
2
 10
730.1043
 20
319.6545
 11
730.9732
 21
318.8158
  0
LINE
  8
0_00
  6
CONTINUOUS
 62
2
 10
730.9732
 20
318.8158
 11
731.3803
 21
318.6673
  0
LINE
  8
0_00
  6
CONTINUOUS
 62
2
 10
731.3803
 20
318.6673
 11
731.7653
 21
318.8075
  0
LINE
  8
0_00
  6
CONTINUOUS
 62
2
 10
731.7653
 20
318.8075
 11
732.6617
 21
319.6518
  0
LINE
  8
0_00
  6
CONTINUOUS
 62
2
 10
729.2904
 20
318.8406
 11
730.1291
 21
317.9716
  0
LINE
  8
0_00
  6
CONTINUOUS
 62
2
 10
730.1291
 20
317.9716
 11
730.2776
 21
317.5646
  0
LINE
  8
0_00
  6
CONTINUOUS
 62
2
 10
730.2776
 20
317.5646
 11
730.1373
 21
317.1797
  0
LINE
  8
0_00
  6
CONTINUOUS
 62
2
 10
730.1373
 20
317.1797
 11
729.2931
 21
316.2832
  0
LINE
  8
0_00
  6
CONTINUOUS
 62
2
 10
733.4701
 20
316.2887
 11
732.6314
 21
317.1577
  0
LINE
  8
0_00
  6
CONTINUOUS
 62
2
 10
732.6314
 20
317.1577
 11
732.4830
 21
317.5646
  0
LINE
  8
0_00
  6
CONTINUOUS
 62
2
 10
732.4830
 20
317.5646
 11
732.6232
 21
317.9496
  0
LINE
  8
0_00
  6
CONTINUOUS
 62
2
 10
732.6232
 20
317.9496
 11
733.4674
 21
318.8461
  0
LINE
  8
0_00
  6
CONTINUOUS
 62
2
 10
732.6562
 20
315.4747
 11
731.7872
 21
316.3135
  0
LINE
  8
0_00
  6
CONTINUOUS
 62
2
 10
731.7872
 20
316.3135
 11
731.3803
 21
316.4620
  0
LINE
  8
0_00
  6
CONTINUOUS
 62
2
 10
731.3803
 20
316.4620
 11
730.9953
 21
316.3217
  0
LINE
  8
0_00
  6
CONTINUOUS
 62
2
 10
730.9953
 20
316.3217
 11
730.0988
 21
315.4775
  0
LINE
  8
0_00
  6
CENTER1
 62
6
 10
768.8803
 20
249.8333
 11
768.8803
 21
272.4342
  0
LINE
  8
0_00
  6
CENTER1
 62
6
 10
781.9255
 20
261.5646
 11
759.0458
 21
261.5646
  0
LINE
  8
0_00
  6
CONTINUOUS
 62
2
 10
770.1562
 20
259.4747
 11
769.2872
 21
260.3134
  0
LINE
  8
0_00
  6
CONTINUOUS
 62
2
 10
769.2872
 20
260.3134
 11
768.8803
 21
260.4619
  0
LINE
  8
0_00
  6
CONTINUOUS
 62
2
 10
768.8803
 20
260.4619
 11
768.4953
 21
260.3217
  0
LINE
  8
0_00
  6
CONTINUOUS
 62
2
 10
768.4953
 20
260.3217
 11
767.5988
 21
259.4775
  0
LINE
  8
0_00
  6
CONTINUOUS
 62
2
 10
770.9702
 20
260.2887
 11
770.1315
 21
261.1577
  0
LINE
  8
0_00
  6
CONTINUOUS
 62
2
 10
770.1315
 20
261.1577
 11
769.9829
 21
261.5646
  0
LINE
  8
0_00
  6
CONTINUOUS
 62
2
 10
769.9829
 20
261.5646
 11
770.1232
 21
261.9496
  0
LINE
  8
0_00
  6
CONTINUOUS
 62
2
 10
770.1232
 20
261.9496
 11
770.9674
 21
262.8461
  0
LINE
  8
0_00
  6
CONTINUOUS
 62
2
 10
766.7904
 20
262.8406
 11
767.6291
 21
261.9716
  0
LINE
  8
0_00
  6
CONTINUOUS
 62
2
 10
767.6291
 20
261.9716
 11
767.7776
 21
261.5646
  0
LINE
  8
0_00
  6
CONTINUOUS
 62
2
 10
767.7776
 20
261.5646
 11
767.6373
 21
261.1797
  0
LINE
  8
0_00
  6
CONTINUOUS
 62
2
 10
767.6373
 20
261.1797
 11
766.7931
 21
260.2832
  0
LINE
  8
0_00
  6
CONTINUOUS
 62
2
 10
767.6044
 20
263.6545
 11
768.4732
 21
262.8158
  0
LINE
  8
0_00
  6
CONTINUOUS
 62
2
 10
768.4732
 20
262.8158
 11
768.8803
 21
262.6673
  0
LINE
  8
0_00
  6
CONTINUOUS
 62
2
 10
768.8803
 20
262.6673
 11
769.2653
 21
262.8075
  0
LINE
  8
0_00
  6
CONTINUOUS
 62
2
 10
769.2653
 20
262.8075
 11
770.1617
 21
263.6518
  0
LINE
  8
0_00
  6
CONTINUOUS
 62
4
 10
760.3303
 20
310.0646
 11
760.3303
 21
341.5646
  0
LINE
  8
0_00
  6
CONTINUOUS
 62
4
 10
739.9303
 20
310.0646
 11
739.9303
 21
341.5646
  0
LINE
  8
0_00
  6
CONTINUOUS
 62
4
 10
777.1303
 20
341.5646
 11
723.1303
 21
341.5646
  0
LINE
  8
0_00
  6
CONTINUOUS
 62
4
 10
777.1303
 20
237.5646
 11
723.1303
 21
237.5646
  0
LINE
  8
0_00
  6
CONTINUOUS
 62
4
 10
763.1302
 20
269.0646
 11
737.1303
 21
269.0646
  0
LINE
  8
0_00
  6
CONTINUOUS
 62
4
 10
763.1302
 20
310.0646
 11
737.1303
 21
310.0646
  0
LINE
  8
0_00
  6
CONTINUOUS
 62
4
 10
760.3303
 20
269.0646
 11
760.3303
 21
237.5646
  0
LINE
  8
0_00
  6
CONTINUOUS
 62
4
 10
739.9303
 20
269.0646
 11
739.9303
 21
237.5646
  0
LINE
  8
0_00
  6
CONTINUOUS
 62
4
 10
750.4303
 20
336.5646
 11
749.8303
 21
336.5646
  0
LINE
  8
0_00
  6
CONTINUOUS
 62
4
 10
750.4303
 20
336.5646
 11
750.4303
 21
341.5646
  0
LINE
  8
0_00
  6
CONTINUOUS
 62
4
 10
750.1302
 20
336.5646
 11
750.1302
 21
341.5646
  0
LINE
  8
0_00
  6
CONTINUOUS
 62
4
 10
749.8303
 20
336.5646
 11
749.8303
 21
341.5646
  0
LINE
  8
0_00
  6
CONTINUOUS
 62
4
 10
750.4303
 20
242.5646
 11
749.8303
 21
242.5646
  0
LINE
  8
0_00
  6
CONTINUOUS
 62
4
 10
750.4303
 20
242.5646
 11
750.4303
 21
237.5646
  0
LINE
  8
0_00
  6
CONTINUOUS
 62
4
 10
750.1302
 20
242.5646
 11
750.1302
 21
237.5646
  0
LINE
  8
0_00
  6
CONTINUOUS
 62
4
 10
749.8303
 20
242.5646
 11
749.8303
 21
237.5646
  0
LINE
  8
0_00
  6
CONTINUOUS
 62
4
 10
762.6302
 20
269.5646
 11
737.6302
 21
269.5646
  0
LINE
  8
0_00
  6
CONTINUOUS
 62
4
 10
762.6302
 20
309.5647
 11
737.6302
 21
309.5647
  0
LINE
  8
0_00
  6
CONTINUOUS
 62
4
 10
780.1303
 20
323.8146
 11
780.1303
 21
255.0646
  0
LINE
  8
0_00
  6
CONTINUOUS
 62
4
 10
750.4303
 20
299.5646
 11
749.8303
 21
299.5646
  0
LINE
  8
0_00
  6
CONTINUOUS
 62
4
 10
750.1302
 20
299.5646
 11
750.1302
 21
309.5647
  0
LINE
  8
0_00
  6
CONTINUOUS
 62
4
 10
750.4303
 20
299.5646
 11
750.4303
 21
309.5647
  0
LINE
  8
0_00
  6
CONTINUOUS
 62
4
 10
749.8303
 20
299.5646
 11
749.8303
 21
309.5647
  0
LINE
  8
0_00
  6
CONTINUOUS
 62
4
 10
750.4303
 20
279.5646
 11
749.8303
 21
279.5646
  0
LINE
  8
0_00
  6
CONTINUOUS
 62
4
 10
750.1302
 20
279.5646
 11
750.1302
 21
269.5646
  0
LINE
  8
0_00
  6
CONTINUOUS
 62
4
 10
750.4303
 20
279.5646
 11
750.4303
 21
269.5646
  0
LINE
  8
0_00
  6
CONTINUOUS
 62
4
 10
749.8303
 20
279.5646
 11
749.8303
 21
269.5646
  0
LINE
  8
0_00
  6
CONTINUOUS
 62
4
 10
761.6302
 20
309.5647
 11
761.6302
 21
269.5646
  0
LINE
  8
0_00
  6
CONTINUOUS
 62
4
 10
763.6303
 20
268.5646
 11
763.6303
 21
265.8146
  0
LINE
  8
0_00
  6
CONTINUOUS
 62
4
 10
763.6303
 20
257.3146
 11
763.6303
 21
254.0647
  0
LINE
  8
0_00
  6
CONTINUOUS
 62
4
 10
765.6302
 20
252.0646
 11
777.1303
 21
252.0646
  0
LINE
  8
0_00
  6
CONTINUOUS
 62
4
 10
763.6303
 20
310.5646
 11
763.6303
 21
313.3146
  0
LINE
  8
0_00
  6
CONTINUOUS
 62
4
 10
763.6303
 20
321.8146
 11
763.6303
 21
325.0646
  0
LINE
  8
0_00
  6
CONTINUOUS
 62
4
 10
765.6302
 20
327.0646
 11
777.1303
 21
327.0646
  0
LINE
  8
0_00
  6
CONTINUOUS
 62
4
 10
720.1303
 20
323.8146
 11
720.1303
 21
255.0646
  0
LINE
  8
0_00
  6
CONTINUOUS
 62
4
 10
736.6302
 20
268.5646
 11
736.6302
 21
265.8146
  0
LINE
  8
0_00
  6
CONTINUOUS
 62
4
 10
736.6302
 20
257.3146
 11
736.6302
 21
254.0647
  0
LINE
  8
0_00
  6
CONTINUOUS
 62
4
 10
734.6302
 20
252.0646
 11
723.1303
 21
252.0646
  0
LINE
  8
0_00
  6
CONTINUOUS
 62
4
 10
736.6302
 20
310.5646
 11
736.6302
 21
313.3146
  0
LINE
  8
0_00
  6
CONTINUOUS
 62
4
 10
736.6302
 20
321.8146
 11
736.6302
 21
325.0646
  0
LINE
  8
0_00
  6
CONTINUOUS
 62
4
 10
734.6302
 20
327.0646
 11
723.1303
 21
327.0646
  0
LINE
  8
0_00
  6
CONTINUOUS
 62
4
 10
760.0679
 20
269.5646
 11
760.0679
 21
309.5647
  0
LINE
  8
0_00
  6
CONTINUOUS
 62
4
 10
738.6303
 20
309.5647
 11
738.6303
 21
269.5646
  0
LINE
  8
0_00
  6
CONTINUOUS
 62
4
 10
740.1927
 20
269.5646
 11
740.1927
 21
309.5647
  0
LINE
  8
0_00
  6
CONTINUOUS
 62
4
 10
771.8803
 20
320.8146
 11
764.6303
 21
320.8146
  0
LINE
  8
0_00
  6
CONTINUOUS
 62
4
 10
764.6303
 20
314.3147
 11
771.8803
 21
314.3147
  0
LINE
  8
0_00
  6
CONTINUOUS
 62
4
 10
728.3803
 20
258.3146
 11
735.6303
 21
258.3146
  0
LINE
  8
0_00
  6
CONTINUOUS
 62
4
 10
735.6303
 20
264.8146
 11
728.3803
 21
264.8146
  0
LINE
  8
15_0F
  6
CONTINUOUS
 62
4
 10
720.1303
 20
338.5646
 11
720.1303
 21
240.5646
  0
LINE
  8
15_0F
  6
CONTINUOUS
 62
4
 10
780.1303
 20
338.5646
 11
780.1303
 21
240.5646
  0
LINE
  8
15_0F
  6
CONTINUOUS
 62
6
 10
720.4710
 20
298.2743
 11
693.4106
 21
331.8672
  0
LINE
  8
15_0F
  6
CONTINUOUS
 62
6
 10
720.4710
 20
298.2743
 11
717.0833
 21
304.9656
  0
LINE
  8
15_0F
  6
CONTINUOUS
 62
6
 10
720.4710
 20
298.2743
 11
714.6546
 21
303.0092
  0
LINE
  8
15_0F
  6
CONTINUOUS
 62
6
 10
693.4106
 20
331.8672
 11
619.6105
 21
331.8672
  0
LINE
  8
15_0F
  6
CONTINUOUS
 62
6
 10
723.5617
 20
346.8646
 11
686.0210
 21
391.5518
  0
LINE
  8
15_0F
  6
CONTINUOUS
 62
6
 10
723.5617
 20
346.8646
 11
720.0369
 21
353.4847
  0
LINE
  8
15_0F
  6
CONTINUOUS
 62
6
 10
723.5617
 20
346.8646
 11
717.6490
 21
351.4787
  0
LINE
  8
15_0F
  6
CONTINUOUS
 62
6
 10
686.0210
 20
391.5518
 11
641.0210
 21
391.5518
  0
LINE
  8
12_0C
  6
DASHED
 62
2
 10
234.2841
 20
578.6007
 11
234.2841
 21
555.7207
  0
LINE
  8
12_0C
  6
DASHED
 62
2
 10
234.7841
 20
578.6007
 11
234.7841
 21
545.9008
  0
LINE
  8
12_0C
  6
DASHED
 62
2
 10
238.2841
 20
578.6007
 11
238.2841
 21
555.7207
  0
LINE
  8
12_0C
  6
DASHED
 62
2
 10
237.7841
 20
578.6007
 11
237.7841
 21
545.9008
  0
LINE
  8
12_0C
  6
DASHED
 62
2
 10
234.2841
 20
555.7207
 11
234.7841
 21
551.3390
  0
LINE
  8
12_0C
  6
DASHED
 62
2
 10
238.2841
 20
555.7207
 11
237.7841
 21
551.3390
  0
LINE
  8
12_0C
  6
DASHED
 62
2
 10
234.7841
 20
545.9008
 11
237.7841
 21
545.9008
  0
LINE
  8
12_0C
  6
DASHED
 62
2
 10
238.2841
 20
555.7207
 11
234.7841
 21
551.3390
  0
LINE
  8
12_0C
  6
DASHED
 62
2
 10
234.2841
 20
578.6007
 11
238.2841
 21
578.6007
  0
LINE
  8
12_0C
  6
DASHED
 62
2
 10
232.2841
 20
580.9008
 11
232.2841
 21
580.6008
  0
LINE
  8
12_0C
  6
DASHED
 62
2
 10
232.2841
 20
580.6008
 11
234.2841
 21
578.6007
  0
LINE
  8
12_0C
  6
DASHED
 62
2
 10
240.2841
 20
580.9008
 11
240.2841
 21
580.6008
  0
LINE
  8
12_0C
  6
DASHED
 62
2
 10
240.2841
 20
580.9008
 11
232.2841
 21
580.9008
  0
LINE
  8
12_0C
  6
DASHED
 62
2
 10
240.2841
 20
580.6008
 11
232.2841
 21
580.6008
  0
LINE
  8
12_0C
  6
DASHED
 62
2
 10
240.2841
 20
580.6008
 11
238.2841
 21
578.6007
  0
LINE
  8
12_0C
  6
DASHED
 62
2
 10
247.7841
 20
578.6007
 11
247.7841
 21
555.7207
  0
LINE
  8
12_0C
  6
DASHED
 62
2
 10
248.2841
 20
578.6007
 11
248.2841
 21
545.9008
  0
LINE
  8
12_0C
  6
DASHED
 62
2
 10
251.7841
 20
578.6007
 11
251.7841
 21
555.7207
  0
LINE
  8
12_0C
  6
DASHED
 62
2
 10
251.2841
 20
578.6007
 11
251.2841
 21
545.9008
  0
LINE
  8
12_0C
  6
DASHED
 62
2
 10
247.7841
 20
555.7207
 11
248.2841
 21
551.3390
  0
LINE
  8
12_0C
  6
DASHED
 62
2
 10
251.7841
 20
555.7207
 11
251.2841
 21
551.3390
  0
LINE
  8
12_0C
  6
DASHED
 62
2
 10
248.2841
 20
545.9008
 11
251.2841
 21
545.9008
  0
LINE
  8
12_0C
  6
DASHED
 62
2
 10
251.7841
 20
555.7207
 11
248.2841
 21
551.3390
  0
LINE
  8
12_0C
  6
DASHED
 62
2
 10
247.7841
 20
578.6007
 11
251.7841
 21
578.6007
  0
LINE
  8
12_0C
  6
DASHED
 62
2
 10
245.7841
 20
580.9008
 11
245.7841
 21
580.6008
  0
LINE
  8
12_0C
  6
DASHED
 62
2
 10
245.7841
 20
580.6008
 11
247.7841
 21
578.6007
  0
LINE
  8
12_0C
  6
DASHED
 62
2
 10
253.7841
 20
580.9008
 11
253.7841
 21
580.6008
  0
LINE
  8
12_0C
  6
DASHED
 62
2
 10
253.7841
 20
580.9008
 11
245.7841
 21
580.9008
  0
LINE
  8
12_0C
  6
DASHED
 62
2
 10
253.7841
 20
580.6008
 11
245.7841
 21
580.6008
  0
LINE
  8
12_0C
  6
DASHED
 62
2
 10
253.7841
 20
580.6008
 11
251.7841
 21
578.6007
  0
LINE
  8
12_0C
  6
DASHED
 62
2
 10
256.7841
 20
578.6007
 11
256.7841
 21
555.7207
  0
LINE
  8
12_0C
  6
DASHED
 62
2
 10
257.2841
 20
578.6007
 11
257.2841
 21
545.9008
  0
LINE
  8
12_0C
  6
DASHED
 62
2
 10
260.7841
 20
578.6007
 11
260.7841
 21
555.7207
  0
LINE
  8
12_0C
  6
DASHED
 62
2
 10
260.2841
 20
578.6007
 11
260.2841
 21
545.9008
  0
LINE
  8
12_0C
  6
DASHED
 62
2
 10
256.7841
 20
555.7207
 11
257.2841
 21
551.3390
  0
LINE
  8
12_0C
  6
DASHED
 62
2
 10
260.7841
 20
555.7207
 11
260.2841
 21
551.3390
  0
LINE
  8
12_0C
  6
DASHED
 62
2
 10
257.2841
 20
545.9008
 11
260.2841
 21
545.9008
  0
LINE
  8
12_0C
  6
DASHED
 62
2
 10
260.7841
 20
555.7207
 11
257.2841
 21
551.3390
  0
LINE
  8
12_0C
  6
DASHED
 62
2
 10
256.7841
 20
578.6007
 11
260.7841
 21
578.6007
  0
LINE
  8
12_0C
  6
DASHED
 62
2
 10
254.7841
 20
580.9008
 11
254.7841
 21
580.6008
  0
LINE
  8
12_0C
  6
DASHED
 62
2
 10
254.7841
 20
580.6008
 11
256.7841
 21
578.6007
  0
LINE
  8
12_0C
  6
DASHED
 62
2
 10
262.7841
 20
580.9008
 11
262.7841
 21
580.6008
  0
LINE
  8
12_0C
  6
DASHED
 62
2
 10
262.7841
 20
580.9008
 11
254.7841
 21
580.9008
  0
LINE
  8
12_0C
  6
DASHED
 62
2
 10
262.7841
 20
580.6008
 11
254.7841
 21
580.6008
  0
LINE
  8
12_0C
  6
DASHED
 62
2
 10
262.7841
 20
580.6008
 11
260.7841
 21
578.6007
  0
LINE
  8
12_0C
  6
DASHED
 62
2
 10
270.2841
 20
578.6007
 11
270.2841
 21
555.7207
  0
LINE
  8
12_0C
  6
DASHED
 62
2
 10
270.7841
 20
578.6007
 11
270.7841
 21
545.9008
  0
LINE
  8
12_0C
  6
DASHED
 62
2
 10
274.2841
 20
578.6007
 11
274.2841
 21
555.7207
  0
LINE
  8
12_0C
  6
DASHED
 62
2
 10
273.7841
 20
578.6007
 11
273.7841
 21
545.9008
  0
LINE
  8
12_0C
  6
DASHED
 62
2
 10
270.2841
 20
555.7207
 11
270.7841
 21
551.3390
  0
LINE
  8
12_0C
  6
DASHED
 62
2
 10
274.2841
 20
555.7207
 11
273.7841
 21
551.3390
  0
LINE
  8
12_0C
  6
DASHED
 62
2
 10
270.7841
 20
545.9008
 11
273.7841
 21
545.9008
  0
LINE
  8
12_0C
  6
DASHED
 62
2
 10
274.2841
 20
555.7207
 11
270.7841
 21
551.3390
  0
LINE
  8
12_0C
  6
DASHED
 62
2
 10
270.2841
 20
578.6007
 11
274.2841
 21
578.6007
  0
LINE
  8
12_0C
  6
DASHED
 62
2
 10
268.2841
 20
580.9008
 11
268.2841
 21
580.6008
  0
LINE
  8
12_0C
  6
DASHED
 62
2
 10
268.2841
 20
580.6008
 11
270.2841
 21
578.6007
  0
LINE
  8
12_0C
  6
DASHED
 62
2
 10
276.2841
 20
580.9008
 11
276.2841
 21
580.6008
  0
LINE
  8
12_0C
  6
DASHED
 62
2
 10
276.2841
 20
580.9008
 11
268.2841
 21
580.9008
  0
LINE
  8
12_0C
  6
DASHED
 62
2
 10
276.2841
 20
580.6008
 11
268.2841
 21
580.6008
  0
LINE
  8
12_0C
  6
DASHED
 62
2
 10
276.2841
 20
580.6008
 11
274.2841
 21
578.6007
  0
LINE
  8
0_00
  6
CONTINUOUS
 62
6
 10
232.7841
 20
526.0124
 11
218.0419
 21
540.7546
  0
LINE
  8
0_00
  6
CONTINUOUS
 62
6
 10
232.7841
 20
526.0124
 11
228.6993
 21
532.3024
  0
LINE
  8
0_00
  6
CONTINUOUS
 62
6
 10
232.7841
 20
526.0124
 11
226.4940
 21
530.0972
  0
LINE
  8
0_00
  6
CONTINUOUS
 62
6
 10
218.0419
 20
540.7546
 11
111.2419
 21
540.7546
  0
LINE
  8
0_00
  6
CONTINUOUS
 62
6
 10
273.7841
 20
556.9906
 11
290.4441
 21
573.6506
  0
LINE
  8
0_00
  6
CONTINUOUS
 62
6
 10
273.7841
 20
556.9906
 11
280.0741
 21
561.0755
  0
LINE
  8
0_00
  6
CONTINUOUS
 62
6
 10
273.7841
 20
556.9906
 11
277.8689
 21
563.2807
  0
LINE
  8
0_00
  6
CONTINUOUS
 62
6
 10
290.4441
 20
573.6506
 11
361.2440
 21
573.6506
  0
LINE
  8
0_00
  6
DASHED
 62
2
 10
504.7505
 20
268.3075
 11
491.9504
 21
268.3075
  0
LINE
  8
0_00
  6
DASHED
 62
2
 10
501.0004
 20
264.9075
 11
501.0004
 21
248.3075
  0
LINE
  8
0_00
  6
DASHED
 62
2
 10
495.7005
 20
264.9075
 11
495.7005
 21
248.3075
  0
LINE
  8
0_00
  6
DASHED
 62
2
 10
504.7505
 20
268.3075
 11
501.3505
 21
264.9075
  0
LINE
  8
0_00
  6
DASHED
 62
2
 10
491.9504
 20
268.3075
 11
495.3505
 21
264.9075
  0
LINE
  8
0_00
  6
DASHED
 62
2
 10
501.3505
 20
264.9075
 11
495.3505
 21
264.9075
  0
LINE
  8
0_00
  6
DASHED
 62
2
 10
501.3505
 20
264.9075
 11
501.3505
 21
248.3075
  0
LINE
  8
0_00
  6
DASHED
 62
2
 10
495.3505
 20
264.9075
 11
495.3505
 21
248.3075
  0
LINE
  8
0_00
  6
DASHED
 62
2
 10
501.3505
 20
248.3075
 11
495.3505
 21
248.3075
  0
LINE
  8
0_00
  6
DASHED
 62
2
 10
489.6005
 20
374.5075
 11
489.6005
 21
362.5075
  0
LINE
  8
0_00
  6
DASHED
 62
2
 10
486.1005
 20
374.5075
 11
486.1005
 21
362.5075
  0
LINE
  8
0_00
  6
DASHED
 62
2
 10
489.8504
 20
374.5075
 11
489.8504
 21
362.5075
  0
LINE
  8
0_00
  6
DASHED
 62
2
 10
485.8504
 20
374.5075
 11
485.8504
 21
362.5075
  0
LINE
  8
0_00
  6
DASHED
 62
2
 10
489.8504
 20
362.5075
 11
485.8504
 21
362.5075
  0
LINE
  8
12_0C
  6
DASHED
 62
2
 10
483.8505
 20
374.5075
 11
491.8504
 21
374.5075
  0
LINE
  8
12_0C
  6
DASHED
 62
2
 10
483.8505
 20
374.9075
 11
491.8504
 21
374.9075
  0
LINE
  8
12_0C
  6
DASHED
 62
2
 10
491.8504
 20
374.5075
 11
491.8504
 21
374.9075
  0
LINE
  8
12_0C
  6
DASHED
 62
2
 10
483.8505
 20
374.5075
 11
483.8505
 21
374.9075
  0
LINE
  8
0_00
  6
DASHED
 62
2
 10
510.6004
 20
374.5075
 11
510.6004
 21
362.5075
  0
LINE
  8
0_00
  6
DASHED
 62
2
 10
507.1005
 20
374.5075
 11
507.1005
 21
362.5075
  0
LINE
  8
0_00
  6
DASHED
 62
2
 10
510.8504
 20
374.5075
 11
510.8504
 21
362.5075
  0
LINE
  8
0_00
  6
DASHED
 62
2
 10
506.8504
 20
374.5075
 11
506.8504
 21
362.5075
  0
LINE
  8
0_00
  6
DASHED
 62
2
 10
510.8504
 20
362.5075
 11
506.8504
 21
362.5075
  0
LINE
  8
12_0C
  6
DASHED
 62
2
 10
504.8505
 20
374.5075
 11
512.8505
 21
374.5075
  0
LINE
  8
12_0C
  6
DASHED
 62
2
 10
504.8505
 20
374.9075
 11
512.8505
 21
374.9075
  0
LINE
  8
12_0C
  6
DASHED
 62
2
 10
512.8505
 20
374.5075
 11
512.8505
 21
374.9075
  0
LINE
  8
12_0C
  6
DASHED
 62
2
 10
504.8505
 20
374.5075
 11
504.8505
 21
374.9075
  0
LINE
  8
0_00
  6
CONTINUOUS
 62
4
 10
482.3505
 20
255.5241
 11
482.3505
 21
252.3075
  0
LINE
  8
0_00
  6
CONTINUOUS
 62
4
 10
514.3504
 20
252.3075
 11
482.3505
 21
252.3075
  0
LINE
  8
0_00
  6
CONTINUOUS
 62
4
 10
482.3505
 20
255.5241
 11
482.3505
 21
252.3075
  0
LINE
  8
0_00
  6
CONTINUOUS
 62
4
 10
514.3504
 20
255.5241
 11
514.3504
 21
252.3075
  0
LINE
  8
0_00
  6
DASHED
 62
2
 10
482.3505
 20
253.3075
 11
514.3504
 21
253.3075
  0
LINE
  8
0_00
  6
DASHED
 62
2
 10
483.8505
 20
252.3075
 11
483.8505
 21
253.3075
  0
LINE
  8
0_00
  6
DASHED
 62
2
 10
512.8505
 20
252.3075
 11
512.8505
 21
253.3075
  0
LINE
  8
0_00
  6
DASHED
 62
2
 10
512.3504
 20
252.3075
 11
512.3504
 21
253.3075
  0
LINE
  8
0_00
  6
DASHED
 62
2
 10
484.3504
 20
252.3075
 11
484.3504
 21
253.3075
  0
LINE
  8
0_00
  6
CONTINUOUS
 62
4
 10
482.3505
 20
258.3075
 11
514.3504
 21
258.3075
  0
LINE
  8
0_00
  6
CONTINUOUS
 62
4
 10
482.3505
 20
255.5241
 11
482.3505
 21
258.3075
  0
LINE
  8
0_00
  6
CONTINUOUS
 62
4
 10
514.3504
 20
258.3075
 11
514.3504
 21
255.5241
  0
LINE
  8
12_0C
  6
DASHED
 62
2
 10
506.8504
 20
256.0074
 11
506.8504
 21
233.1275
  0
LINE
  8
12_0C
  6
DASHED
 62
2
 10
507.3505
 20
256.0074
 11
507.3505
 21
223.3074
  0
LINE
  8
12_0C
  6
DASHED
 62
2
 10
510.8504
 20
256.0074
 11
510.8504
 21
233.1275
  0
LINE
  8
12_0C
  6
DASHED
 62
2
 10
510.3505
 20
256.0074
 11
510.3505
 21
223.3074
  0
LINE
  8
12_0C
  6
DASHED
 62
2
 10
506.8504
 20
233.1275
 11
507.3505
 21
228.7456
  0
LINE
  8
12_0C
  6
DASHED
 62
2
 10
510.8504
 20
233.1275
 11
510.3505
 21
228.7456
  0
LINE
  8
12_0C
  6
DASHED
 62
2
 10
507.3505
 20
223.3074
 11
510.3505
 21
223.3074
  0
LINE
  8
12_0C
  6
DASHED
 62
2
 10
510.8504
 20
233.1275
 11
507.3505
 21
228.7456
  0
LINE
  8
12_0C
  6
DASHED
 62
2
 10
506.8504
 20
256.0074
 11
510.8504
 21
256.0074
  0
LINE
  8
12_0C
  6
DASHED
 62
2
 10
504.8505
 20
258.3074
 11
504.8505
 21
258.0074
  0
LINE
  8
12_0C
  6
DASHED
 62
2
 10
504.8505
 20
258.0074
 11
506.8504
 21
256.0074
  0
LINE
  8
12_0C
  6
DASHED
 62
2
 10
512.8505
 20
258.3074
 11
512.8505
 21
258.0074
  0
LINE
  8
12_0C
  6
DASHED
 62
2
 10
512.8505
 20
258.3074
 11
504.8505
 21
258.3074
  0
LINE
  8
12_0C
  6
DASHED
 62
2
 10
512.8505
 20
258.0074
 11
504.8505
 21
258.0074
  0
LINE
  8
12_0C
  6
DASHED
 62
2
 10
512.8505
 20
258.0074
 11
510.8504
 21
256.0074
  0
LINE
  8
12_0C
  6
DASHED
 62
2
 10
485.8504
 20
256.0074
 11
485.8504
 21
233.1275
  0
LINE
  8
12_0C
  6
DASHED
 62
2
 10
486.3505
 20
256.0074
 11
486.3505
 21
223.3074
  0
LINE
  8
12_0C
  6
DASHED
 62
2
 10
489.8504
 20
256.0074
 11
489.8504
 21
233.1275
  0
LINE
  8
12_0C
  6
DASHED
 62
2
 10
489.3505
 20
256.0074
 11
489.3505
 21
223.3074
  0
LINE
  8
12_0C
  6
DASHED
 62
2
 10
485.8504
 20
233.1275
 11
486.3505
 21
228.7456
  0
LINE
  8
12_0C
  6
DASHED
 62
2
 10
489.8504
 20
233.1275
 11
489.3505
 21
228.7456
  0
LINE
  8
12_0C
  6
DASHED
 62
2
 10
486.3505
 20
223.3074
 11
489.3505
 21
223.3074
  0
LINE
  8
12_0C
  6
DASHED
 62
2
 10
489.8504
 20
233.1275
 11
486.3505
 21
228.7456
  0
LINE
  8
12_0C
  6
DASHED
 62
2
 10
485.8504
 20
256.0074
 11
489.8504
 21
256.0074
  0
LINE
  8
12_0C
  6
DASHED
 62
2
 10
483.8505
 20
258.3074
 11
483.8505
 21
258.0074
  0
LINE
  8
12_0C
  6
DASHED
 62
2
 10
483.8505
 20
258.0074
 11
485.8504
 21
256.0074
  0
LINE
  8
12_0C
  6
DASHED
 62
2
 10
491.8504
 20
258.3074
 11
491.8504
 21
258.0074
  0
LINE
  8
12_0C
  6
DASHED
 62
2
 10
491.8504
 20
258.3074
 11
483.8505
 21
258.3074
  0
LINE
  8
12_0C
  6
DASHED
 62
2
 10
491.8504
 20
258.0074
 11
483.8505
 21
258.0074
  0
LINE
  8
12_0C
  6
DASHED
 62
2
 10
491.8504
 20
258.0074
 11
489.8504
 21
256.0074
  0
LINE
  8
13_0D
  6
CONTINUOUS
 62
6
 10
484.3504
 20
194.4896
 11
484.3504
 21
169.5865
  0
LINE
  8
13_0D
  6
CONTINUOUS
 62
6
 10
512.3504
 20
194.4896
 11
512.3504
 21
169.5865
  0
LINE
  8
13_0D
  6
CONTINUOUS
 62
6
 10
484.3504
 20
174.0865
 11
512.3504
 21
174.0865
  0
LINE
  8
13_0D
  6
CONTINUOUS
 62
6
 10
544.7504
 20
174.0865
 11
512.3504
 21
174.0865
  0
LINE
  8
13_0D
  6
CONTINUOUS
 62
6
 10
512.3504
 20
174.0865
 11
519.6866
 21
172.5272
  0
LINE
  8
13_0D
  6
CONTINUOUS
 62
6
 10
512.3504
 20
174.0865
 11
519.6866
 21
175.6458
  0
LINE
  8
13_0D
  6
CONTINUOUS
 62
6
 10
469.3504
 20
174.0865
 11
484.3504
 21
174.0865
  0
LINE
  8
13_0D
  6
CONTINUOUS
 62
6
 10
484.3504
 20
174.0865
 11
477.0143
 21
175.6458
  0
LINE
  8
13_0D
  6
CONTINUOUS
 62
6
 10
484.3504
 20
174.0865
 11
477.0143
 21
172.5272
  0
LINE
  8
15_0F
  6
CONTINUOUS
 62
4
 10
370.2043
 20
149.7528
 11
429.6042
 21
149.7528
  0
LINE
  8
13_0D
  6
CONTINUOUS
 62
6
 10
232.7841
 20
521.5831
 11
275.7841
 21
521.5831
  0
LINE
  8
13_0D
  6
CONTINUOUS
 62
6
 10
308.1841
 20
521.5831
 11
275.7841
 21
521.5831
  0
LINE
  8
13_0D
  6
CONTINUOUS
 62
6
 10
275.7841
 20
521.5831
 11
283.1202
 21
520.0237
  0
LINE
  8
13_0D
  6
CONTINUOUS
 62
6
 10
275.7841
 20
521.5831
 11
283.1202
 21
523.1424
  0
LINE
  8
13_0D
  6
CONTINUOUS
 62
6
 10
217.7841
 20
521.5831
 11
232.7841
 21
521.5831
  0
LINE
  8
13_0D
  6
CONTINUOUS
 62
6
 10
232.7841
 20
521.5831
 11
225.4480
 21
523.1424
  0
LINE
  8
13_0D
  6
CONTINUOUS
 62
6
 10
232.7841
 20
521.5831
 11
225.4480
 21
520.0237
  0
LINE
  8
13_0D
  6
CONTINUOUS
 62
6
 10
619.4048
 20
721.6149
 11
619.4048
 21
783.5779
  0
LINE
  8
13_0D
  6
CONTINUOUS
 62
6
 10
561.4048
 20
723.1211
 11
561.4048
 21
783.5779
  0
LINE
  8
13_0D
  6
CONTINUOUS
 62
6
 10
561.4048
 20
779.0779
 11
619.4048
 21
779.0779
  0
LINE
  8
13_0D
  6
CONTINUOUS
 62
6
 10
561.4048
 20
779.0779
 11
568.7409
 21
777.5186
  0
LINE
  8
13_0D
  6
CONTINUOUS
 62
6
 10
561.4048
 20
779.0779
 11
568.7409
 21
780.6372
  0
LINE
  8
13_0D
  6
CONTINUOUS
 62
6
 10
619.4048
 20
779.0779
 11
612.0687
 21
780.6372
  0
LINE
  8
13_0D
  6
CONTINUOUS
 62
6
 10
619.4048
 20
779.0779
 11
612.0687
 21
777.5186
  0
ARC
  8
0_00
  6
CONTINUOUS
 62
2
 10
1055.6104
 20
303.0646
 40
2.4500
 50
45.0000
 51
58.5444
  0
ARC
  8
0_00
  6
CONTINUOUS
 62
2
 10
1055.6104
 20
303.0646
 40
2.4500
 50
121.3667
 51
135.0000
  0
ARC
  8
0_00
  6
CONTINUOUS
 62
2
 10
1055.6104
 20
303.0646
 40
2.4500
 50
211.4556
 51
225.0000
  0
ARC
  8
0_00
  6
CONTINUOUS
 62
2
 10
1055.6104
 20
303.0646
 40
2.4500
 50
135.0000
 51
148.6333
  0
ARC
  8
0_00
  6
CONTINUOUS
 62
2
 10
1055.6104
 20
303.0646
 40
2.4500
 50
31.4556
 51
45.0000
  0
ARC
  8
0_00
  6
CONTINUOUS
 62
2
 10
1055.6104
 20
303.0646
 40
2.4500
 50
315.0000
 51
328.6334
  0
ARC
  8
0_00
  6
CONTINUOUS
 62
2
 10
1055.6104
 20
303.0646
 40
2.4500
 50
225.0000
 51
238.5444
  0
ARC
  8
0_00
  6
CONTINUOUS
 62
2
 10
1055.6104
 20
303.0646
 40
2.4500
 50
301.3667
 51
315.0000
  0
CIRCLE
  8
0_00
  6
CONTINUOUS
 62
2
 10
1055.6104
 20
303.0646
 40
5.9000
  0
ARC
  8
0_00
  6
CONTINUOUS
 62
2
 10
1055.6104
 20
276.0646
 40
2.4500
 50
45.0000
 51
58.5444
  0
ARC
  8
0_00
  6
CONTINUOUS
 62
2
 10
1055.6104
 20
276.0646
 40
2.4500
 50
121.3667
 51
135.0000
  0
ARC
  8
0_00
  6
CONTINUOUS
 62
2
 10
1055.6104
 20
276.0646
 40
2.4500
 50
211.4556
 51
225.0000
  0
ARC
  8
0_00
  6
CONTINUOUS
 62
2
 10
1055.6104
 20
276.0646
 40
2.4500
 50
135.0000
 51
148.6333
  0
ARC
  8
0_00
  6
CONTINUOUS
 62
2
 10
1055.6104
 20
276.0646
 40
2.4500
 50
31.4556
 51
45.0000
  0
ARC
  8
0_00
  6
CONTINUOUS
 62
2
 10
1055.6104
 20
276.0646
 40
2.4500
 50
315.0000
 51
328.6334
  0
ARC
  8
0_00
  6
CONTINUOUS
 62
2
 10
1055.6104
 20
276.0646
 40
2.4500
 50
225.0000
 51
238.5444
  0
ARC
  8
0_00
  6
CONTINUOUS
 62
2
 10
1055.6104
 20
276.0646
 40
2.4500
 50
301.3667
 51
315.0000
  0
CIRCLE
  8
0_00
  6
CONTINUOUS
 62
2
 10
1055.6104
 20
276.0646
 40
5.9000
  0
ARC
  8
0_00
  6
CONTINUOUS
 62
4
 10
1044.1103
 20
268.5646
 40
2.5000
 50
180.0000
 51
270.0000
  0
ARC
  8
0_00
  6
CONTINUOUS
 62
4
 10
1044.1103
 20
310.5646
 40
2.5000
 50
90.0000
 51
180.0000
  0
ARC
  8
0_00
  6
CONTINUOUS
 62
4
 10
1044.1103
 20
268.5646
 40
2.5000
 50
270.0000
 51
360.0000
  0
ARC
  8
0_00
  6
CONTINUOUS
 62
4
 10
1044.1103
 20
310.5646
 40
2.5000
 50
0.0000
 51
90.0000
  0
ARC
  8
0_00
  6
CONTINUOUS
 62
4
 10
1042.1104
 20
268.5646
 40
2.5000
 50
180.0000
 51
270.0000
  0
ARC
  8
0_00
  6
CONTINUOUS
 62
4
 10
1042.1104
 20
310.5646
 40
2.5000
 50
90.0000
 51
180.0000
  0
ARC
  8
0_00
  6
CONTINUOUS
 62
4
 10
1067.1104
 20
268.5646
 40
2.5000
 50
270.0000
 51
360.0000
  0
ARC
  8
0_00
  6
CONTINUOUS
 62
4
 10
1067.1104
 20
310.5646
 40
2.5000
 50
0.0000
 51
90.0000
  0
ARC
  8
0_00
  6
CONTINUOUS
 62
4
 10
1067.1104
 20
268.5646
 40
2.5000
 50
180.0000
 51
270.0000
  0
ARC
  8
0_00
  6
CONTINUOUS
 62
4
 10
1067.1104
 20
310.5646
 40
2.5000
 50
90.0000
 51
180.0000
  0
ARC
  8
0_00
  6
CONTINUOUS
 62
4
 10
1069.1104
 20
268.5646
 40
2.5000
 50
270.0000
 51
360.0000
  0
ARC
  8
0_00
  6
CONTINUOUS
 62
4
 10
1069.1104
 20
310.5646
 40
2.5000
 50
0.0000
 51
90.0000
  0
ARC
  8
3_03
  6
CONTINUOUS
 62
4
 10
728.9540
 20
688.7043
 40
0.4500
 50
90.0000
 51
180.0000
  0
ARC
  8
15_0F
  6
CONTINUOUS
 62
4
 10
728.9540
 20
679.8544
 40
0.4500
 50
180.0000
 51
270.0000
  0
ARC
  8
3_03
  6
CONTINUOUS
 62
4
 10
728.1291
 20
695.9643
 40
30.3450
 50
89.8197
 51
97.0407
  0
ARC
  8
3_03
  6
CONTINUOUS
 62
4
 10
724.5290
 20
725.1129
 40
0.9750
 50
97.0407
 51
180.0000
  0
ARC
  8
3_03
  6
CONTINUOUS
 62
4
 10
732.7040
 20
726.2342
 40
0.0750
 50
0.0000
 51
90.0000
  0
ARC
  8
3_03
  6
CONTINUOUS
 62
4
 10
732.7040
 20
719.1844
 40
0.0750
 50
270.0000
 51
360.0000
  0
ARC
  8
3_03
  6
CONTINUOUS
 62
4
 10
723.6291
 20
719.1844
 40
0.0750
 50
180.0000
 51
270.0000
  0
ARC
  8
0_00
  6
CONTINUOUS
 62
4
 10
420.7841
 20
689.4321
 40
5.0000
 50
180.0000
 51
229.0338
  0
ARC
  8
0_00
  6
CONTINUOUS
 62
4
 10
109.2975
 20
425.3118
 40
375.0000
 50
34.0115
 51
45.3615
  0
ARC
  8
0_00
  6
CONTINUOUS
 62
4
 10
89.6988
 20
308.1086
 40
500.0000
 50
44.1641
 51
49.0337
  0
ARC
  8
0_00
  6
CONTINUOUS
 62
4
 10
220.7841
 20
588.4012
 40
10.0000
 50
0.0000
 51
28.2628
  0
ARC
  8
0_00
  6
CONTINUOUS
 62
4
 10
267.7841
 20
597.5132
 40
10.0000
 50
0.0000
 51
37.6262
  0
ARC
  8
0_00
  6
CONTINUOUS
 62
4
 10
210.7841
 20
679.6881
 40
5.0000
 50
180.0000
 51
229.0338
  0
ARC
  8
0_00
  6
CONTINUOUS
 62
4
 10
-100.7025
 20
415.5679
 40
375.0000
 50
28.2628
 51
45.3615
  0
ARC
  8
0_00
  6
CONTINUOUS
 62
4
 10
-120.3012
 20
298.3647
 40
500.0000
 50
37.6262
 51
49.0337
  0
ARC
  8
0_00
  6
CONTINUOUS
 62
4
 10
220.7841
 20
588.4012
 40
10.0000
 50
0.0000
 51
28.2628
  0
ARC
  8
0_00
  6
CONTINUOUS
 62
4
 10
267.7841
 20
597.5132
 40
10.0000
 50
0.0000
 51
37.6262
  0
ARC
  8
0_00
  6
CONTINUOUS
 62
4
 10
220.7841
 20
588.4012
 40
10.0000
 50
0.0000
 51
28.2628
  0
ARC
  8
0_00
  6
CONTINUOUS
 62
4
 10
267.7841
 20
597.5132
 40
10.0000
 50
0.0000
 51
37.6262
  0
ARC
  8
0_00
  6
CONTINUOUS
 62
4
 10
733.6040
 20
703.3295
 40
1.5000
 50
0.0000
 51
28.2628
  0
ARC
  8
0_00
  6
CONTINUOUS
 62
4
 10
682.4412
 20
659.8239
 40
75.0000
 50
37.6262
 51
49.0337
  0
ARC
  8
0_00
  6
CONTINUOUS
 62
4
 10
740.6540
 20
704.6963
 40
1.5000
 50
0.0000
 51
37.6262
  0
ARC
  8
0_00
  6
CONTINUOUS
 62
4
 10
685.3810
 20
677.4044
 40
56.2500
 50
28.2628
 51
45.3615
  0
ARC
  8
0_00
  6
CONTINUOUS
 62
4
 10
732.1040
 20
717.0225
 40
0.7500
 50
180.0000
 51
229.0338
  0
ARC
  8
0_00
  6
CONTINUOUS
 62
4
 10
616.9048
 20
689.6881
 40
5.0000
 50
180.0000
 51
229.0338
  0
ARC
  8
0_00
  6
CONTINUOUS
 62
4
 10
305.4182
 20
425.5679
 40
375.0000
 50
34.0115
 51
45.3615
  0
ARC
  8
0_00
  6
CONTINUOUS
 62
4
 10
285.8196
 20
308.3647
 40
500.0000
 50
44.1641
 51
49.0337
  0
ARC
  8
3_03
  6
CONTINUOUS
 62
4
 10
309.0841
 20
474.7008
 40
0.5000
 50
180.0000
 51
270.0000
  0
ARC
  8
3_03
  6
CONTINUOUS
 62
4
 10
307.5841
 20
476.9008
 40
1.0000
 50
0.0000
 51
180.0000
  0
ARC
  8
0_00
  6
CONTINUOUS
 62
4
 10
231.2841
 20
492.2043
 40
0.5000
 50
180.0000
 51
268.0000
  0
ARC
  8
0_00
  6
CONTINUOUS
 62
4
 10
231.2841
 20
495.9008
 40
0.5000
 50
90.0000
 51
180.0000
  0
ARC
  8
0_00
  6
CONTINUOUS
 62
4
 10
277.2841
 20
490.5980
 40
0.5000
 50
268.0000
 51
360.0000
  0
ARC
  8
0_00
  6
CONTINUOUS
 62
4
 10
277.2841
 20
495.9008
 40
0.5000
 50
0.0000
 51
90.0000
  0
ARC
  8
0_00
  6
CONTINUOUS
 62
4
 10
231.2841
 20
492.2043
 40
0.5000
 50
180.0000
 51
268.0000
  0
ARC
  8
0_00
  6
CONTINUOUS
 62
4
 10
231.2841
 20
495.9008
 40
0.5000
 50
90.0000
 51
180.0000
  0
ARC
  8
0_00
  6
CONTINUOUS
 62
4
 10
277.2841
 20
490.5980
 40
0.5000
 50
268.0000
 51
360.0000
  0
ARC
  8
0_00
  6
CONTINUOUS
 62
4
 10
277.2841
 20
495.9008
 40
0.5000
 50
0.0000
 51
90.0000
  0
ARC
  8
0_00
  6
CONTINUOUS
 62
4
 10
230.2841
 20
492.2043
 40
0.5000
 50
180.0000
 51
268.0000
  0
ARC
  8
0_00
  6
CONTINUOUS
 62
4
 10
230.2841
 20
495.9008
 40
0.5000
 50
90.0000
 51
180.0000
  0
ARC
  8
0_00
  6
CONTINUOUS
 62
4
 10
230.2841
 20
492.2043
 40
0.5000
 50
180.0000
 51
268.0000
  0
ARC
  8
0_00
  6
CONTINUOUS
 62
4
 10
230.2841
 20
495.9008
 40
0.5000
 50
90.0000
 51
180.0000
  0
ARC
  8
3_03
  6
CONTINUOUS
 62
4
 10
167.2841
 20
490.7992
 40
3.0000
 50
88.0908
 51
180.0000
  0
ARC
  8
3_03
  6
CONTINUOUS
 62
4
 10
167.2841
 20
431.9008
 40
3.0000
 50
180.0000
 51
270.0000
  0
ARC
  8
3_03
  6
CONTINUOUS
 62
4
 10
167.2841
 20
431.9008
 40
1.4000
 50
180.0000
 51
268.6079
  0
ARC
  8
3_03
  6
CONTINUOUS
 62
4
 10
167.3841
 20
490.6958
 40
1.5000
 50
88.0908
 51
180.0000
  0
ARC
  8
3_03
  6
CONTINUOUS
 62
4
 10
170.9841
 20
429.8958
 40
0.8000
 50
270.0041
 51
450.0041
  0
ARC
  8
3_03
  6
CONTINUOUS
 62
4
 10
167.2841
 20
432.1008
 40
1.5000
 50
180.0000
 51
270.0000
  0
ARC
  8
3_03
  6
CONTINUOUS
 62
4
 10
174.2151
 20
470.4008
 40
0.5000
 50
90.0000
 51
171.5318
  0
ARC
  8
3_03
  6
CONTINUOUS
 62
4
 10
177.2469
 20
486.1165
 40
2.0000
 50
88.0908
 51
162.9351
  0
ARC
  8
3_03
  6
CONTINUOUS
 62
4
 10
179.7841
 20
489.7340
 40
0.3000
 50
88.0908
 51
180.0000
  0
ARC
  8
3_03
  6
CONTINUOUS
 62
4
 10
186.6841
 20
489.5040
 40
0.3000
 50
0.0000
 51
88.0908
  0
ARC
  8
3_03
  6
CONTINUOUS
 62
4
 10
174.4749
 20
474.7008
 40
0.5000
 50
162.9351
 51
270.0000
  0
ARC
  8
3_03
  6
CONTINUOUS
 62
4
 10
178.1247
 20
484.8866
 40
1.0000
 50
88.0908
 51
162.9351
  0
ARC
  8
3_03
  6
CONTINUOUS
 62
4
 10
186.4841
 20
488.1099
 40
0.5000
 50
268.0909
 51
360.0000
  0
ARC
  8
3_03
  6
CONTINUOUS
 62
4
 10
182.1841
 20
487.2527
 40
0.5000
 50
88.0908
 51
180.0000
  0
CIRCLE
  8
0_00
  6
CONTINUOUS
 62
2
 10
193.2696
 20
469.7731
 40
0.1000
  0
CIRCLE
  8
0_00
  6
CONTINUOUS
 62
2
 10
191.5863
 20
465.3966
 40
0.1000
  0
CIRCLE
  8
0_00
  6
CONTINUOUS
 62
2
 10
186.0315
 20
461.1883
 40
0.1000
  0
CIRCLE
  8
0_00
  6
CONTINUOUS
 62
2
 10
187.8831
 20
463.3766
 40
0.1000
  0
CIRCLE
  8
0_00
  6
CONTINUOUS
 62
2
 10
191.2497
 20
460.0101
 40
0.1000
  0
CIRCLE
  8
0_00
  6
CONTINUOUS
 62
2
 10
193.9429
 20
461.1883
 40
0.1000
  0
CIRCLE
  8
0_00
  6
CONTINUOUS
 62
2
 10
190.4080
 20
455.6336
 40
0.1000
  0
CIRCLE
  8
0_00
  6
CONTINUOUS
 62
2
 10
184.0116
 20
457.6535
 40
0.1000
  0
CIRCLE
  8
0_00
  6
CONTINUOUS
 62
2
 10
181.9917
 20
459.3368
 40
0.1000
  0
CIRCLE
  8
0_00
  6
CONTINUOUS
 62
2
 10
182.1600
 20
450.4154
 40
0.1000
  0
CIRCLE
  8
0_00
  6
CONTINUOUS
 62
2
 10
189.7347
 20
448.7322
 40
0.1000
  0
CIRCLE
  8
0_00
  6
CONTINUOUS
 62
2
 10
186.7048
 20
453.2770
 40
0.1000
  0
CIRCLE
  8
0_00
  6
CONTINUOUS
 62
2
 10
185.0216
 20
448.2272
 40
0.1000
  0
CIRCLE
  8
0_00
  6
CONTINUOUS
 62
2
 10
181.6550
 20
443.5140
 40
0.1000
  0
CIRCLE
  8
0_00
  6
CONTINUOUS
 62
2
 10
188.7248
 20
440.8208
 40
0.1000
  0
CIRCLE
  8
0_00
  6
CONTINUOUS
 62
2
 10
189.9030
 20
444.3557
 40
0.1000
  0
CIRCLE
  8
0_00
  6
CONTINUOUS
 62
2
 10
186.0315
 20
443.6824
 40
0.1000
  0
CIRCLE
  8
0_00
  6
CONTINUOUS
 62
2
 10
183.0016
 20
435.2661
 40
0.1000
  0
CIRCLE
  8
0_00
  6
CONTINUOUS
 62
2
 10
192.5963
 20
448.0589
 40
0.1000
  0
CIRCLE
  8
0_00
  6
CONTINUOUS
 62
2
 10
190.5764
 20
438.4642
 40
0.1000
  0
CIRCLE
  8
0_00
  6
CONTINUOUS
 62
2
 10
190.2397
 20
430.5529
 40
0.1000
  0
CIRCLE
  8
0_00
  6
CONTINUOUS
 62
2
 10
186.3682
 20
438.2959
 40
0.1000
  0
CIRCLE
  8
0_00
  6
CONTINUOUS
 62
2
 10
183.3383
 20
430.2162
 40
0.1000
  0
CIRCLE
  8
0_00
  6
CONTINUOUS
 62
2
 10
185.8632
 20
431.3945
 40
0.1000
  0
CIRCLE
  8
0_00
  6
CONTINUOUS
 62
2
 10
186.5365
 20
424.3248
 40
0.1000
  0
CIRCLE
  8
0_00
  6
CONTINUOUS
 62
2
 10
192.5963
 20
428.3646
 40
0.1000
  0
CIRCLE
  8
0_00
  6
CONTINUOUS
 62
2
 10
192.0913
 20
433.7511
 40
0.1000
  0
CIRCLE
  8
0_00
  6
CONTINUOUS
 62
2
 10
190.7447
 20
420.9582
 40
0.1000
  0
CIRCLE
  8
0_00
  6
CONTINUOUS
 62
2
 10
183.6750
 20
422.4732
 40
0.1000
  0
CIRCLE
  8
0_00
  6
CONTINUOUS
 62
2
 10
182.4967
 20
418.0967
 40
0.1000
  0
CIRCLE
  8
0_00
  6
CONTINUOUS
 62
2
 10
186.8732
 20
415.2351
 40
0.1000
  0
CIRCLE
  8
0_00
  6
CONTINUOUS
 62
2
 10
187.4432
 20
418.9910
 40
0.1000
  0
CIRCLE
  8
0_00
  6
CONTINUOUS
 62
2
 10
189.8156
 20
412.8509
 40
0.1000
  0
CIRCLE
  8
0_00
  6
CONTINUOUS
 62
2
 10
187.7223
 20
407.1295
 40
0.1000
  0
CIRCLE
  8
0_00
  6
CONTINUOUS
 62
2
 10
191.7692
 20
409.7809
 40
0.1000
  0
CIRCLE
  8
0_00
  6
CONTINUOUS
 62
2
 10
183.2568
 20
408.5249
 40
0.1000
  0
CIRCLE
  8
0_00
  6
CONTINUOUS
 62
2
 10
182.9778
 20
411.8741
 40
0.1000
  0
CIRCLE
  8
0_00
  6
CONTINUOUS
 62
2
 10
187.7526
 20
402.7189
 40
0.1000
  0
CIRCLE
  8
0_00
  6
CONTINUOUS
 62
2
 10
183.5444
 20
399.3523
 40
0.1000
  0
CIRCLE
  8
0_00
  6
CONTINUOUS
 62
2
 10
190.6142
 20
400.8673
 40
0.1000
  0
CIRCLE
  8
0_00
  6
CONTINUOUS
 62
2
 10
191.7924
 20
396.4908
 40
0.1000
  0
CIRCLE
  8
0_00
  6
CONTINUOUS
 62
2
 10
187.4160
 20
393.6292
 40
0.1000
  0
CIRCLE
  8
0_00
  6
CONTINUOUS
 62
2
 10
186.8459
 20
397.3851
 40
0.1000
  0
CIRCLE
  8
0_00
  6
CONTINUOUS
 62
2
 10
184.4736
 20
391.2450
 40
0.1000
  0
CIRCLE
  8
0_00
  6
CONTINUOUS
 62
2
 10
182.5199
 20
388.1750
 40
0.1000
  0
CIRCLE
  8
0_00
  6
CONTINUOUS
 62
2
 10
191.0323
 20
386.9191
 40
0.1000
  0
CIRCLE
  8
0_00
  6
CONTINUOUS
 62
2
 10
191.3113
 20
390.2682
 40
0.1000
  0
ARC
  8
0_00
  6
CONTINUOUS
 62
2
 10
186.5668
 20
385.5236
 40
0.1000
 50
154.0798
 51
430.7844
  0
ARC
  8
0_00
  6
CONTINUOUS
 62
2
 10
202.2841
 20
452.9008
 40
8.0000
 50
90.0000
 51
180.0000
  0
CIRCLE
  8
0_00
  6
CONTINUOUS
 62
2
 10
197.8144
 20
463.0399
 40
0.1000
  0
ARC
  8
3_03
  6
CONTINUOUS
 62
4
 10
341.2841
 20
484.9991
 40
3.0000
 50
0.0000
 51
88.0908
  0
ARC
  8
3_03
  6
CONTINUOUS
 62
4
 10
341.2841
 20
430.9008
 40
3.0000
 50
270.0000
 51
360.0000
  0
ARC
  8
3_03
  6
CONTINUOUS
 62
4
 10
341.1841
 20
484.9025
 40
1.5000
 50
0.0000
 51
88.0908
  0
ARC
  8
3_03
  6
CONTINUOUS
 62
4
 10
341.2841
 20
430.9008
 40
1.4000
 50
271.3922
 51
360.0000
  0
ARC
  8
3_03
  6
CONTINUOUS
 62
4
 10
337.5841
 20
428.8959
 40
0.8000
 50
87.0000
 51
269.9959
  0
ARC
  8
3_03
  6
CONTINUOUS
 62
4
 10
341.2841
 20
431.1009
 40
1.5000
 50
270.0000
 51
360.0000
  0
ARC
  8
3_03
  6
CONTINUOUS
 62
4
 10
334.3515
 20
470.4008
 40
0.5000
 50
8.2660
 51
90.0000
  0
ARC
  8
3_03
  6
CONTINUOUS
 62
4
 10
331.3843
 20
482.9797
 40
2.0000
 50
20.6902
 51
88.0908
  0
ARC
  8
3_03
  6
CONTINUOUS
 62
4
 10
321.8841
 20
484.9973
 40
0.3000
 50
88.0908
 51
180.0000
  0
ARC
  8
3_03
  6
CONTINUOUS
 62
4
 10
333.7628
 20
474.7008
 40
0.5000
 50
270.0000
 51
380.6902
  0
ARC
  8
3_03
  6
CONTINUOUS
 62
4
 10
330.5445
 20
481.8071
 40
1.0000
 50
20.6902
 51
88.0908
  0
ARC
  8
3_03
  6
CONTINUOUS
 62
4
 10
322.0841
 20
483.5899
 40
0.5000
 50
180.0000
 51
268.0909
  0
CIRCLE
  8
0_00
  6
CONTINUOUS
 62
2
 10
319.5086
 20
465.7708
 40
0.1000
  0
CIRCLE
  8
0_00
  6
CONTINUOUS
 62
2
 10
322.0818
 20
463.9181
 40
0.1000
  0
CIRCLE
  8
0_00
  6
CONTINUOUS
 62
2
 10
318.6852
 20
458.7717
 40
0.1000
  0
CIRCLE
  8
0_00
  6
CONTINUOUS
 62
2
 10
324.9638
 20
460.1098
 40
0.1000
  0
CIRCLE
  8
0_00
  6
CONTINUOUS
 62
2
 10
325.8902
 20
461.9625
 40
0.1000
  0
CIRCLE
  8
0_00
  6
CONTINUOUS
 62
2
 10
328.7722
 20
457.7424
 40
0.1000
  0
CIRCLE
  8
0_00
  6
CONTINUOUS
 62
2
 10
326.4082
 20
450.4154
 40
0.1000
  0
CIRCLE
  8
0_00
  6
CONTINUOUS
 62
2
 10
318.8335
 20
448.7322
 40
0.1000
  0
CIRCLE
  8
0_00
  6
CONTINUOUS
 62
2
 10
323.5466
 20
448.2272
 40
0.1000
  0
CIRCLE
  8
0_00
  6
CONTINUOUS
 62
2
 10
326.9131
 20
443.5140
 40
0.1000
  0
CIRCLE
  8
0_00
  6
CONTINUOUS
 62
2
 10
319.8434
 20
440.8208
 40
0.1000
  0
CIRCLE
  8
0_00
  6
CONTINUOUS
 62
2
 10
318.6651
 20
444.3557
 40
0.1000
  0
CIRCLE
  8
0_00
  6
CONTINUOUS
 62
2
 10
322.5367
 20
443.6824
 40
0.1000
  0
CIRCLE
  8
0_00
  6
CONTINUOUS
 62
2
 10
325.5665
 20
435.2661
 40
0.1000
  0
CIRCLE
  8
0_00
  6
CONTINUOUS
 62
2
 10
322.2000
 20
438.2959
 40
0.1000
  0
CIRCLE
  8
0_00
  6
CONTINUOUS
 62
2
 10
325.2299
 20
430.2162
 40
0.1000
  0
CIRCLE
  8
0_00
  6
CONTINUOUS
 62
2
 10
322.7050
 20
431.3945
 40
0.1000
  0
CIRCLE
  8
0_00
  6
CONTINUOUS
 62
2
 10
322.0317
 20
424.3248
 40
0.1000
  0
CIRCLE
  8
0_00
  6
CONTINUOUS
 62
2
 10
324.8932
 20
422.4732
 40
0.1000
  0
CIRCLE
  8
0_00
  6
CONTINUOUS
 62
2
 10
326.0715
 20
418.0967
 40
0.1000
  0
CIRCLE
  8
0_00
  6
CONTINUOUS
 62
2
 10
321.6950
 20
415.2351
 40
0.1000
  0
CIRCLE
  8
0_00
  6
CONTINUOUS
 62
2
 10
321.1249
 20
418.9910
 40
0.1000
  0
CIRCLE
  8
0_00
  6
CONTINUOUS
 62
2
 10
318.7527
 20
412.8509
 40
0.1000
  0
CIRCLE
  8
0_00
  6
CONTINUOUS
 62
2
 10
320.8458
 20
407.1295
 40
0.1000
  0
CIRCLE
  8
0_00
  6
CONTINUOUS
 62
2
 10
325.3113
 20
408.5249
 40
0.1000
  0
CIRCLE
  8
0_00
  6
CONTINUOUS
 62
2
 10
325.5904
 20
411.8741
 40
0.1000
  0
CIRCLE
  8
0_00
  6
CONTINUOUS
 62
2
 10
319.0312
 20
455.6944
 40
0.1000
  0
CIRCLE
  8
0_00
  6
CONTINUOUS
 62
2
 10
323.9143
 20
454.8909
 40
0.1000
  0
CIRCLE
  8
0_00
  6
CONTINUOUS
 62
2
 10
322.4926
 20
451.9239
 40
0.1000
  0
CIRCLE
  8
0_00
  6
CONTINUOUS
 62
2
 10
326.5104
 20
456.8071
 40
0.1000
  0
CIRCLE
  8
0_00
  6
CONTINUOUS
 62
2
 10
319.9584
 20
461.5666
 40
0.1000
  0
CIRCLE
  8
0_00
  6
CONTINUOUS
 62
2
 10
323.1796
 20
402.7189
 40
0.1000
  0
CIRCLE
  8
0_00
  6
CONTINUOUS
 62
2
 10
318.9715
 20
399.3523
 40
0.1000
  0
CIRCLE
  8
0_00
  6
CONTINUOUS
 62
2
 10
326.0412
 20
400.8673
 40
0.1000
  0
CIRCLE
  8
0_00
  6
CONTINUOUS
 62
2
 10
327.2195
 20
396.4908
 40
0.1000
  0
CIRCLE
  8
0_00
  6
CONTINUOUS
 62
2
 10
322.8430
 20
393.6292
 40
0.1000
  0
CIRCLE
  8
0_00
  6
CONTINUOUS
 62
2
 10
322.2729
 20
397.3851
 40
0.1000
  0
CIRCLE
  8
0_00
  6
CONTINUOUS
 62
2
 10
319.9006
 20
391.2450
 40
0.1000
  0
CIRCLE
  8
0_00
  6
CONTINUOUS
 62
2
 10
321.9938
 20
385.5236
 40
0.1000
  0
CIRCLE
  8
0_00
  6
CONTINUOUS
 62
2
 10
326.4593
 20
386.9191
 40
0.1000
  0
CIRCLE
  8
0_00
  6
CONTINUOUS
 62
2
 10
326.7384
 20
390.2682
 40
0.1000
  0
ARC
  8
3_03
  6
CONTINUOUS
 62
4
 10
309.0841
 20
474.7008
 40
0.5000
 50
180.0000
 51
270.0000
  0
ARC
  8
3_03
  6
CONTINUOUS
 62
4
 10
307.5841
 20
476.9008
 40
1.0000
 50
0.0000
 51
180.0000
  0
ARC
  8
0_00
  6
CONTINUOUS
 62
2
 10
306.2841
 20
452.9008
 40
4.0000
 50
0.0000
 51
90.0000
  0
ARC
  8
0_00
  6
CONTINUOUS
 62
4
 10
306.2841
 20
452.9008
 40
8.0000
 50
0.0000
 51
90.0000
  0
CIRCLE
  8
0_00
  6
CONTINUOUS
 62
2
 10
318.0676
 20
468.4470
 40
0.1000
  0
CIRCLE
  8
0_00
  6
CONTINUOUS
 62
2
 10
315.8031
 20
461.5508
 40
0.1000
  0
CIRCLE
  8
0_00
  6
CONTINUOUS
 62
2
 10
314.6709
 20
465.7708
 40
0.1000
  0
CIRCLE
  8
0_00
  6
CONTINUOUS
 62
2
 10
309.6274
 20
463.4035
 40
0.1000
  0
CIRCLE
  8
0_00
  6
CONTINUOUS
 62
2
 10
312.9211
 20
462.0654
 40
0.1000
  0
CIRCLE
  8
0_00
  6
CONTINUOUS
 62
2
 10
315.2885
 20
458.6687
 40
0.1000
  0
CIRCLE
  8
0_00
  6
CONTINUOUS
 62
2
 10
307.9369
 20
468.2536
 40
0.1000
  0
CIRCLE
  8
0_00
  6
CONTINUOUS
 62
2
 10
306.2081
 20
465.4135
 40
0.1000
  0
CIRCLE
  8
0_00
  6
CONTINUOUS
 62
2
 10
312.6293
 20
468.0066
 40
0.1000
  0
CIRCLE
  8
0_00
  6
CONTINUOUS
 62
2
 10
304.6028
 20
462.9437
 40
0.1000
  0
CIRCLE
  8
0_00
  6
CONTINUOUS
 62
2
 10
315.9719
 20
448.0589
 40
0.1000
  0
CIRCLE
  8
0_00
  6
CONTINUOUS
 62
2
 10
317.9918
 20
438.4642
 40
0.1000
  0
CIRCLE
  8
0_00
  6
CONTINUOUS
 62
2
 10
318.3285
 20
430.5529
 40
0.1000
  0
CIRCLE
  8
0_00
  6
CONTINUOUS
 62
2
 10
315.9719
 20
428.3646
 40
0.1000
  0
CIRCLE
  8
0_00
  6
CONTINUOUS
 62
2
 10
316.4769
 20
433.7511
 40
0.1000
  0
CIRCLE
  8
0_00
  6
CONTINUOUS
 62
2
 10
317.8235
 20
420.9582
 40
0.1000
  0
CIRCLE
  8
0_00
  6
CONTINUOUS
 62
2
 10
316.7990
 20
409.7809
 40
0.1000
  0
CIRCLE
  8
0_00
  6
CONTINUOUS
 62
2
 10
318.0422
 20
451.8003
 40
0.1000
  0
CIRCLE
  8
0_00
  6
CONTINUOUS
 62
2
 10
317.9470
 20
388.1750
 40
0.1000
  0
ARC
  8
0_00
  6
CONTINUOUS
 62
2
 10
306.2841
 20
452.9008
 40
6.0000
 50
0.0000
 51
90.0000
  0
ARC
  8
0_00
  6
CONTINUOUS
 62
2
 10
306.2841
 20
452.9008
 40
2.0000
 50
0.0000
 51
90.0000
  0
ARC
  8
3_03
  6
CONTINUOUS
 62
4
 10
199.4841
 20
474.7008
 40
0.5000
 50
270.0000
 51
360.0000
  0
ARC
  8
3_03
  6
CONTINUOUS
 62
4
 10
200.9841
 20
476.9008
 40
1.0000
 50
0.0000
 51
180.0000
  0
CIRCLE
  8
0_00
  6
CONTINUOUS
 62
2
 10
215.4887
 20
463.0399
 40
0.1000
  0
CIRCLE
  8
0_00
  6
CONTINUOUS
 62
2
 10
216.6670
 20
466.9115
 40
0.1000
  0
CIRCLE
  8
0_00
  6
CONTINUOUS
 62
2
 10
208.5873
 20
467.0798
 40
0.1000
  0
CIRCLE
  8
0_00
  6
CONTINUOUS
 62
2
 10
204.2108
 20
463.7133
 40
0.1000
  0
CIRCLE
  8
0_00
  6
CONTINUOUS
 62
2
 10
211.4489
 20
463.2083
 40
0.1000
  0
CIRCLE
  8
0_00
  6
CONTINUOUS
 62
2
 10
203.5375
 20
467.7531
 40
0.1000
  0
CIRCLE
  8
0_00
  6
CONTINUOUS
 62
2
 10
200.5076
 20
465.5649
 40
0.1000
  0
CIRCLE
  8
0_00
  6
CONTINUOUS
 62
2
 10
198.1511
 20
466.7432
 40
0.1000
  0
CIRCLE
  8
0_00
  6
CONTINUOUS
 62
2
 10
272.6202
 20
467.0187
 40
0.1000
  0
CIRCLE
  8
0_00
  6
CONTINUOUS
 62
2
 10
271.6324
 20
464.5491
 40
0.1000
  0
CIRCLE
  8
0_00
  6
CONTINUOUS
 62
2
 10
277.0657
 20
465.6604
 40
0.1000
  0
CIRCLE
  8
0_00
  6
CONTINUOUS
 62
2
 10
273.9786
 20
463.3142
 40
0.1000
  0
CIRCLE
  8
0_00
  6
CONTINUOUS
 62
2
 10
265.2112
 20
463.3142
 40
0.1000
  0
CIRCLE
  8
0_00
  6
CONTINUOUS
 62
2
 10
267.0634
 20
465.7839
 40
0.1000
  0
CIRCLE
  8
0_00
  6
CONTINUOUS
 62
2
 10
266.5695
 20
468.1301
 40
0.1000
  0
CIRCLE
  8
0_00
  6
CONTINUOUS
 62
2
 10
260.1482
 20
467.2657
 40
0.1000
  0
CIRCLE
  8
0_00
  6
CONTINUOUS
 62
2
 10
260.3952
 20
465.0430
 40
0.1000
  0
CIRCLE
  8
0_00
  6
CONTINUOUS
 62
2
 10
255.8263
 20
463.6847
 40
0.1000
  0
CIRCLE
  8
0_00
  6
CONTINUOUS
 62
2
 10
255.0854
 20
466.2778
 40
0.1000
  0
CIRCLE
  8
0_00
  6
CONTINUOUS
 62
2
 10
250.2695
 20
469.3650
 40
0.1000
  0
CIRCLE
  8
0_00
  6
CONTINUOUS
 62
2
 10
248.9111
 20
465.9074
 40
0.1000
  0
CIRCLE
  8
0_00
  6
CONTINUOUS
 62
2
 10
245.5770
 20
464.9195
 40
0.1000
  0
CIRCLE
  8
0_00
  6
CONTINUOUS
 62
2
 10
250.2695
 20
463.0672
 40
0.1000
  0
CIRCLE
  8
0_00
  6
CONTINUOUS
 62
2
 10
238.4149
 20
463.0672
 40
0.1000
  0
CIRCLE
  8
0_00
  6
CONTINUOUS
 62
2
 10
242.8604
 20
467.7597
 40
0.1000
  0
CIRCLE
  8
0_00
  6
CONTINUOUS
 62
2
 10
243.3544
 20
464.4256
 40
0.1000
  0
CIRCLE
  8
0_00
  6
CONTINUOUS
 62
2
 10
237.6740
 20
467.5127
 40
0.1000
  0
CIRCLE
  8
0_00
  6
CONTINUOUS
 62
2
 10
232.9816
 20
465.0430
 40
0.1000
  0
CIRCLE
  8
0_00
  6
CONTINUOUS
 62
2
 10
231.4998
 20
468.6241
 40
0.1000
  0
CIRCLE
  8
0_00
  6
CONTINUOUS
 62
2
 10
247.6763
 20
469.2415
 40
0.1000
  0
CIRCLE
  8
0_00
  6
CONTINUOUS
 62
2
 10
300.8982
 20
463.9316
 40
0.1000
  0
CIRCLE
  8
0_00
  6
CONTINUOUS
 62
2
 10
301.6392
 20
467.5127
 40
0.1000
  0
CIRCLE
  8
0_00
  6
CONTINUOUS
 62
2
 10
292.0074
 20
467.3892
 40
0.1000
  0
CIRCLE
  8
0_00
  6
CONTINUOUS
 62
2
 10
292.6248
 20
464.5491
 40
0.1000
  0
CIRCLE
  8
0_00
  6
CONTINUOUS
 62
2
 10
297.8111
 20
466.7718
 40
0.1000
  0
CIRCLE
  8
0_00
  6
CONTINUOUS
 62
2
 10
296.3293
 20
463.9316
 40
0.1000
  0
CIRCLE
  8
0_00
  6
CONTINUOUS
 62
2
 10
288.3028
 20
465.1665
 40
0.1000
  0
CIRCLE
  8
0_00
  6
CONTINUOUS
 62
2
 10
285.3392
 20
467.2657
 40
0.1000
  0
CIRCLE
  8
0_00
  6
CONTINUOUS
 62
2
 10
280.1528
 20
465.9074
 40
0.1000
  0
CIRCLE
  8
0_00
  6
CONTINUOUS
 62
2
 10
284.8452
 20
464.6725
 40
0.1000
  0
CIRCLE
  8
0_00
  6
CONTINUOUS
 62
2
 10
279.6589
 20
468.6241
 40
0.1000
  0
CIRCLE
  8
0_00
  6
CONTINUOUS
 62
2
 10
279.1649
 20
463.0672
 40
0.1000
  0
CIRCLE
  8
0_00
  6
CONTINUOUS
 62
2
 10
285.7096
 20
462.2028
 40
0.1000
  0
CIRCLE
  8
0_00
  6
CONTINUOUS
 62
2
 10
225.4200
 20
467.5848
 40
0.1000
  0
CIRCLE
  8
0_00
  6
CONTINUOUS
 62
2
 10
222.8951
 20
464.2183
 40
0.1000
  0
CIRCLE
  8
0_00
  6
CONTINUOUS
 62
2
 10
227.6083
 20
463.3766
 40
0.1000
  0
ARC
  8
0_00
  6
CONTINUOUS
 62
4
 10
735.1790
 20
689.4844
 40
0.0750
 50
90.0000
 51
180.0000
  0
ARC
  8
0_00
  6
CONTINUOUS
 62
4
 10
742.0789
 20
689.4844
 40
0.0750
 50
0.0000
 51
90.0000
  0
ARC
  8
0_00
  6
CONTINUOUS
 62
4
 10
735.1790
 20
689.4844
 40
0.0750
 50
90.0000
 51
180.0000
  0
ARC
  8
0_00
  6
CONTINUOUS
 62
4
 10
742.0789
 20
689.4844
 40
0.0750
 50
0.0000
 51
90.0000
  0
ARC
  8
0_00
  6
CONTINUOUS
 62
4
 10
735.0290
 20
689.4844
 40
0.0750
 50
90.0000
 51
180.0000
  0
ARC
  8
0_00
  6
CONTINUOUS
 62
4
 10
735.0290
 20
689.4844
 40
0.0750
 50
90.0000
 51
180.0000
  0
ARC
  8
0_00
  6
CONTINUOUS
 62
4
 10
777.1040
 20
704.0793
 40
0.3750
 50
270.0000
 51
360.0000
  0
ARC
  8
0_00
  6
CONTINUOUS
 62
4
 10
775.1539
 20
704.0793
 40
0.3750
 50
180.0000
 51
270.0000
  0
ARC
  8
0_00
  6
CONTINUOUS
 62
4
 10
775.1539
 20
717.0544
 40
0.3750
 50
90.0000
 51
180.0000
  0
ARC
  8
0_00
  6
CONTINUOUS
 62
4
 10
777.1040
 20
717.0544
 40
0.3750
 50
0.0000
 51
90.0000
  0
ARC
  8
0_00
  6
CONTINUOUS
 62
4
 10
778.5290
 20
689.4844
 40
0.0750
 50
0.0000
 51
90.0000
  0
ARC
  8
0_00
  6
CONTINUOUS
 62
4
 10
773.7290
 20
689.4844
 40
0.0750
 50
90.0000
 51
180.0000
  0
ARC
  8
0_00
  6
CONTINUOUS
 62
4
 10
932.1040
 20
704.0793
 40
0.3750
 50
270.0000
 51
360.0000
  0
ARC
  8
0_00
  6
CONTINUOUS
 62
4
 10
930.1540
 20
704.0793
 40
0.3750
 50
180.0000
 51
270.0000
  0
ARC
  8
0_00
  6
CONTINUOUS
 62
4
 10
930.1540
 20
717.0544
 40
0.3750
 50
90.0000
 51
180.0000
  0
ARC
  8
0_00
  6
CONTINUOUS
 62
4
 10
932.1040
 20
717.0544
 40
0.3750
 50
0.0000
 51
90.0000
  0
ARC
  8
0_00
  6
CONTINUOUS
 62
4
 10
933.5290
 20
689.4844
 40
0.0750
 50
0.0000
 51
90.0000
  0
ARC
  8
0_00
  6
CONTINUOUS
 62
4
 10
928.7290
 20
689.4844
 40
0.0750
 50
90.0000
 51
180.0000
  0
ARC
  8
0_00
  6
CONTINUOUS
 62
4
 10
1087.1040
 20
704.0793
 40
0.3750
 50
270.0000
 51
360.0000
  0
ARC
  8
0_00
  6
CONTINUOUS
 62
4
 10
1085.1541
 20
704.0793
 40
0.3750
 50
180.0000
 51
270.0000
  0
ARC
  8
0_00
  6
CONTINUOUS
 62
4
 10
1085.1541
 20
717.0544
 40
0.3750
 50
90.0000
 51
180.0000
  0
ARC
  8
0_00
  6
CONTINUOUS
 62
4
 10
1087.1040
 20
717.0544
 40
0.3750
 50
0.0000
 51
90.0000
  0
ARC
  8
0_00
  6
CONTINUOUS
 62
4
 10
1088.5291
 20
689.4844
 40
0.0750
 50
0.0000
 51
90.0000
  0
ARC
  8
0_00
  6
CONTINUOUS
 62
4
 10
1083.7290
 20
689.4844
 40
0.0750
 50
90.0000
 51
180.0000
  0
ARC
  8
0_00
  6
CONTINUOUS
 62
4
 10
504.8505
 20
270.8075
 40
2.5000
 50
270.0000
 51
360.0000
  0
ARC
  8
0_00
  6
CONTINUOUS
 62
4
 10
491.8504
 20
270.8075
 40
2.5000
 50
180.0000
 51
270.0000
  0
ARC
  8
0_00
  6
CONTINUOUS
 62
4
 10
491.8504
 20
357.3075
 40
2.5000
 50
90.0000
 51
180.0000
  0
ARC
  8
0_00
  6
CONTINUOUS
 62
4
 10
504.8505
 20
357.3075
 40
2.5000
 50
0.0000
 51
90.0000
  0
ARC
  8
0_00
  6
DASHED
 62
2
 10
267.7841
 20
576.9723
 40
15.3286
 50
65.3218
 51
114.6782
  0
ARC
  8
0_00
  6
DASHED
 62
2
 10
240.7841
 20
576.9723
 40
15.3286
 50
65.3218
 51
114.6782
  0
ARC
  8
12_0C
  6
CONTINUOUS
 62
2
 10
202.2841
 20
694.2403
 40
5.1605
 50
39.1846
 51
140.8154
  0
ARC
  8
12_0C
  6
CONTINUOUS
 62
2
 10
166.2841
 20
694.2403
 40
5.1605
 50
39.1846
 51
140.8154
  0
ARC
  8
0_00
  6
CONTINUOUS
 62
4
 10
198.2964
 20
697.3008
 40
0.4000
 50
194.0363
 51
270.0000
  0
ARC
  8
0_00
  6
CONTINUOUS
 62
4
 10
197.3474
 20
698.2107
 40
0.3000
 50
14.0362
 51
87.5372
  0
ARC
  8
0_00
  6
CONTINUOUS
 62
4
 10
209.6118
 20
697.5009
 40
0.6000
 50
270.0000
 51
388.8667
  0
ARC
  8
0_00
  6
CONTINUOUS
 62
4
 10
212.5341
 20
700.1526
 40
0.3000
 50
275.0000
 51
371.6000
  0
ARC
  8
0_00
  6
CONTINUOUS
 62
4
 10
211.7341
 20
699.4301
 40
0.3500
 50
95.0000
 51
185.0988
  0
ARC
  8
0_00
  6
CONTINUOUS
 62
4
 10
210.6841
 20
699.7900
 40
1.0000
 50
95.0000
 51
180.0000
  0
ARC
  8
0_00
  6
CONTINUOUS
 62
4
 10
211.4089
 20
701.1583
 40
0.3000
 50
275.0000
 51
371.6000
  0
ARC
  8
0_00
  6
CONTINUOUS
 62
4
 10
211.6821
 20
704.8008
 40
0.7000
 50
90.0000
 51
191.6000
  0
ARC
  8
0_00
  6
CONTINUOUS
 62
4
 10
213.3776
 20
699.5768
 40
2.0000
 50
185.0988
 51
249.7122
  0
ARC
  8
0_00
  6
CONTINUOUS
 62
4
 10
213.3776
 20
699.5768
 40
3.7000
 50
183.4043
 51
208.8667
  0
ARC
  8
0_00
  6
CONTINUOUS
 62
4
 10
170.2718
 20
697.3008
 40
0.4000
 50
270.0000
 51
345.9637
  0
ARC
  8
0_00
  6
CONTINUOUS
 62
4
 10
171.2208
 20
698.2107
 40
0.3000
 50
92.4628
 51
165.9637
  0
ARC
  8
0_00
  6
CONTINUOUS
 62
4
 10
158.9563
 20
697.5009
 40
0.6000
 50
151.1333
 51
270.0000
  0
ARC
  8
0_00
  6
CONTINUOUS
 62
4
 10
156.0341
 20
700.1526
 40
0.3000
 50
168.4000
 51
265.0000
  0
ARC
  8
0_00
  6
CONTINUOUS
 62
4
 10
156.8341
 20
699.4301
 40
0.3500
 50
354.9012
 51
445.0000
  0
ARC
  8
0_00
  6
CONTINUOUS
 62
4
 10
157.8841
 20
699.7900
 40
1.0000
 50
0.0000
 51
85.0000
  0
ARC
  8
0_00
  6
CONTINUOUS
 62
4
 10
157.1593
 20
701.1583
 40
0.3000
 50
168.4000
 51
265.0000
  0
ARC
  8
0_00
  6
CONTINUOUS
 62
4
 10
156.8861
 20
704.8008
 40
0.7000
 50
348.4000
 51
450.0000
  0
ARC
  8
0_00
  6
CONTINUOUS
 62
4
 10
155.1906
 20
699.5768
 40
2.0000
 50
290.2878
 51
354.9012
  0
ARC
  8
0_00
  6
CONTINUOUS
 62
4
 10
155.1906
 20
699.5768
 40
3.7000
 50
331.1333
 51
356.5957
  0
ARC
  8
0_00
  6
CONTINUOUS
 62
4
 10
184.2841
 20
539.3009
 40
201.6000
 50
82.9521
 51
97.0479
  0
ARC
  8
0_00
  6
CONTINUOUS
 62
4
 10
160.2841
 20
733.4228
 40
6.0000
 50
97.0479
 51
180.0001
  0
ARC
  8
0_00
  6
CONTINUOUS
 62
4
 10
208.2841
 20
733.4228
 40
6.0000
 50
359.9999
 51
442.9521
  0
ARC
  8
14_0E
  6
CONTINUOUS
 62
4
 10
184.2841
 20
539.3009
 40
200.0000
 50
82.8930
 51
97.1069
  0
ARC
  8
14_0E
  6
CONTINUOUS
 62
4
 10
160.0841
 20
733.3981
 40
4.4000
 50
97.1069
 51
180.0000
  0
ARC
  8
14_0E
  6
CONTINUOUS
 62
4
 10
208.4841
 20
733.3981
 40
4.4000
 50
0.0000
 51
82.8930
  0
ARC
  8
0_00
  6
CONTINUOUS
 62
4
 10
154.9836
 20
694.6008
 40
0.7000
 50
180.0001
 51
360.0001
  0
ARC
  8
14_0E
  6
CONTINUOUS
 62
4
 10
155.1130
 20
699.6915
 40
2.0000
 50
286.5774
 51
349.1683
  0
ARC
  8
0_00
  6
CONTINUOUS
 62
4
 10
156.7336
 20
699.3815
 40
0.3500
 50
349.1683
 51
445.0000
  0
ARC
  8
0_00
  6
CONTINUOUS
 62
4
 10
156.0836
 20
700.1911
 40
0.4000
 50
168.6000
 51
265.0000
  0
ARC
  8
0_00
  6
CONTINUOUS
 62
4
 10
155.9622
 20
702.6246
 40
0.2000
 50
348.6000
 51
450.0000
  0
ARC
  8
0_00
  6
CONTINUOUS
 62
4
 10
156.0836
 20
705.2246
 40
0.4000
 50
90.0000
 51
180.0000
  0
ARC
  8
0_00
  6
CONTINUOUS
 62
4
 10
156.0836
 20
707.0246
 40
0.4000
 50
183.0566
 51
270.0000
  0
ARC
  8
0_00
  6
CONTINUOUS
 62
4
 10
158.9836
 20
705.4247
 40
0.6000
 50
180.0000
 51
270.0000
  0
ARC
  8
0_00
  6
CONTINUOUS
 62
4
 10
158.6836
 20
706.1246
 40
0.5000
 50
0.0000
 51
90.0000
  0
ARC
  8
0_00
  6
CONTINUOUS
 62
4
 10
158.9836
 20
705.0247
 40
0.2000
 50
270.0000
 51
360.0000
  0
ARC
  8
0_00
  6
CONTINUOUS
 62
4
 10
213.5840
 20
694.6008
 40
0.7000
 50
179.9999
 51
359.9999
  0
ARC
  8
14_0E
  6
CONTINUOUS
 62
4
 10
213.4546
 20
699.6915
 40
2.0000
 50
190.8317
 51
253.4226
  0
ARC
  8
0_00
  6
CONTINUOUS
 62
4
 10
211.8341
 20
699.3815
 40
0.3500
 50
95.0000
 51
190.8317
  0
ARC
  8
0_00
  6
CONTINUOUS
 62
4
 10
212.4841
 20
700.1911
 40
0.4000
 50
275.0000
 51
371.4000
  0
ARC
  8
0_00
  6
CONTINUOUS
 62
4
 10
209.8840
 20
706.1246
 40
0.5000
 50
90.0000
 51
180.0000
  0
ARC
  8
0_00
  6
CONTINUOUS
 62
4
 10
209.5841
 20
705.0247
 40
0.2000
 50
180.0000
 51
270.0000
  0
ARC
  8
0_00
  6
CONTINUOUS
 62
4
 10
209.5841
 20
705.4247
 40
0.6000
 50
270.0000
 51
360.0000
  0
ARC
  8
0_00
  6
CONTINUOUS
 62
4
 10
212.4841
 20
707.0246
 40
0.4000
 50
270.0000
 51
359.9999
  0
ARC
  8
0_00
  6
CONTINUOUS
 62
4
 10
212.4841
 20
705.2246
 40
0.4000
 50
0.0000
 51
90.0000
  0
ARC
  8
0_00
  6
CONTINUOUS
 62
4
 10
212.6054
 20
702.6246
 40
0.2000
 50
90.0000
 51
191.4000
  0
ARC
  8
0_00
  6
CONTINUOUS
 62
3
 10
1089.6760
 20
72.2363
 40
0.5362
 50
270.0000
 51
450.0000
  0
ARC
  8
0_00
  6
CONTINUOUS
 62
3
 10
1088.1842
 20
77.0626
 40
0.6532
 50
0.0000
 51
180.0000
  0
ARC
  8
0_00
  6
CONTINUOUS
 62
3
 10
1089.1886
 20
83.4001
 40
1.9500
 50
333.9999
 51
450.0000
  0
CIRCLE
  8
0_00
  6
CONTINUOUS
 62
3
 10
1090.0660
 20
87.3000
 40
1.5600
  0
ARC
  8
0_00
  6
CONTINUOUS
 62
3
 10
1088.2811
 20
77.0626
 40
0.4500
 50
0.0000
 51
180.0000
  0
ARC
  8
0_00
  6
CONTINUOUS
 62
3
 10
1088.2811
 20
77.0626
 40
0.1500
 50
0.0000
 51
180.0000
  0
ARC
  8
0_00
  6
CONTINUOUS
 62
3
 10
1089.6760
 20
72.1725
 40
0.3000
 50
270.0000
 51
450.0000
  0
CIRCLE
  8
0_00
  6
CONTINUOUS
 62
3
 10
1090.0660
 20
87.3000
 40
1.3244
  0
CIRCLE
  8
0_00
  6
CONTINUOUS
 62
3
 10
1090.0660
 20
87.3000
 40
1.0256
  0
CIRCLE
  8
0_00
  6
CONTINUOUS
 62
3
 10
1090.0660
 20
87.3000
 40
0.7027
  0
CIRCLE
  8
0_00
  6
CONTINUOUS
 62
3
 10
1090.0660
 20
87.3000
 40
0.3440
  0
CIRCLE
  8
0_00
  6
CONTINUOUS
 62
3
 10
1090.0660
 20
87.3000
 40
0.1699
  0
CIRCLE
  8
0_00
  6
CONTINUOUS
 62
4
 10
881.0410
 20
82.2001
 40
3.7500
  0
CIRCLE
  8
0_00
  6
CONTINUOUS
 62
4
 10
881.0410
 20
82.2001
 40
6.0000
  0
ARC
  8
12_0C
  6
CONTINUOUS
 62
2
 10
412.2841
 20
703.9842
 40
5.1605
 50
39.1846
 51
140.8154
  0
ARC
  8
12_0C
  6
CONTINUOUS
 62
2
 10
376.2841
 20
703.9842
 40
5.1605
 50
39.1846
 51
140.8154
  0
ARC
  8
0_00
  6
CONTINUOUS
 62
4
 10
408.2964
 20
707.0448
 40
0.4000
 50
194.0363
 51
270.0000
  0
ARC
  8
0_00
  6
CONTINUOUS
 62
4
 10
407.3474
 20
707.9547
 40
0.3000
 50
14.0362
 51
87.5372
  0
ARC
  8
0_00
  6
CONTINUOUS
 62
4
 10
419.6119
 20
707.2447
 40
0.6000
 50
270.0000
 51
388.8667
  0
ARC
  8
0_00
  6
CONTINUOUS
 62
4
 10
422.5341
 20
709.8966
 40
0.3000
 50
275.0000
 51
371.6000
  0
ARC
  8
0_00
  6
CONTINUOUS
 62
4
 10
421.7341
 20
709.1741
 40
0.3500
 50
95.0000
 51
185.0988
  0
ARC
  8
0_00
  6
CONTINUOUS
 62
4
 10
420.6841
 20
709.5340
 40
1.0000
 50
95.0000
 51
180.0000
  0
ARC
  8
0_00
  6
CONTINUOUS
 62
4
 10
421.4089
 20
710.9023
 40
0.3000
 50
275.0000
 51
371.6000
  0
ARC
  8
0_00
  6
CONTINUOUS
 62
4
 10
421.6820
 20
714.5448
 40
0.7000
 50
90.0000
 51
191.6000
  0
ARC
  8
0_00
  6
CONTINUOUS
 62
4
 10
423.3776
 20
709.3207
 40
2.0000
 50
185.0988
 51
249.7122
  0
ARC
  8
0_00
  6
CONTINUOUS
 62
4
 10
423.3776
 20
709.3207
 40
3.7000
 50
183.4043
 51
208.8667
  0
ARC
  8
0_00
  6
CONTINUOUS
 62
4
 10
424.7846
 20
706.1835
 40
0.5000
 50
179.9995
 51
296.3368
  0
ARC
  8
0_00
  6
CONTINUOUS
 62
4
 10
422.4846
 20
714.9913
 40
0.4000
 50
359.4403
 51
449.9995
  0
ARC
  8
0_00
  6
CONTINUOUS
 62
4
 10
419.5847
 20
714.7914
 40
0.2000
 50
179.9995
 51
269.9996
  0
ARC
  8
0_00
  6
CONTINUOUS
 62
4
 10
419.5847
 20
715.1913
 40
0.6000
 50
269.9996
 51
359.9996
  0
ARC
  8
0_00
  6
CONTINUOUS
 62
4
 10
421.8347
 20
709.1481
 40
0.3500
 50
94.9995
 51
190.8312
  0
ARC
  8
14_0E
  6
CONTINUOUS
 62
4
 10
423.4552
 20
709.4582
 40
2.0000
 50
190.8312
 51
253.4221
  0
ARC
  8
0_00
  6
CONTINUOUS
 62
4
 10
422.4846
 20
709.9579
 40
0.4000
 50
274.9996
 51
371.3995
  0
ARC
  8
0_00
  6
CONTINUOUS
 62
4
 10
422.6060
 20
712.3914
 40
0.2000
 50
89.9995
 51
191.3996
  0
ARC
  8
0_00
  6
CONTINUOUS
 62
4
 10
420.3847
 20
715.6913
 40
1.0000
 50
89.9995
 51
179.9995
  0
ARC
  8
0_00
  6
CONTINUOUS
 62
4
 10
422.9847
 20
715.3914
 40
1.3000
 50
359.9996
 51
449.9995
  0
ARC
  8
0_00
  6
CONTINUOUS
 62
4
 10
394.2841
 20
680.9008
 40
60.0000
 50
56.5252
 51
123.4747
  0
ARC
  8
0_00
  6
CONTINUOUS
 62
4
 10
418.8841
 20
718.1030
 40
15.4000
 50
292.7488
 51
416.5252
  0
ARC
  8
0_00
  6
CONTINUOUS
 62
4
 10
424.2941
 20
705.2008
 40
1.4095
 50
179.9994
 51
292.7488
  0
ARC
  8
0_00
  6
CONTINUOUS
 62
4
 10
418.8841
 20
718.1030
 40
13.8000
 50
296.3368
 51
416.5252
  0
ARC
  8
0_00
  6
CONTINUOUS
 62
4
 10
394.2841
 20
680.9008
 40
58.4000
 50
56.5252
 51
123.4747
  0
ARC
  8
0_00
  6
CONTINUOUS
 62
4
 10
380.2718
 20
707.0448
 40
0.4000
 50
270.0000
 51
345.9637
  0
ARC
  8
0_00
  6
CONTINUOUS
 62
4
 10
381.2208
 20
707.9547
 40
0.3000
 50
92.4628
 51
165.9637
  0
ARC
  8
0_00
  6
CONTINUOUS
 62
4
 10
368.9564
 20
707.2447
 40
0.6000
 50
151.1333
 51
270.0000
  0
ARC
  8
0_00
  6
CONTINUOUS
 62
4
 10
366.0341
 20
709.8966
 40
0.3000
 50
168.4000
 51
265.0000
  0
ARC
  8
0_00
  6
CONTINUOUS
 62
4
 10
366.8341
 20
709.1741
 40
0.3500
 50
354.9012
 51
445.0000
  0
ARC
  8
0_00
  6
CONTINUOUS
 62
4
 10
367.8841
 20
709.5340
 40
1.0000
 50
0.0000
 51
85.0000
  0
ARC
  8
0_00
  6
CONTINUOUS
 62
4
 10
367.1593
 20
710.9023
 40
0.3000
 50
168.4000
 51
265.0000
  0
ARC
  8
0_00
  6
CONTINUOUS
 62
4
 10
366.8861
 20
714.5448
 40
0.7000
 50
348.4000
 51
450.0000
  0
ARC
  8
0_00
  6
CONTINUOUS
 62
4
 10
365.1906
 20
709.3207
 40
2.0000
 50
290.2878
 51
354.9012
  0
ARC
  8
0_00
  6
CONTINUOUS
 62
4
 10
365.1906
 20
709.3207
 40
3.7000
 50
331.1333
 51
356.5957
  0
ARC
  8
0_00
  6
CONTINUOUS
 62
4
 10
363.7836
 20
706.1835
 40
0.5000
 50
243.6632
 51
360.0004
  0
ARC
  8
0_00
  6
CONTINUOUS
 62
4
 10
366.0835
 20
714.9913
 40
0.4000
 50
89.9999
 51
180.5597
  0
ARC
  8
0_00
  6
CONTINUOUS
 62
4
 10
368.9835
 20
714.7914
 40
0.2000
 50
270.0005
 51
360.0004
  0
ARC
  8
0_00
  6
CONTINUOUS
 62
4
 10
368.9835
 20
715.1913
 40
0.6000
 50
180.0005
 51
270.0005
  0
ARC
  8
0_00
  6
CONTINUOUS
 62
4
 10
366.7335
 20
709.1481
 40
0.3500
 50
349.1688
 51
445.0004
  0
ARC
  8
14_0E
  6
CONTINUOUS
 62
4
 10
365.1129
 20
709.4582
 40
2.0000
 50
286.5779
 51
349.1688
  0
ARC
  8
0_00
  6
CONTINUOUS
 62
4
 10
366.0835
 20
709.9579
 40
0.4000
 50
168.6004
 51
265.0005
  0
ARC
  8
0_00
  6
CONTINUOUS
 62
4
 10
365.9621
 20
712.3914
 40
0.2000
 50
348.6005
 51
450.0004
  0
ARC
  8
0_00
  6
CONTINUOUS
 62
4
 10
368.1835
 20
715.6913
 40
1.0000
 50
0.0004
 51
90.0004
  0
ARC
  8
0_00
  6
CONTINUOUS
 62
4
 10
365.5835
 20
715.3914
 40
1.3000
 50
90.0004
 51
180.0005
  0
ARC
  8
0_00
  6
CONTINUOUS
 62
4
 10
369.6841
 20
718.1030
 40
15.4000
 50
123.4747
 51
247.2512
  0
ARC
  8
0_00
  6
CONTINUOUS
 62
4
 10
364.2741
 20
705.2008
 40
1.4095
 50
247.2512
 51
360.0006
  0
ARC
  8
0_00
  6
CONTINUOUS
 62
4
 10
369.6841
 20
718.1030
 40
13.8000
 50
123.4747
 51
243.6632
  0
ARC
  8
12_0C
  6
CONTINUOUS
 62
2
 10
608.4048
 20
704.5403
 40
5.1605
 50
39.1846
 51
140.8154
  0
ARC
  8
12_0C
  6
CONTINUOUS
 62
2
 10
572.4048
 20
704.5403
 40
5.1605
 50
39.1846
 51
140.8154
  0
ARC
  8
0_00
  6
CONTINUOUS
 62
4
 10
617.4031
 20
708.6009
 40
0.6000
 50
270.0000
 51
450.0000
  0
ARC
  8
0_00
  6
CONTINUOUS
 62
4
 10
590.4032
 20
711.9008
 40
29.0000
 50
201.7076
 51
269.4103
  0
ARC
  8
0_00
  6
CONTINUOUS
 62
4
 10
590.4032
 20
711.9008
 40
29.0000
 50
270.5897
 51
338.2924
  0
ARC
  8
0_00
  6
CONTINUOUS
 62
4
 10
565.6031
 20
707.4008
 40
0.5000
 50
180.0000
 51
270.0000
  0
ARC
  8
0_00
  6
CONTINUOUS
 62
4
 10
615.2031
 20
707.4008
 40
0.5000
 50
270.0000
 51
360.0000
  0
ARC
  8
0_00
  6
CONTINUOUS
 62
4
 10
617.7031
 20
711.3815
 40
0.5000
 50
275.0000
 51
371.6000
  0
ARC
  8
0_00
  6
CONTINUOUS
 62
4
 10
616.7031
 20
710.8925
 40
1.0000
 50
95.0000
 51
180.0000
  0
ARC
  8
0_00
  6
CONTINUOUS
 62
4
 10
612.9359
 20
712.2260
 40
5.0000
 50
11.6000
 51
45.0000
  0
ARC
  8
0_00
  6
CONTINUOUS
 62
4
 10
612.9359
 20
712.2260
 40
4.1000
 50
11.6000
 51
45.0000
  0
ARC
  8
0_00
  6
CONTINUOUS
 62
4
 10
563.4031
 20
708.6009
 40
0.6000
 50
90.0000
 51
270.0000
  0
ARC
  8
0_00
  6
CONTINUOUS
 62
4
 10
563.1031
 20
711.3815
 40
0.5000
 50
168.4000
 51
265.0000
  0
ARC
  8
0_00
  6
CONTINUOUS
 62
4
 10
565.9531
 20
717.4508
 40
0.4500
 50
0.0000
 51
180.0000
  0
ARC
  8
0_00
  6
CONTINUOUS
 62
4
 10
564.1031
 20
710.8925
 40
1.0000
 50
0.0000
 51
85.0000
  0
ARC
  8
0_00
  6
CONTINUOUS
 62
4
 10
567.8703
 20
712.2260
 40
5.0000
 50
135.0000
 51
168.4000
  0
ARC
  8
0_00
  6
CONTINUOUS
 62
4
 10
567.8703
 20
712.2260
 40
4.1000
 50
135.0000
 51
168.4000
  0
ARC
  8
0_00
  6
CONTINUOUS
 62
4
 10
565.4031
 20
716.9713
 40
1.0000
 50
315.0000
 51
360.0000
  0
ARC
  8
0_00
  6
CONTINUOUS
 62
4
 10
614.8531
 20
717.4508
 40
0.4500
 50
0.0000
 51
180.0000
  0
ARC
  8
0_00
  6
CONTINUOUS
 62
4
 10
615.4032
 20
716.9713
 40
1.0000
 50
180.0000
 51
225.0000
  0
ARC
  8
15_0F
  6
CONTINUOUS
 62
4
 10
590.4032
 20
711.9008
 40
27.9000
 50
202.3023
 51
255.4075
  0
ARC
  8
15_0F
  6
CONTINUOUS
 62
4
 10
590.4032
 20
711.9008
 40
27.9000
 50
284.5926
 51
337.6978
  0
ARC
  8
15_0F
  6
CONTINUOUS
 62
4
 10
563.9242
 20
701.3595
 40
0.5000
 50
150.0000
 51
201.7076
  0
ARC
  8
15_0F
  6
CONTINUOUS
 62
4
 10
616.8820
 20
701.3595
 40
0.5000
 50
338.2924
 51
390.0000
  0
ARC
  8
0_00
  6
CONTINUOUS
 62
4
 10
616.5630
 20
719.4270
 40
0.3000
 50
270.0000
 51
397.7143
  0
ARC
  8
0_00
  6
CONTINUOUS
 62
4
 10
612.0031
 20
718.6270
 40
0.5000
 50
90.0000
 51
180.0000
  0
ARC
  8
0_00
  6
CONTINUOUS
 62
4
 10
590.4032
 20
711.9008
 40
29.0000
 50
342.4088
 51
449.9966
  0
ARC
  8
0_00
  6
CONTINUOUS
 62
4
 10
617.7610
 20
703.2270
 40
0.3000
 50
191.6000
 51
342.4088
  0
ARC
  8
0_00
  6
CONTINUOUS
 62
4
 10
590.4032
 20
711.9008
 40
27.5000
 50
46.4693
 51
89.9727
  0
ARC
  8
0_00
  6
CONTINUOUS
 62
4
 10
590.4032
 20
711.9008
 40
27.5000
 50
16.2813
 51
43.5307
  0
ARC
  8
0_00
  6
CONTINUOUS
 62
4
 10
590.4032
 20
711.9008
 40
27.8000
 50
5.4220
 51
12.9434
  0
ARC
  8
0_00
  6
CONTINUOUS
 62
4
 10
590.4032
 20
711.9008
 40
27.8000
 50
357.9926
 51
362.3232
  0
ARC
  8
0_00
  6
CONTINUOUS
 62
4
 10
590.4032
 20
711.9008
 40
27.8000
 50
345.9079
 51
353.8593
  0
ARC
  8
0_00
  6
CONTINUOUS
 62
4
 10
620.2762
 20
704.4017
 40
3.0000
 50
165.9079
 51
191.6000
  0
ARC
  8
0_00
  6
CONTINUOUS
 62
4
 10
590.4032
 20
711.9008
 40
26.5000
 50
43.9189
 51
46.0811
  0
ARC
  8
0_00
  6
CONTINUOUS
 62
4
 10
610.1957
 20
730.7035
 40
0.2000
 50
43.5307
 51
135.0000
  0
ARC
  8
0_00
  6
CONTINUOUS
 62
4
 10
609.2058
 20
731.6934
 40
0.2000
 50
315.0000
 51
406.4693
  0
ARC
  8
0_00
  6
CONTINUOUS
 62
4
 10
612.5031
 20
718.1192
 40
0.2000
 50
87.8021
 51
180.0000
  0
ARC
  8
0_00
  6
CONTINUOUS
 62
4
 10
611.9031
 20
717.3271
 40
0.4000
 50
180.0000
 51
360.0000
  0
ARC
  8
0_00
  6
CONTINUOUS
 62
4
 10
618.0745
 20
713.2278
 40
0.2000
 50
191.7000
 51
270.0000
  0
ARC
  8
0_00
  6
CONTINUOUS
 62
4
 10
617.8467
 20
714.3277
 40
0.2000
 50
90.0000
 51
191.7000
  0
ARC
  8
0_00
  6
CONTINUOUS
 62
4
 10
617.0933
 20
710.6306
 40
0.2000
 50
95.0000
 51
195.1391
  0
ARC
  8
13_0D
  6
CONTINUOUS
 62
4
 10
619.7961
 20
711.3619
 40
3.0000
 50
195.1391
 51
234.2555
  0
ARC
  8
0_00
  6
CONTINUOUS
 62
4
 10
564.2445
 20
719.4255
 40
0.3000
 50
142.2891
 51
270.0034
  0
ARC
  8
0_00
  6
CONTINUOUS
 62
4
 10
568.8045
 20
718.6257
 40
0.5000
 50
0.0034
 51
90.0034
  0
ARC
  8
0_00
  6
CONTINUOUS
 62
4
 10
590.4049
 20
711.9008
 40
29.0000
 50
90.0000
 51
197.5946
  0
ARC
  8
0_00
  6
CONTINUOUS
 62
4
 10
563.0475
 20
703.2253
 40
0.3000
 50
197.5946
 51
348.4034
  0
ARC
  8
0_00
  6
CONTINUOUS
 62
4
 10
590.4049
 20
711.9008
 40
27.5000
 50
90.0307
 51
133.5341
  0
ARC
  8
0_00
  6
CONTINUOUS
 62
4
 10
590.4049
 20
711.9008
 40
27.5000
 50
136.4727
 51
163.7221
  0
ARC
  8
0_00
  6
CONTINUOUS
 62
4
 10
590.4049
 20
711.9008
 40
27.8000
 50
167.0600
 51
174.5814
  0
ARC
  8
0_00
  6
CONTINUOUS
 62
4
 10
590.4049
 20
711.9008
 40
27.8000
 50
177.6802
 51
182.0108
  0
ARC
  8
0_00
  6
CONTINUOUS
 62
4
 10
590.4049
 20
711.9008
 40
27.8000
 50
186.1442
 51
194.0955
  0
ARC
  8
0_00
  6
CONTINUOUS
 62
4
 10
560.5322
 20
704.3998
 40
3.0000
 50
348.4034
 51
374.0955
  0
ARC
  8
0_00
  6
CONTINUOUS
 62
4
 10
590.4049
 20
711.9008
 40
26.5000
 50
133.9223
 51
136.0845
  0
ARC
  8
0_00
  6
CONTINUOUS
 62
4
 10
570.6111
 20
730.7023
 40
0.2000
 50
45.0034
 51
136.4727
  0
ARC
  8
0_00
  6
CONTINUOUS
 62
4
 10
571.6009
 20
731.6924
 40
0.2000
 50
133.5341
 51
225.0034
  0
ARC
  8
0_00
  6
CONTINUOUS
 62
4
 10
568.3044
 20
718.1179
 40
0.2000
 50
0.0034
 51
92.2013
  0
ARC
  8
0_00
  6
CONTINUOUS
 62
4
 10
568.9045
 20
717.3257
 40
0.4000
 50
180.0034
 51
360.0034
  0
ARC
  8
0_00
  6
CONTINUOUS
 62
4
 10
562.7334
 20
713.2261
 40
0.2000
 50
270.0034
 51
348.3034
  0
ARC
  8
0_00
  6
CONTINUOUS
 62
4
 10
562.9611
 20
714.3261
 40
0.2000
 50
348.3034
 51
450.0034
  0
ARC
  8
0_00
  6
CONTINUOUS
 62
4
 10
563.7147
 20
710.6290
 40
0.2000
 50
344.8643
 51
445.0034
  0
ARC
  8
13_0D
  6
CONTINUOUS
 62
4
 10
561.0119
 20
711.3601
 40
3.0000
 50
305.7479
 51
344.8643
  0
ARC
  8
0_00
  6
CONTINUOUS
 62
4
 10
199.4841
 20
474.7008
 40
0.5000
 50
270.0000
 51
360.0000
  0
ARC
  8
0_00
  6
CONTINUOUS
 62
4
 10
200.9841
 20
476.9008
 40
1.0000
 50
0.0000
 51
180.0000
  0
ARC
  8
0_00
  6
CONTINUOUS
 62
2
 10
226.2841
 20
475.1008
 40
7.7000
 50
39.9831
 51
140.0169
  0
ARC
  8
11_0B
  6
DASHED
 62
2
 10
222.9753
 20
458.0436
 40
0.3000
 50
175.0000
 51
255.0000
  0
ARC
  8
11_0B
  6
DASHED
 62
2
 10
222.6484
 20
454.3078
 40
0.3000
 50
175.0000
 51
255.0000
  0
ARC
  8
11_0B
  6
DASHED
 62
2
 10
222.3216
 20
450.5721
 40
0.3000
 50
175.0000
 51
255.0000
  0
ARC
  8
11_0B
  6
DASHED
 62
2
 10
221.9948
 20
446.8364
 40
0.3000
 50
175.0000
 51
255.0000
  0
ARC
  8
11_0B
  6
DASHED
 62
2
 10
221.8310
 20
443.2430
 40
0.4500
 50
175.0000
 51
205.0000
  0
ARC
  8
11_0B
  6
DASHED
 62
2
 10
229.5929
 20
458.0436
 40
0.3000
 50
285.0000
 51
365.0000
  0
ARC
  8
11_0B
  6
DASHED
 62
2
 10
229.9197
 20
454.3078
 40
0.3000
 50
285.0000
 51
365.0000
  0
ARC
  8
11_0B
  6
DASHED
 62
2
 10
230.2466
 20
450.5721
 40
0.3000
 50
285.0000
 51
365.0000
  0
ARC
  8
11_0B
  6
DASHED
 62
2
 10
230.5734
 20
446.8364
 40
0.3000
 50
285.0000
 51
365.0000
  0
ARC
  8
11_0B
  6
DASHED
 62
2
 10
230.7372
 20
443.2430
 40
0.4500
 50
335.0000
 51
365.0000
  0
ARC
  8
11_0B
  6
DASHED
 62
2
 10
223.1597
 20
444.6620
 40
0.1500
 50
265.0000
 51
355.0000
  0
ARC
  8
11_0B
  6
DASHED
 62
2
 10
229.4085
 20
444.6620
 40
0.1500
 50
185.0000
 51
275.0000
  0
ARC
  8
11_0B
  6
DASHED
 62
2
 10
223.4865
 20
448.3977
 40
0.1500
 50
265.0000
 51
355.0000
  0
ARC
  8
11_0B
  6
DASHED
 62
2
 10
229.0816
 20
448.3977
 40
0.1500
 50
185.0000
 51
275.0000
  0
ARC
  8
11_0B
  6
DASHED
 62
2
 10
223.8134
 20
452.1335
 40
0.1500
 50
265.0000
 51
355.0000
  0
ARC
  8
11_0B
  6
DASHED
 62
2
 10
228.7548
 20
452.1335
 40
0.1500
 50
185.0000
 51
275.0000
  0
ARC
  8
11_0B
  6
DASHED
 62
2
 10
224.1402
 20
455.8692
 40
0.1500
 50
265.0000
 51
355.0000
  0
ARC
  8
11_0B
  6
DASHED
 62
2
 10
228.4280
 20
455.8692
 40
0.1500
 50
185.0000
 51
275.0000
  0
ARC
  8
11_0B
  6
DASHED
 62
2
 10
224.0187
 20
459.6441
 40
0.1500
 50
265.0000
 51
355.0000
  0
ARC
  8
11_0B
  6
DASHED
 62
2
 10
228.5494
 20
459.6441
 40
0.1500
 50
185.0000
 51
275.0000
  0
ARC
  8
11_0B
  6
DASHED
 62
2
 10
229.4495
 20
445.9140
 40
0.3000
 50
105.0000
 51
185.0000
  0
ARC
  8
11_0B
  6
DASHED
 62
2
 10
223.2791
 20
446.0264
 40
0.1500
 50
355.0000
 51
435.0000
  0
ARC
  8
11_0B
  6
DASHED
 62
2
 10
229.1227
 20
449.6498
 40
0.3000
 50
105.0000
 51
185.0000
  0
ARC
  8
11_0B
  6
DASHED
 62
2
 10
223.4455
 20
449.6498
 40
0.3000
 50
355.0000
 51
435.0000
  0
ARC
  8
11_0B
  6
DASHED
 62
2
 10
228.7958
 20
453.3855
 40
0.3000
 50
105.0000
 51
185.0000
  0
ARC
  8
11_0B
  6
DASHED
 62
2
 10
223.7723
 20
453.3855
 40
0.3000
 50
355.0000
 51
435.0000
  0
ARC
  8
11_0B
  6
DASHED
 62
2
 10
228.4690
 20
457.1213
 40
0.3000
 50
105.0000
 51
185.0000
  0
ARC
  8
11_0B
  6
DASHED
 62
2
 10
224.0992
 20
457.1213
 40
0.3000
 50
355.0000
 51
435.0000
  0
ARC
  8
11_0B
  6
DASHED
 62
2
 10
224.0318
 20
461.5146
 40
0.3000
 50
355.0000
 51
440.0000
  0
ARC
  8
11_0B
  6
DASHED
 62
2
 10
228.5364
 20
461.5146
 40
0.3000
 50
100.0000
 51
185.0000
  0
ARC
  8
11_0B
  6
DASHED
 62
2
 10
231.9048
 20
460.4766
 40
0.3000
 50
335.0000
 51
425.0000
  0
ARC
  8
11_0B
  6
DASHED
 62
2
 10
231.7689
 20
460.5399
 40
0.3000
 50
65.0000
 51
155.0000
  0
ARC
  8
11_0B
  6
DASHED
 62
2
 10
220.6633
 20
460.4766
 40
0.3000
 50
115.0000
 51
205.0000
  0
ARC
  8
11_0B
  6
DASHED
 62
2
 10
220.7993
 20
460.5399
 40
0.3000
 50
25.0000
 51
115.0000
  0
ARC
  8
11_0B
  6
DASHED
 62
2
 10
278.9753
 20
458.0436
 40
0.3000
 50
175.0000
 51
255.0000
  0
ARC
  8
11_0B
  6
DASHED
 62
2
 10
278.6484
 20
454.3078
 40
0.3000
 50
175.0000
 51
255.0000
  0
ARC
  8
11_0B
  6
DASHED
 62
2
 10
278.3216
 20
450.5721
 40
0.3000
 50
175.0000
 51
255.0000
  0
ARC
  8
11_0B
  6
DASHED
 62
2
 10
277.9948
 20
446.8364
 40
0.3000
 50
175.0000
 51
255.0000
  0
ARC
  8
11_0B
  6
DASHED
 62
2
 10
277.8310
 20
443.2430
 40
0.4500
 50
175.0000
 51
205.0000
  0
ARC
  8
11_0B
  6
DASHED
 62
2
 10
285.5929
 20
458.0436
 40
0.3000
 50
285.0000
 51
365.0000
  0
ARC
  8
11_0B
  6
DASHED
 62
2
 10
285.9197
 20
454.3078
 40
0.3000
 50
285.0000
 51
365.0000
  0
ARC
  8
11_0B
  6
DASHED
 62
2
 10
286.2466
 20
450.5721
 40
0.3000
 50
285.0000
 51
365.0000
  0
ARC
  8
11_0B
  6
DASHED
 62
2
 10
286.5734
 20
446.8364
 40
0.3000
 50
285.0000
 51
365.0000
  0
ARC
  8
11_0B
  6
DASHED
 62
2
 10
286.7372
 20
443.2430
 40
0.4500
 50
335.0000
 51
365.0000
  0
ARC
  8
11_0B
  6
DASHED
 62
2
 10
279.1597
 20
444.6620
 40
0.1500
 50
265.0000
 51
355.0000
  0
ARC
  8
11_0B
  6
DASHED
 62
2
 10
285.4085
 20
444.6620
 40
0.1500
 50
185.0000
 51
275.0000
  0
ARC
  8
11_0B
  6
DASHED
 62
2
 10
279.4865
 20
448.3977
 40
0.1500
 50
265.0000
 51
355.0000
  0
ARC
  8
11_0B
  6
DASHED
 62
2
 10
285.0816
 20
448.3977
 40
0.1500
 50
185.0000
 51
275.0000
  0
ARC
  8
11_0B
  6
DASHED
 62
2
 10
279.8134
 20
452.1335
 40
0.1500
 50
265.0000
 51
355.0000
  0
ARC
  8
11_0B
  6
DASHED
 62
2
 10
284.7548
 20
452.1335
 40
0.1500
 50
185.0000
 51
275.0000
  0
ARC
  8
11_0B
  6
DASHED
 62
2
 10
280.1402
 20
455.8692
 40
0.1500
 50
265.0000
 51
355.0000
  0
ARC
  8
11_0B
  6
DASHED
 62
2
 10
284.4280
 20
455.8692
 40
0.1500
 50
185.0000
 51
275.0000
  0
ARC
  8
11_0B
  6
DASHED
 62
2
 10
280.0187
 20
459.6441
 40
0.1500
 50
265.0000
 51
355.0000
  0
ARC
  8
11_0B
  6
DASHED
 62
2
 10
284.5494
 20
459.6441
 40
0.1500
 50
185.0000
 51
275.0000
  0
ARC
  8
11_0B
  6
DASHED
 62
2
 10
285.4495
 20
445.9140
 40
0.3000
 50
105.0000
 51
185.0000
  0
ARC
  8
11_0B
  6
DASHED
 62
2
 10
279.2791
 20
446.0264
 40
0.1500
 50
355.0000
 51
435.0000
  0
ARC
  8
11_0B
  6
DASHED
 62
2
 10
285.1227
 20
449.6498
 40
0.3000
 50
105.0000
 51
185.0000
  0
ARC
  8
11_0B
  6
DASHED
 62
2
 10
279.4455
 20
449.6498
 40
0.3000
 50
355.0000
 51
435.0000
  0
ARC
  8
11_0B
  6
DASHED
 62
2
 10
284.7958
 20
453.3855
 40
0.3000
 50
105.0000
 51
185.0000
  0
ARC
  8
11_0B
  6
DASHED
 62
2
 10
279.7723
 20
453.3855
 40
0.3000
 50
355.0000
 51
435.0000
  0
ARC
  8
11_0B
  6
DASHED
 62
2
 10
284.4690
 20
457.1213
 40
0.3000
 50
105.0000
 51
185.0000
  0
ARC
  8
11_0B
  6
DASHED
 62
2
 10
280.0992
 20
457.1213
 40
0.3000
 50
355.0000
 51
435.0000
  0
ARC
  8
11_0B
  6
DASHED
 62
2
 10
280.0318
 20
461.5146
 40
0.3000
 50
355.0000
 51
440.0000
  0
ARC
  8
11_0B
  6
DASHED
 62
2
 10
284.5364
 20
461.5146
 40
0.3000
 50
100.0000
 51
185.0000
  0
ARC
  8
11_0B
  6
DASHED
 62
2
 10
287.9049
 20
460.4766
 40
0.3000
 50
335.0000
 51
425.0000
  0
ARC
  8
11_0B
  6
DASHED
 62
2
 10
287.7689
 20
460.5399
 40
0.3000
 50
65.0000
 51
155.0000
  0
ARC
  8
11_0B
  6
DASHED
 62
2
 10
276.6633
 20
460.4766
 40
0.3000
 50
115.0000
 51
205.0000
  0
ARC
  8
11_0B
  6
DASHED
 62
2
 10
276.7993
 20
460.5399
 40
0.3000
 50
25.0000
 51
115.0000
  0
ARC
  8
0_00
  6
DASHED
 62
2
 10
282.2841
 20
475.1008
 40
7.7000
 50
39.9831
 51
140.0169
  0
ARC
  8
12_0C
  6
CONTINUOUS
 62
2
 10
234.0841
 20
485.0435
 40
1.3000
 50
180.0000
 51
253.3778
  0
ARC
  8
12_0C
  6
CONTINUOUS
 62
2
 10
236.2841
 20
492.4135
 40
9.0000
 50
253.3790
 51
286.6667
  0
ARC
  8
12_0C
  6
CONTINUOUS
 62
2
 10
238.4841
 20
485.0435
 40
1.3000
 50
286.6222
 51
360.0000
  0
ARC
  8
12_0C
  6
CONTINUOUS
 62
2
 10
270.0841
 20
483.7864
 40
1.3000
 50
180.0000
 51
253.3778
  0
ARC
  8
12_0C
  6
CONTINUOUS
 62
2
 10
272.2841
 20
491.1564
 40
9.0000
 50
253.3790
 51
286.6667
  0
ARC
  8
12_0C
  6
CONTINUOUS
 62
2
 10
274.4841
 20
483.7864
 40
1.3000
 50
286.6222
 51
360.0000
  0
ARC
  8
0_00
  6
CONTINUOUS
 62
2
 10
754.4301
 20
295.8146
 40
1.5000
 50
28.3593
 51
90.0000
  0
ARC
  8
0_00
  6
CONTINUOUS
 62
2
 10
747.1316
 20
295.9646
 40
0.3000
 50
327.6418
 51
450.0000
  0
ARC
  8
0_00
  6
CONTINUOUS
 62
2
 10
753.1290
 20
295.9646
 40
0.3000
 50
90.0000
 51
212.3582
  0
ARC
  8
0_00
  6
CONTINUOUS
 62
2
 10
754.4620
 20
295.9646
 40
0.3000
 50
29.0222
 51
90.0000
  0
ARC
  8
0_00
  6
CONTINUOUS
 62
2
 10
745.6303
 20
291.0646
 40
11.5000
 50
0.0000
 51
28.3593
  0
ARC
  8
0_00
  6
CONTINUOUS
 62
2
 10
750.1302
 20
294.0646
 40
1.7000
 50
116.1790
 51
153.8210
  0
ARC
  8
0_00
  6
CONTINUOUS
 62
2
 10
750.1302
 20
294.0646
 40
1.7000
 50
206.1790
 51
228.7491
  0
ARC
  8
0_00
  6
CONTINUOUS
 62
2
 10
750.1302
 20
294.0646
 40
1.7000
 50
311.2509
 51
333.8210
  0
ARC
  8
0_00
  6
CONTINUOUS
 62
2
 10
750.1302
 20
294.0646
 40
1.7000
 50
26.1790
 51
63.8210
  0
ARC
  8
0_00
  6
CONTINUOUS
 62
2
 10
750.1302
 20
294.0646
 40
3.2500
 50
343.3984
 51
392.3582
  0
ARC
  8
0_00
  6
CONTINUOUS
 62
2
 10
751.8073
 20
293.5646
 40
1.5000
 50
270.0000
 51
343.3984
  0
ARC
  8
0_00
  6
CONTINUOUS
 62
2
 10
750.1302
 20
294.0646
 40
3.2500
 50
147.6418
 51
196.6015
  0
ARC
  8
0_00
  6
CONTINUOUS
 62
2
 10
748.4533
 20
293.5646
 40
1.5000
 50
196.6015
 51
270.0000
  0
ARC
  8
0_00
  6
CONTINUOUS
 62
2
 10
748.7377
 20
292.4767
 40
0.4121
 50
270.0000
 51
408.7491
  0
ARC
  8
0_00
  6
CONTINUOUS
 62
2
 10
751.5229
 20
292.4767
 40
0.4121
 50
131.2509
 51
270.0000
  0
ARC
  8
0_00
  6
CONTINUOUS
 62
2
 10
745.6303
 20
291.0646
 40
10.4000
 50
0.0000
 51
29.0222
  0
ARC
  8
0_00
  6
CONTINUOUS
 62
2
 10
745.8304
 20
295.8146
 40
1.5000
 50
90.0000
 51
151.6406
  0
ARC
  8
0_00
  6
CONTINUOUS
 62
2
 10
745.7985
 20
295.9646
 40
0.3000
 50
90.0000
 51
150.9778
  0
ARC
  8
0_00
  6
CONTINUOUS
 62
2
 10
754.6302
 20
291.0646
 40
11.5000
 50
151.6406
 51
180.0000
  0
ARC
  8
0_00
  6
CONTINUOUS
 62
2
 10
754.6302
 20
291.0646
 40
10.4000
 50
150.9778
 51
180.0000
  0
ARC
  8
0_00
  6
CONTINUOUS
 62
2
 10
754.4301
 20
283.3146
 40
1.5000
 50
270.0000
 51
331.6407
  0
ARC
  8
0_00
  6
CONTINUOUS
 62
2
 10
747.1316
 20
283.1646
 40
0.3000
 50
270.0000
 51
392.3582
  0
ARC
  8
0_00
  6
CONTINUOUS
 62
2
 10
753.1290
 20
283.1646
 40
0.3000
 50
147.6418
 51
270.0000
  0
ARC
  8
0_00
  6
CONTINUOUS
 62
2
 10
754.4620
 20
283.1646
 40
0.3000
 50
270.0000
 51
330.9778
  0
ARC
  8
0_00
  6
CONTINUOUS
 62
2
 10
745.6303
 20
288.0646
 40
11.5000
 50
331.6407
 51
360.0000
  0
ARC
  8
0_00
  6
CONTINUOUS
 62
2
 10
750.1302
 20
285.0646
 40
1.7000
 50
206.1790
 51
243.8210
  0
ARC
  8
0_00
  6
CONTINUOUS
 62
2
 10
750.1302
 20
285.0646
 40
1.7000
 50
131.2509
 51
153.8210
  0
ARC
  8
0_00
  6
CONTINUOUS
 62
2
 10
750.1302
 20
285.0646
 40
1.7000
 50
26.1790
 51
48.7491
  0
ARC
  8
0_00
  6
CONTINUOUS
 62
2
 10
750.1302
 20
285.0646
 40
1.7000
 50
296.1790
 51
333.8210
  0
ARC
  8
0_00
  6
CONTINUOUS
 62
2
 10
750.1302
 20
285.0646
 40
3.2500
 50
327.6418
 51
376.6016
  0
ARC
  8
0_00
  6
CONTINUOUS
 62
2
 10
751.8073
 20
285.5646
 40
1.5000
 50
16.6015
 51
90.0000
  0
ARC
  8
0_00
  6
CONTINUOUS
 62
2
 10
750.1302
 20
285.0646
 40
3.2500
 50
163.3985
 51
212.3582
  0
ARC
  8
0_00
  6
CONTINUOUS
 62
2
 10
748.4533
 20
285.5646
 40
1.5000
 50
90.0000
 51
163.3985
  0
ARC
  8
0_00
  6
CONTINUOUS
 62
2
 10
748.7377
 20
286.6526
 40
0.4121
 50
311.2509
 51
450.0000
  0
ARC
  8
0_00
  6
CONTINUOUS
 62
2
 10
751.5229
 20
286.6526
 40
0.4121
 50
90.0000
 51
228.7491
  0
ARC
  8
0_00
  6
CONTINUOUS
 62
2
 10
745.6303
 20
288.0646
 40
10.4000
 50
330.9778
 51
360.0000
  0
ARC
  8
0_00
  6
CONTINUOUS
 62
2
 10
745.8304
 20
283.3146
 40
1.5000
 50
208.3594
 51
270.0000
  0
ARC
  8
0_00
  6
CONTINUOUS
 62
2
 10
745.7985
 20
283.1646
 40
0.3000
 50
209.0222
 51
270.0000
  0
ARC
  8
0_00
  6
CONTINUOUS
 62
2
 10
754.6302
 20
288.0646
 40
11.5000
 50
180.0000
 51
208.3594
  0
ARC
  8
0_00
  6
CONTINUOUS
 62
2
 10
754.6302
 20
288.0646
 40
10.4000
 50
180.0000
 51
209.0222
  0
CIRCLE
  8
0_00
  6
CONTINUOUS
 62
2
 10
750.1302
 20
294.0646
 40
2.0000
  0
CIRCLE
  8
0_00
  6
CONTINUOUS
 62
2
 10
750.1302
 20
285.0646
 40
2.0000
  0
ARC
  8
0_00
  6
CONTINUOUS
 62
2
 10
731.3803
 20
317.5646
 40
2.4500
 50
45.0000
 51
58.5444
  0
ARC
  8
0_00
  6
CONTINUOUS
 62
2
 10
731.3803
 20
317.5646
 40
2.4500
 50
121.3667
 51
135.0000
  0
ARC
  8
0_00
  6
CONTINUOUS
 62
2
 10
731.3803
 20
317.5646
 40
2.4500
 50
211.4556
 51
225.0000
  0
ARC
  8
0_00
  6
CONTINUOUS
 62
2
 10
731.3803
 20
317.5646
 40
2.4500
 50
135.0000
 51
148.6333
  0
ARC
  8
0_00
  6
CONTINUOUS
 62
2
 10
731.3803
 20
317.5646
 40
2.4500
 50
31.4556
 51
45.0000
  0
ARC
  8
0_00
  6
CONTINUOUS
 62
2
 10
731.3803
 20
317.5646
 40
2.4500
 50
315.0000
 51
328.6334
  0
ARC
  8
0_00
  6
CONTINUOUS
 62
2
 10
731.3803
 20
317.5646
 40
2.4500
 50
225.0000
 51
238.5444
  0
ARC
  8
0_00
  6
CONTINUOUS
 62
2
 10
731.3803
 20
317.5646
 40
2.4500
 50
301.3667
 51
315.0000
  0
CIRCLE
  8
0_00
  6
CONTINUOUS
 62
2
 10
731.3803
 20
317.5646
 40
5.9000
  0
ARC
  8
0_00
  6
CONTINUOUS
 62
2
 10
768.8803
 20
261.5646
 40
2.4500
 50
225.0000
 51
238.5444
  0
ARC
  8
0_00
  6
CONTINUOUS
 62
2
 10
768.8803
 20
261.5646
 40
2.4500
 50
301.3667
 51
315.0000
  0
ARC
  8
0_00
  6
CONTINUOUS
 62
2
 10
768.8803
 20
261.5646
 40
2.4500
 50
31.4556
 51
45.0000
  0
ARC
  8
0_00
  6
CONTINUOUS
 62
2
 10
768.8803
 20
261.5646
 40
2.4500
 50
315.0000
 51
328.6334
  0
ARC
  8
0_00
  6
CONTINUOUS
 62
2
 10
768.8803
 20
261.5646
 40
2.4500
 50
211.4556
 51
225.0000
  0
ARC
  8
0_00
  6
CONTINUOUS
 62
2
 10
768.8803
 20
261.5646
 40
2.4500
 50
135.0000
 51
148.6333
  0
ARC
  8
0_00
  6
CONTINUOUS
 62
2
 10
768.8803
 20
261.5646
 40
2.4500
 50
45.0000
 51
58.5444
  0
ARC
  8
0_00
  6
CONTINUOUS
 62
2
 10
768.8803
 20
261.5646
 40
2.4500
 50
121.3667
 51
135.0000
  0
CIRCLE
  8
0_00
  6
CONTINUOUS
 62
2
 10
768.8803
 20
261.5646
 40
5.9000
  0
ARC
  8
0_00
  6
CONTINUOUS
 62
4
 10
777.1303
 20
240.5646
 40
3.0000
 50
270.0000
 51
360.0000
  0
ARC
  8
0_00
  6
CONTINUOUS
 62
4
 10
777.1303
 20
338.5646
 40
3.0000
 50
0.0000
 51
90.0000
  0
ARC
  8
0_00
  6
CONTINUOUS
 62
4
 10
723.1303
 20
240.5646
 40
3.0000
 50
180.0000
 51
270.0000
  0
ARC
  8
0_00
  6
CONTINUOUS
 62
4
 10
723.1303
 20
338.5646
 40
3.0000
 50
90.0000
 51
180.0000
  0
ARC
  8
0_00
  6
CONTINUOUS
 62
4
 10
762.6302
 20
268.5646
 40
1.0000
 50
0.0000
 51
90.0000
  0
ARC
  8
0_00
  6
CONTINUOUS
 62
4
 10
765.6302
 20
254.0647
 40
2.0000
 50
180.0000
 51
270.0000
  0
ARC
  8
0_00
  6
CONTINUOUS
 62
4
 10
777.1303
 20
255.0646
 40
3.0000
 50
270.0000
 51
360.0000
  0
ARC
  8
0_00
  6
CONTINUOUS
 62
4
 10
762.6302
 20
310.5646
 40
1.0000
 50
270.0000
 51
360.0000
  0
ARC
  8
0_00
  6
CONTINUOUS
 62
4
 10
765.6302
 20
325.0646
 40
2.0000
 50
90.0000
 51
180.0000
  0
ARC
  8
0_00
  6
CONTINUOUS
 62
4
 10
777.1303
 20
324.0646
 40
3.0000
 50
0.0000
 51
90.0000
  0
ARC
  8
0_00
  6
CONTINUOUS
 62
4
 10
737.6302
 20
268.5646
 40
1.0000
 50
90.0000
 51
180.0000
  0
ARC
  8
0_00
  6
CONTINUOUS
 62
4
 10
734.6302
 20
254.0647
 40
2.0000
 50
270.0000
 51
360.0000
  0
ARC
  8
0_00
  6
CONTINUOUS
 62
4
 10
723.1303
 20
255.0646
 40
3.0000
 50
180.0000
 51
270.0000
  0
ARC
  8
0_00
  6
CONTINUOUS
 62
4
 10
737.6302
 20
310.5646
 40
1.0000
 50
180.0000
 51
270.0000
  0
ARC
  8
0_00
  6
CONTINUOUS
 62
4
 10
734.6302
 20
325.0646
 40
2.0000
 50
0.0000
 51
90.0000
  0
ARC
  8
0_00
  6
CONTINUOUS
 62
4
 10
723.1303
 20
324.0646
 40
3.0000
 50
90.0000
 51
180.0000
  0
ARC
  8
0_00
  6
CONTINUOUS
 62
4
 10
737.1303
 20
272.0646
 40
3.0000
 50
263.2308
 51
270.0000
  0
ARC
  8
0_00
  6
CONTINUOUS
 62
4
 10
763.1302
 20
272.0646
 40
3.0000
 50
270.0000
 51
276.7692
  0
ARC
  8
0_00
  6
CONTINUOUS
 62
4
 10
737.1303
 20
307.0646
 40
3.0000
 50
90.0000
 51
96.7692
  0
ARC
  8
0_00
  6
CONTINUOUS
 62
4
 10
763.1302
 20
307.0646
 40
3.0000
 50
83.2308
 51
90.0000
  0
CIRCLE
  8
0_00
  6
CONTINUOUS
 62
4
 10
728.1302
 20
274.5646
 40
2.7500
  0
CIRCLE
  8
0_00
  6
CONTINUOUS
 62
4
 10
772.1303
 20
304.5646
 40
2.7500
  0
ARC
  8
0_00
  6
CONTINUOUS
 62
4
 10
771.8803
 20
261.5646
 40
3.2500
 50
321.4370
 51
398.5630
  0
ARC
  8
0_00
  6
CONTINUOUS
 62
4
 10
764.6303
 20
257.3146
 40
1.0000
 50
123.8965
 51
180.0000
  0
ARC
  8
0_00
  6
CONTINUOUS
 62
4
 10
764.6303
 20
265.8146
 40
1.0000
 50
180.0000
 51
236.1035
  0
ARC
  8
0_00
  6
CONTINUOUS
 62
4
 10
766.1303
 20
261.5646
 40
3.5000
 50
141.1774
 51
218.8226
  0
ARC
  8
0_00
  6
CONTINUOUS
 62
4
 10
771.8803
 20
317.5646
 40
3.2500
 50
270.0000
 51
450.0000
  0
ARC
  8
0_00
  6
CONTINUOUS
 62
4
 10
764.6303
 20
321.8146
 40
1.0000
 50
180.0000
 51
270.0000
  0
ARC
  8
0_00
  6
CONTINUOUS
 62
4
 10
764.6303
 20
313.3146
 40
1.0000
 50
90.0000
 51
180.0000
  0
ARC
  8
0_00
  6
CONTINUOUS
 62
4
 10
766.1303
 20
317.5646
 40
3.5000
 50
111.7868
 51
248.2132
  0
CIRCLE
  8
0_00
  6
CONTINUOUS
 62
4
 10
772.1303
 20
289.5646
 40
3.2500
  0
ARC
  8
0_00
  6
CONTINUOUS
 62
4
 10
728.3803
 20
261.5646
 40
3.2500
 50
90.0000
 51
270.0000
  0
ARC
  8
0_00
  6
CONTINUOUS
 62
4
 10
735.6303
 20
257.3146
 40
1.0000
 50
0.0000
 51
90.0000
  0
ARC
  8
0_00
  6
CONTINUOUS
 62
4
 10
735.6303
 20
265.8146
 40
1.0000
 50
270.0000
 51
360.0000
  0
ARC
  8
0_00
  6
CONTINUOUS
 62
4
 10
734.1302
 20
261.5646
 40
3.5000
 50
291.7868
 51
428.2132
  0
ARC
  8
0_00
  6
CONTINUOUS
 62
4
 10
728.3803
 20
317.5646
 40
3.2500
 50
141.4370
 51
218.5630
  0
ARC
  8
0_00
  6
CONTINUOUS
 62
4
 10
735.6303
 20
321.8146
 40
1.0000
 50
303.8965
 51
360.0000
  0
ARC
  8
0_00
  6
CONTINUOUS
 62
4
 10
735.6303
 20
313.3146
 40
1.0000
 50
0.0000
 51
56.1035
  0
ARC
  8
0_00
  6
CONTINUOUS
 62
4
 10
734.1302
 20
317.5646
 40
3.5000
 50
321.1774
 51
398.8226
  0
CIRCLE
  8
0_00
  6
CONTINUOUS
 62
4
 10
728.1302
 20
289.5646
 40
3.2500
  0
ARC
  8
0_00
  6
CONTINUOUS
 62
2
 10
498.3505
 20
254.3789
 40
15.3286
 50
65.3218
 51
114.6782
  0
ARC
  8
12_0C
  6
DASHED
 62
2
 10
487.8505
 20
371.6469
 40
5.1605
 50
39.1846
 51
140.8154
  0
ARC
  8
12_0C
  6
DASHED
 62
2
 10
508.8505
 20
371.6469
 40
5.1605
 50
39.1846
 51
140.8154
  0
TEXT
  8
0_00
 62
7
 10
59.6282
 20
351.6127
 40
7.50
 41
1.00
 50
0.0000
  1
下穴（φ６）現場加工
  0
TEXT
  8
0_00
 62
7
 10
62.8282
 20
339.6127
 40
7.50
 41
1.00
 50
0.0000
  1
下穴コーキング処理
  0
TEXT
  8
0_00
 62
7
 10
102.9256
 20
376.3236
 40
7.50
 41
1.00
 50
0.0000
  1
ナイロンアンカー
  0
TEXT
  8
0_00
 62
7
 10
121.1256
 20
364.3236
 40
7.50
 41
1.00
 50
0.0000
  1
φ６
  0
TEXT
  8
0_00
 62
7
 10
98.9749
 20
389.9923
 40
7.50
 41
1.00
 50
0.0000
  1
φ５×５０（１種）
  0
TEXT
  8
0_00
 62
7
 10
93.7749
 20
401.9923
 40
7.50
 41
1.00
 50
0.0000
  1
タッピンねじ・トラス
  0
TEXT
  8
15_0F
 62
7
 10
201.1241
 20
100.7827
 40
7.50
 41
1.00
 50
0.0000
  1
１）Ｈ、Ｌ、ＬＣは発注寸法とする。
  0
TEXT
  8
15_0F
 62
7
 10
201.1241
 20
85.7827
 40
7.50
 41
1.00
 50
0.0000
  1
　　（躯体寸法発注の場合、Ｌは標準割付寸法とする。）
  0
TEXT
  8
15_0F
 62
7
 10
704.3110
 20
74.7000
 40
7.50
 41
1.00
 50
0.0000
  1
納まり図
  0
TEXT
  8
15_0F
 62
7
 10
576.0610
 20
71.7000
 40
7.50
 41
1.00
 50
0.0000
  1
手すり付笠木
  0
TEXT
  8
15_0F
 62
7
 10
508.1110
 20
41.7000
 40
7.50
 41
1.00
 50
0.0000
  1
ＲＣ造
  0
TEXT
  8
15_0F
 62
7
 10
497.3110
 20
71.7000
 40
7.50
 41
1.00
 50
0.0000
  1
低・中・高層
  0
TEXT
  8
15_0F
 62
7
 10
552.1879
 20
42.8739
 40
6.00
 41
1.00
 50
0.0000
  1
ＫＯＡ、ＤＯＡ、ＭＯＡ型
  0
TEXT
  8
15_0F
 62
7
 10
824.1611
 20
70.2000
 40
7.50
 41
1.00
 50
0.0000
  1
１
  0
TEXT
  8
15_0F
 62
7
 10
852.6611
 20
70.2000
 40
7.50
 41
1.00
 50
0.0000
  1
３
  0
TEXT
  8
0_00
 62
7
 10
1139.6466
 20
182.5918
 40
7.50
 41
1.00
 50
0.0000
  1
笠木カバー芯
  0
TEXT
  8
0_00
 62
7
 10
258.2747
 20
664.6309
 40
7.50
 41
1.00
 50
0.0000
  1
デザイン柱
  0
TEXT
  8
0_00
 62
7
 10
144.0310
 20
627.9476
 40
7.50
 41
1.00
 50
0.0000
  1
丸さら小ねじ
  0
TEXT
  8
0_00
 62
7
 10
147.4773
 20
613.9086
 40
7.50
 41
1.00
 50
0.0000
  1
Ｍ６×１６
  0
TEXT
  8
0_00
 62
7
 10
134.5672
 20
602.2579
 40
7.50
 41
1.00
 50
0.0000
  1
下穴コーキング処理
  0
TEXT
  8
15_0F
 62
7
 10
742.5097
 20
776.8683
 40
7.50
 41
1.00
 50
0.0000
  1
１１０≦ＬＣ≦４５５
  0
TEXT
  8
15_0F
 62
7
 10
850.0290
 20
776.5060
 40
7.50
 41
1.00
 50
0.0000
  1
Ｌ
  0
TEXT
  8
15_0F
 62
7
 10
972.6291
 20
776.5060
 40
7.50
 41
1.00
 50
0.0000
  1
２２５≦Ｌ≦１３６５
  0
TEXT
  8
15_0F
 62
7
 10
1123.2914
 20
776.5060
 40
7.50
 41
1.00
 50
0.0000
  1
Ｌ
  0
TEXT
  8
0_00
 62
2
 10
89.2841
 20
800.0786
 40
12.00
 41
1.00
 50
0.0000
  1
屋外側
  0
TEXT
  8
0_00
 62
2
 10
270.4841
 20
800.0786
 40
12.00
 41
1.00
 50
0.0000
  1
建物側
  0
TEXT
  8
15_0F
 62
7
 10
163.1148
 20
816.1847
 40
7.50
 41
1.00
 50
0.0000
  1
［ＫＯＡ型］
  0
TEXT
  8
15_0F
 62
7
 10
373.1147
 20
816.1847
 40
7.50
 41
1.00
 50
0.0000
  1
［DＯＡ型］
  0
TEXT
  8
0_00
 62
7
 10
233.0973
 20
755.5255
 40
7.50
 41
1.00
 50
0.0000
  1
Ｋ型笠木カバー
  0
TEXT
  8
0_00
 62
7
 10
438.0046
 20
753.7461
 40
7.50
 41
1.00
 50
0.0000
  1
Ｄ型笠木カバー
  0
TEXT
  8
15_0F
 62
7
 10
663.8385
 20
53.3556
 40
7.50
 41
1.00
 50
0.0000
  1
トップレール手すり［直線部］納まり図
  0
TEXT
  8
15_0F
 62
7
 10
661.6269
 20
41.0024
 40
7.50
 41
1.00
 50
0.0000
  1
（外向デザイン柱、Ｈ＝２５０、３００）
  0
TEXT
  8
15_0F
 62
7
 10
154.9841
 20
285.3015
 40
7.50
 41
1.00
 50
0.0000
  1
　　　 １８０、１９５、２１０、２４０、２７０
  0
TEXT
  8
15_0F
 62
7
 10
168.0341
 20
300.3015
 40
7.50
 41
1.00
 50
0.0000
  1
Ａ（笠木幅）＝１３５、１５０、１６５、　
  0
TEXT
  8
0_00
 62
7
 10
203.8841
 20
335.7378
 40
7.50
 41
1.00
 50
0.0000
  1
躯体寸法（推奨寸法Ａ－３０）
  0
TEXT
  8
0_00
 62
7
 10
211.4962
 20
320.9004
 40
7.50
 41
1.00
 50
0.0000
  1
（最大躯体寸法Ａ－２０）
  0
TEXT
  8
15_0F
 62
7
 10
921.3946
 20
737.2417
 40
7.50
 41
1.00
 50
0.0000
  1
Ａ
  0
TEXT
  8
15_0F
 62
7
 10
1121.0244
 20
650.0197
 40
7.50
 41
1.00
 50
0.0000
  1
Ｂ
  0
TEXT
  8
15_0F
 62
7
 10
921.3946
 20
657.7457
 40
7.50
 41
1.00
 50
0.0000
  1
Ａ
  0
TEXT
  8
15_0F
 62
7
 10
891.6925
 20
650.0197
 40
7.50
 41
1.00
 50
0.0000
  1
Ｂ
  0
TEXT
  8
15_0F
 62
7
 10
569.2355
 20
816.1847
 40
7.50
 41
1.00
 50
0.0000
  1
［ＭＯＡ型］
  0
TEXT
  8
0_00
 62
7
 10
634.1252
 20
754.0022
 40
7.50
 41
1.00
 50
0.0000
  1
Ｍ型笠木カバー
  0
TEXT
  8
15_0F
 62
7
 10
148.4352
 20
508.6572
 40
7.50
 41
1.00
 50
0.0000
  1
トップレールベース
  0
TEXT
  8
0_00
 62
7
 10
359.0811
 20
501.3747
 40
7.50
 41
1.00
 50
0.0000
  1
ブラケット
  0
TEXT
  8
0_00
 62
7
 10
297.3957
 20
563.6356
 40
7.50
 41
1.00
 50
0.0000
  1
φ４×３５Ｇ－５
  0
TEXT
  8
0_00
 62
7
 10
423.0432
 20
329.6809
 40
7.50
 41
1.00
 50
0.0000
  1
デザイン柱
  0
TEXT
  8
15_0F
 62
7
 10
742.9303
 20
446.5023
 40
6.75
 41
0.75
 50
0.0000
  1
60
  0
TEXT
  8
15_0F
 62
7
 10
618.6263
 20
281.0308
 40
6.75
 41
0.75
 50
90.0000
  1
56
  0
TEXT
  8
15_0F
 62
7
 10
1134.6387
 20
282.3646
 40
6.75
 41
0.75
 50
90.0000
  1
47
  0
TEXT
  8
15_0F
 62
7
 10
838.0703
 20
466.5023
 40
7.50
 41
1.00
 50
0.0000
  1
２２５≦Ｌ（柱スパン寸法）≦１３６５
  0
TEXT
  8
15_0F
 62
7
 10
1085.9603
 20
529.7059
 40
7.50
 41
1.00
 50
0.0000
  1
外観姿図（１：２０）
  0
TEXT
  8
0_00
 62
7
 10
247.0841
 20
360.0246
 40
6.75
 41
0.75
 50
0.0000
  1
56
  0
TEXT
  8
0_00
 62
7
 10
177.0841
 20
772.0779
 40
6.75
 41
0.75
 50
0.0000
  1
60
  0
TEXT
  8
0_00
 62
7
 10
70.2905
 20
40.2001
 40
7.50
 41
1.00
 50
0.0000
  1
適用製品
  0
TEXT
  8
0_00
 62
7
 10
130.2905
 20
40.2001
 40
7.50
 41
1.00
 50
0.0000
  1
適用日付
  0
TEXT
  8
0_00
 62
7
 10
178.5905
 20
100.2001
 40
7.50
 41
1.00
 50
0.0000
  1
記事
  0
TEXT
  8
0_00
 62
7
 10
472.5611
 20
85.2001
 40
7.50
 41
1.00
 50
0.0000
  1
階層仕様
  0
TEXT
  8
0_00
 62
7
 10
472.5611
 20
55.2000
 40
7.50
 41
1.00
 50
0.0000
  1
適用躯体
  0
TEXT
  8
0_00
 62
7
 10
630.0610
 20
85.2001
 40
7.50
 41
1.00
 50
0.0000
  1
名　称
  0
TEXT
  8
0_00
 62
7
 10
630.0610
 20
55.2000
 40
7.50
 41
1.00
 50
0.0000
  1
図　名
  0
TEXT
  8
0_00
 62
7
 10
814.9368
 20
100.2458
 40
7.50
 41
1.00
 50
0.0000
  1
Ｎｏ．
  0
TEXT
  8
0_00
 62
7
 10
1123.5610
 20
100.2001
 40
7.50
 41
1.00
 50
0.0000
  1
適　　　　　　　　用
  0
TEXT
  8
0_00
 62
7
 10
1078.4111
 20
100.2001
 40
7.50
 41
1.00
 50
0.0000
  1
個数
  0
TEXT
  8
0_00
 62
7
 10
1023.2110
 20
100.2001
 40
7.50
 41
1.00
 50
0.0000
  1
材　　質
  0
TEXT
  8
0_00
 62
7
 10
926.1610
 20
100.2001
 40
7.50
 41
1.00
 50
0.0000
  1
部　　　品　　　名
  0
TEXT
  8
0_00
 62
7
 10
895.9360
 20
100.2001
 40
7.50
 41
1.00
 50
0.0000
  1
品番
  0
TEXT
  8
0_00
 62
7
 10
850.8611
 20
100.2001
 40
7.50
 41
1.00
 50
0.0000
  1
図　　番
  0
TEXT
  8
0_00
 62
7
 10
816.6610
 20
85.2001
 40
7.50
 41
1.00
 50
0.0000
  1
尺度
  0
TEXT
  8
0_00
 62
7
 10
816.6610
 20
55.2000
 40
7.50
 41
1.00
 50
0.0000
  1
日付
  0
TEXT
  8
0_00
 62
7
 10
928.3942
 20
85.2001
 40
7.50
 41
1.00
 50
0.0000
  1
承認
  0
TEXT
  8
0_00
 62
7
 10
970.5611
 20
85.2001
 40
7.50
 41
1.00
 50
0.0000
  1
検図
  0
TEXT
  8
0_00
 62
7
 10
1006.8610
 20
85.2001
 40
7.50
 41
1.00
 50
0.0000
  1
設計
  0
TEXT
  8
0_00
 62
7
 10
1044.2110
 20
85.2001
 40
7.50
 41
1.00
 50
0.0000
  1
製図
  0
TEXT
  8
0_00
 62
7
 10
1074.5110
 20
55.2000
 40
7.50
 41
1.00
 50
0.0000
  1
図番
  0
TEXT
  8
0_00
 62
2
 10
1103.9219
 20
74.2350
 40
12.00
 41
1.00
 50
0.0000
  1
文化シヤッター株式会社
  0
TEXT
  8
0_00
 62
7
 10
200.7905
 20
862.9501
 40
7.50
 41
1.00
 50
180.0000
  1
図番
  0
TEXT
  8
0_00
 62
7
 10
799.0510
 20
854.0169
 40
6.00
 41
1.00
 50
0.0000
  1
ＮＯ
  0
TEXT
  8
0_00
 62
7
 10
825.2111
 20
853.9501
 40
7.50
 41
1.00
 50
0.0000
  1
個　数
  0
TEXT
  8
0_00
 62
7
 10
870.3611
 20
853.9501
 40
7.50
 41
1.00
 50
0.0000
  1
日　　付
  0
TEXT
  8
0_00
 62
7
 10
984.2111
 20
853.9501
 40
7.50
 41
1.00
 50
0.0000
  1
訂　　　正　　　記　　　事
  0
TEXT
  8
0_00
 62
7
 10
838.4111
 20
70.2000
 40
6.75
 41
0.75
 50
0.0000
  1
:
  0
TEXT
  8
0_00
 62
7
 10
1137.8712
 20
26.7000
 40
6.00
 41
1.00
 50
0.0000
  1
ＪＩＳ　Ａ－３
  0
TEXT
  8
0_00
 62
7
 10
1179.4986
 20
26.6983
 40
6.00
 41
1.00
 50
0.0000
  1
（２９７×４２０）
  0
TEXT
  8
0_00
 62
7
 10
1153.1111
 20
853.9501
 40
7.50
 41
1.00
 50
0.0000
  1
担　当
  0
TEXT
  8
0_00
 62
7
 10
1189.1111
 20
853.9501
 40
7.50
 41
1.00
 50
0.0000
  1
承　認
  0
TEXT
  8
0_00
 62
7
 10
551.3111
 20
85.2001
 40
7.50
 41
1.00
 50
0.0000
  1
機種名
  0
TEXT
  8
0_00
 62
7
 10
551.3111
 20
55.2000
 40
7.50
 41
1.00
 50
0.0000
  1
型　式
  0
TEXT
  8
0_00
 62
7
 10
706.7290
 20
776.6828
 40
6.75
 41
0.75
 50
0.0000
  1
70
  0
TEXT
  8
0_00
 62
7
 10
1164.6779
 20
246.6146
 40
6.75
 41
0.75
 50
90.0000
  1
70
  0
TEXT
  8
0_00
 62
7
 10
742.1803
 20
426.5023
 40
6.75
 41
0.75
 50
0.0000
  1
41
  0
TEXT
  8
0_00
 62
7
 10
96.9244
 20
453.4509
 40
6.75
 41
0.75
 50
90.0000
  1
65
  0
TEXT
  8
0_00
 62
7
 10
396.9244
 20
449.9508
 40
6.75
 41
0.75
 50
90.0000
  1
60
  0
TEXT
  8
0_00
 62
7
 10
76.9244
 20
529.5009
 40
7.50
 41
1.00
 50
90.0000
  1
Ｈ（トップレール手すり高さ寸法）＝２５０、３００
  0
TEXT
  8
0_00
 62
7
 10
76.9244
 20
447.5008
 40
6.75
 41
0.75
 50
90.0000
  1
20
  0
TEXT
  8
0_00
 62
7
 10
212.0841
 20
792.0779
 40
6.75
 41
0.75
 50
0.0000
  1
70
  0
TEXT
  8
0_00
 62
7
 10
467.9249
 20
715.1461
 40
6.75
 41
0.75
 50
90.0000
  1
37
  0
TEXT
  8
0_00
 62
7
 10
331.8586
 20
631.5235
 40
7.50
 41
1.00
 50
90.0000
  1
Ｈ＝２５０、３００
  0
TEXT
  8
0_00
 62
7
 10
387.8984
 20
781.8218
 40
6.75
 41
0.75
 50
0.0000
  1
80
  0
TEXT
  8
0_00
 62
7
 10
1016.2104
 20
446.5023
 40
6.75
 41
0.75
 50
0.0000
  1
32
  0
TEXT
  8
0_00
 62
7
 10
1194.5440
 20
704.0793
 40
6.75
 41
0.75
 50
90.0000
  1
H
  0
TEXT
  8
15_0F
 62
7
 10
313.0841
 20
335.7378
 40
6.75
 41
0.75
 50
0.0000
  1
n
  0
TEXT
  8
15_0F
 62
7
 10
353.2841
 20
335.7378
 40
6.75
 41
0.75
 50
0.0000
  1
10
  0
TEXT
  8
15_0F
 62
7
 10
140.8841
 20
335.7378
 40
6.75
 41
0.75
 50
0.0000
  1
10
  0
TEXT
  8
15_0F
 62
7
 10
188.2841
 20
335.7378
 40
6.75
 41
0.75
 50
0.0000
  1
n
  0
TEXT
  8
0_00
 62
7
 10
96.9244
 20
710.2008
 40
6.75
 41
0.75
 50
90.0000
  1
47
  0
TEXT
  8
15_0F
 62
7
 10
623.0452
 20
152.2623
 40
7.50
 41
1.00
 50
0.0000
  1
Ｂ－Ｂ矢視図
  0
TEXT
  8
15_0F
 62
7
 10
92.7451
 20
273.8318
 40
7.50
 41
1.00
 50
0.0000
  1
Ａ－Ａ矢視図
  0
TEXT
  8
0_00
 62
7
 10
527.9793
 20
631.5235
 40
7.50
 41
1.00
 50
90.0000
  1
Ｈ＝２５０、３００
  0
TEXT
  8
15_0F
 62
7
 10
624.1105
 20
334.2672
 40
7.50
 41
1.00
 50
0.0000
  1
トップレールベース
  0
TEXT
  8
15_0F
 62
7
 10
645.5210
 20
393.9517
 40
7.50
 41
1.00
 50
0.0000
  1
ブラケット
  0
TEXT
  8
0_00
 62
7
 10
114.2419
 20
542.2546
 40
7.50
 41
1.00
 50
0.0000
  1
デザイン柱手すり付笠木セット
  0
TEXT
  8
0_00
 62
7
 10
293.4441
 20
575.1506
 40
7.50
 41
1.00
 50
0.0000
  1
タッピンねじ・さら
  0
TEXT
  8
13_0D
 62
7
 10
525.8505
 20
175.5865
 40
6.75
 41
0.75
 50
0.0000
  1
28
  0
TEXT
  8
15_0F
 62
7
 10
371.1042
 20
150.6528
 40
7.50
 41
1.00
 50
0.0000
  1
デザイン柱内観図
  0
TEXT
  8
13_0D
 62
7
 10
289.2841
 20
523.0831
 40
6.75
 41
0.75
 50
0.0000
  1
43
  0
TEXT
  8
13_0D
 62
7
 10
579.6048
 20
780.5779
 40
6.75
 41
0.75
 50
0.0000
  1
φ58
  0
POINT
  8
0_00
 62
4
 10
230.7841
 20
590.9008
  0
POINT
  8
0_00
 62
4
 10
277.7841
 20
600.9008
  0
POINT
  8
0_00
 62
4
 10
277.7841
 20
600.9008
  0
POINT
  8
0_00
 62
4
 10
230.7841
 20
590.9008
  0
POINT
  8
0_00
 62
4
 10
277.7841
 20
600.9008
  0
POINT
  8
0_00
 62
4
 10
230.7841
 20
590.9008
  0
POINT
  8
0_00
 62
5
 10
0.0000
 20
0.0000
  0
POINT
  8
0_00
 62
5
 10
733.6682
 20
24.5135
  0
POINT
  8
0_00
 62
5
 10
184.2841
 20
696.9008
  0
POINT
  8
0_00
 62
4
 10
184.2841
 20
695.4008
  0
POINT
  8
0_00
 62
2
 10
24.0905
 20
14.9991
  0
POINT
  8
0_00
 62
2
 10
24.0905
 20
14.9991
  0
POINT
  8
0_00
 62
2
 10
84.6905
 20
59.7001
  0
POINT
  8
0_00
 62
2
 10
84.6905
 20
74.7001
  0
POINT
  8
0_00
 62
2
 10
84.6905
 20
89.7001
  0
POINT
  8
0_00
 62
2
 10
84.6905
 20
104.7001
  0
POINT
  8
0_00
 62
2
 10
518.9110
 20
76.2000
  0
POINT
  8
0_00
 62
2
 10
518.9110
 20
46.2000
  0
POINT
  8
0_00
 62
2
 10
718.7110
 20
79.2000
  0
POINT
  8
0_00
 62
2
 10
718.7110
 20
49.2000
  0
POINT
  8
0_00
 62
2
 10
1097.7610
 20
52.2000
  0
POINT
  8
0_00
 62
2
 10
1014.0610
 20
59.7001
  0
POINT
  8
0_00
 62
2
 10
144.6905
 20
59.7001
  0
POINT
  8
0_00
 62
2
 10
144.6905
 20
74.7001
  0
POINT
  8
0_00
 62
2
 10
144.6905
 20
89.7001
  0
POINT
  8
0_00
 62
2
 10
144.6905
 20
104.7001
  0
POINT
  8
0_00
 62
2
 10
856.2610
 20
74.7000
  0
POINT
  8
0_00
 62
2
 10
827.7610
 20
74.7000
  0
POINT
  8
0_00
 62
2
 10
204.6905
 20
104.7001
  0
POINT
  8
0_00
 62
2
 10
204.6905
 20
89.7001
  0
POINT
  8
0_00
 62
2
 10
204.6905
 20
74.7001
  0
POINT
  8
0_00
 62
2
 10
204.6905
 20
59.7001
  0
POINT
  8
0_00
 62
2
 10
204.6905
 20
44.7001
  0
POINT
  8
0_00
 62
2
 10
1051.4110
 20
59.7001
  0
POINT
  8
0_00
 62
2
 10
84.6905
 20
44.7001
  0
POINT
  8
0_00
 62
2
 10
144.6905
 20
44.7001
  0
POINT
  8
0_00
 62
2
 10
174.6905
 20
858.4501
  0
POINT
  8
0_00
 62
2
 10
862.6360
 20
49.2000
  0
POINT
  8
0_00
 62
2
 10
597.6610
 20
76.2000
  0
POINT
  8
0_00
 62
2
 10
597.6610
 20
46.2000
  0
POINT
  8
15_0F
 62
6
 10
334.2841
 20
332.7378
  0
POINT
  8
15_0F
 62
6
 10
174.2841
 20
332.7378
  0
POINT
  8
0_00
 62
2
 10
226.2841
 20
479.7009
  0
POINT
  8
0_00
 62
2
 10
226.2841
 20
479.7009
  0
POINT
  8
0_00
 62
2
 10
226.2841
 20
479.7009
  0
POINT
  8
0_00
 62
6
 10
226.2841
 20
470.9008
  0
POINT
  8
0_00
 62
6
 10
282.2841
 20
470.9008
  0
POINT
  8
0_00
 62
6
 10
282.2841
 20
479.7009
  0
POINT
  8
0_00
 62
6
 10
282.2841
 20
479.7009
  0
POINT
  8
0_00
 62
6
 10
282.2841
 20
479.7009
  0
POINT
  8
0_00
 62
5
 10
731.3803
 20
317.5646
  0
POINT
  8
0_00
 62
2
 10
731.3803
 20
317.5646
  0
POINT
  8
0_00
 62
2
 10
768.8803
 20
261.5646
  0
POINT
  8
0_00
 62
2
 10
236.2841
 20
580.9008
  0
POINT
  8
0_00
 62
2
 10
249.7841
 20
580.9008
  0
POINT
  8
0_00
 62
2
 10
258.7841
 20
580.9008
  0
POINT
  8
0_00
 62
2
 10
272.2841
 20
580.9008
  0
POINT
  8
0_00
 62
2
 10
508.8505
 20
258.3075
  0
POINT
  8
0_00
 62
2
 10
487.8505
 20
258.3075
  0
ENDSEC
  0
EOF
