999
  
  0
SECTION
  2
HEADER
  9
$EXTMIN
 10
0
 20
0
  9
$EXTMAX
 10
4200
 20
2960
  9
$LTSCALE
 40
10.00
  9
$PDMODE
 70
33
  9
$PDSIZE
 40
6.00
  0
ENDSEC
  0
SECTION
  2
TABLES
  0
TABLE
  2
LTYPE
 70
9
  0
LTYPE
  2
CONTINUOUS
 70
64
  3
実線
 72
65
 73
0
 40
0.00
  0
LTYPE
  2
DASHED
 70
64
  3
__  __  __  __  __  __  __ 
 72
65
 73
2
 40
1.00
 49
0.50
 49
-0.50
  0
LTYPE
  2
HIDDEN1
 70
64
  3
____    ____    ____    ___
 72
65
 73
2
 40
2.20
 49
1.20
 49
-1.00
  0
LTYPE
  2
HIDDEN2
 70
64
  3
______  ______  ______  ___
 72
65
 73
2
 40
4.50
 49
3.50
 49
-1.00
  0
LTYPE
  2
CENTER1
 70
64
  3
_______ _ _______ _ _______
 72
65
 73
4
 40
20.00
 49
17.00
 49
-1.00
 49
1.00
 49
-1.00
  0
LTYPE
  2
CENTER2
 70
64
  3
___________  __  __________
 72
65
 73
4
 40
40.00
 49
34.00
 49
-2.00
 49
2.00
 49
-2.00
  0
LTYPE
  2
PHANTOM1
 70
64
  3
______ _ _ ______ _ _ _____
 72
65
 73
6
 40
20.00
 49
15.00
 49
-1.00
 49
1.00
 49
-1.00
 49
1.00
 49
-1.00
  0
LTYPE
  2
PHANTOM2
 70
64
  3
__________  _  _  _________
 72
65
 73
6
 40
40.00
 49
30.00
 49
-2.00
 49
2.00
 49
-2.00
 49
2.00
 49
-2.00
  0
LTYPE
  2
DOT
 70
64
  3
 .  .  .  .  .  .  .  .  . 
 72
65
 73
2
 40
1.00
 49
0.00
 49
-1.00
  0
ENDTAB
  0
TABLE
  2
STYLE
 70
1
  0
STYLE
  2
STANDARD
 70
64
 40
0.0
 41
1.0
 42
0.0
 50
0.0
 71
0
  3
ROMANS
  4
BIGFONT
  0
ENDTAB
  0
TABLE
  2
LAYER
 70
5
  0
LAYER
  2
0_00
 70
64
 62
7
  6
CONTINUOUS
  0
LAYER
  2
2_02
 70
64
 62
7
  6
CONTINUOUS
  0
LAYER
  2
3_03
 70
64
 62
7
  6
CONTINUOUS
  0
LAYER
  2
15_0F
 70
64
 62
7
  6
CONTINUOUS
  0
LAYER
  2
32_20
 70
64
 62
7
  6
CONTINUOUS
  0
ENDTAB
  0
ENDSEC
  0
SECTION
  2
ENTITIES
  0
LINE
  8
0_00
  6
CONTINUOUS
 62
7
 10
2122.0026
 20
374.0002
 11
2122.0026
 21
2838.9999
  0
LINE
  8
0_00
  6
CENTER1
 62
6
 10
638.0745
 20
1102.4685
 11
2054.6738
 21
1102.4685
  0
LINE
  8
0_00
  6
CENTER1
 62
6
 10
638.0745
 20
1102.4685
 11
638.0745
 21
439.4099
  0
LINE
  8
0_00
  6
CENTER1
 62
6
 10
688.0745
 20
1217.6373
 11
688.0745
 21
1002.8030
  0
LINE
  8
0_00
  6
CONTINUOUS
 62
4
 10
1338.0745
 20
1195.6125
 11
1354.6486
 21
1194.3813
  0
LINE
  8
0_00
  6
CONTINUOUS
 62
4
 10
1338.0745
 20
1195.6125
 11
1321.5004
 21
1194.3813
  0
LINE
  8
0_00
  6
CONTINUOUS
 62
4
 10
1338.0745
 20
1009.3244
 11
1354.6486
 21
1010.5556
  0
LINE
  8
0_00
  6
CONTINUOUS
 62
4
 10
1338.0745
 20
1009.3244
 11
1321.5004
 21
1010.5556
  0
LINE
  8
0_00
  6
DASHED
 62
6
 10
718.0746
 20
1050.4684
 11
658.0746
 21
1050.4684
  0
LINE
  8
0_00
  6
DASHED
 62
6
 10
718.0746
 20
1190.9684
 11
658.0746
 21
1190.9684
  0
LINE
  8
0_00
  6
DASHED
 62
6
 10
658.0746
 20
1050.4684
 11
658.0746
 21
1190.9684
  0
LINE
  8
0_00
  6
DASHED
 62
6
 10
718.0746
 20
1190.9684
 11
718.0746
 21
1050.4684
  0
LINE
  8
0_00
  6
CENTER1
 62
6
 10
522.9057
 20
602.4685
 11
761.3567
 21
602.4685
  0
LINE
  8
0_00
  6
CONTINUOUS
 62
4
 10
728.9901
 20
619.9685
 11
547.1590
 21
619.9685
  0
LINE
  8
0_00
  6
CONTINUOUS
 62
4
 10
728.9901
 20
584.9685
 11
547.1590
 21
584.9685
  0
LINE
  8
0_00
  6
CONTINUOUS
 62
4
 10
544.9305
 20
602.4685
 11
546.1617
 21
585.8944
  0
LINE
  8
0_00
  6
CONTINUOUS
 62
4
 10
544.9305
 20
602.4685
 11
546.1617
 21
619.0425
  0
LINE
  8
0_00
  6
CONTINUOUS
 62
4
 10
731.2186
 20
602.4685
 11
729.9873
 21
585.8944
  0
LINE
  8
0_00
  6
CONTINUOUS
 62
4
 10
731.2186
 20
602.4685
 11
729.9873
 21
619.0425
  0
LINE
  8
0_00
  6
CONTINUOUS
 62
4
 10
728.0746
 20
1012.4684
 11
728.0746
 21
619.9685
  0
LINE
  8
0_00
  6
CONTINUOUS
 62
4
 10
728.0746
 20
584.9685
 11
728.0746
 21
469.2236
  0
LINE
  8
0_00
  6
CONTINUOUS
 62
4
 10
548.0746
 20
1192.4684
 11
548.0746
 21
619.9685
  0
LINE
  8
0_00
  6
CONTINUOUS
 62
4
 10
548.0746
 20
584.9685
 11
548.0746
 21
469.2236
  0
LINE
  8
0_00
  6
CONTINUOUS
 62
4
 10
548.0746
 20
1192.4684
 11
1320.5745
 21
1192.4684
  0
LINE
  8
0_00
  6
CONTINUOUS
 62
4
 10
1355.5745
 20
1192.4684
 11
1893.5132
 21
1192.4684
  0
LINE
  8
0_00
  6
CONTINUOUS
 62
4
 10
728.0746
 20
1012.4684
 11
1320.5745
 21
1012.4684
  0
LINE
  8
0_00
  6
CONTINUOUS
 62
4
 10
1355.5745
 20
1012.4684
 11
1893.5132
 21
1012.4684
  0
LINE
  8
0_00
  6
CENTER1
 62
6
 10
1338.0745
 20
1217.6373
 11
1338.0745
 21
979.1862
  0
LINE
  8
0_00
  6
CENTER1
 62
6
 10
888.0745
 20
1217.6373
 11
888.0745
 21
979.1862
  0
LINE
  8
0_00
  6
CENTER1
 62
6
 10
1788.0745
 20
1212.6847
 11
1788.0745
 21
981.8309
  0
LINE
  8
0_00
  6
CENTER1
 62
6
 10
522.9057
 20
852.4685
 11
761.3567
 21
852.4685
  0
LINE
  8
0_00
  6
CENTER1
 62
6
 10
1242.7820
 20
1862.9597
 11
1242.7820
 21
1685.5003
  0
LINE
  8
0_00
  6
CONTINUOUS
 62
4
 10
1360.7819
 20
1822.2006
 11
1360.7819
 21
1748.3017
  0
LINE
  8
0_00
  6
CONTINUOUS
 62
4
 10
1374.7820
 20
1822.2006
 11
1374.7820
 21
1748.3017
  0
LINE
  8
0_00
  6
CONTINUOUS
 62
4
 10
1360.0319
 20
1748.3017
 11
1375.5319
 21
1748.3017
  0
LINE
  8
0_00
  6
CONTINUOUS
 62
4
 10
1359.7820
 20
1748.0518
 11
1359.7820
 21
1747.0871
  0
LINE
  8
0_00
  6
CONTINUOUS
 62
4
 10
1375.7819
 20
1748.0518
 11
1375.7819
 21
1747.0871
  0
LINE
  8
0_00
  6
CONTINUOUS
 62
4
 10
1197.7819
 20
1716.1388
 11
1197.7819
 21
1745.5879
  0
LINE
  8
2_02
  6
CONTINUOUS
 62
4
 10
1258.0319
 20
1845.9883
 11
1243.1002
 21
1845.9883
  0
LINE
  8
2_02
  6
CONTINUOUS
 62
4
 10
1258.2819
 20
1822.1388
 11
1258.2819
 21
1845.7382
  0
LINE
  8
2_02
  6
CONTINUOUS
 62
4
 10
1227.5319
 20
1842.0007
 11
1227.5319
 21
1822.2388
  0
LINE
  8
2_02
  6
CONTINUOUS
 62
4
 10
1227.7819
 20
1821.9887
 11
1258.0319
 21
1821.9887
  0
LINE
  8
0_00
  6
CONTINUOUS
 62
4
 10
1258.2819
 20
1845.6387
 11
2000.1109
 21
1845.6387
  0
LINE
  8
0_00
  6
CONTINUOUS
 62
4
 10
1258.2819
 20
1822.1388
 11
2000.1109
 21
1822.1388
  0
LINE
  8
0_00
  6
CENTER1
 62
6
 10
1367.7818
 20
1862.9597
 11
1367.7818
 21
1702.1109
  0
LINE
  8
0_00
  6
CONTINUOUS
 62
4
 10
1205.2820
 20
1714.6388
 11
1205.2820
 21
1600.5278
  0
LINE
  8
0_00
  6
CONTINUOUS
 62
4
 10
1810.7819
 20
1822.2006
 11
1810.7819
 21
1748.3017
  0
LINE
  8
0_00
  6
CONTINUOUS
 62
4
 10
1824.7818
 20
1822.2006
 11
1824.7818
 21
1748.3017
  0
LINE
  8
0_00
  6
CONTINUOUS
 62
4
 10
1810.0319
 20
1748.3017
 11
1825.5318
 21
1748.3017
  0
LINE
  8
0_00
  6
CONTINUOUS
 62
4
 10
1809.7820
 20
1748.0518
 11
1809.7820
 21
1747.0871
  0
LINE
  8
0_00
  6
CONTINUOUS
 62
4
 10
1825.7819
 20
1748.0518
 11
1825.7819
 21
1747.0871
  0
LINE
  8
0_00
  6
CENTER1
 62
6
 10
1817.7818
 20
1862.9597
 11
1817.7818
 21
1702.1109
  0
LINE
  8
3_03
  6
CONTINUOUS
 62
4
 10
1601.5318
 20
1747.5729
 11
1601.5318
 21
1713.8513
  0
LINE
  8
3_03
  6
CONTINUOUS
 62
4
 10
1592.7818
 20
1748.6871
 11
1601.0690
 21
1748.0714
  0
LINE
  8
3_03
  6
CONTINUOUS
 62
4
 10
1584.0320
 20
1747.5729
 11
1584.0320
 21
1713.8513
  0
LINE
  8
3_03
  6
CONTINUOUS
 62
4
 10
1592.7818
 20
1748.6871
 11
1584.4949
 21
1748.0714
  0
LINE
  8
3_03
  6
CONTINUOUS
 62
4
 10
1592.7818
 20
1712.7371
 11
1601.0690
 21
1713.3527
  0
LINE
  8
3_03
  6
CONTINUOUS
 62
4
 10
1592.7818
 20
1712.7371
 11
1584.4949
 21
1713.3527
  0
LINE
  8
0_00
  6
CONTINUOUS
 62
4
 10
1199.3319
 20
1747.0871
 11
1584.0320
 21
1747.0871
  0
LINE
  8
0_00
  6
CONTINUOUS
 62
4
 10
1601.5318
 20
1747.0871
 11
2000.1109
 21
1747.0871
  0
LINE
  8
0_00
  6
CONTINUOUS
 62
4
 10
1199.2819
 20
1714.6388
 11
1584.0320
 21
1714.6388
  0
LINE
  8
0_00
  6
CONTINUOUS
 62
4
 10
1601.5318
 20
1714.6388
 11
2000.1109
 21
1714.6388
  0
LINE
  8
0_00
  6
CENTER1
 62
6
 10
1592.7818
 20
1753.0362
 11
1592.7818
 21
1708.6053
  0
LINE
  8
0_00
  6
CONTINUOUS
 62
4
 10
1263.1819
 20
2180.2667
 11
2000.1109
 21
2180.2667
  0
LINE
  8
0_00
  6
CONTINUOUS
 62
4
 10
2000.1109
 20
2161.7006
 11
1263.1819
 21
2161.7006
  0
LINE
  8
32_20
  6
CONTINUOUS
 62
4
 10
1233.2766
 20
2161.2886
 11
1227.6461
 21
2161.2886
  0
LINE
  8
32_20
  6
CONTINUOUS
 62
4
 10
1242.7820
 20
2180.6389
 11
1263.1819
 21
2180.6389
  0
LINE
  8
32_20
  6
CONTINUOUS
 62
4
 10
1263.1819
 20
2180.6389
 11
1263.1819
 21
2161.2886
  0
LINE
  8
32_20
  6
CONTINUOUS
 62
4
 10
1263.1819
 20
2161.2886
 11
1252.2872
 21
2161.2886
  0
LINE
  8
32_20
  6
CONTINUOUS
 62
4
 10
1251.2766
 20
2161.2886
 11
1234.2873
 21
2161.2886
  0
LINE
  8
0_00
  6
CENTER1
 62
6
 10
1242.7820
 20
2202.4216
 11
1242.7820
 21
2013.8387
  0
LINE
  8
0_00
  6
CONTINUOUS
 62
4
 10
1360.7819
 20
2161.6624
 11
1360.7819
 21
2087.7635
  0
LINE
  8
0_00
  6
CONTINUOUS
 62
4
 10
1374.7820
 20
2161.6624
 11
1374.7820
 21
2087.7635
  0
LINE
  8
0_00
  6
CONTINUOUS
 62
4
 10
1360.0319
 20
2087.7635
 11
1375.5319
 21
2087.7635
  0
LINE
  8
0_00
  6
CONTINUOUS
 62
4
 10
1359.7820
 20
2087.5134
 11
1359.7820
 21
2086.5489
  0
LINE
  8
0_00
  6
CONTINUOUS
 62
4
 10
1375.7819
 20
2087.5134
 11
1375.7819
 21
2086.5489
  0
LINE
  8
0_00
  6
CONTINUOUS
 62
4
 10
1810.7819
 20
2161.6624
 11
1810.7819
 21
2087.7635
  0
LINE
  8
0_00
  6
CONTINUOUS
 62
4
 10
1824.7818
 20
2161.6624
 11
1824.7818
 21
2087.7635
  0
LINE
  8
0_00
  6
CONTINUOUS
 62
4
 10
1810.0319
 20
2087.7635
 11
1825.5318
 21
2087.7635
  0
LINE
  8
0_00
  6
CONTINUOUS
 62
4
 10
1809.7820
 20
2087.5134
 11
1809.7820
 21
2086.5489
  0
LINE
  8
0_00
  6
CONTINUOUS
 62
4
 10
1825.7819
 20
2087.5134
 11
1825.7819
 21
2086.5489
  0
LINE
  8
0_00
  6
CENTER1
 62
6
 10
1817.7818
 20
2202.4216
 11
1817.7818
 21
2041.5729
  0
LINE
  8
0_00
  6
CENTER1
 62
6
 10
1367.7818
 20
2202.4216
 11
1367.7818
 21
2041.5729
  0
LINE
  8
0_00
  6
CONTINUOUS
 62
4
 10
669.0744
 20
1132.4685
 11
1893.5132
 21
1132.4685
  0
LINE
  8
0_00
  6
CONTINUOUS
 62
4
 10
1893.5132
 20
1072.4684
 11
669.0744
 21
1072.4684
  0
LINE
  8
2_02
  6
CONTINUOUS
 62
4
 10
669.0744
 20
1132.4685
 11
669.0744
 21
1071.9685
  0
LINE
  8
2_02
  6
CONTINUOUS
 62
4
 10
669.0744
 20
1071.9685
 11
668.5744
 21
1071.4685
  0
LINE
  8
2_02
  6
CONTINUOUS
 62
4
 10
608.0746
 20
1071.4685
 11
668.5744
 21
1071.4685
  0
LINE
  8
2_02
  6
CONTINUOUS
 62
4
 10
607.5746
 20
1126.4684
 11
607.5746
 21
1071.9685
  0
LINE
  8
2_02
  6
CONTINUOUS
 62
4
 10
614.0746
 20
1132.9684
 11
668.5744
 21
1132.9684
  0
LINE
  8
0_00
  6
CONTINUOUS
 62
4
 10
728.0746
 20
1012.4684
 11
668.8245
 21
1071.7184
  0
LINE
  8
0_00
  6
CONTINUOUS
 62
4
 10
609.4784
 20
1131.0646
 11
548.0746
 21
1192.4684
  0
LINE
  8
0_00
  6
CONTINUOUS
 62
4
 10
668.0745
 20
691.3612
 11
668.0745
 21
1071.4685
  0
LINE
  8
0_00
  6
CONTINUOUS
 62
4
 10
608.0746
 20
1071.4685
 11
608.0746
 21
689.3272
  0
LINE
  8
0_00
  6
CONTINUOUS
 62
4
 10
1355.5745
 20
1011.5528
 11
1355.5745
 21
1072.4684
  0
LINE
  8
0_00
  6
CONTINUOUS
 62
4
 10
1355.5745
 20
1132.4685
 11
1355.5745
 21
1193.3839
  0
LINE
  8
0_00
  6
CONTINUOUS
 62
4
 10
1320.5745
 20
1011.5528
 11
1320.5745
 21
1072.4684
  0
LINE
  8
0_00
  6
CONTINUOUS
 62
4
 10
1320.5745
 20
1132.4685
 11
1320.5745
 21
1193.3839
  0
LINE
  8
0_00
  6
CONTINUOUS
 62
4
 10
1197.7819
 20
2055.6004
 11
1197.7819
 21
2085.0497
  0
LINE
  8
0_00
  6
CONTINUOUS
 62
4
 10
1205.2820
 20
2054.1005
 11
1205.2820
 21
1953.8239
  0
LINE
  8
3_03
  6
CONTINUOUS
 62
4
 10
1601.5318
 20
2087.0349
 11
1601.5318
 21
2053.3131
  0
LINE
  8
3_03
  6
CONTINUOUS
 62
4
 10
1592.7818
 20
2088.1488
 11
1601.0690
 21
2087.5333
  0
LINE
  8
3_03
  6
CONTINUOUS
 62
4
 10
1584.0320
 20
2087.0349
 11
1584.0320
 21
2053.3131
  0
LINE
  8
3_03
  6
CONTINUOUS
 62
4
 10
1592.7818
 20
2088.1488
 11
1584.4949
 21
2087.5333
  0
LINE
  8
3_03
  6
CONTINUOUS
 62
4
 10
1592.7818
 20
2052.1988
 11
1601.0690
 21
2052.8146
  0
LINE
  8
3_03
  6
CONTINUOUS
 62
4
 10
1592.7818
 20
2052.1988
 11
1584.4949
 21
2052.8146
  0
LINE
  8
0_00
  6
CONTINUOUS
 62
4
 10
1199.3319
 20
2086.5489
 11
1584.0320
 21
2086.5489
  0
LINE
  8
0_00
  6
CONTINUOUS
 62
4
 10
1601.5318
 20
2086.5489
 11
2000.1109
 21
2086.5489
  0
LINE
  8
0_00
  6
CONTINUOUS
 62
4
 10
1199.2819
 20
2054.1005
 11
1584.0320
 21
2054.1005
  0
LINE
  8
0_00
  6
CONTINUOUS
 62
4
 10
1601.5318
 20
2054.1005
 11
2000.1109
 21
2054.1005
  0
LINE
  8
0_00
  6
CENTER1
 62
6
 10
1592.7818
 20
2092.4979
 11
1592.7818
 21
2048.0673
  0
LINE
  8
0_00
  6
CENTER1
 62
6
 10
1242.7820
 20
2607.0718
 11
1242.7820
 21
2418.4886
  0
LINE
  8
0_00
  6
CONTINUOUS
 62
4
 10
1360.7819
 20
2561.1078
 11
1360.7819
 21
2492.4135
  0
LINE
  8
0_00
  6
CONTINUOUS
 62
4
 10
1374.7820
 20
2561.1078
 11
1374.7820
 21
2492.4135
  0
LINE
  8
0_00
  6
CONTINUOUS
 62
4
 10
1360.0319
 20
2492.4135
 11
1375.5319
 21
2492.4135
  0
LINE
  8
0_00
  6
CONTINUOUS
 62
4
 10
1359.7820
 20
2492.1637
 11
1359.7820
 21
2491.1989
  0
LINE
  8
0_00
  6
CONTINUOUS
 62
4
 10
1375.7819
 20
2492.1637
 11
1375.7819
 21
2491.1989
  0
LINE
  8
0_00
  6
CONTINUOUS
 62
4
 10
1810.7819
 20
2561.1078
 11
1810.7819
 21
2492.4135
  0
LINE
  8
0_00
  6
CONTINUOUS
 62
4
 10
1824.7818
 20
2561.1078
 11
1824.7818
 21
2492.4135
  0
LINE
  8
0_00
  6
CONTINUOUS
 62
4
 10
1810.0319
 20
2492.4135
 11
1825.5318
 21
2492.4135
  0
LINE
  8
0_00
  6
CONTINUOUS
 62
4
 10
1809.7820
 20
2492.1637
 11
1809.7820
 21
2491.1989
  0
LINE
  8
0_00
  6
CONTINUOUS
 62
4
 10
1825.7819
 20
2492.1637
 11
1825.7819
 21
2491.1989
  0
LINE
  8
0_00
  6
CENTER1
 62
6
 10
1817.7818
 20
2607.0718
 11
1817.7818
 21
2446.2227
  0
LINE
  8
0_00
  6
CENTER1
 62
6
 10
1367.7818
 20
2607.0718
 11
1367.7818
 21
2446.2227
  0
LINE
  8
0_00
  6
CONTINUOUS
 62
4
 10
1197.7819
 20
2460.2505
 11
1197.7819
 21
2489.6997
  0
LINE
  8
0_00
  6
CONTINUOUS
 62
4
 10
1205.2820
 20
2458.7506
 11
1205.2820
 21
2358.4737
  0
LINE
  8
3_03
  6
CONTINUOUS
 62
4
 10
1601.5318
 20
2491.6846
 11
1601.5318
 21
2457.9633
  0
LINE
  8
3_03
  6
CONTINUOUS
 62
4
 10
1592.7818
 20
2492.7988
 11
1601.0690
 21
2492.1832
  0
LINE
  8
3_03
  6
CONTINUOUS
 62
4
 10
1584.0320
 20
2491.6846
 11
1584.0320
 21
2457.9633
  0
LINE
  8
3_03
  6
CONTINUOUS
 62
4
 10
1592.7818
 20
2492.7988
 11
1584.4949
 21
2492.1832
  0
LINE
  8
3_03
  6
CONTINUOUS
 62
4
 10
1592.7818
 20
2456.8491
 11
1601.0690
 21
2457.4644
  0
LINE
  8
3_03
  6
CONTINUOUS
 62
4
 10
1592.7818
 20
2456.8491
 11
1584.4949
 21
2457.4644
  0
LINE
  8
0_00
  6
CONTINUOUS
 62
4
 10
1199.3319
 20
2491.1989
 11
1584.0320
 21
2491.1989
  0
LINE
  8
0_00
  6
CONTINUOUS
 62
4
 10
1601.5318
 20
2491.1989
 11
2000.1109
 21
2491.1989
  0
LINE
  8
0_00
  6
CONTINUOUS
 62
4
 10
1199.2819
 20
2458.7506
 11
1584.0320
 21
2458.7506
  0
LINE
  8
0_00
  6
CONTINUOUS
 62
4
 10
1601.5318
 20
2458.7506
 11
2000.1109
 21
2458.7506
  0
LINE
  8
0_00
  6
CENTER1
 62
6
 10
1592.7818
 20
2497.1478
 11
1592.7818
 21
2452.7170
  0
LINE
  8
0_00
  6
CONTINUOUS
 62
4
 10
1258.2819
 20
2585.2887
 11
2000.1109
 21
2585.2887
  0
LINE
  8
0_00
  6
CONTINUOUS
 62
4
 10
1258.2819
 20
2556.2886
 11
1360.2818
 21
2556.2886
  0
LINE
  8
0_00
  6
CONTINUOUS
 62
4
 10
1375.2818
 20
2556.2886
 11
1810.7819
 21
2556.2886
  0
LINE
  8
0_00
  6
CONTINUOUS
 62
4
 10
1362.0319
 20
2561.6330
 11
1373.5320
 21
2561.6330
  0
LINE
  8
0_00
  6
CONTINUOUS
 62
4
 10
1360.2818
 20
2559.8833
 11
1360.2818
 21
2556.2886
  0
LINE
  8
0_00
  6
CONTINUOUS
 62
4
 10
1375.2818
 20
2559.8833
 11
1375.2818
 21
2556.2886
  0
LINE
  8
0_00
  6
CONTINUOUS
 62
4
 10
1258.2819
 20
2565.5386
 11
2000.1109
 21
2565.5386
  0
LINE
  8
0_00
  6
CONTINUOUS
 62
4
 10
1258.2819
 20
2566.3010
 11
2000.1109
 21
2566.3010
  0
LINE
  8
0_00
  6
CONTINUOUS
 62
4
 10
1258.2819
 20
2585.6888
 11
1258.2819
 21
2555.8885
  0
LINE
  8
0_00
  6
CONTINUOUS
 62
4
 10
1242.7820
 20
2585.6888
 11
1258.2819
 21
2585.6888
  0
LINE
  8
0_00
  6
CONTINUOUS
 62
4
 10
1242.7820
 20
2555.8885
 11
1258.2819
 21
2555.8885
  0
LINE
  8
0_00
  6
CONTINUOUS
 62
4
 10
1812.0319
 20
2561.6330
 11
1823.5320
 21
2561.6330
  0
LINE
  8
0_00
  6
CONTINUOUS
 62
4
 10
1810.2818
 20
2559.8833
 11
1810.2818
 21
2556.2886
  0
LINE
  8
0_00
  6
CONTINUOUS
 62
4
 10
1825.2818
 20
2559.8833
 11
1825.2818
 21
2556.2886
  0
LINE
  8
0_00
  6
CONTINUOUS
 62
4
 10
1824.7818
 20
2556.2886
 11
2000.1109
 21
2556.2886
  0
LINE
  8
0_00
  6
CONTINUOUS
 62
4
 10
608.0746
 20
689.3281
 11
608.5109
 21
689.5449
  0
LINE
  8
0_00
  6
CONTINUOUS
 62
4
 10
608.5109
 20
689.5449
 11
608.8155
 21
689.6938
  0
LINE
  8
0_00
  6
CONTINUOUS
 62
4
 10
608.8155
 20
689.6938
 11
609.1219
 21
689.8408
  0
LINE
  8
0_00
  6
CONTINUOUS
 62
4
 10
609.1219
 20
689.8408
 11
609.4304
 21
689.9854
  0
LINE
  8
0_00
  6
CONTINUOUS
 62
4
 10
609.4304
 20
689.9854
 11
609.7411
 21
690.1272
  0
LINE
  8
0_00
  6
CONTINUOUS
 62
4
 10
609.7411
 20
690.1272
 11
610.0548
 21
690.2660
  0
LINE
  8
0_00
  6
CONTINUOUS
 62
4
 10
610.0548
 20
690.2660
 11
610.3713
 21
690.4014
  0
LINE
  8
0_00
  6
CONTINUOUS
 62
4
 10
610.3713
 20
690.4014
 11
610.6911
 21
690.5331
  0
LINE
  8
0_00
  6
CONTINUOUS
 62
4
 10
610.6911
 20
690.5331
 11
611.0146
 21
690.6609
  0
LINE
  8
0_00
  6
CONTINUOUS
 62
4
 10
611.0146
 20
690.6609
 11
611.3420
 21
690.7841
  0
LINE
  8
0_00
  6
CONTINUOUS
 62
4
 10
611.3420
 20
690.7841
 11
611.6737
 21
690.9028
  0
LINE
  8
0_00
  6
CONTINUOUS
 62
4
 10
611.6737
 20
690.9028
 11
612.0097
 21
691.0164
  0
LINE
  8
0_00
  6
CONTINUOUS
 62
4
 10
612.0097
 20
691.0164
 11
612.3507
 21
691.1245
  0
LINE
  8
0_00
  6
CONTINUOUS
 62
4
 10
612.3507
 20
691.1245
 11
612.6966
 21
691.2270
  0
LINE
  8
0_00
  6
CONTINUOUS
 62
4
 10
612.6966
 20
691.2270
 11
613.0481
 21
691.3234
  0
LINE
  8
0_00
  6
CONTINUOUS
 62
4
 10
613.0481
 20
691.3234
 11
613.4052
 21
691.4133
  0
LINE
  8
0_00
  6
CONTINUOUS
 62
4
 10
613.4052
 20
691.4133
 11
613.7684
 21
691.4967
  0
LINE
  8
0_00
  6
CONTINUOUS
 62
4
 10
613.7684
 20
691.4967
 11
614.1378
 21
691.5728
  0
LINE
  8
0_00
  6
CONTINUOUS
 62
4
 10
614.1378
 20
691.5728
 11
614.5139
 21
691.6416
  0
LINE
  8
0_00
  6
CONTINUOUS
 62
4
 10
614.5139
 20
691.6416
 11
614.8969
 21
691.7027
  0
LINE
  8
0_00
  6
CONTINUOUS
 62
4
 10
614.8969
 20
691.7027
 11
615.2871
 21
691.7556
  0
LINE
  8
0_00
  6
CONTINUOUS
 62
4
 10
615.2871
 20
691.7556
 11
615.6848
 21
691.8002
  0
LINE
  8
0_00
  6
CONTINUOUS
 62
4
 10
615.6848
 20
691.8002
 11
616.0903
 21
691.8360
  0
LINE
  8
0_00
  6
CONTINUOUS
 62
4
 10
616.0903
 20
691.8360
 11
616.5040
 21
691.8627
  0
LINE
  8
0_00
  6
CONTINUOUS
 62
4
 10
616.5040
 20
691.8627
 11
616.9260
 21
691.8800
  0
LINE
  8
0_00
  6
CONTINUOUS
 62
4
 10
616.9260
 20
691.8800
 11
617.3568
 21
691.8874
  0
LINE
  8
0_00
  6
CONTINUOUS
 62
4
 10
617.3568
 20
691.8874
 11
617.7964
 21
691.8851
  0
LINE
  8
0_00
  6
CONTINUOUS
 62
4
 10
617.7964
 20
691.8851
 11
618.2446
 21
691.8731
  0
LINE
  8
0_00
  6
CONTINUOUS
 62
4
 10
618.2446
 20
691.8731
 11
618.7008
 21
691.8523
  0
LINE
  8
0_00
  6
CONTINUOUS
 62
4
 10
618.7008
 20
691.8523
 11
619.1644
 21
691.8233
  0
LINE
  8
0_00
  6
CONTINUOUS
 62
4
 10
619.1644
 20
691.8233
 11
619.6351
 21
691.7865
  0
LINE
  8
0_00
  6
CONTINUOUS
 62
4
 10
619.6351
 20
691.7865
 11
620.1122
 21
691.7428
  0
LINE
  8
0_00
  6
CONTINUOUS
 62
4
 10
620.1122
 20
691.7428
 11
620.5953
 21
691.6925
  0
LINE
  8
0_00
  6
CONTINUOUS
 62
4
 10
620.5953
 20
691.6925
 11
621.0840
 21
691.6365
  0
LINE
  8
0_00
  6
CONTINUOUS
 62
4
 10
621.0840
 20
691.6365
 11
621.5775
 21
691.5752
  0
LINE
  8
0_00
  6
CONTINUOUS
 62
4
 10
621.5775
 20
691.5752
 11
622.0755
 21
691.5093
  0
LINE
  8
0_00
  6
CONTINUOUS
 62
4
 10
622.0755
 20
691.5093
 11
622.5774
 21
691.4394
  0
LINE
  8
0_00
  6
CONTINUOUS
 62
4
 10
622.5774
 20
691.4394
 11
623.0830
 21
691.3662
  0
LINE
  8
0_00
  6
CONTINUOUS
 62
4
 10
623.0830
 20
691.3662
 11
623.5913
 21
691.2901
  0
LINE
  8
0_00
  6
CONTINUOUS
 62
4
 10
623.5913
 20
691.2901
 11
624.1021
 21
691.2119
  0
LINE
  8
0_00
  6
CONTINUOUS
 62
4
 10
624.1021
 20
691.2119
 11
624.6149
 21
691.1320
  0
LINE
  8
0_00
  6
CONTINUOUS
 62
4
 10
624.6149
 20
691.1320
 11
625.1291
 21
691.0513
  0
LINE
  8
0_00
  6
CONTINUOUS
 62
4
 10
625.1291
 20
691.0513
 11
625.6442
 21
690.9702
  0
LINE
  8
0_00
  6
CONTINUOUS
 62
4
 10
625.6442
 20
690.9702
 11
626.1598
 21
690.8894
  0
LINE
  8
0_00
  6
CONTINUOUS
 62
4
 10
626.1598
 20
690.8894
 11
626.6751
 21
690.8094
  0
LINE
  8
0_00
  6
CONTINUOUS
 62
4
 10
626.6751
 20
690.8094
 11
627.1901
 21
690.7309
  0
LINE
  8
0_00
  6
CONTINUOUS
 62
4
 10
627.1901
 20
690.7309
 11
627.7038
 21
690.6546
  0
LINE
  8
0_00
  6
CONTINUOUS
 62
4
 10
627.7038
 20
690.6546
 11
628.2159
 21
690.5809
  0
LINE
  8
0_00
  6
CONTINUOUS
 62
4
 10
628.2159
 20
690.5809
 11
628.7259
 21
690.5106
  0
LINE
  8
0_00
  6
CONTINUOUS
 62
4
 10
628.7259
 20
690.5106
 11
629.2333
 21
690.4441
  0
LINE
  8
0_00
  6
CONTINUOUS
 62
4
 10
629.2333
 20
690.4441
 11
629.7376
 21
690.3822
  0
LINE
  8
0_00
  6
CONTINUOUS
 62
4
 10
629.7376
 20
690.3822
 11
630.2384
 21
690.3255
  0
LINE
  8
0_00
  6
CONTINUOUS
 62
4
 10
630.2384
 20
690.3255
 11
630.7348
 21
690.2745
  0
LINE
  8
0_00
  6
CONTINUOUS
 62
4
 10
630.7348
 20
690.2745
 11
631.2268
 21
690.2299
  0
LINE
  8
0_00
  6
CONTINUOUS
 62
4
 10
631.2268
 20
690.2299
 11
631.7135
 21
690.1923
  0
LINE
  8
0_00
  6
CONTINUOUS
 62
4
 10
631.7135
 20
690.1923
 11
632.1945
 21
690.1621
  0
LINE
  8
0_00
  6
CONTINUOUS
 62
4
 10
632.1945
 20
690.1621
 11
632.6697
 21
690.1400
  0
LINE
  8
0_00
  6
CONTINUOUS
 62
4
 10
632.6697
 20
690.1400
 11
633.1387
 21
690.1255
  0
LINE
  8
0_00
  6
CONTINUOUS
 62
4
 10
633.1387
 20
690.1255
 11
633.6020
 21
690.1179
  0
LINE
  8
0_00
  6
CONTINUOUS
 62
4
 10
633.6020
 20
690.1179
 11
634.0596
 21
690.1165
  0
LINE
  8
0_00
  6
CONTINUOUS
 62
4
 10
634.0596
 20
690.1165
 11
634.5120
 21
690.1207
  0
LINE
  8
0_00
  6
CONTINUOUS
 62
4
 10
634.5120
 20
690.1207
 11
634.9591
 21
690.1299
  0
LINE
  8
0_00
  6
CONTINUOUS
 62
4
 10
634.9591
 20
690.1299
 11
635.4012
 21
690.1434
  0
LINE
  8
0_00
  6
CONTINUOUS
 62
4
 10
635.4012
 20
690.1434
 11
635.8384
 21
690.1607
  0
LINE
  8
0_00
  6
CONTINUOUS
 62
4
 10
635.8384
 20
690.1607
 11
636.2709
 21
690.1809
  0
LINE
  8
0_00
  6
CONTINUOUS
 62
4
 10
636.2709
 20
690.1809
 11
636.6991
 21
690.2035
  0
LINE
  8
0_00
  6
CONTINUOUS
 62
4
 10
636.6991
 20
690.2035
 11
637.1230
 21
690.2278
  0
LINE
  8
0_00
  6
CONTINUOUS
 62
4
 10
637.1230
 20
690.2278
 11
637.5428
 21
690.2532
  0
LINE
  8
0_00
  6
CONTINUOUS
 62
4
 10
637.5428
 20
690.2532
 11
637.9587
 21
690.2792
  0
LINE
  8
0_00
  6
CONTINUOUS
 62
4
 10
637.9587
 20
690.2792
 11
638.3709
 21
690.3048
  0
LINE
  8
0_00
  6
CONTINUOUS
 62
4
 10
638.3709
 20
690.3048
 11
638.7795
 21
690.3297
  0
LINE
  8
0_00
  6
CONTINUOUS
 62
4
 10
638.7795
 20
690.3297
 11
639.1849
 21
690.3530
  0
LINE
  8
0_00
  6
CONTINUOUS
 62
4
 10
639.1849
 20
690.3530
 11
639.5871
 21
690.3742
  0
LINE
  8
0_00
  6
CONTINUOUS
 62
4
 10
639.5871
 20
690.3742
 11
639.9864
 21
690.3927
  0
LINE
  8
0_00
  6
CONTINUOUS
 62
4
 10
639.9864
 20
690.3927
 11
640.3831
 21
690.4077
  0
LINE
  8
0_00
  6
CONTINUOUS
 62
4
 10
640.3831
 20
690.4077
 11
640.7770
 21
690.4186
  0
LINE
  8
0_00
  6
CONTINUOUS
 62
4
 10
640.7770
 20
690.4186
 11
641.1685
 21
690.4248
  0
LINE
  8
0_00
  6
CONTINUOUS
 62
4
 10
641.1685
 20
690.4248
 11
641.5579
 21
690.4258
  0
LINE
  8
0_00
  6
CONTINUOUS
 62
4
 10
641.5579
 20
690.4258
 11
641.9453
 21
690.4205
  0
LINE
  8
0_00
  6
CONTINUOUS
 62
4
 10
641.9453
 20
690.4205
 11
642.3309
 21
690.4088
  0
LINE
  8
0_00
  6
CONTINUOUS
 62
4
 10
642.3309
 20
690.4088
 11
642.7148
 21
690.3896
  0
LINE
  8
0_00
  6
CONTINUOUS
 62
4
 10
642.7148
 20
690.3896
 11
643.0974
 21
690.3626
  0
LINE
  8
0_00
  6
CONTINUOUS
 62
4
 10
643.0974
 20
690.3626
 11
643.4785
 21
690.3271
  0
LINE
  8
0_00
  6
CONTINUOUS
 62
4
 10
643.4785
 20
690.3271
 11
643.8588
 21
690.2821
  0
LINE
  8
0_00
  6
CONTINUOUS
 62
4
 10
643.8588
 20
690.2821
 11
644.2382
 21
690.2274
  0
LINE
  8
0_00
  6
CONTINUOUS
 62
4
 10
644.2382
 20
690.2274
 11
644.6169
 21
690.1621
  0
LINE
  8
0_00
  6
CONTINUOUS
 62
4
 10
644.6169
 20
690.1621
 11
644.9950
 21
690.0860
  0
LINE
  8
0_00
  6
CONTINUOUS
 62
4
 10
644.9950
 20
690.0860
 11
645.3728
 21
689.9994
  0
LINE
  8
0_00
  6
CONTINUOUS
 62
4
 10
645.3728
 20
689.9994
 11
645.7498
 21
689.9033
  0
LINE
  8
0_00
  6
CONTINUOUS
 62
4
 10
645.7498
 20
689.9033
 11
646.1264
 21
689.7986
  0
LINE
  8
0_00
  6
CONTINUOUS
 62
4
 10
646.1264
 20
689.7986
 11
646.5025
 21
689.6858
  0
LINE
  8
0_00
  6
CONTINUOUS
 62
4
 10
646.5025
 20
689.6858
 11
646.8779
 21
689.5662
  0
LINE
  8
0_00
  6
CONTINUOUS
 62
4
 10
646.8779
 20
689.5662
 11
647.2528
 21
689.4402
  0
LINE
  8
0_00
  6
CONTINUOUS
 62
4
 10
647.2528
 20
689.4402
 11
647.6269
 21
689.3089
  0
LINE
  8
0_00
  6
CONTINUOUS
 62
4
 10
647.6269
 20
689.3089
 11
648.0005
 21
689.1728
  0
LINE
  8
0_00
  6
CONTINUOUS
 62
4
 10
648.0005
 20
689.1728
 11
648.3733
 21
689.0331
  0
LINE
  8
0_00
  6
CONTINUOUS
 62
4
 10
648.3733
 20
689.0331
 11
648.7456
 21
688.8904
  0
LINE
  8
0_00
  6
CONTINUOUS
 62
4
 10
648.7456
 20
688.8904
 11
649.1171
 21
688.7456
  0
LINE
  8
0_00
  6
CONTINUOUS
 62
4
 10
649.1171
 20
688.7456
 11
649.4878
 21
688.5994
  0
LINE
  8
0_00
  6
CONTINUOUS
 62
4
 10
649.4878
 20
688.5994
 11
649.8578
 21
688.4528
  0
LINE
  8
0_00
  6
CONTINUOUS
 62
4
 10
649.8578
 20
688.4528
 11
650.2269
 21
688.3065
  0
LINE
  8
0_00
  6
CONTINUOUS
 62
4
 10
650.2269
 20
688.3065
 11
650.5955
 21
688.1613
  0
LINE
  8
0_00
  6
CONTINUOUS
 62
4
 10
650.5955
 20
688.1613
 11
650.9630
 21
688.0183
  0
LINE
  8
0_00
  6
CONTINUOUS
 62
4
 10
650.9630
 20
688.0183
 11
651.3298
 21
687.8779
  0
LINE
  8
0_00
  6
CONTINUOUS
 62
4
 10
651.3298
 20
687.8779
 11
651.6957
 21
687.7412
  0
LINE
  8
0_00
  6
CONTINUOUS
 62
4
 10
651.6957
 20
687.7412
 11
652.0608
 21
687.6089
  0
LINE
  8
0_00
  6
CONTINUOUS
 62
4
 10
652.0608
 20
687.6089
 11
652.4249
 21
687.4818
  0
LINE
  8
0_00
  6
CONTINUOUS
 62
4
 10
652.4249
 20
687.4818
 11
652.7882
 21
687.3609
  0
LINE
  8
0_00
  6
CONTINUOUS
 62
4
 10
652.7882
 20
687.3609
 11
653.1506
 21
687.2469
  0
LINE
  8
0_00
  6
CONTINUOUS
 62
4
 10
653.1506
 20
687.2469
 11
653.5120
 21
687.1407
  0
LINE
  8
0_00
  6
CONTINUOUS
 62
4
 10
653.5120
 20
687.1407
 11
653.8723
 21
687.0429
  0
LINE
  8
0_00
  6
CONTINUOUS
 62
4
 10
653.8723
 20
687.0429
 11
654.2317
 21
686.9547
  0
LINE
  8
0_00
  6
CONTINUOUS
 62
4
 10
654.2317
 20
686.9547
 11
654.5901
 21
686.8764
  0
LINE
  8
0_00
  6
CONTINUOUS
 62
4
 10
654.5901
 20
686.8764
 11
654.9474
 21
686.8094
  0
LINE
  8
0_00
  6
CONTINUOUS
 62
4
 10
654.9474
 20
686.8094
 11
655.3038
 21
686.7542
  0
LINE
  8
0_00
  6
CONTINUOUS
 62
4
 10
655.3038
 20
686.7542
 11
655.6590
 21
686.7115
  0
LINE
  8
0_00
  6
CONTINUOUS
 62
4
 10
655.6590
 20
686.7115
 11
656.0131
 21
686.6821
  0
LINE
  8
0_00
  6
CONTINUOUS
 62
4
 10
656.0131
 20
686.6821
 11
656.3659
 21
686.6657
  0
LINE
  8
0_00
  6
CONTINUOUS
 62
4
 10
656.3659
 20
686.6657
 11
656.7170
 21
686.6617
  0
LINE
  8
0_00
  6
CONTINUOUS
 62
4
 10
656.7170
 20
686.6617
 11
657.0663
 21
686.6692
  0
LINE
  8
0_00
  6
CONTINUOUS
 62
4
 10
657.0663
 20
686.6692
 11
657.4134
 21
686.6882
  0
LINE
  8
0_00
  6
CONTINUOUS
 62
4
 10
657.4134
 20
686.6882
 11
657.7581
 21
686.7177
  0
LINE
  8
0_00
  6
CONTINUOUS
 62
4
 10
657.7581
 20
686.7177
 11
658.1001
 21
686.7573
  0
LINE
  8
0_00
  6
CONTINUOUS
 62
4
 10
658.1001
 20
686.7573
 11
658.4393
 21
686.8063
  0
LINE
  8
0_00
  6
CONTINUOUS
 62
4
 10
658.4393
 20
686.8063
 11
658.7753
 21
686.8643
  0
LINE
  8
0_00
  6
CONTINUOUS
 62
4
 10
658.7753
 20
686.8643
 11
659.1077
 21
686.9305
  0
LINE
  8
0_00
  6
CONTINUOUS
 62
4
 10
659.1077
 20
686.9305
 11
659.4365
 21
687.0046
  0
LINE
  8
0_00
  6
CONTINUOUS
 62
4
 10
659.4365
 20
687.0046
 11
659.7613
 21
687.0859
  0
LINE
  8
0_00
  6
CONTINUOUS
 62
4
 10
659.7613
 20
687.0859
 11
660.0819
 21
687.1738
  0
LINE
  8
0_00
  6
CONTINUOUS
 62
4
 10
660.0819
 20
687.1738
 11
660.3979
 21
687.2678
  0
LINE
  8
0_00
  6
CONTINUOUS
 62
4
 10
660.3979
 20
687.2678
 11
660.7093
 21
687.3672
  0
LINE
  8
0_00
  6
CONTINUOUS
 62
4
 10
660.7093
 20
687.3672
 11
661.0155
 21
687.4715
  0
LINE
  8
0_00
  6
CONTINUOUS
 62
4
 10
661.0155
 20
687.4715
 11
661.3166
 21
687.5801
  0
LINE
  8
0_00
  6
CONTINUOUS
 62
4
 10
661.3166
 20
687.5801
 11
661.6122
 21
687.6926
  0
LINE
  8
0_00
  6
CONTINUOUS
 62
4
 10
661.6122
 20
687.6926
 11
661.9019
 21
687.8082
  0
LINE
  8
0_00
  6
CONTINUOUS
 62
4
 10
661.9019
 20
687.8082
 11
662.1854
 21
687.9264
  0
LINE
  8
0_00
  6
CONTINUOUS
 62
4
 10
662.1854
 20
687.9264
 11
662.4627
 21
688.0467
  0
LINE
  8
0_00
  6
CONTINUOUS
 62
4
 10
662.4627
 20
688.0467
 11
662.7335
 21
688.1685
  0
LINE
  8
0_00
  6
CONTINUOUS
 62
4
 10
662.7335
 20
688.1685
 11
662.9972
 21
688.2911
  0
LINE
  8
0_00
  6
CONTINUOUS
 62
4
 10
662.9972
 20
688.2911
 11
663.2541
 21
688.4141
  0
LINE
  8
0_00
  6
CONTINUOUS
 62
4
 10
663.2541
 20
688.4141
 11
663.5035
 21
688.5368
  0
LINE
  8
0_00
  6
CONTINUOUS
 62
4
 10
663.5035
 20
688.5368
 11
663.7452
 21
688.6588
  0
LINE
  8
0_00
  6
CONTINUOUS
 62
4
 10
663.7452
 20
688.6588
 11
663.9791
 21
688.7793
  0
LINE
  8
0_00
  6
CONTINUOUS
 62
4
 10
663.9791
 20
688.7793
 11
664.2048
 21
688.8979
  0
LINE
  8
0_00
  6
CONTINUOUS
 62
4
 10
664.2048
 20
688.8979
 11
664.4221
 21
689.0140
  0
LINE
  8
0_00
  6
CONTINUOUS
 62
4
 10
664.4221
 20
689.0140
 11
664.6307
 21
689.1270
  0
LINE
  8
0_00
  6
CONTINUOUS
 62
4
 10
664.6307
 20
689.1270
 11
664.8306
 21
689.2363
  0
LINE
  8
0_00
  6
CONTINUOUS
 62
4
 10
664.8306
 20
689.2363
 11
665.0217
 21
689.3422
  0
LINE
  8
0_00
  6
CONTINUOUS
 62
4
 10
665.0217
 20
689.3422
 11
665.2044
 21
689.4446
  0
LINE
  8
0_00
  6
CONTINUOUS
 62
4
 10
665.2044
 20
689.4446
 11
665.3791
 21
689.5437
  0
LINE
  8
0_00
  6
CONTINUOUS
 62
4
 10
665.3791
 20
689.5437
 11
665.5461
 21
689.6397
  0
LINE
  8
0_00
  6
CONTINUOUS
 62
4
 10
665.5461
 20
689.6397
 11
665.7056
 21
689.7325
  0
LINE
  8
0_00
  6
CONTINUOUS
 62
4
 10
665.7056
 20
689.7325
 11
665.8582
 21
689.8225
  0
LINE
  8
0_00
  6
CONTINUOUS
 62
4
 10
665.8582
 20
689.8225
 11
666.0036
 21
689.9095
  0
LINE
  8
0_00
  6
CONTINUOUS
 62
4
 10
666.0036
 20
689.9095
 11
666.1427
 21
689.9940
  0
LINE
  8
0_00
  6
CONTINUOUS
 62
4
 10
666.1427
 20
689.9940
 11
666.2753
 21
690.0758
  0
LINE
  8
0_00
  6
CONTINUOUS
 62
4
 10
666.2753
 20
690.0758
 11
666.4021
 21
690.1553
  0
LINE
  8
0_00
  6
CONTINUOUS
 62
4
 10
666.4021
 20
690.1553
 11
666.5231
 21
690.2322
  0
LINE
  8
0_00
  6
CONTINUOUS
 62
4
 10
666.5231
 20
690.2322
 11
666.6389
 21
690.3072
  0
LINE
  8
0_00
  6
CONTINUOUS
 62
4
 10
666.6389
 20
690.3072
 11
666.7496
 21
690.3799
  0
LINE
  8
0_00
  6
CONTINUOUS
 62
4
 10
666.7496
 20
690.3799
 11
666.8555
 21
690.4507
  0
LINE
  8
0_00
  6
CONTINUOUS
 62
4
 10
666.8555
 20
690.4507
 11
666.9569
 21
690.5197
  0
LINE
  8
0_00
  6
CONTINUOUS
 62
4
 10
666.9569
 20
690.5197
 11
667.0541
 21
690.5870
  0
LINE
  8
0_00
  6
CONTINUOUS
 62
4
 10
667.0541
 20
690.5870
 11
667.1475
 21
690.6527
  0
LINE
  8
0_00
  6
CONTINUOUS
 62
4
 10
667.1475
 20
690.6527
 11
667.2374
 21
690.7169
  0
LINE
  8
0_00
  6
CONTINUOUS
 62
4
 10
667.2374
 20
690.7169
 11
667.3239
 21
690.7797
  0
LINE
  8
0_00
  6
CONTINUOUS
 62
4
 10
667.3239
 20
690.7797
 11
667.4075
 21
690.8414
  0
LINE
  8
0_00
  6
CONTINUOUS
 62
4
 10
667.4075
 20
690.8414
 11
667.4883
 21
690.9019
  0
LINE
  8
0_00
  6
CONTINUOUS
 62
4
 10
667.4883
 20
690.9019
 11
667.5668
 21
690.9615
  0
LINE
  8
0_00
  6
CONTINUOUS
 62
4
 10
667.5668
 20
690.9615
 11
667.6433
 21
691.0202
  0
LINE
  8
0_00
  6
CONTINUOUS
 62
4
 10
667.6433
 20
691.0202
 11
667.7178
 21
691.0781
  0
LINE
  8
0_00
  6
CONTINUOUS
 62
4
 10
667.7178
 20
691.0781
 11
667.7910
 21
691.1356
  0
LINE
  8
0_00
  6
CONTINUOUS
 62
4
 10
667.7910
 20
691.1356
 11
667.8629
 21
691.1923
  0
LINE
  8
0_00
  6
CONTINUOUS
 62
4
 10
667.8629
 20
691.1923
 11
667.9339
 21
691.2489
  0
LINE
  8
0_00
  6
CONTINUOUS
 62
4
 10
667.9339
 20
691.2489
 11
668.0044
 21
691.3052
  0
LINE
  8
0_00
  6
CONTINUOUS
 62
4
 10
668.0044
 20
691.3052
 11
668.0745
 21
691.3612
  0
LINE
  8
0_00
  6
CENTER1
 62
6
 10
529.2038
 20
1211.3392
 11
548.0746
 21
1192.4684
  0
LINE
  8
0_00
  6
CENTER1
 62
6
 10
728.0746
 20
1012.4684
 11
769.6756
 21
970.8674
  0
LINE
  8
0_00
  6
CONTINUOUS
 62
6
 10
1338.0745
 20
999.5953
 11
1382.7972
 21
922.1331
  0
LINE
  8
0_00
  6
CONTINUOUS
 62
6
 10
1338.0745
 20
999.5953
 11
1345.8000
 21
975.8188
  0
LINE
  8
0_00
  6
CONTINUOUS
 62
6
 10
1338.0745
 20
999.5953
 11
1354.8029
 21
981.0166
  0
LINE
  8
0_00
  6
CONTINUOUS
 62
6
 10
1382.7972
 20
922.1331
 11
1604.7974
 21
922.1331
  0
LINE
  8
0_00
  6
CONTINUOUS
 62
6
 10
695.0233
 20
1190.9684
 11
725.4117
 21
1243.6028
  0
LINE
  8
0_00
  6
CONTINUOUS
 62
6
 10
695.0233
 20
1190.9684
 11
711.7516
 21
1209.5471
  0
LINE
  8
0_00
  6
CONTINUOUS
 62
6
 10
695.0233
 20
1190.9684
 11
702.7488
 21
1214.7448
  0
LINE
  8
0_00
  6
CONTINUOUS
 62
6
 10
725.4117
 20
1243.6028
 11
971.4117
 21
1243.6028
  0
LINE
  8
0_00
  6
CONTINUOUS
 62
6
 10
619.7066
 20
1132.9684
 11
564.7263
 21
1228.1974
  0
LINE
  8
0_00
  6
CONTINUOUS
 62
6
 10
619.7066
 20
1132.9684
 11
611.9813
 21
1156.7448
  0
LINE
  8
0_00
  6
CONTINUOUS
 62
6
 10
619.7066
 20
1132.9684
 11
602.9784
 21
1151.5471
  0
LINE
  8
0_00
  6
CONTINUOUS
 62
6
 10
564.7263
 20
1228.1974
 11
242.2052
 21
1228.1974
  0
LINE
  8
0_00
  6
CENTER1
 62
6
 10
638.0745
 20
2115.6209
 11
829.0746
 21
2115.6209
  0
LINE
  8
0_00
  6
CENTER1
 62
6
 10
638.0745
 20
2115.6209
 11
638.0745
 21
1947.6939
  0
LINE
  8
0_00
  6
CONTINUOUS
 62
4
 10
728.0746
 20
2025.6209
 11
728.0746
 21
1976.9643
  0
LINE
  8
0_00
  6
CONTINUOUS
 62
4
 10
548.0746
 20
2205.6209
 11
548.0746
 21
1976.9643
  0
LINE
  8
0_00
  6
CONTINUOUS
 62
4
 10
548.0746
 20
2205.6209
 11
814.3195
 21
2205.6209
  0
LINE
  8
0_00
  6
CONTINUOUS
 62
4
 10
728.0746
 20
2025.6209
 11
814.3195
 21
2025.6209
  0
LINE
  8
0_00
  6
DASHED
 62
6
 10
718.0746
 20
2063.6211
 11
658.0746
 21
2063.6211
  0
LINE
  8
0_00
  6
DASHED
 62
6
 10
718.0746
 20
2204.1209
 11
658.0746
 21
2204.1209
  0
LINE
  8
0_00
  6
DASHED
 62
6
 10
658.0746
 20
2063.6211
 11
658.0746
 21
2204.1209
  0
LINE
  8
0_00
  6
DASHED
 62
6
 10
718.0746
 20
2204.1209
 11
718.0746
 21
2063.6211
  0
LINE
  8
0_00
  6
CONTINUOUS
 62
4
 10
728.0746
 20
2025.6209
 11
678.8746
 21
2074.8209
  0
LINE
  8
0_00
  6
CONTINUOUS
 62
4
 10
599.1783
 20
2154.5172
 11
548.0746
 21
2205.6209
  0
LINE
  8
0_00
  6
CENTER1
 62
6
 10
529.2038
 20
2224.4919
 11
548.0746
 21
2205.6209
  0
LINE
  8
0_00
  6
CENTER1
 62
6
 10
728.0746
 20
2025.6209
 11
769.6756
 21
1984.0199
  0
LINE
  8
0_00
  6
CONTINUOUS
 62
4
 10
603.7745
 20
2156.4209
 11
678.8746
 21
2156.4209
  0
LINE
  8
0_00
  6
CONTINUOUS
 62
4
 10
597.2745
 20
2074.8209
 11
678.8746
 21
2074.8209
  0
LINE
  8
0_00
  6
CONTINUOUS
 62
4
 10
678.8746
 20
2156.4209
 11
678.8746
 21
2074.8209
  0
LINE
  8
0_00
  6
CONTINUOUS
 62
4
 10
597.2745
 20
2149.9210
 11
597.2745
 21
2074.8209
  0
LINE
  8
0_00
  6
CONTINUOUS
 62
6
 10
599.1783
 20
2154.5172
 11
678.8746
 21
2074.8209
  0
LINE
  8
0_00
  6
CONTINUOUS
 62
4
 10
678.8746
 20
2155.6210
 11
814.3195
 21
2155.6210
  0
LINE
  8
0_00
  6
CONTINUOUS
 62
4
 10
678.8746
 20
2075.6210
 11
814.3195
 21
2075.6210
  0
LINE
  8
0_00
  6
CONTINUOUS
 62
4
 10
678.0746
 20
2074.8209
 11
678.0746
 21
1976.9643
  0
LINE
  8
0_00
  6
CONTINUOUS
 62
4
 10
598.0745
 20
2074.8209
 11
598.0745
 21
1976.9643
  0
LINE
  8
0_00
  6
CONTINUOUS
 62
6
 10
626.8829
 20
2137.7051
 11
574.3244
 21
2228.7392
  0
LINE
  8
0_00
  6
CONTINUOUS
 62
6
 10
626.8829
 20
2137.7051
 11
619.1575
 21
2161.4816
  0
LINE
  8
0_00
  6
CONTINUOUS
 62
6
 10
626.8829
 20
2137.7051
 11
610.1546
 21
2156.2839
  0
LINE
  8
0_00
  6
CONTINUOUS
 62
6
 10
574.3244
 20
2228.7392
 11
246.4125
 21
2228.7392
  0
LINE
  8
0_00
  6
CENTER1
 62
6
 10
638.0745
 20
2520.6430
 11
829.0746
 21
2520.6430
  0
LINE
  8
0_00
  6
CENTER1
 62
6
 10
638.0745
 20
2520.6430
 11
638.0745
 21
2365.6073
  0
LINE
  8
0_00
  6
CONTINUOUS
 62
4
 10
728.0746
 20
2430.6429
 11
728.0746
 21
2388.3728
  0
LINE
  8
0_00
  6
CONTINUOUS
 62
4
 10
548.0746
 20
2610.6430
 11
548.0746
 21
2388.3728
  0
LINE
  8
0_00
  6
CONTINUOUS
 62
4
 10
548.0746
 20
2610.6430
 11
814.3195
 21
2610.6430
  0
LINE
  8
0_00
  6
CONTINUOUS
 62
4
 10
728.0746
 20
2430.6429
 11
814.3195
 21
2430.6429
  0
LINE
  8
0_00
  6
DASHED
 62
6
 10
718.0746
 20
2468.6430
 11
658.0746
 21
2468.6430
  0
LINE
  8
0_00
  6
DASHED
 62
6
 10
718.0746
 20
2609.1428
 11
658.0746
 21
2609.1428
  0
LINE
  8
0_00
  6
DASHED
 62
6
 10
658.0746
 20
2468.6430
 11
658.0746
 21
2609.1428
  0
LINE
  8
0_00
  6
DASHED
 62
6
 10
718.0746
 20
2609.1428
 11
718.0746
 21
2468.6430
  0
LINE
  8
0_00
  6
CONTINUOUS
 62
4
 10
728.0746
 20
2430.6429
 11
667.8746
 21
2490.8427
  0
LINE
  8
0_00
  6
CONTINUOUS
 62
4
 10
625.7309
 20
2532.9865
 11
548.0746
 21
2610.6430
  0
LINE
  8
0_00
  6
CENTER1
 62
6
 10
529.2038
 20
2629.5135
 11
548.0746
 21
2610.6430
  0
LINE
  8
0_00
  6
CENTER1
 62
6
 10
728.0746
 20
2430.6429
 11
769.6756
 21
2389.0419
  0
LINE
  8
0_00
  6
CONTINUOUS
 62
6
 10
625.7309
 20
2532.9865
 11
667.8746
 21
2490.8427
  0
LINE
  8
0_00
  6
CONTINUOUS
 62
6
 10
630.8128
 20
2535.9204
 11
576.6070
 21
2629.8074
  0
LINE
  8
0_00
  6
CONTINUOUS
 62
6
 10
630.8128
 20
2535.9204
 11
623.0873
 21
2559.6970
  0
LINE
  8
0_00
  6
CONTINUOUS
 62
6
 10
630.8128
 20
2535.9204
 11
614.0846
 21
2554.4992
  0
LINE
  8
0_00
  6
CONTINUOUS
 62
6
 10
576.6070
 20
2629.8074
 11
287.0214
 21
2629.8074
  0
LINE
  8
0_00
  6
CONTINUOUS
 62
4
 10
608.2745
 20
2490.8427
 11
608.2745
 21
2489.6429
  0
LINE
  8
0_00
  6
CONTINUOUS
 62
4
 10
667.8746
 20
2490.8427
 11
667.8746
 21
2489.6429
  0
LINE
  8
0_00
  6
CONTINUOUS
 62
4
 10
667.8746
 20
2489.6429
 11
608.2745
 21
2489.6429
  0
LINE
  8
0_00
  6
CONTINUOUS
 62
4
 10
667.8746
 20
2550.4427
 11
669.0746
 21
2550.4427
  0
LINE
  8
0_00
  6
CONTINUOUS
 62
4
 10
667.8746
 20
2490.8427
 11
669.0746
 21
2490.8427
  0
LINE
  8
0_00
  6
CONTINUOUS
 62
4
 10
669.0746
 20
2490.8427
 11
669.0746
 21
2550.4427
  0
LINE
  8
0_00
  6
CONTINUOUS
 62
4
 10
669.0746
 20
2549.6429
 11
814.3195
 21
2549.6429
  0
LINE
  8
0_00
  6
CONTINUOUS
 62
4
 10
814.3195
 20
2491.6431
 11
669.0746
 21
2491.6431
  0
LINE
  8
0_00
  6
CONTINUOUS
 62
4
 10
609.0746
 20
2489.6429
 11
609.0746
 21
2388.3728
  0
LINE
  8
0_00
  6
CONTINUOUS
 62
4
 10
667.0746
 20
2388.3728
 11
667.0746
 21
2489.6429
  0
LINE
  8
0_00
  6
CENTER1
 62
6
 10
2577.7753
 20
1452.4684
 11
3994.3744
 21
1452.4684
  0
LINE
  8
0_00
  6
CENTER1
 62
6
 10
2577.7753
 20
1452.4684
 11
2577.7753
 21
482.9850
  0
LINE
  8
0_00
  6
CENTER1
 62
6
 10
2627.7753
 20
1598.1352
 11
2627.7753
 21
1352.8030
  0
LINE
  8
0_00
  6
CONTINUOUS
 62
4
 10
3277.7753
 20
1575.5852
 11
3294.3494
 21
1574.3541
  0
LINE
  8
0_00
  6
CONTINUOUS
 62
4
 10
3277.7753
 20
1575.5852
 11
3261.2012
 21
1574.3541
  0
LINE
  8
0_00
  6
CONTINUOUS
 62
4
 10
3277.7753
 20
1329.3498
 11
3294.3494
 21
1330.5811
  0
LINE
  8
0_00
  6
CONTINUOUS
 62
4
 10
3277.7753
 20
1329.3498
 11
3261.2012
 21
1330.5811
  0
LINE
  8
0_00
  6
DASHED
 62
6
 10
2657.7750
 20
1400.4684
 11
2597.7753
 21
1400.4684
  0
LINE
  8
0_00
  6
DASHED
 62
6
 10
2657.7750
 20
1570.9412
 11
2597.7753
 21
1570.9412
  0
LINE
  8
0_00
  6
DASHED
 62
6
 10
2597.7753
 20
1400.4684
 11
2597.7753
 21
1570.9412
  0
LINE
  8
0_00
  6
DASHED
 62
6
 10
2657.7750
 20
1570.9412
 11
2657.7750
 21
1400.4684
  0
LINE
  8
0_00
  6
CENTER1
 62
6
 10
2462.6065
 20
952.4684
 11
2701.0574
 21
952.4684
  0
LINE
  8
0_00
  6
CONTINUOUS
 62
4
 10
2668.6908
 20
969.9684
 11
2486.8597
 21
969.9684
  0
LINE
  8
0_00
  6
CONTINUOUS
 62
4
 10
2668.6908
 20
934.9684
 11
2486.8597
 21
934.9684
  0
LINE
  8
0_00
  6
CONTINUOUS
 62
4
 10
2484.6310
 20
952.4684
 11
2485.8626
 21
935.8943
  0
LINE
  8
0_00
  6
CONTINUOUS
 62
4
 10
2484.6310
 20
952.4684
 11
2485.8626
 21
969.0425
  0
LINE
  8
0_00
  6
CONTINUOUS
 62
4
 10
2670.9195
 20
952.4684
 11
2669.6884
 21
935.8943
  0
LINE
  8
0_00
  6
CONTINUOUS
 62
4
 10
2670.9195
 20
952.4684
 11
2669.6884
 21
969.0425
  0
LINE
  8
0_00
  6
CONTINUOUS
 62
4
 10
2667.7753
 20
1332.4939
 11
2667.7753
 21
969.9684
  0
LINE
  8
0_00
  6
CONTINUOUS
 62
4
 10
2667.7753
 20
934.9684
 11
2667.7753
 21
655.7169
  0
LINE
  8
0_00
  6
CONTINUOUS
 62
4
 10
2487.7753
 20
1572.4413
 11
2487.7753
 21
969.9684
  0
LINE
  8
0_00
  6
CONTINUOUS
 62
4
 10
2487.7753
 20
934.9684
 11
2487.7753
 21
655.7169
  0
LINE
  8
0_00
  6
CENTER1
 62
6
 10
3277.7753
 20
1582.9086
 11
3277.7753
 21
1310.3397
  0
LINE
  8
0_00
  6
CENTER1
 62
6
 10
2827.7753
 20
1567.6373
 11
2827.7753
 21
1329.1862
  0
LINE
  8
0_00
  6
CENTER1
 62
6
 10
3727.7753
 20
1562.6846
 11
3727.7753
 21
1331.8309
  0
LINE
  8
0_00
  6
CENTER1
 62
6
 10
2462.6065
 20
1202.4684
 11
2701.0574
 21
1202.4684
  0
LINE
  8
0_00
  6
CONTINUOUS
 62
4
 10
2608.7753
 20
1482.4684
 11
3833.2141
 21
1482.4684
  0
LINE
  8
0_00
  6
CONTINUOUS
 62
4
 10
3833.2141
 20
1422.4684
 11
2608.7753
 21
1422.4684
  0
LINE
  8
2_02
  6
CONTINUOUS
 62
4
 10
2608.7753
 20
1482.4684
 11
2608.7753
 21
1421.9685
  0
LINE
  8
2_02
  6
CONTINUOUS
 62
4
 10
2608.7753
 20
1421.9685
 11
2608.2751
 21
1421.4684
  0
LINE
  8
2_02
  6
CONTINUOUS
 62
4
 10
2547.7753
 20
1421.4684
 11
2608.2751
 21
1421.4684
  0
LINE
  8
2_02
  6
CONTINUOUS
 62
4
 10
2547.2752
 20
1476.4685
 11
2547.2752
 21
1421.9685
  0
LINE
  8
2_02
  6
CONTINUOUS
 62
4
 10
2553.7752
 20
1482.9684
 11
2608.2751
 21
1482.9684
  0
LINE
  8
0_00
  6
CONTINUOUS
 62
4
 10
2607.7753
 20
1041.3612
 11
2607.7753
 21
1421.4684
  0
LINE
  8
0_00
  6
CONTINUOUS
 62
4
 10
2547.7753
 20
1421.4684
 11
2547.7753
 21
1039.3272
  0
LINE
  8
0_00
  6
CONTINUOUS
 62
4
 10
3295.2750
 20
1332.4939
 11
3295.2750
 21
1422.4684
  0
LINE
  8
0_00
  6
CONTINUOUS
 62
4
 10
3295.2750
 20
1482.4684
 11
3295.2750
 21
1572.4413
  0
LINE
  8
0_00
  6
CONTINUOUS
 62
4
 10
3260.2753
 20
1422.4684
 11
3260.2753
 21
1331.5784
  0
LINE
  8
0_00
  6
CONTINUOUS
 62
4
 10
3260.2753
 20
1482.4684
 11
3260.2753
 21
1573.3568
  0
LINE
  8
0_00
  6
CONTINUOUS
 62
4
 10
2547.7753
 20
1039.3280
 11
2548.2117
 21
1039.5451
  0
LINE
  8
0_00
  6
CONTINUOUS
 62
4
 10
2548.2117
 20
1039.5451
 11
2548.5164
 21
1039.6938
  0
LINE
  8
0_00
  6
CONTINUOUS
 62
4
 10
2548.5164
 20
1039.6938
 11
2548.8226
 21
1039.8407
  0
LINE
  8
0_00
  6
CONTINUOUS
 62
4
 10
2548.8226
 20
1039.8407
 11
2549.1312
 21
1039.9852
  0
LINE
  8
0_00
  6
CONTINUOUS
 62
4
 10
2549.1312
 20
1039.9852
 11
2549.4420
 21
1040.1271
  0
LINE
  8
0_00
  6
CONTINUOUS
 62
4
 10
2549.4420
 20
1040.1271
 11
2549.7556
 21
1040.2660
  0
LINE
  8
0_00
  6
CONTINUOUS
 62
4
 10
2549.7556
 20
1040.2660
 11
2550.0722
 21
1040.4015
  0
LINE
  8
0_00
  6
CONTINUOUS
 62
4
 10
2550.0722
 20
1040.4015
 11
2550.3920
 21
1040.5332
  0
LINE
  8
0_00
  6
CONTINUOUS
 62
4
 10
2550.3920
 20
1040.5332
 11
2550.7153
 21
1040.6609
  0
LINE
  8
0_00
  6
CONTINUOUS
 62
4
 10
2550.7153
 20
1040.6609
 11
2551.0429
 21
1040.7841
  0
LINE
  8
0_00
  6
CONTINUOUS
 62
4
 10
2551.0429
 20
1040.7841
 11
2551.3742
 21
1040.9027
  0
LINE
  8
0_00
  6
CONTINUOUS
 62
4
 10
2551.3742
 20
1040.9027
 11
2551.7105
 21
1041.0163
  0
LINE
  8
0_00
  6
CONTINUOUS
 62
4
 10
2551.7105
 20
1041.0163
 11
2552.0512
 21
1041.1244
  0
LINE
  8
0_00
  6
CONTINUOUS
 62
4
 10
2552.0512
 20
1041.1244
 11
2552.3976
 21
1041.2270
  0
LINE
  8
0_00
  6
CONTINUOUS
 62
4
 10
2552.3976
 20
1041.2270
 11
2552.7487
 21
1041.3234
  0
LINE
  8
0_00
  6
CONTINUOUS
 62
4
 10
2552.7487
 20
1041.3234
 11
2553.1061
 21
1041.4133
  0
LINE
  8
0_00
  6
CONTINUOUS
 62
4
 10
2553.1061
 20
1041.4133
 11
2553.4691
 21
1041.4966
  0
LINE
  8
0_00
  6
CONTINUOUS
 62
4
 10
2553.4691
 20
1041.4966
 11
2553.8388
 21
1041.5728
  0
LINE
  8
0_00
  6
CONTINUOUS
 62
4
 10
2553.8388
 20
1041.5728
 11
2554.2146
 21
1041.6416
  0
LINE
  8
0_00
  6
CONTINUOUS
 62
4
 10
2554.2146
 20
1041.6416
 11
2554.5976
 21
1041.7026
  0
LINE
  8
0_00
  6
CONTINUOUS
 62
4
 10
2554.5976
 20
1041.7026
 11
2554.9879
 21
1041.7555
  0
LINE
  8
0_00
  6
CONTINUOUS
 62
4
 10
2554.9879
 20
1041.7555
 11
2555.3854
 21
1041.8002
  0
LINE
  8
0_00
  6
CONTINUOUS
 62
4
 10
2555.3854
 20
1041.8002
 11
2555.7910
 21
1041.8359
  0
LINE
  8
0_00
  6
CONTINUOUS
 62
4
 10
2555.7910
 20
1041.8359
 11
2556.2048
 21
1041.8626
  0
LINE
  8
0_00
  6
CONTINUOUS
 62
4
 10
2556.2048
 20
1041.8626
 11
2556.6269
 21
1041.8799
  0
LINE
  8
0_00
  6
CONTINUOUS
 62
4
 10
2556.6269
 20
1041.8799
 11
2557.0575
 21
1041.8874
  0
LINE
  8
0_00
  6
CONTINUOUS
 62
4
 10
2557.0575
 20
1041.8874
 11
2557.4971
 21
1041.8849
  0
LINE
  8
0_00
  6
CONTINUOUS
 62
4
 10
2557.4971
 20
1041.8849
 11
2557.9456
 21
1041.8731
  0
LINE
  8
0_00
  6
CONTINUOUS
 62
4
 10
2557.9456
 20
1041.8731
 11
2558.4015
 21
1041.8523
  0
LINE
  8
0_00
  6
CONTINUOUS
 62
4
 10
2558.4015
 20
1041.8523
 11
2558.8651
 21
1041.8232
  0
LINE
  8
0_00
  6
CONTINUOUS
 62
4
 10
2558.8651
 20
1041.8232
 11
2559.3359
 21
1041.7866
  0
LINE
  8
0_00
  6
CONTINUOUS
 62
4
 10
2559.3359
 20
1041.7866
 11
2559.8132
 21
1041.7427
  0
LINE
  8
0_00
  6
CONTINUOUS
 62
4
 10
2559.8132
 20
1041.7427
 11
2560.2963
 21
1041.6926
  0
LINE
  8
0_00
  6
CONTINUOUS
 62
4
 10
2560.2963
 20
1041.6926
 11
2560.7846
 21
1041.6364
  0
LINE
  8
0_00
  6
CONTINUOUS
 62
4
 10
2560.7846
 20
1041.6364
 11
2561.2784
 21
1041.5752
  0
LINE
  8
0_00
  6
CONTINUOUS
 62
4
 10
2561.2784
 20
1041.5752
 11
2561.7761
 21
1041.5092
  0
LINE
  8
0_00
  6
CONTINUOUS
 62
4
 10
2561.7761
 20
1041.5092
 11
2562.2781
 21
1041.4394
  0
LINE
  8
0_00
  6
CONTINUOUS
 62
4
 10
2562.2781
 20
1041.4394
 11
2562.7838
 21
1041.3662
  0
LINE
  8
0_00
  6
CONTINUOUS
 62
4
 10
2562.7838
 20
1041.3662
 11
2563.2922
 21
1041.2901
  0
LINE
  8
0_00
  6
CONTINUOUS
 62
4
 10
2563.2922
 20
1041.2901
 11
2563.8031
 21
1041.2118
  0
LINE
  8
0_00
  6
CONTINUOUS
 62
4
 10
2563.8031
 20
1041.2118
 11
2564.3158
 21
1041.1320
  0
LINE
  8
0_00
  6
CONTINUOUS
 62
4
 10
2564.3158
 20
1041.1320
 11
2564.8300
 21
1041.0512
  0
LINE
  8
0_00
  6
CONTINUOUS
 62
4
 10
2564.8300
 20
1041.0512
 11
2565.3448
 21
1040.9702
  0
LINE
  8
0_00
  6
CONTINUOUS
 62
4
 10
2565.3448
 20
1040.9702
 11
2565.8606
 21
1040.8894
  0
LINE
  8
0_00
  6
CONTINUOUS
 62
4
 10
2565.8606
 20
1040.8894
 11
2566.3760
 21
1040.8093
  0
LINE
  8
0_00
  6
CONTINUOUS
 62
4
 10
2566.3760
 20
1040.8093
 11
2566.8909
 21
1040.7309
  0
LINE
  8
0_00
  6
CONTINUOUS
 62
4
 10
2566.8909
 20
1040.7309
 11
2567.4048
 21
1040.6544
  0
LINE
  8
0_00
  6
CONTINUOUS
 62
4
 10
2567.4048
 20
1040.6544
 11
2567.9169
 21
1040.5808
  0
LINE
  8
0_00
  6
CONTINUOUS
 62
4
 10
2567.9169
 20
1040.5808
 11
2568.4268
 21
1040.5106
  0
LINE
  8
0_00
  6
CONTINUOUS
 62
4
 10
2568.4268
 20
1040.5106
 11
2568.9340
 21
1040.4441
  0
LINE
  8
0_00
  6
CONTINUOUS
 62
4
 10
2568.9340
 20
1040.4441
 11
2569.4385
 21
1040.3822
  0
LINE
  8
0_00
  6
CONTINUOUS
 62
4
 10
2569.4385
 20
1040.3822
 11
2569.9393
 21
1040.3255
  0
LINE
  8
0_00
  6
CONTINUOUS
 62
4
 10
2569.9393
 20
1040.3255
 11
2570.4355
 21
1040.2745
  0
LINE
  8
0_00
  6
CONTINUOUS
 62
4
 10
2570.4355
 20
1040.2745
 11
2570.9277
 21
1040.2299
  0
LINE
  8
0_00
  6
CONTINUOUS
 62
4
 10
2570.9277
 20
1040.2299
 11
2571.4145
 21
1040.1922
  0
LINE
  8
0_00
  6
CONTINUOUS
 62
4
 10
2571.4145
 20
1040.1922
 11
2571.8954
 21
1040.1620
  0
LINE
  8
0_00
  6
CONTINUOUS
 62
4
 10
2571.8954
 20
1040.1620
 11
2572.3706
 21
1040.1402
  0
LINE
  8
0_00
  6
CONTINUOUS
 62
4
 10
2572.3706
 20
1040.1402
 11
2572.8394
 21
1040.1254
  0
LINE
  8
0_00
  6
CONTINUOUS
 62
4
 10
2572.8394
 20
1040.1254
 11
2573.3029
 21
1040.1179
  0
LINE
  8
0_00
  6
CONTINUOUS
 62
4
 10
2573.3029
 20
1040.1179
 11
2573.7607
 21
1040.1165
  0
LINE
  8
0_00
  6
CONTINUOUS
 62
4
 10
2573.7607
 20
1040.1165
 11
2574.2126
 21
1040.1207
  0
LINE
  8
0_00
  6
CONTINUOUS
 62
4
 10
2574.2126
 20
1040.1207
 11
2574.6600
 21
1040.1300
  0
LINE
  8
0_00
  6
CONTINUOUS
 62
4
 10
2574.6600
 20
1040.1300
 11
2575.1019
 21
1040.1435
  0
LINE
  8
0_00
  6
CONTINUOUS
 62
4
 10
2575.1019
 20
1040.1435
 11
2575.5392
 21
1040.1605
  0
LINE
  8
0_00
  6
CONTINUOUS
 62
4
 10
2575.5392
 20
1040.1605
 11
2575.9717
 21
1040.1808
  0
LINE
  8
0_00
  6
CONTINUOUS
 62
4
 10
2575.9717
 20
1040.1808
 11
2576.4001
 21
1040.2035
  0
LINE
  8
0_00
  6
CONTINUOUS
 62
4
 10
2576.4001
 20
1040.2035
 11
2576.8240
 21
1040.2277
  0
LINE
  8
0_00
  6
CONTINUOUS
 62
4
 10
2576.8240
 20
1040.2277
 11
2577.2437
 21
1040.2532
  0
LINE
  8
0_00
  6
CONTINUOUS
 62
4
 10
2577.2437
 20
1040.2532
 11
2577.6596
 21
1040.2791
  0
LINE
  8
0_00
  6
CONTINUOUS
 62
4
 10
2577.6596
 20
1040.2791
 11
2578.0716
 21
1040.3049
  0
LINE
  8
0_00
  6
CONTINUOUS
 62
4
 10
2578.0716
 20
1040.3049
 11
2578.4802
 21
1040.3297
  0
LINE
  8
0_00
  6
CONTINUOUS
 62
4
 10
2578.4802
 20
1040.3297
 11
2578.8858
 21
1040.3529
  0
LINE
  8
0_00
  6
CONTINUOUS
 62
4
 10
2578.8858
 20
1040.3529
 11
2579.2880
 21
1040.3742
  0
LINE
  8
0_00
  6
CONTINUOUS
 62
4
 10
2579.2880
 20
1040.3742
 11
2579.6872
 21
1040.3926
  0
LINE
  8
0_00
  6
CONTINUOUS
 62
4
 10
2579.6872
 20
1040.3926
 11
2580.0836
 21
1040.4076
  0
LINE
  8
0_00
  6
CONTINUOUS
 62
4
 10
2580.0836
 20
1040.4076
 11
2580.4776
 21
1040.4186
  0
LINE
  8
0_00
  6
CONTINUOUS
 62
4
 10
2580.4776
 20
1040.4186
 11
2580.8694
 21
1040.4248
  0
LINE
  8
0_00
  6
CONTINUOUS
 62
4
 10
2580.8694
 20
1040.4248
 11
2581.2585
 21
1040.4256
  0
LINE
  8
0_00
  6
CONTINUOUS
 62
4
 10
2581.2585
 20
1040.4256
 11
2581.6461
 21
1040.4206
  0
LINE
  8
0_00
  6
CONTINUOUS
 62
4
 10
2581.6461
 20
1040.4206
 11
2582.0316
 21
1040.4087
  0
LINE
  8
0_00
  6
CONTINUOUS
 62
4
 10
2582.0316
 20
1040.4087
 11
2582.4155
 21
1040.3897
  0
LINE
  8
0_00
  6
CONTINUOUS
 62
4
 10
2582.4155
 20
1040.3897
 11
2582.7982
 21
1040.3625
  0
LINE
  8
0_00
  6
CONTINUOUS
 62
4
 10
2582.7982
 20
1040.3625
 11
2583.1793
 21
1040.3269
  0
LINE
  8
0_00
  6
CONTINUOUS
 62
4
 10
2583.1793
 20
1040.3269
 11
2583.5599
 21
1040.2821
  0
LINE
  8
0_00
  6
CONTINUOUS
 62
4
 10
2583.5599
 20
1040.2821
 11
2583.9392
 21
1040.2274
  0
LINE
  8
0_00
  6
CONTINUOUS
 62
4
 10
2583.9392
 20
1040.2274
 11
2584.3176
 21
1040.1620
  0
LINE
  8
0_00
  6
CONTINUOUS
 62
4
 10
2584.3176
 20
1040.1620
 11
2584.6960
 21
1040.0858
  0
LINE
  8
0_00
  6
CONTINUOUS
 62
4
 10
2584.6960
 20
1040.0858
 11
2585.0735
 21
1039.9995
  0
LINE
  8
0_00
  6
CONTINUOUS
 62
4
 10
2585.0735
 20
1039.9995
 11
2585.4507
 21
1039.9032
  0
LINE
  8
0_00
  6
CONTINUOUS
 62
4
 10
2585.4507
 20
1039.9032
 11
2585.8273
 21
1039.7985
  0
LINE
  8
0_00
  6
CONTINUOUS
 62
4
 10
2585.8273
 20
1039.7985
 11
2586.2030
 21
1039.6858
  0
LINE
  8
0_00
  6
CONTINUOUS
 62
4
 10
2586.2030
 20
1039.6858
 11
2586.5787
 21
1039.5660
  0
LINE
  8
0_00
  6
CONTINUOUS
 62
4
 10
2586.5787
 20
1039.5660
 11
2586.9534
 21
1039.4402
  0
LINE
  8
0_00
  6
CONTINUOUS
 62
4
 10
2586.9534
 20
1039.4402
 11
2587.3279
 21
1039.3087
  0
LINE
  8
0_00
  6
CONTINUOUS
 62
4
 10
2587.3279
 20
1039.3087
 11
2587.7011
 21
1039.1727
  0
LINE
  8
0_00
  6
CONTINUOUS
 62
4
 10
2587.7011
 20
1039.1727
 11
2588.0740
 21
1039.0330
  0
LINE
  8
0_00
  6
CONTINUOUS
 62
4
 10
2588.0740
 20
1039.0330
 11
2588.4464
 21
1038.8903
  0
LINE
  8
0_00
  6
CONTINUOUS
 62
4
 10
2588.4464
 20
1038.8903
 11
2588.8177
 21
1038.7456
  0
LINE
  8
0_00
  6
CONTINUOUS
 62
4
 10
2588.8177
 20
1038.7456
 11
2589.1885
 21
1038.5995
  0
LINE
  8
0_00
  6
CONTINUOUS
 62
4
 10
2589.1885
 20
1038.5995
 11
2589.5584
 21
1038.4528
  0
LINE
  8
0_00
  6
CONTINUOUS
 62
4
 10
2589.5584
 20
1038.4528
 11
2589.9280
 21
1038.3065
  0
LINE
  8
0_00
  6
CONTINUOUS
 62
4
 10
2589.9280
 20
1038.3065
 11
2590.2963
 21
1038.1614
  0
LINE
  8
0_00
  6
CONTINUOUS
 62
4
 10
2590.2963
 20
1038.1614
 11
2590.6641
 21
1038.0182
  0
LINE
  8
0_00
  6
CONTINUOUS
 62
4
 10
2590.6641
 20
1038.0182
 11
2591.0306
 21
1037.8779
  0
LINE
  8
0_00
  6
CONTINUOUS
 62
4
 10
2591.0306
 20
1037.8779
 11
2591.3968
 21
1037.7412
  0
LINE
  8
0_00
  6
CONTINUOUS
 62
4
 10
2591.3968
 20
1037.7412
 11
2591.7618
 21
1037.6088
  0
LINE
  8
0_00
  6
CONTINUOUS
 62
4
 10
2591.7618
 20
1037.6088
 11
2592.1259
 21
1037.4819
  0
LINE
  8
0_00
  6
CONTINUOUS
 62
4
 10
2592.1259
 20
1037.4819
 11
2592.4890
 21
1037.3609
  0
LINE
  8
0_00
  6
CONTINUOUS
 62
4
 10
2592.4890
 20
1037.3609
 11
2592.8513
 21
1037.2469
  0
LINE
  8
0_00
  6
CONTINUOUS
 62
4
 10
2592.8513
 20
1037.2469
 11
2593.2126
 21
1037.1407
  0
LINE
  8
0_00
  6
CONTINUOUS
 62
4
 10
2593.2126
 20
1037.1407
 11
2593.5730
 21
1037.0429
  0
LINE
  8
0_00
  6
CONTINUOUS
 62
4
 10
2593.5730
 20
1037.0429
 11
2593.9325
 21
1036.9545
  0
LINE
  8
0_00
  6
CONTINUOUS
 62
4
 10
2593.9325
 20
1036.9545
 11
2594.2911
 21
1036.8764
  0
LINE
  8
0_00
  6
CONTINUOUS
 62
4
 10
2594.2911
 20
1036.8764
 11
2594.6481
 21
1036.8093
  0
LINE
  8
0_00
  6
CONTINUOUS
 62
4
 10
2594.6481
 20
1036.8093
 11
2595.0049
 21
1036.7541
  0
LINE
  8
0_00
  6
CONTINUOUS
 62
4
 10
2595.0049
 20
1036.7541
 11
2595.3598
 21
1036.7115
  0
LINE
  8
0_00
  6
CONTINUOUS
 62
4
 10
2595.3598
 20
1036.7115
 11
2595.7141
 21
1036.6821
  0
LINE
  8
0_00
  6
CONTINUOUS
 62
4
 10
2595.7141
 20
1036.6821
 11
2596.0669
 21
1036.6657
  0
LINE
  8
0_00
  6
CONTINUOUS
 62
4
 10
2596.0669
 20
1036.6657
 11
2596.4178
 21
1036.6615
  0
LINE
  8
0_00
  6
CONTINUOUS
 62
4
 10
2596.4178
 20
1036.6615
 11
2596.7670
 21
1036.6692
  0
LINE
  8
0_00
  6
CONTINUOUS
 62
4
 10
2596.7670
 20
1036.6692
 11
2597.1140
 21
1036.6882
  0
LINE
  8
0_00
  6
CONTINUOUS
 62
4
 10
2597.1140
 20
1036.6882
 11
2597.4588
 21
1036.7178
  0
LINE
  8
0_00
  6
CONTINUOUS
 62
4
 10
2597.4588
 20
1036.7178
 11
2597.8009
 21
1036.7573
  0
LINE
  8
0_00
  6
CONTINUOUS
 62
4
 10
2597.8009
 20
1036.7573
 11
2598.1400
 21
1036.8063
  0
LINE
  8
0_00
  6
CONTINUOUS
 62
4
 10
2598.1400
 20
1036.8063
 11
2598.4760
 21
1036.8642
  0
LINE
  8
0_00
  6
CONTINUOUS
 62
4
 10
2598.4760
 20
1036.8642
 11
2598.8086
 21
1036.9306
  0
LINE
  8
0_00
  6
CONTINUOUS
 62
4
 10
2598.8086
 20
1036.9306
 11
2599.1373
 21
1037.0045
  0
LINE
  8
0_00
  6
CONTINUOUS
 62
4
 10
2599.1373
 20
1037.0045
 11
2599.4620
 21
1037.0859
  0
LINE
  8
0_00
  6
CONTINUOUS
 62
4
 10
2599.4620
 20
1037.0859
 11
2599.7827
 21
1037.1738
  0
LINE
  8
0_00
  6
CONTINUOUS
 62
4
 10
2599.7827
 20
1037.1738
 11
2600.0986
 21
1037.2678
  0
LINE
  8
0_00
  6
CONTINUOUS
 62
4
 10
2600.0986
 20
1037.2678
 11
2600.4099
 21
1037.3672
  0
LINE
  8
0_00
  6
CONTINUOUS
 62
4
 10
2600.4099
 20
1037.3672
 11
2600.7166
 21
1037.4715
  0
LINE
  8
0_00
  6
CONTINUOUS
 62
4
 10
2600.7166
 20
1037.4715
 11
2601.0175
 21
1037.5801
  0
LINE
  8
0_00
  6
CONTINUOUS
 62
4
 10
2601.0175
 20
1037.5801
 11
2601.3129
 21
1037.6926
  0
LINE
  8
0_00
  6
CONTINUOUS
 62
4
 10
2601.3129
 20
1037.6926
 11
2601.6025
 21
1037.8082
  0
LINE
  8
0_00
  6
CONTINUOUS
 62
4
 10
2601.6025
 20
1037.8082
 11
2601.8863
 21
1037.9264
  0
LINE
  8
0_00
  6
CONTINUOUS
 62
4
 10
2601.8863
 20
1037.9264
 11
2602.1634
 21
1038.0466
  0
LINE
  8
0_00
  6
CONTINUOUS
 62
4
 10
2602.1634
 20
1038.0466
 11
2602.4341
 21
1038.1684
  0
LINE
  8
0_00
  6
CONTINUOUS
 62
4
 10
2602.4341
 20
1038.1684
 11
2602.6981
 21
1038.2910
  0
LINE
  8
0_00
  6
CONTINUOUS
 62
4
 10
2602.6981
 20
1038.2910
 11
2602.9547
 21
1038.4142
  0
LINE
  8
0_00
  6
CONTINUOUS
 62
4
 10
2602.9547
 20
1038.4142
 11
2603.2043
 21
1038.5368
  0
LINE
  8
0_00
  6
CONTINUOUS
 62
4
 10
2603.2043
 20
1038.5368
 11
2603.4464
 21
1038.6587
  0
LINE
  8
0_00
  6
CONTINUOUS
 62
4
 10
2603.4464
 20
1038.6587
 11
2603.6801
 21
1038.7794
  0
LINE
  8
0_00
  6
CONTINUOUS
 62
4
 10
2603.6801
 20
1038.7794
 11
2603.9053
 21
1038.8979
  0
LINE
  8
0_00
  6
CONTINUOUS
 62
4
 10
2603.9053
 20
1038.8979
 11
2604.1229
 21
1039.0141
  0
LINE
  8
0_00
  6
CONTINUOUS
 62
4
 10
2604.1229
 20
1039.0141
 11
2604.3317
 21
1039.1269
  0
LINE
  8
0_00
  6
CONTINUOUS
 62
4
 10
2604.3317
 20
1039.1269
 11
2604.5312
 21
1039.2362
  0
LINE
  8
0_00
  6
CONTINUOUS
 62
4
 10
2604.5312
 20
1039.2362
 11
2604.7226
 21
1039.3423
  0
LINE
  8
0_00
  6
CONTINUOUS
 62
4
 10
2604.7226
 20
1039.3423
 11
2604.9051
 21
1039.4446
  0
LINE
  8
0_00
  6
CONTINUOUS
 62
4
 10
2604.9051
 20
1039.4446
 11
2605.0800
 21
1039.5437
  0
LINE
  8
0_00
  6
CONTINUOUS
 62
4
 10
2605.0800
 20
1039.5437
 11
2605.2469
 21
1039.6396
  0
LINE
  8
0_00
  6
CONTINUOUS
 62
4
 10
2605.2469
 20
1039.6396
 11
2605.4068
 21
1039.7325
  0
LINE
  8
0_00
  6
CONTINUOUS
 62
4
 10
2605.4068
 20
1039.7325
 11
2605.5588
 21
1039.8224
  0
LINE
  8
0_00
  6
CONTINUOUS
 62
4
 10
2605.5588
 20
1039.8224
 11
2605.7043
 21
1039.9097
  0
LINE
  8
0_00
  6
CONTINUOUS
 62
4
 10
2605.7043
 20
1039.9097
 11
2605.8435
 21
1039.9939
  0
LINE
  8
0_00
  6
CONTINUOUS
 62
4
 10
2605.8435
 20
1039.9939
 11
2605.9760
 21
1040.0759
  0
LINE
  8
0_00
  6
CONTINUOUS
 62
4
 10
2605.9760
 20
1040.0759
 11
2606.1026
 21
1040.1553
  0
LINE
  8
0_00
  6
CONTINUOUS
 62
4
 10
2606.1026
 20
1040.1553
 11
2606.2241
 21
1040.2322
  0
LINE
  8
0_00
  6
CONTINUOUS
 62
4
 10
2606.2241
 20
1040.2322
 11
2606.3397
 21
1040.3070
  0
LINE
  8
0_00
  6
CONTINUOUS
 62
4
 10
2606.3397
 20
1040.3070
 11
2606.4505
 21
1040.3799
  0
LINE
  8
0_00
  6
CONTINUOUS
 62
4
 10
2606.4505
 20
1040.3799
 11
2606.5564
 21
1040.4508
  0
LINE
  8
0_00
  6
CONTINUOUS
 62
4
 10
2606.5564
 20
1040.4508
 11
2606.6577
 21
1040.5197
  0
LINE
  8
0_00
  6
CONTINUOUS
 62
4
 10
2606.6577
 20
1040.5197
 11
2606.7551
 21
1040.5870
  0
LINE
  8
0_00
  6
CONTINUOUS
 62
4
 10
2606.7551
 20
1040.5870
 11
2606.8484
 21
1040.6527
  0
LINE
  8
0_00
  6
CONTINUOUS
 62
4
 10
2606.8484
 20
1040.6527
 11
2606.9385
 21
1040.7169
  0
LINE
  8
0_00
  6
CONTINUOUS
 62
4
 10
2606.9385
 20
1040.7169
 11
2607.0248
 21
1040.7798
  0
LINE
  8
0_00
  6
CONTINUOUS
 62
4
 10
2607.0248
 20
1040.7798
 11
2607.1085
 21
1040.8414
  0
LINE
  8
0_00
  6
CONTINUOUS
 62
4
 10
2607.1085
 20
1040.8414
 11
2607.1893
 21
1040.9019
  0
LINE
  8
0_00
  6
CONTINUOUS
 62
4
 10
2607.1893
 20
1040.9019
 11
2607.2678
 21
1040.9615
  0
LINE
  8
0_00
  6
CONTINUOUS
 62
4
 10
2607.2678
 20
1040.9615
 11
2607.3441
 21
1041.0201
  0
LINE
  8
0_00
  6
CONTINUOUS
 62
4
 10
2607.3441
 20
1041.0201
 11
2607.4188
 21
1041.0780
  0
LINE
  8
0_00
  6
CONTINUOUS
 62
4
 10
2607.4188
 20
1041.0780
 11
2607.4918
 21
1041.1355
  0
LINE
  8
0_00
  6
CONTINUOUS
 62
4
 10
2607.4918
 20
1041.1355
 11
2607.5638
 21
1041.1924
  0
LINE
  8
0_00
  6
CONTINUOUS
 62
4
 10
2607.5638
 20
1041.1924
 11
2607.6349
 21
1041.2488
  0
LINE
  8
0_00
  6
CONTINUOUS
 62
4
 10
2607.6349
 20
1041.2488
 11
2607.7051
 21
1041.3051
  0
LINE
  8
0_00
  6
CONTINUOUS
 62
4
 10
2607.7051
 20
1041.3051
 11
2607.7753
 21
1041.3612
  0
LINE
  8
0_00
  6
CONTINUOUS
 62
6
 10
3277.7753
 20
1349.5953
 11
3335.8408
 21
1249.0229
  0
LINE
  8
0_00
  6
CONTINUOUS
 62
6
 10
3277.7753
 20
1349.5953
 11
3285.5008
 21
1325.8188
  0
LINE
  8
0_00
  6
CONTINUOUS
 62
6
 10
3277.7753
 20
1349.5953
 11
3294.5035
 21
1331.0167
  0
LINE
  8
0_00
  6
CONTINUOUS
 62
6
 10
3335.8408
 20
1249.0229
 11
3557.8406
 21
1249.0229
  0
LINE
  8
0_00
  6
CONTINUOUS
 62
6
 10
2649.7238
 20
1540.9685
 11
2692.2003
 21
1614.5395
  0
LINE
  8
0_00
  6
CONTINUOUS
 62
6
 10
2649.7238
 20
1540.9685
 11
2666.4526
 21
1559.5470
  0
LINE
  8
0_00
  6
CONTINUOUS
 62
6
 10
2649.7238
 20
1540.9685
 11
2657.4493
 21
1564.7447
  0
LINE
  8
0_00
  6
CONTINUOUS
 62
6
 10
2692.2003
 20
1614.5395
 11
2938.2001
 21
1614.5395
  0
LINE
  8
0_00
  6
CONTINUOUS
 62
6
 10
2559.4077
 20
1482.9684
 11
2483.4448
 21
1614.5395
  0
LINE
  8
0_00
  6
CONTINUOUS
 62
6
 10
2559.4077
 20
1482.9684
 11
2551.6821
 21
1506.7448
  0
LINE
  8
0_00
  6
CONTINUOUS
 62
6
 10
2559.4077
 20
1482.9684
 11
2542.6793
 21
1501.5469
  0
LINE
  8
0_00
  6
CONTINUOUS
 62
6
 10
2483.4448
 20
1614.5395
 11
2164.1368
 21
1614.5395
  0
LINE
  8
0_00
  6
CENTER1
 62
6
 10
2462.6065
 20
702.4685
 11
2701.0574
 21
702.4685
  0
LINE
  8
0_00
  6
CONTINUOUS
 62
6
 10
977.0490
 20
1192.4684
 11
1006.5714
 21
1243.6028
  0
LINE
  8
0_00
  6
CONTINUOUS
 62
6
 10
977.0490
 20
1192.4684
 11
993.7772
 21
1211.0471
  0
LINE
  8
0_00
  6
CONTINUOUS
 62
6
 10
977.0490
 20
1192.4684
 11
984.7743
 21
1216.2448
  0
LINE
  8
0_00
  6
CONTINUOUS
 62
6
 10
1006.5714
 20
1243.6028
 11
1300.5713
 21
1243.6028
  0
LINE
  8
0_00
  6
CONTINUOUS
 62
4
 10
2487.7753
 20
1572.4413
 11
3260.2753
 21
1572.4413
  0
LINE
  8
0_00
  6
CONTINUOUS
 62
4
 10
3295.2750
 20
1572.4413
 11
3833.2141
 21
1572.4413
  0
LINE
  8
0_00
  6
CONTINUOUS
 62
4
 10
3833.2141
 20
1332.4939
 11
3295.2750
 21
1332.4939
  0
LINE
  8
0_00
  6
CONTINUOUS
 62
4
 10
3260.2753
 20
1332.4939
 11
2667.7753
 21
1332.4939
  0
LINE
  8
0_00
  6
CONTINUOUS
 62
4
 10
2487.7753
 20
1572.4413
 11
2554.4916
 21
1483.5057
  0
LINE
  8
0_00
  6
CONTINUOUS
 62
4
 10
2607.7753
 20
1412.4762
 11
2667.7753
 21
1332.4939
  0
LINE
  8
0_00
  6
CONTINUOUS
 62
6
 10
2667.7753
 20
1273.5493
 11
2727.6288
 21
1169.8800
  0
LINE
  8
0_00
  6
CONTINUOUS
 62
6
 10
2667.7753
 20
1273.5493
 11
2675.5008
 21
1249.7727
  0
LINE
  8
0_00
  6
CONTINUOUS
 62
6
 10
2667.7753
 20
1273.5493
 11
2684.5038
 21
1254.9706
  0
LINE
  8
0_00
  6
CONTINUOUS
 62
6
 10
2727.6288
 20
1169.8800
 11
3093.6288
 21
1169.8800
  0
LINE
  8
0_00
  6
CONTINUOUS
 62
4
 10
292.0784
 20
1404.9002
 11
396.0783
 21
1404.9002
  0
LINE
  8
0_00
  6
CONTINUOUS
 62
4
 10
396.0783
 20
1404.9002
 11
396.0783
 21
1452.9002
  0
LINE
  8
0_00
  6
CONTINUOUS
 62
4
 10
292.0784
 20
1452.9002
 11
396.0783
 21
1452.9002
  0
LINE
  8
0_00
  6
CONTINUOUS
 62
4
 10
292.0784
 20
1404.9002
 11
292.0784
 21
1452.9002
  0
LINE
  8
0_00
  6
CONTINUOUS
 62
4
 10
857.5688
 20
796.0103
 11
961.5688
 21
796.0103
  0
LINE
  8
0_00
  6
CONTINUOUS
 62
4
 10
961.5688
 20
796.0103
 11
961.5688
 21
844.0103
  0
LINE
  8
0_00
  6
CONTINUOUS
 62
4
 10
857.5688
 20
844.0103
 11
961.5688
 21
844.0103
  0
LINE
  8
0_00
  6
CONTINUOUS
 62
4
 10
857.5688
 20
796.0103
 11
857.5688
 21
844.0103
  0
LINE
  8
0_00
  6
CONTINUOUS
 62
4
 10
2817.0520
 20
1076.4040
 11
2921.0519
 21
1076.4040
  0
LINE
  8
0_00
  6
CONTINUOUS
 62
4
 10
2921.0519
 20
1076.4040
 11
2921.0519
 21
1124.4041
  0
LINE
  8
0_00
  6
CONTINUOUS
 62
4
 10
2817.0520
 20
1124.4041
 11
2921.0519
 21
1124.4041
  0
LINE
  8
0_00
  6
CONTINUOUS
 62
4
 10
2817.0520
 20
1076.4040
 11
2817.0520
 21
1124.4041
  0
LINE
  8
0_00
  6
CONTINUOUS
 62
4
 10
2231.7793
 20
1754.9001
 11
2335.7793
 21
1754.9001
  0
LINE
  8
0_00
  6
CONTINUOUS
 62
4
 10
2335.7793
 20
1754.9001
 11
2335.7793
 21
1802.9001
  0
LINE
  8
0_00
  6
CONTINUOUS
 62
4
 10
2231.7793
 20
1802.9001
 11
2335.7793
 21
1802.9001
  0
LINE
  8
0_00
  6
CONTINUOUS
 62
4
 10
2231.7793
 20
1754.9001
 11
2231.7793
 21
1802.9001
  0
LINE
  8
0_00
  6
CONTINUOUS
 62
3
 10
1824.7032
 20
324.0002
 11
1824.7032
 21
124.0001
  0
LINE
  8
0_00
  6
CONTINUOUS
 62
7
 10
182.3016
 20
374.0002
 11
4061.7035
 21
374.0002
  0
LINE
  8
0_00
  6
CONTINUOUS
 62
3
 10
4061.7035
 20
2838.9999
 11
4061.7035
 21
2883.9999
  0
LINE
  8
0_00
  6
CONTINUOUS
 62
7
 10
4061.7035
 20
124.0001
 11
4061.7035
 21
2838.9999
  0
LINE
  8
0_00
  6
CONTINUOUS
 62
3
 10
182.3016
 20
2838.9999
 11
182.3016
 21
2883.9999
  0
LINE
  8
0_00
  6
CONTINUOUS
 62
7
 10
182.3016
 20
124.0001
 11
182.3016
 21
2838.9999
  0
LINE
  8
0_00
  6
CONTINUOUS
 62
7
 10
182.3016
 20
2838.9999
 11
4061.7035
 21
2838.9999
  0
LINE
  8
0_00
  6
CONTINUOUS
 62
7
 10
182.3016
 20
124.0001
 11
4061.7035
 21
124.0001
  0
LINE
  8
0_00
  6
CONTINUOUS
 62
3
 10
132.3016
 20
74.0001
 11
132.3016
 21
2883.9999
  0
LINE
  8
0_00
  6
CONTINUOUS
 62
3
 10
4111.7032
 20
74.0001
 11
4111.7032
 21
2883.9999
  0
LINE
  8
0_00
  6
CONTINUOUS
 62
3
 10
132.3016
 20
2883.9999
 11
4111.7032
 21
2883.9999
  0
LINE
  8
0_00
  6
CONTINUOUS
 62
3
 10
3568.7033
 20
124.0001
 11
3568.7033
 21
374.0002
  0
LINE
  8
0_00
  6
CONTINUOUS
 62
3
 10
182.3016
 20
324.0002
 11
2709.2035
 21
324.0002
  0
LINE
  8
0_00
  6
CONTINUOUS
 62
7
 10
2709.2035
 20
324.0002
 11
4061.7035
 21
324.0002
  0
LINE
  8
0_00
  6
CONTINUOUS
 62
3
 10
3568.7033
 20
224.0001
 11
4061.7035
 21
224.0001
  0
LINE
  8
0_00
  6
CONTINUOUS
 62
3
 10
3668.7033
 20
374.0002
 11
3668.7033
 21
324.0002
  0
LINE
  8
0_00
  6
CONTINUOUS
 62
3
 10
2709.2035
 20
124.0001
 11
2709.2035
 21
324.0002
  0
LINE
  8
0_00
  6
CONTINUOUS
 62
7
 10
2709.2035
 20
324.0002
 11
2709.2035
 21
374.0002
  0
LINE
  8
0_00
  6
CONTINUOUS
 62
3
 10
2789.2035
 20
324.0002
 11
2789.2035
 21
374.0002
  0
LINE
  8
0_00
  6
CONTINUOUS
 62
3
 10
3041.7035
 20
124.0001
 11
3041.7035
 21
374.0002
  0
LINE
  8
0_00
  6
CONTINUOUS
 62
3
 10
3348.7033
 20
324.0002
 11
3348.7033
 21
374.0002
  0
LINE
  8
0_00
  6
CONTINUOUS
 62
3
 10
3440.7034
 20
124.0001
 11
3440.7034
 21
324.0002
  0
LINE
  8
0_00
  6
CONTINUOUS
 62
3
 10
3319.7031
 20
124.0001
 11
3319.7031
 21
324.0002
  0
LINE
  8
0_00
  6
CONTINUOUS
 62
3
 10
3198.7030
 20
124.0001
 11
3198.7030
 21
324.0002
  0
LINE
  8
0_00
  6
CONTINUOUS
 62
3
 10
1562.2032
 20
124.0001
 11
1562.2032
 21
374.0002
  0
LINE
  8
0_00
  6
CONTINUOUS
 62
3
 10
2087.2031
 20
124.0001
 11
2087.2031
 21
324.0002
  0
LINE
  8
0_00
  6
CONTINUOUS
 62
3
 10
182.3016
 20
274.0002
 11
1562.2032
 21
274.0002
  0
LINE
  8
0_00
  6
CONTINUOUS
 62
3
 10
182.3016
 20
224.0001
 11
3041.7035
 21
224.0001
  0
LINE
  8
0_00
  6
CONTINUOUS
 62
3
 10
582.3016
 20
174.0001
 11
1562.2032
 21
174.0001
  0
LINE
  8
0_00
  6
CONTINUOUS
 62
7
 10
182.3016
 20
174.0001
 11
582.3016
 21
174.0001
  0
LINE
  8
0_00
  6
CONTINUOUS
 62
3
 10
2726.7035
 20
2838.9999
 11
2726.7035
 21
2883.9999
  0
LINE
  8
0_00
  6
CONTINUOUS
 62
3
 10
2626.7035
 20
2838.9999
 11
2626.7035
 21
2883.9999
  0
LINE
  8
0_00
  6
CONTINUOUS
 62
3
 10
682.3016
 20
2838.9999
 11
682.3016
 21
2883.9999
  0
LINE
  8
0_00
  6
CONTINUOUS
 62
3
 10
2846.7032
 20
2838.9999
 11
2846.7032
 21
2883.9999
  0
LINE
  8
0_00
  6
CONTINUOUS
 62
3
 10
3051.7035
 20
2838.9999
 11
3051.7035
 21
2883.9999
  0
LINE
  8
0_00
  6
CONTINUOUS
 62
3
 10
3821.7032
 20
2838.9999
 11
3821.7032
 21
2883.9999
  0
LINE
  8
0_00
  6
CONTINUOUS
 62
3
 10
382.3016
 20
374.0002
 11
382.3016
 21
124.0001
  0
LINE
  8
0_00
  6
CONTINUOUS
 62
7
 10
582.3016
 20
374.0002
 11
582.3016
 21
124.0001
  0
LINE
  8
0_00
  6
CONTINUOUS
 62
3
 10
2899.2035
 20
224.0001
 11
2899.2035
 21
324.0002
  0
LINE
  8
0_00
  6
CONTINUOUS
 62
3
 10
2979.2035
 20
374.0002
 11
2979.2035
 21
324.0002
  0
LINE
  8
0_00
  6
CONTINUOUS
 62
3
 10
3041.7035
 20
274.0002
 11
3568.7033
 21
274.0002
  0
LINE
  8
0_00
  6
CONTINUOUS
 62
3
 10
3588.7033
 20
239.0001
 11
3595.2029
 21
239.0001
  0
LINE
  8
0_00
  6
CONTINUOUS
 62
3
 10
3595.2029
 20
239.0001
 11
3595.2029
 21
304.0001
  0
LINE
  8
0_00
  6
CONTINUOUS
 62
3
 10
3595.2029
 20
304.0001
 11
3588.7033
 21
304.0001
  0
LINE
  8
0_00
  6
CONTINUOUS
 62
3
 10
3588.7033
 20
239.0001
 11
3588.7033
 21
304.0001
  0
LINE
  8
0_00
  6
CONTINUOUS
 62
3
 10
3597.8030
 20
239.0001
 11
3604.3033
 21
239.0001
  0
LINE
  8
0_00
  6
CONTINUOUS
 62
3
 10
3604.3033
 20
239.0001
 11
3604.3033
 21
304.0001
  0
LINE
  8
0_00
  6
CONTINUOUS
 62
3
 10
3604.3033
 20
304.0001
 11
3597.8030
 21
304.0001
  0
LINE
  8
0_00
  6
CONTINUOUS
 62
3
 10
3597.8030
 20
239.0001
 11
3597.8030
 21
304.0001
  0
LINE
  8
0_00
  6
CONTINUOUS
 62
3
 10
3606.9034
 20
239.0001
 11
3613.4030
 21
239.0001
  0
LINE
  8
0_00
  6
CONTINUOUS
 62
3
 10
3613.4030
 20
239.0001
 11
3613.4030
 21
304.0001
  0
LINE
  8
0_00
  6
CONTINUOUS
 62
3
 10
3613.4030
 20
304.0001
 11
3606.9034
 21
304.0001
  0
LINE
  8
0_00
  6
CONTINUOUS
 62
3
 10
3606.9034
 20
239.0001
 11
3606.9034
 21
304.0001
  0
LINE
  8
0_00
  6
CONTINUOUS
 62
3
 10
3616.0031
 20
239.0001
 11
3622.5031
 21
239.0001
  0
LINE
  8
0_00
  6
CONTINUOUS
 62
3
 10
3622.5031
 20
304.0001
 11
3616.0031
 21
304.0001
  0
LINE
  8
0_00
  6
CONTINUOUS
 62
3
 10
3616.0031
 20
239.0001
 11
3616.0031
 21
304.0001
  0
LINE
  8
0_00
  6
CONTINUOUS
 62
3
 10
3641.3535
 20
239.0001
 11
3666.7032
 21
239.0001
  0
LINE
  8
0_00
  6
CONTINUOUS
 62
3
 10
3666.7032
 20
239.0001
 11
3666.7032
 21
244.8501
  0
LINE
  8
0_00
  6
CONTINUOUS
 62
3
 10
3666.7032
 20
244.8501
 11
3641.3535
 21
244.8501
  0
LINE
  8
0_00
  6
CONTINUOUS
 62
3
 10
3641.3535
 20
244.8501
 11
3641.3535
 21
239.0001
  0
LINE
  8
0_00
  6
CONTINUOUS
 62
3
 10
3641.3535
 20
247.4502
 11
3666.7032
 21
247.4502
  0
LINE
  8
0_00
  6
CONTINUOUS
 62
3
 10
3666.7032
 20
247.4502
 11
3666.7032
 21
253.3000
  0
LINE
  8
0_00
  6
CONTINUOUS
 62
3
 10
3666.7032
 20
253.3000
 11
3641.3535
 21
253.3000
  0
LINE
  8
0_00
  6
CONTINUOUS
 62
3
 10
3641.3535
 20
253.3000
 11
3641.3535
 21
247.4502
  0
LINE
  8
0_00
  6
CONTINUOUS
 62
3
 10
3641.3535
 20
255.9001
 11
3666.7032
 21
255.9001
  0
LINE
  8
0_00
  6
CONTINUOUS
 62
3
 10
3666.7032
 20
255.9001
 11
3666.7032
 21
261.7501
  0
LINE
  8
0_00
  6
CONTINUOUS
 62
3
 10
3666.7032
 20
261.7501
 11
3641.3535
 21
261.7501
  0
LINE
  8
0_00
  6
CONTINUOUS
 62
3
 10
3641.3535
 20
261.7501
 11
3641.3535
 21
255.9001
  0
LINE
  8
0_00
  6
CONTINUOUS
 62
3
 10
3641.3535
 20
264.3502
 11
3666.7032
 21
264.3502
  0
LINE
  8
0_00
  6
CONTINUOUS
 62
3
 10
3666.7032
 20
264.3502
 11
3666.7032
 21
270.2000
  0
LINE
  8
0_00
  6
CONTINUOUS
 62
3
 10
3666.7032
 20
270.2000
 11
3641.3535
 21
270.2000
  0
LINE
  8
0_00
  6
CONTINUOUS
 62
3
 10
3641.3535
 20
270.2000
 11
3641.3535
 21
264.3502
  0
LINE
  8
0_00
  6
CONTINUOUS
 62
3
 10
3641.3535
 20
272.8001
 11
3666.7032
 21
272.8001
  0
LINE
  8
0_00
  6
CONTINUOUS
 62
3
 10
3666.7032
 20
272.8001
 11
3666.7032
 21
278.6501
  0
LINE
  8
0_00
  6
CONTINUOUS
 62
3
 10
3666.7032
 20
278.6501
 11
3641.3535
 21
278.6501
  0
LINE
  8
0_00
  6
CONTINUOUS
 62
3
 10
3641.3535
 20
278.6501
 11
3641.3535
 21
272.8001
  0
LINE
  8
0_00
  6
CONTINUOUS
 62
3
 10
3641.3535
 20
281.2502
 11
3666.7032
 21
281.2502
  0
LINE
  8
0_00
  6
CONTINUOUS
 62
3
 10
3666.7032
 20
281.2502
 11
3666.7032
 21
287.1001
  0
LINE
  8
0_00
  6
CONTINUOUS
 62
3
 10
3666.7032
 20
287.1001
 11
3641.3535
 21
287.1001
  0
LINE
  8
0_00
  6
CONTINUOUS
 62
3
 10
3641.3535
 20
287.1001
 11
3641.3535
 21
281.2502
  0
LINE
  8
0_00
  6
CONTINUOUS
 62
3
 10
3641.3535
 20
289.7002
 11
3666.7032
 21
289.7002
  0
LINE
  8
0_00
  6
CONTINUOUS
 62
3
 10
3666.7032
 20
289.7002
 11
3666.7032
 21
295.5502
  0
LINE
  8
0_00
  6
CONTINUOUS
 62
3
 10
3666.7032
 20
295.5502
 11
3641.3535
 21
295.5502
  0
LINE
  8
0_00
  6
CONTINUOUS
 62
3
 10
3641.3535
 20
295.5502
 11
3641.3535
 21
289.7002
  0
LINE
  8
0_00
  6
CONTINUOUS
 62
3
 10
3641.3535
 20
298.1503
 11
3666.7032
 21
298.1503
  0
LINE
  8
0_00
  6
CONTINUOUS
 62
3
 10
3666.7032
 20
298.1503
 11
3666.7032
 21
304.0001
  0
LINE
  8
0_00
  6
CONTINUOUS
 62
3
 10
3666.7032
 20
304.0001
 11
3641.3535
 21
304.0001
  0
LINE
  8
0_00
  6
CONTINUOUS
 62
3
 10
3641.3535
 20
304.0001
 11
3641.3535
 21
298.1503
  0
LINE
  8
0_00
  6
CONTINUOUS
 62
3
 10
3625.1031
 20
239.0001
 11
3625.1031
 21
256.8752
  0
LINE
  8
0_00
  6
CONTINUOUS
 62
3
 10
3629.4583
 20
242.5749
 11
3629.4583
 21
256.8752
  0
LINE
  8
0_00
  6
CONTINUOUS
 62
3
 10
3625.1031
 20
239.0001
 11
3632.2531
 21
239.0001
  0
LINE
  8
0_00
  6
CONTINUOUS
 62
3
 10
3629.4583
 20
242.5749
 11
3632.2531
 21
242.5749
  0
LINE
  8
0_00
  6
CONTINUOUS
 62
3
 10
3632.0166
 20
266.0185
 11
3634.8532
 21
260.4502
  0
LINE
  8
0_00
  6
CONTINUOUS
 62
3
 10
3636.4697
 20
275.1509
 11
3632.0157
 21
266.0183
  0
LINE
  8
0_00
  6
CONTINUOUS
 62
3
 10
3622.5031
 20
284.5003
 11
3622.5031
 21
304.0001
  0
LINE
  8
0_00
  6
CONTINUOUS
 62
3
 10
3622.5031
 20
284.5003
 11
3630.6284
 21
284.5003
  0
LINE
  8
0_00
  6
CONTINUOUS
 62
3
 10
3622.5031
 20
280.6002
 11
3626.1105
 21
280.6002
  0
LINE
  8
0_00
  6
CONTINUOUS
 62
3
 10
3622.5031
 20
260.4502
 11
3634.8532
 21
260.4502
  0
LINE
  8
0_00
  6
CONTINUOUS
 62
3
 10
3622.5031
 20
273.2036
 11
3626.1111
 21
280.6003
  0
LINE
  8
0_00
  6
CONTINUOUS
 62
3
 10
3622.5031
 20
273.2042
 11
3622.5031
 21
280.6002
  0
LINE
  8
0_00
  6
CONTINUOUS
 62
3
 10
3622.5031
 20
260.4502
 11
3622.5031
 21
239.0001
  0
LINE
  8
0_00
  6
CONTINUOUS
 62
3
 10
3589.7031
 20
304.0001
 11
3589.7031
 21
239.0001
  0
LINE
  8
0_00
  6
CONTINUOUS
 62
3
 10
3590.7034
 20
304.0001
 11
3590.7034
 21
239.0001
  0
LINE
  8
0_00
  6
CONTINUOUS
 62
3
 10
3591.7032
 20
304.0001
 11
3591.7032
 21
239.0001
  0
LINE
  8
0_00
  6
CONTINUOUS
 62
3
 10
3592.7029
 20
304.0001
 11
3592.7029
 21
239.0001
  0
LINE
  8
0_00
  6
CONTINUOUS
 62
3
 10
3593.7033
 20
304.0001
 11
3593.7033
 21
239.0001
  0
LINE
  8
0_00
  6
CONTINUOUS
 62
3
 10
3598.8037
 20
304.0001
 11
3598.8037
 21
239.0001
  0
LINE
  8
0_00
  6
CONTINUOUS
 62
3
 10
3599.8032
 20
304.0001
 11
3599.8032
 21
239.0001
  0
LINE
  8
0_00
  6
CONTINUOUS
 62
3
 10
3600.8029
 20
304.0001
 11
3600.8029
 21
239.0001
  0
LINE
  8
0_00
  6
CONTINUOUS
 62
3
 10
3601.8033
 20
304.0001
 11
3601.8033
 21
239.0001
  0
LINE
  8
0_00
  6
CONTINUOUS
 62
3
 10
3602.8030
 20
304.0001
 11
3602.8030
 21
239.0001
  0
LINE
  8
0_00
  6
CONTINUOUS
 62
3
 10
3603.8037
 20
304.0001
 11
3603.8037
 21
239.0001
  0
LINE
  8
0_00
  6
CONTINUOUS
 62
3
 10
3607.9031
 20
304.0001
 11
3607.9031
 21
239.0001
  0
LINE
  8
0_00
  6
CONTINUOUS
 62
3
 10
3608.9035
 20
304.0001
 11
3608.9035
 21
239.0001
  0
LINE
  8
0_00
  6
CONTINUOUS
 62
3
 10
3609.9030
 20
304.0001
 11
3609.9030
 21
239.0001
  0
LINE
  8
0_00
  6
CONTINUOUS
 62
3
 10
3610.9030
 20
304.0001
 11
3610.9030
 21
239.0001
  0
LINE
  8
0_00
  6
CONTINUOUS
 62
3
 10
3611.9034
 20
304.0001
 11
3611.9034
 21
239.0001
  0
LINE
  8
0_00
  6
CONTINUOUS
 62
3
 10
3612.9031
 20
304.0001
 11
3612.9031
 21
239.0001
  0
LINE
  8
0_00
  6
CONTINUOUS
 62
3
 10
3641.3535
 20
240.0002
 11
3666.7032
 21
240.0002
  0
LINE
  8
0_00
  6
CONTINUOUS
 62
3
 10
3641.3535
 20
241.0002
 11
3666.7032
 21
241.0002
  0
LINE
  8
0_00
  6
CONTINUOUS
 62
3
 10
3641.3535
 20
242.0000
 11
3666.7032
 21
242.0000
  0
LINE
  8
0_00
  6
CONTINUOUS
 62
3
 10
3641.3535
 20
243.0001
 11
3666.7032
 21
243.0001
  0
LINE
  8
0_00
  6
CONTINUOUS
 62
3
 10
3641.3535
 20
244.0001
 11
3666.7032
 21
244.0001
  0
LINE
  8
0_00
  6
CONTINUOUS
 62
3
 10
3641.3535
 20
248.4502
 11
3666.7032
 21
248.4502
  0
LINE
  8
0_00
  6
CONTINUOUS
 62
3
 10
3641.3535
 20
249.4503
 11
3666.7032
 21
249.4503
  0
LINE
  8
0_00
  6
CONTINUOUS
 62
3
 10
3641.3535
 20
250.4501
 11
3666.7032
 21
250.4501
  0
LINE
  8
0_00
  6
CONTINUOUS
 62
3
 10
3641.3535
 20
251.4501
 11
3666.7032
 21
251.4501
  0
LINE
  8
0_00
  6
CONTINUOUS
 62
3
 10
3641.3535
 20
252.4502
 11
3666.7032
 21
252.4502
  0
LINE
  8
0_00
  6
CONTINUOUS
 62
3
 10
3641.3535
 20
256.9003
 11
3666.7032
 21
256.9003
  0
LINE
  8
0_00
  6
CONTINUOUS
 62
3
 10
3641.3535
 20
257.9002
 11
3666.7032
 21
257.9002
  0
LINE
  8
0_00
  6
CONTINUOUS
 62
3
 10
3641.3535
 20
258.9000
 11
3666.7032
 21
258.9000
  0
LINE
  8
0_00
  6
CONTINUOUS
 62
3
 10
3641.3535
 20
259.9001
 11
3666.7032
 21
259.9001
  0
LINE
  8
0_00
  6
CONTINUOUS
 62
3
 10
3641.3535
 20
260.9002
 11
3666.7032
 21
260.9002
  0
LINE
  8
0_00
  6
CONTINUOUS
 62
3
 10
3641.3535
 20
265.3502
 11
3666.7032
 21
265.3502
  0
LINE
  8
0_00
  6
CONTINUOUS
 62
3
 10
3641.3535
 20
266.3503
 11
3666.7032
 21
266.3503
  0
LINE
  8
0_00
  6
CONTINUOUS
 62
3
 10
3641.3535
 20
267.3501
 11
3666.7032
 21
267.3501
  0
LINE
  8
0_00
  6
CONTINUOUS
 62
3
 10
3641.3535
 20
268.3501
 11
3666.7032
 21
268.3501
  0
LINE
  8
0_00
  6
CONTINUOUS
 62
3
 10
3641.3535
 20
269.3502
 11
3666.7032
 21
269.3502
  0
LINE
  8
0_00
  6
CONTINUOUS
 62
3
 10
3641.3535
 20
273.8003
 11
3666.7032
 21
273.8003
  0
LINE
  8
0_00
  6
CONTINUOUS
 62
3
 10
3641.3535
 20
274.8003
 11
3666.7032
 21
274.8003
  0
LINE
  8
0_00
  6
CONTINUOUS
 62
3
 10
3641.3535
 20
275.8000
 11
3666.7032
 21
275.8000
  0
LINE
  8
0_00
  6
CONTINUOUS
 62
3
 10
3641.3535
 20
276.8002
 11
3666.7032
 21
276.8002
  0
LINE
  8
0_00
  6
CONTINUOUS
 62
3
 10
3641.3535
 20
277.8002
 11
3666.7032
 21
277.8002
  0
LINE
  8
0_00
  6
CONTINUOUS
 62
3
 10
3666.7032
 20
282.2503
 11
3641.3535
 21
282.2503
  0
LINE
  8
0_00
  6
CONTINUOUS
 62
3
 10
3666.7032
 20
283.2504
 11
3641.3535
 21
283.2504
  0
LINE
  8
0_00
  6
CONTINUOUS
 62
3
 10
3666.7032
 20
284.2501
 11
3641.3535
 21
284.2501
  0
LINE
  8
0_00
  6
CONTINUOUS
 62
3
 10
3666.7032
 20
285.2501
 11
3641.3535
 21
285.2501
  0
LINE
  8
0_00
  6
CONTINUOUS
 62
3
 10
3666.7032
 20
286.2502
 11
3641.3535
 21
286.2502
  0
LINE
  8
0_00
  6
CONTINUOUS
 62
3
 10
3641.3535
 20
290.7003
 11
3666.7032
 21
290.7003
  0
LINE
  8
0_00
  6
CONTINUOUS
 62
3
 10
3641.3535
 20
291.7003
 11
3666.7032
 21
291.7003
  0
LINE
  8
0_00
  6
CONTINUOUS
 62
3
 10
3641.3535
 20
292.7001
 11
3666.7032
 21
292.7001
  0
LINE
  8
0_00
  6
CONTINUOUS
 62
3
 10
3641.3535
 20
293.7002
 11
3666.7032
 21
293.7002
  0
LINE
  8
0_00
  6
CONTINUOUS
 62
3
 10
3641.3535
 20
294.7002
 11
3666.7032
 21
294.7002
  0
LINE
  8
0_00
  6
CONTINUOUS
 62
3
 10
3641.3535
 20
299.1503
 11
3666.7032
 21
299.1503
  0
LINE
  8
0_00
  6
CONTINUOUS
 62
3
 10
3641.3535
 20
300.1504
 11
3666.7032
 21
300.1504
  0
LINE
  8
0_00
  6
CONTINUOUS
 62
3
 10
3641.3535
 20
301.1501
 11
3666.7032
 21
301.1501
  0
LINE
  8
0_00
  6
CONTINUOUS
 62
3
 10
3641.3535
 20
302.1501
 11
3666.7032
 21
302.1501
  0
LINE
  8
0_00
  6
CONTINUOUS
 62
3
 10
3641.3535
 20
303.1503
 11
3666.7032
 21
303.1503
  0
LINE
  8
0_00
  6
CONTINUOUS
 62
3
 10
3617.0029
 20
304.0001
 11
3617.0029
 21
239.0001
  0
LINE
  8
0_00
  6
CONTINUOUS
 62
3
 10
3618.0032
 20
304.0001
 11
3618.0032
 21
239.0001
  0
LINE
  8
0_00
  6
CONTINUOUS
 62
3
 10
3619.0030
 20
304.0001
 11
3619.0030
 21
239.0001
  0
LINE
  8
0_00
  6
CONTINUOUS
 62
3
 10
3620.0027
 20
304.0001
 11
3620.0027
 21
239.0001
  0
LINE
  8
0_00
  6
CONTINUOUS
 62
3
 10
3621.0031
 20
304.0001
 11
3621.0031
 21
239.0001
  0
LINE
  8
0_00
  6
CONTINUOUS
 62
3
 10
3622.0029
 20
304.0001
 11
3622.0029
 21
239.0001
  0
LINE
  8
0_00
  6
CONTINUOUS
 62
3
 10
3626.1035
 20
239.0001
 11
3626.1035
 21
256.8752
  0
LINE
  8
0_00
  6
CONTINUOUS
 62
3
 10
3627.1036
 20
239.0001
 11
3627.1036
 21
256.8752
  0
LINE
  8
0_00
  6
CONTINUOUS
 62
3
 10
3628.1033
 20
239.0001
 11
3628.1033
 21
256.8752
  0
LINE
  8
0_00
  6
CONTINUOUS
 62
3
 10
3629.1031
 20
239.0001
 11
3629.1031
 21
256.8752
  0
LINE
  8
0_00
  6
CONTINUOUS
 62
3
 10
3629.4583
 20
241.5749
 11
3632.2531
 21
241.5749
  0
LINE
  8
0_00
  6
CONTINUOUS
 62
3
 10
3629.4583
 20
240.5748
 11
3632.2531
 21
240.5748
  0
LINE
  8
0_00
  6
CONTINUOUS
 62
3
 10
3629.4583
 20
239.5751
 11
3632.2531
 21
239.5751
  0
LINE
  8
0_00
  6
CONTINUOUS
 62
3
 10
3634.2746
 20
261.5859
 11
3622.6175
 21
261.5859
  0
LINE
  8
0_00
  6
CONTINUOUS
 62
3
 10
3633.6771
 20
262.7591
 11
3622.6175
 21
262.7591
  0
LINE
  8
0_00
  6
CONTINUOUS
 62
3
 10
3632.9791
 20
264.1280
 11
3622.5931
 21
264.1280
  0
LINE
  8
0_00
  6
CONTINUOUS
 62
3
 10
3632.4014
 20
265.2622
 11
3622.5809
 21
265.2622
  0
LINE
  8
0_00
  6
CONTINUOUS
 62
3
 10
3636.9528
 20
278.4206
 11
3630.5008
 21
265.1930
  0
LINE
  8
0_00
  6
CONTINUOUS
 62
3
 10
3636.6318
 20
280.0444
 11
3629.3683
 21
265.1528
  0
LINE
  8
0_00
  6
CONTINUOUS
 62
3
 10
3636.0278
 20
281.0859
 11
3628.3047
 21
265.2528
  0
LINE
  8
0_00
  6
CONTINUOUS
 62
3
 10
3635.3424
 20
281.9643
 11
3627.1512
 21
265.1693
  0
LINE
  8
0_00
  6
CONTINUOUS
 62
3
 10
3634.6695
 20
282.8654
 11
3626.2631
 21
265.6290
  0
LINE
  8
0_00
  6
CONTINUOUS
 62
3
 10
3633.7900
 20
283.3419
 11
3624.9692
 21
265.2581
  0
LINE
  8
0_00
  6
CONTINUOUS
 62
3
 10
3632.9202
 20
283.8402
 11
3623.8443
 21
265.2324
  0
LINE
  8
0_00
  6
CONTINUOUS
 62
3
 10
3631.8881
 20
284.0058
 11
3622.7951
 21
265.3624
  0
LINE
  8
0_00
  6
CONTINUOUS
 62
3
 10
3630.8328
 20
284.1224
 11
3622.3511
 21
266.7324
  0
LINE
  8
0_00
  6
CONTINUOUS
 62
3
 10
3629.7906
 20
284.2674
 11
3622.4429
 21
269.2024
  0
LINE
  8
0_00
  6
CONTINUOUS
 62
3
 10
3628.6520
 20
284.2143
 11
3622.1292
 21
270.8403
  0
LINE
  8
0_00
  6
CONTINUOUS
 62
3
 10
3626.6412
 20
281.6002
 11
3622.5031
 21
281.6002
  0
LINE
  8
0_00
  6
CONTINUOUS
 62
3
 10
3627.4515
 20
282.6003
 11
3622.5031
 21
282.6003
  0
LINE
  8
0_00
  6
CONTINUOUS
 62
3
 10
3627.8317
 20
283.6001
 11
3622.5031
 21
283.6001
  0
LINE
  8
0_00
  6
CONTINUOUS
 62
3
 10
2654.2035
 20
2841.6306
 11
2699.2035
 21
2841.6306
  0
LINE
  8
0_00
  6
CONTINUOUS
 62
3
 10
2657.2284
 20
2846.8695
 11
2654.2035
 21
2841.6306
  0
LINE
  8
0_00
  6
CONTINUOUS
 62
3
 10
2669.6429
 20
2868.3728
 11
2676.7035
 21
2880.6018
  0
LINE
  8
0_00
  6
CONTINUOUS
 62
3
 10
2696.1789
 20
2846.8695
 11
2699.2035
 21
2841.6306
  0
LINE
  8
0_00
  6
CONTINUOUS
 62
3
 10
2683.7640
 20
2868.3728
 11
2676.7035
 21
2880.6018
  0
LINE
  8
0_00
  6
CONTINUOUS
 62
3
 10
4061.7035
 20
514.0002
 11
4071.7035
 21
514.0002
  0
LINE
  8
0_00
  6
CONTINUOUS
 62
3
 10
4061.7035
 20
584.0002
 11
4071.7035
 21
584.0002
  0
LINE
  8
0_00
  6
CONTINUOUS
 62
3
 10
4061.7035
 20
654.0002
 11
4071.7035
 21
654.0002
  0
LINE
  8
0_00
  6
CONTINUOUS
 62
3
 10
4061.7035
 20
724.0002
 11
4071.7035
 21
724.0002
  0
LINE
  8
0_00
  6
CONTINUOUS
 62
3
 10
4061.7035
 20
794.0002
 11
4071.7035
 21
794.0002
  0
LINE
  8
0_00
  6
CONTINUOUS
 62
3
 10
4061.7035
 20
864.0002
 11
4071.7035
 21
864.0002
  0
LINE
  8
0_00
  6
CONTINUOUS
 62
3
 10
4061.7035
 20
934.0002
 11
4071.7035
 21
934.0002
  0
LINE
  8
0_00
  6
CONTINUOUS
 62
3
 10
4061.7035
 20
1004.0002
 11
4071.7035
 21
1004.0002
  0
LINE
  8
0_00
  6
CONTINUOUS
 62
3
 10
4061.7035
 20
1074.0002
 11
4071.7035
 21
1074.0002
  0
LINE
  8
0_00
  6
CONTINUOUS
 62
3
 10
4061.7035
 20
1144.0002
 11
4071.7035
 21
1144.0002
  0
LINE
  8
0_00
  6
CONTINUOUS
 62
3
 10
4061.7035
 20
1214.0002
 11
4071.7035
 21
1214.0002
  0
LINE
  8
0_00
  6
CONTINUOUS
 62
3
 10
4061.7035
 20
1284.0001
 11
4071.7035
 21
1284.0001
  0
LINE
  8
0_00
  6
CONTINUOUS
 62
3
 10
4061.7035
 20
1354.0002
 11
4071.7035
 21
1354.0002
  0
LINE
  8
0_00
  6
CONTINUOUS
 62
3
 10
4061.7035
 20
1424.0002
 11
4071.7035
 21
1424.0002
  0
LINE
  8
0_00
  6
CONTINUOUS
 62
3
 10
4061.7035
 20
1494.0002
 11
4071.7035
 21
1494.0002
  0
LINE
  8
0_00
  6
CONTINUOUS
 62
3
 10
4061.7035
 20
1564.0002
 11
4071.7035
 21
1564.0002
  0
LINE
  8
0_00
  6
CONTINUOUS
 62
3
 10
4061.7035
 20
1634.0001
 11
4071.7035
 21
1634.0001
  0
LINE
  8
0_00
  6
CONTINUOUS
 62
3
 10
4061.7035
 20
2778.9999
 11
4071.7035
 21
2778.9999
  0
LINE
  8
0_00
  6
CONTINUOUS
 62
3
 10
4061.7035
 20
2719.0002
 11
4071.7035
 21
2719.0002
  0
LINE
  8
0_00
  6
CONTINUOUS
 62
3
 10
4061.7035
 20
2659.0002
 11
4071.7035
 21
2659.0002
  0
LINE
  8
0_00
  6
CONTINUOUS
 62
3
 10
4061.7035
 20
2598.9999
 11
4071.7035
 21
2598.9999
  0
LINE
  8
0_00
  6
CONTINUOUS
 62
3
 10
4061.7035
 20
2539.0001
 11
4071.7035
 21
2539.0001
  0
LINE
  8
0_00
  6
CONTINUOUS
 62
3
 10
4061.7035
 20
2479.0001
 11
4071.7035
 21
2479.0001
  0
LINE
  8
0_00
  6
CONTINUOUS
 62
3
 10
4061.7035
 20
1704.0001
 11
4071.7035
 21
1704.0001
  0
LINE
  8
0_00
  6
CONTINUOUS
 62
3
 10
4061.7035
 20
1774.0001
 11
4071.7035
 21
1774.0001
  0
LINE
  8
0_00
  6
CONTINUOUS
 62
3
 10
4061.7035
 20
1844.0001
 11
4071.7035
 21
1844.0001
  0
LINE
  8
0_00
  6
CONTINUOUS
 62
3
 10
4061.7035
 20
1914.0001
 11
4071.7035
 21
1914.0001
  0
LINE
  8
0_00
  6
CONTINUOUS
 62
3
 10
4061.7035
 20
1984.0001
 11
4071.7035
 21
1984.0001
  0
LINE
  8
0_00
  6
CONTINUOUS
 62
3
 10
4061.7035
 20
2054.0002
 11
4071.7035
 21
2054.0002
  0
LINE
  8
0_00
  6
CONTINUOUS
 62
3
 10
4061.7035
 20
2124.0001
 11
4071.7035
 21
2124.0001
  0
LINE
  8
0_00
  6
CONTINUOUS
 62
3
 10
4061.7035
 20
2194.0001
 11
4071.7035
 21
2194.0001
  0
LINE
  8
0_00
  6
CONTINUOUS
 62
3
 10
4061.7035
 20
2264.0001
 11
4071.7035
 21
2264.0001
  0
LINE
  8
0_00
  6
CONTINUOUS
 62
3
 10
4061.7035
 20
2334.0001
 11
4071.7035
 21
2334.0001
  0
LINE
  8
0_00
  6
CONTINUOUS
 62
3
 10
4061.7035
 20
2404.0001
 11
4071.7035
 21
2404.0001
  0
LINE
  8
0_00
  6
CENTER1
 62
3
 10
2936.8030
 20
244.0002
 11
2936.8030
 21
304.0002
  0
LINE
  8
0_00
  6
CONTINUOUS
 62
4
 10
2971.8030
 20
261.5002
 11
2971.8030
 21
286.5002
  0
LINE
  8
0_00
  6
CONTINUOUS
 62
4
 10
3016.8030
 20
254.0002
 11
3016.8030
 21
294.0002
  0
LINE
  8
0_00
  6
CONTINUOUS
 62
4
 10
2971.8030
 20
286.5002
 11
3016.8030
 21
294.0002
  0
LINE
  8
0_00
  6
CONTINUOUS
 62
4
 10
2971.8030
 20
261.5002
 11
3016.8030
 21
254.0002
  0
LINE
  8
0_00
  6
CENTER1
 62
3
 10
2906.8030
 20
274.0002
 11
3024.5184
 21
274.0002
  0
LINE
  8
0_00
  6
CONTINUOUS
 62
3
 10
3971.7032
 20
124.0001
 11
3971.7032
 21
224.0001
  0
LINE
  8
0_00
  6
CONTINUOUS
 62
3
 10
132.3016
 20
74.0001
 11
4111.7032
 21
74.0001
  0
LINE
  8
0_00
  6
CONTINUOUS
 62
3
 10
3941.7035
 20
2883.9999
 11
3941.7035
 21
2838.9999
  0
LINE
  8
0_00
  6
CONTINUOUS
 62
3
 10
0.0000
 20
1479.0001
 11
132.3016
 21
1479.0001
  0
LINE
  8
0_00
  6
CONTINUOUS
 62
3
 10
2087.2031
 20
74.0001
 11
2087.2031
 21
0.0000
  0
LINE
  8
0_00
  6
CONTINUOUS
 62
3
 10
2087.2031
 20
2883.9999
 11
2087.2031
 21
2970.0000
  0
LINE
  8
0_00
  6
CONTINUOUS
 62
3
 10
4111.7032
 20
1479.0001
 11
4200.0000
 21
1479.0001
  0
LINE
  8
0_00
  6
CONTINUOUS
 62
6
 10
876.5746
 20
1123.9684
 11
887.7745
 21
1123.9684
  0
LINE
  8
0_00
  6
CONTINUOUS
 62
6
 10
874.0746
 20
1121.4684
 11
874.0746
 21
1102.7684
  0
LINE
  8
0_00
  6
DASHED
 62
6
 10
888.0745
 20
1123.6684
 11
887.7745
 21
1123.9684
  0
LINE
  8
0_00
  6
CONTINUOUS
 62
6
 10
884.7745
 20
1122.7683
 11
880.8643
 21
1122.7683
  0
LINE
  8
0_00
  6
DASHED
 62
6
 10
874.3745
 20
1102.4685
 11
874.0746
 21
1102.7684
  0
LINE
  8
0_00
  6
CONTINUOUS
 62
6
 10
888.0745
 20
1121.9685
 11
885.5746
 21
1121.9685
  0
LINE
  8
0_00
  6
CONTINUOUS
 62
6
 10
884.7745
 20
1122.7683
 11
885.5746
 21
1121.9685
  0
LINE
  8
0_00
  6
DASHED
 62
6
 10
874.3745
 20
1102.4685
 11
874.0746
 21
1102.1684
  0
LINE
  8
0_00
  6
DASHED
 62
6
 10
874.3745
 20
1102.4685
 11
874.0746
 21
1102.7684
  0
LINE
  8
0_00
  6
CONTINUOUS
 62
6
 10
899.5745
 20
1123.9684
 11
888.3746
 21
1123.9684
  0
LINE
  8
0_00
  6
CONTINUOUS
 62
6
 10
902.0745
 20
1121.4684
 11
902.0745
 21
1102.7684
  0
LINE
  8
0_00
  6
DASHED
 62
6
 10
888.0745
 20
1123.6684
 11
888.3746
 21
1123.9684
  0
LINE
  8
0_00
  6
CONTINUOUS
 62
6
 10
891.3746
 20
1122.7683
 11
895.2847
 21
1122.7683
  0
LINE
  8
0_00
  6
DASHED
 62
6
 10
901.7745
 20
1102.4685
 11
902.0745
 21
1102.7684
  0
LINE
  8
0_00
  6
CONTINUOUS
 62
6
 10
888.0745
 20
1121.9685
 11
890.5745
 21
1121.9685
  0
LINE
  8
0_00
  6
CONTINUOUS
 62
6
 10
891.3746
 20
1122.7683
 11
890.5745
 21
1121.9685
  0
LINE
  8
0_00
  6
DASHED
 62
6
 10
901.7745
 20
1102.4685
 11
902.0745
 21
1102.1684
  0
LINE
  8
0_00
  6
DASHED
 62
6
 10
901.7745
 20
1102.4685
 11
902.0745
 21
1102.7684
  0
LINE
  8
0_00
  6
CONTINUOUS
 62
6
 10
876.5746
 20
1080.9685
 11
887.7745
 21
1080.9685
  0
LINE
  8
0_00
  6
CONTINUOUS
 62
6
 10
874.0746
 20
1083.4685
 11
874.0746
 21
1102.1684
  0
LINE
  8
0_00
  6
DASHED
 62
6
 10
888.0745
 20
1081.2683
 11
887.7745
 21
1080.9685
  0
LINE
  8
0_00
  6
CONTINUOUS
 62
6
 10
884.7745
 20
1082.1684
 11
880.8643
 21
1082.1684
  0
LINE
  8
0_00
  6
DASHED
 62
6
 10
874.3745
 20
1102.4685
 11
874.0746
 21
1102.1684
  0
LINE
  8
0_00
  6
CONTINUOUS
 62
6
 10
875.2745
 20
1117.1786
 11
875.2745
 21
1087.7582
  0
LINE
  8
0_00
  6
CONTINUOUS
 62
6
 10
888.0745
 20
1082.9685
 11
885.5746
 21
1082.9685
  0
LINE
  8
0_00
  6
CONTINUOUS
 62
6
 10
884.7745
 20
1082.1684
 11
885.5746
 21
1082.9685
  0
LINE
  8
0_00
  6
DASHED
 62
6
 10
874.3745
 20
1102.4685
 11
874.0746
 21
1102.7684
  0
LINE
  8
0_00
  6
DASHED
 62
6
 10
874.3745
 20
1102.4685
 11
874.0746
 21
1102.1684
  0
LINE
  8
0_00
  6
CONTINUOUS
 62
6
 10
899.5745
 20
1080.9685
 11
888.3746
 21
1080.9685
  0
LINE
  8
0_00
  6
CONTINUOUS
 62
6
 10
902.0745
 20
1083.4685
 11
902.0745
 21
1102.1684
  0
LINE
  8
0_00
  6
DASHED
 62
6
 10
888.0745
 20
1081.2683
 11
888.3746
 21
1080.9685
  0
LINE
  8
0_00
  6
CONTINUOUS
 62
6
 10
891.3746
 20
1082.1684
 11
895.2847
 21
1082.1684
  0
LINE
  8
0_00
  6
DASHED
 62
6
 10
901.7745
 20
1102.4685
 11
902.0745
 21
1102.1684
  0
LINE
  8
0_00
  6
CONTINUOUS
 62
6
 10
900.8746
 20
1117.1786
 11
900.8746
 21
1087.7582
  0
LINE
  8
0_00
  6
CONTINUOUS
 62
6
 10
888.0745
 20
1082.9685
 11
890.5745
 21
1082.9685
  0
LINE
  8
0_00
  6
CONTINUOUS
 62
6
 10
891.3746
 20
1082.1684
 11
890.5745
 21
1082.9685
  0
LINE
  8
0_00
  6
DASHED
 62
6
 10
901.7745
 20
1102.4685
 11
902.0745
 21
1102.7684
  0
LINE
  8
0_00
  6
DASHED
 62
6
 10
901.7745
 20
1102.4685
 11
902.0745
 21
1102.1684
  0
LINE
  8
0_00
  6
CONTINUOUS
 62
6
 10
900.1836
 20
1121.0168
 11
900.5191
 21
1121.3522
  0
LINE
  8
0_00
  6
CONTINUOUS
 62
6
 10
900.5191
 20
1121.3522
 11
899.4585
 21
1122.4130
  0
LINE
  8
0_00
  6
CONTINUOUS
 62
6
 10
899.4585
 20
1122.4130
 11
899.1230
 21
1122.0776
  0
LINE
  8
0_00
  6
CONTINUOUS
 62
6
 10
898.0260
 20
1122.0776
 11
897.6907
 21
1122.4130
  0
LINE
  8
0_00
  6
CONTINUOUS
 62
6
 10
897.6907
 20
1122.4130
 11
896.6299
 21
1121.3522
  0
LINE
  8
0_00
  6
CONTINUOUS
 62
6
 10
896.6299
 20
1121.3522
 11
896.9654
 21
1121.0168
  0
LINE
  8
0_00
  6
CONTINUOUS
 62
6
 10
899.1230
 20
1118.8593
 11
899.4585
 21
1118.5239
  0
LINE
  8
0_00
  6
CONTINUOUS
 62
6
 10
899.4585
 20
1118.5239
 11
900.5191
 21
1119.5845
  0
LINE
  8
0_00
  6
CONTINUOUS
 62
6
 10
900.5191
 20
1119.5845
 11
900.1836
 21
1119.9199
  0
LINE
  8
0_00
  6
CONTINUOUS
 62
6
 10
875.9654
 20
1121.0168
 11
875.6300
 21
1121.3522
  0
LINE
  8
0_00
  6
CONTINUOUS
 62
6
 10
875.6300
 20
1121.3522
 11
876.6906
 21
1122.4130
  0
LINE
  8
0_00
  6
CONTINUOUS
 62
6
 10
876.6906
 20
1122.4130
 11
877.0261
 21
1122.0776
  0
LINE
  8
0_00
  6
CONTINUOUS
 62
6
 10
878.1229
 20
1122.0776
 11
878.4584
 21
1122.4130
  0
LINE
  8
0_00
  6
CONTINUOUS
 62
6
 10
878.4584
 20
1122.4130
 11
879.5191
 21
1121.3522
  0
LINE
  8
0_00
  6
CONTINUOUS
 62
6
 10
879.5191
 20
1121.3522
 11
879.1837
 21
1121.0168
  0
LINE
  8
0_00
  6
CONTINUOUS
 62
6
 10
877.0261
 20
1118.8593
 11
876.6906
 21
1118.5239
  0
LINE
  8
0_00
  6
CONTINUOUS
 62
6
 10
876.6906
 20
1118.5239
 11
875.6300
 21
1119.5845
  0
LINE
  8
0_00
  6
CONTINUOUS
 62
6
 10
875.6300
 20
1119.5845
 11
875.9654
 21
1119.9199
  0
LINE
  8
0_00
  6
CONTINUOUS
 62
6
 10
900.1836
 20
1083.9201
 11
900.5191
 21
1083.5845
  0
LINE
  8
0_00
  6
CONTINUOUS
 62
6
 10
900.5191
 20
1083.5845
 11
899.4585
 21
1082.5239
  0
LINE
  8
0_00
  6
CONTINUOUS
 62
6
 10
899.4585
 20
1082.5239
 11
899.1230
 21
1082.8593
  0
LINE
  8
0_00
  6
CONTINUOUS
 62
6
 10
898.0260
 20
1082.8593
 11
897.6907
 21
1082.5239
  0
LINE
  8
0_00
  6
CONTINUOUS
 62
6
 10
897.6907
 20
1082.5239
 11
896.6299
 21
1083.5845
  0
LINE
  8
0_00
  6
CONTINUOUS
 62
6
 10
896.6299
 20
1083.5845
 11
896.9654
 21
1083.9201
  0
LINE
  8
0_00
  6
CONTINUOUS
 62
6
 10
899.1230
 20
1086.0776
 11
899.4585
 21
1086.4130
  0
LINE
  8
0_00
  6
CONTINUOUS
 62
6
 10
899.4585
 20
1086.4130
 11
900.5191
 21
1085.3522
  0
LINE
  8
0_00
  6
CONTINUOUS
 62
6
 10
900.5191
 20
1085.3522
 11
900.1836
 21
1085.0168
  0
LINE
  8
0_00
  6
CONTINUOUS
 62
6
 10
875.9654
 20
1083.9201
 11
875.6300
 21
1083.5845
  0
LINE
  8
0_00
  6
CONTINUOUS
 62
6
 10
875.6300
 20
1083.5845
 11
876.6906
 21
1082.5239
  0
LINE
  8
0_00
  6
CONTINUOUS
 62
6
 10
876.6906
 20
1082.5239
 11
877.0261
 21
1082.8593
  0
LINE
  8
0_00
  6
CONTINUOUS
 62
6
 10
878.1229
 20
1082.8593
 11
878.4584
 21
1082.5239
  0
LINE
  8
0_00
  6
CONTINUOUS
 62
6
 10
878.4584
 20
1082.5239
 11
879.5191
 21
1083.5845
  0
LINE
  8
0_00
  6
CONTINUOUS
 62
6
 10
879.5191
 20
1083.5845
 11
879.1837
 21
1083.9201
  0
LINE
  8
0_00
  6
CONTINUOUS
 62
6
 10
877.0261
 20
1086.0776
 11
876.6906
 21
1086.4130
  0
LINE
  8
0_00
  6
CONTINUOUS
 62
6
 10
876.6906
 20
1086.4130
 11
875.6300
 21
1085.3522
  0
LINE
  8
0_00
  6
CONTINUOUS
 62
6
 10
875.6300
 20
1085.3522
 11
875.9654
 21
1085.0168
  0
LINE
  8
0_00
  6
CONTINUOUS
 62
6
 10
1776.5746
 20
1123.9684
 11
1787.7745
 21
1123.9684
  0
LINE
  8
0_00
  6
CONTINUOUS
 62
6
 10
1774.0746
 20
1121.4684
 11
1774.0746
 21
1102.7684
  0
LINE
  8
0_00
  6
DASHED
 62
6
 10
1788.0745
 20
1123.6684
 11
1787.7745
 21
1123.9684
  0
LINE
  8
0_00
  6
CONTINUOUS
 62
6
 10
1784.7743
 20
1122.7683
 11
1780.8641
 21
1122.7683
  0
LINE
  8
0_00
  6
DASHED
 62
6
 10
1774.3744
 20
1102.4685
 11
1774.0746
 21
1102.7684
  0
LINE
  8
0_00
  6
CONTINUOUS
 62
6
 10
1788.0745
 20
1121.9685
 11
1785.5745
 21
1121.9685
  0
LINE
  8
0_00
  6
CONTINUOUS
 62
6
 10
1784.7743
 20
1122.7683
 11
1785.5745
 21
1121.9685
  0
LINE
  8
0_00
  6
DASHED
 62
6
 10
1774.3744
 20
1102.4685
 11
1774.0746
 21
1102.1684
  0
LINE
  8
0_00
  6
DASHED
 62
6
 10
1774.3744
 20
1102.4685
 11
1774.0746
 21
1102.7684
  0
LINE
  8
0_00
  6
CONTINUOUS
 62
6
 10
1799.5746
 20
1123.9684
 11
1788.3743
 21
1123.9684
  0
LINE
  8
0_00
  6
CONTINUOUS
 62
6
 10
1802.0746
 20
1121.4684
 11
1802.0746
 21
1102.7684
  0
LINE
  8
0_00
  6
DASHED
 62
6
 10
1788.0745
 20
1123.6684
 11
1788.3743
 21
1123.9684
  0
LINE
  8
0_00
  6
CONTINUOUS
 62
6
 10
1791.3744
 20
1122.7683
 11
1795.2846
 21
1122.7683
  0
LINE
  8
0_00
  6
DASHED
 62
6
 10
1801.7744
 20
1102.4685
 11
1802.0746
 21
1102.7684
  0
LINE
  8
0_00
  6
CONTINUOUS
 62
6
 10
1788.0745
 20
1121.9685
 11
1790.5745
 21
1121.9685
  0
LINE
  8
0_00
  6
CONTINUOUS
 62
6
 10
1791.3744
 20
1122.7683
 11
1790.5745
 21
1121.9685
  0
LINE
  8
0_00
  6
DASHED
 62
6
 10
1801.7744
 20
1102.4685
 11
1802.0746
 21
1102.1684
  0
LINE
  8
0_00
  6
DASHED
 62
6
 10
1801.7744
 20
1102.4685
 11
1802.0746
 21
1102.7684
  0
LINE
  8
0_00
  6
CONTINUOUS
 62
6
 10
1776.5746
 20
1080.9685
 11
1787.7745
 21
1080.9685
  0
LINE
  8
0_00
  6
CONTINUOUS
 62
6
 10
1774.0746
 20
1083.4685
 11
1774.0746
 21
1102.1684
  0
LINE
  8
0_00
  6
DASHED
 62
6
 10
1788.0745
 20
1081.2683
 11
1787.7745
 21
1080.9685
  0
LINE
  8
0_00
  6
CONTINUOUS
 62
6
 10
1784.7743
 20
1082.1684
 11
1780.8641
 21
1082.1684
  0
LINE
  8
0_00
  6
DASHED
 62
6
 10
1774.3744
 20
1102.4685
 11
1774.0746
 21
1102.1684
  0
LINE
  8
0_00
  6
CONTINUOUS
 62
6
 10
1775.2745
 20
1117.1786
 11
1775.2745
 21
1087.7582
  0
LINE
  8
0_00
  6
CONTINUOUS
 62
6
 10
1788.0745
 20
1082.9685
 11
1785.5745
 21
1082.9685
  0
LINE
  8
0_00
  6
CONTINUOUS
 62
6
 10
1784.7743
 20
1082.1684
 11
1785.5745
 21
1082.9685
  0
LINE
  8
0_00
  6
DASHED
 62
6
 10
1774.3744
 20
1102.4685
 11
1774.0746
 21
1102.7684
  0
LINE
  8
0_00
  6
DASHED
 62
6
 10
1774.3744
 20
1102.4685
 11
1774.0746
 21
1102.1684
  0
LINE
  8
0_00
  6
CONTINUOUS
 62
6
 10
1799.5746
 20
1080.9685
 11
1788.3743
 21
1080.9685
  0
LINE
  8
0_00
  6
CONTINUOUS
 62
6
 10
1802.0746
 20
1083.4685
 11
1802.0746
 21
1102.1684
  0
LINE
  8
0_00
  6
DASHED
 62
6
 10
1788.0745
 20
1081.2683
 11
1788.3743
 21
1080.9685
  0
LINE
  8
0_00
  6
CONTINUOUS
 62
6
 10
1791.3744
 20
1082.1684
 11
1795.2846
 21
1082.1684
  0
LINE
  8
0_00
  6
DASHED
 62
6
 10
1801.7744
 20
1102.4685
 11
1802.0746
 21
1102.1684
  0
LINE
  8
0_00
  6
CONTINUOUS
 62
6
 10
1800.8745
 20
1117.1786
 11
1800.8745
 21
1087.7582
  0
LINE
  8
0_00
  6
CONTINUOUS
 62
6
 10
1788.0745
 20
1082.9685
 11
1790.5745
 21
1082.9685
  0
LINE
  8
0_00
  6
CONTINUOUS
 62
6
 10
1791.3744
 20
1082.1684
 11
1790.5745
 21
1082.9685
  0
LINE
  8
0_00
  6
DASHED
 62
6
 10
1801.7744
 20
1102.4685
 11
1802.0746
 21
1102.7684
  0
LINE
  8
0_00
  6
DASHED
 62
6
 10
1801.7744
 20
1102.4685
 11
1802.0746
 21
1102.1684
  0
LINE
  8
0_00
  6
CONTINUOUS
 62
6
 10
1800.1836
 20
1121.0168
 11
1800.5190
 21
1121.3522
  0
LINE
  8
0_00
  6
CONTINUOUS
 62
6
 10
1800.5190
 20
1121.3522
 11
1799.4583
 21
1122.4130
  0
LINE
  8
0_00
  6
CONTINUOUS
 62
6
 10
1799.4583
 20
1122.4130
 11
1799.1229
 21
1122.0776
  0
LINE
  8
0_00
  6
CONTINUOUS
 62
6
 10
1798.0260
 20
1122.0776
 11
1797.6906
 21
1122.4130
  0
LINE
  8
0_00
  6
CONTINUOUS
 62
6
 10
1797.6906
 20
1122.4130
 11
1796.6298
 21
1121.3522
  0
LINE
  8
0_00
  6
CONTINUOUS
 62
6
 10
1796.6298
 20
1121.3522
 11
1796.9653
 21
1121.0168
  0
LINE
  8
0_00
  6
CONTINUOUS
 62
6
 10
1799.1229
 20
1118.8593
 11
1799.4583
 21
1118.5239
  0
LINE
  8
0_00
  6
CONTINUOUS
 62
6
 10
1799.4583
 20
1118.5239
 11
1800.5190
 21
1119.5845
  0
LINE
  8
0_00
  6
CONTINUOUS
 62
6
 10
1800.5190
 20
1119.5845
 11
1800.1836
 21
1119.9199
  0
LINE
  8
0_00
  6
CONTINUOUS
 62
6
 10
1775.9653
 20
1121.0168
 11
1775.6299
 21
1121.3522
  0
LINE
  8
0_00
  6
CONTINUOUS
 62
6
 10
1775.6299
 20
1121.3522
 11
1776.6905
 21
1122.4130
  0
LINE
  8
0_00
  6
CONTINUOUS
 62
6
 10
1776.6905
 20
1122.4130
 11
1777.0261
 21
1122.0776
  0
LINE
  8
0_00
  6
CONTINUOUS
 62
6
 10
1778.1230
 20
1122.0776
 11
1778.4584
 21
1122.4130
  0
LINE
  8
0_00
  6
CONTINUOUS
 62
6
 10
1778.4584
 20
1122.4130
 11
1779.5189
 21
1121.3522
  0
LINE
  8
0_00
  6
CONTINUOUS
 62
6
 10
1779.5189
 20
1121.3522
 11
1779.1837
 21
1121.0168
  0
LINE
  8
0_00
  6
CONTINUOUS
 62
6
 10
1777.0261
 20
1118.8593
 11
1776.6905
 21
1118.5239
  0
LINE
  8
0_00
  6
CONTINUOUS
 62
6
 10
1776.6905
 20
1118.5239
 11
1775.6299
 21
1119.5845
  0
LINE
  8
0_00
  6
CONTINUOUS
 62
6
 10
1775.6299
 20
1119.5845
 11
1775.9653
 21
1119.9199
  0
LINE
  8
0_00
  6
CONTINUOUS
 62
6
 10
1800.1836
 20
1083.9201
 11
1800.5190
 21
1083.5845
  0
LINE
  8
0_00
  6
CONTINUOUS
 62
6
 10
1800.5190
 20
1083.5845
 11
1799.4583
 21
1082.5239
  0
LINE
  8
0_00
  6
CONTINUOUS
 62
6
 10
1799.4583
 20
1082.5239
 11
1799.1229
 21
1082.8593
  0
LINE
  8
0_00
  6
CONTINUOUS
 62
6
 10
1798.0260
 20
1082.8593
 11
1797.6906
 21
1082.5239
  0
LINE
  8
0_00
  6
CONTINUOUS
 62
6
 10
1797.6906
 20
1082.5239
 11
1796.6298
 21
1083.5845
  0
LINE
  8
0_00
  6
CONTINUOUS
 62
6
 10
1796.6298
 20
1083.5845
 11
1796.9653
 21
1083.9201
  0
LINE
  8
0_00
  6
CONTINUOUS
 62
6
 10
1799.1229
 20
1086.0776
 11
1799.4583
 21
1086.4130
  0
LINE
  8
0_00
  6
CONTINUOUS
 62
6
 10
1799.4583
 20
1086.4130
 11
1800.5190
 21
1085.3522
  0
LINE
  8
0_00
  6
CONTINUOUS
 62
6
 10
1800.5190
 20
1085.3522
 11
1800.1836
 21
1085.0168
  0
LINE
  8
0_00
  6
CONTINUOUS
 62
6
 10
1775.9653
 20
1083.9201
 11
1775.6299
 21
1083.5845
  0
LINE
  8
0_00
  6
CONTINUOUS
 62
6
 10
1775.6299
 20
1083.5845
 11
1776.6905
 21
1082.5239
  0
LINE
  8
0_00
  6
CONTINUOUS
 62
6
 10
1776.6905
 20
1082.5239
 11
1777.0261
 21
1082.8593
  0
LINE
  8
0_00
  6
CONTINUOUS
 62
6
 10
1778.1230
 20
1082.8593
 11
1778.4584
 21
1082.5239
  0
LINE
  8
0_00
  6
CONTINUOUS
 62
6
 10
1778.4584
 20
1082.5239
 11
1779.5189
 21
1083.5845
  0
LINE
  8
0_00
  6
CONTINUOUS
 62
6
 10
1779.5189
 20
1083.5845
 11
1779.1837
 21
1083.9201
  0
LINE
  8
0_00
  6
CONTINUOUS
 62
6
 10
1777.0261
 20
1086.0776
 11
1776.6905
 21
1086.4130
  0
LINE
  8
0_00
  6
CONTINUOUS
 62
6
 10
1776.6905
 20
1086.4130
 11
1775.6299
 21
1085.3522
  0
LINE
  8
0_00
  6
CONTINUOUS
 62
6
 10
1775.6299
 20
1085.3522
 11
1775.9653
 21
1085.0168
  0
LINE
  8
0_00
  6
CONTINUOUS
 62
6
 10
616.5746
 20
863.9684
 11
616.5746
 21
852.7684
  0
LINE
  8
0_00
  6
CONTINUOUS
 62
6
 10
619.0746
 20
866.4684
 11
637.7745
 21
866.4684
  0
LINE
  8
0_00
  6
DASHED
 62
6
 10
616.8746
 20
852.4685
 11
616.5746
 21
852.7684
  0
LINE
  8
0_00
  6
CONTINUOUS
 62
6
 10
617.7745
 20
855.7684
 11
617.7745
 21
859.6786
  0
LINE
  8
0_00
  6
DASHED
 62
6
 10
638.0745
 20
866.1684
 11
637.7745
 21
866.4684
  0
LINE
  8
0_00
  6
CONTINUOUS
 62
6
 10
618.5746
 20
852.4685
 11
618.5746
 21
854.9685
  0
LINE
  8
0_00
  6
CONTINUOUS
 62
6
 10
617.7745
 20
855.7684
 11
618.5746
 21
854.9685
  0
LINE
  8
0_00
  6
DASHED
 62
6
 10
638.0745
 20
866.1684
 11
638.3746
 21
866.4684
  0
LINE
  8
0_00
  6
DASHED
 62
6
 10
638.0745
 20
866.1684
 11
637.7745
 21
866.4684
  0
LINE
  8
0_00
  6
CONTINUOUS
 62
6
 10
616.5746
 20
840.9685
 11
616.5746
 21
852.1684
  0
LINE
  8
0_00
  6
CONTINUOUS
 62
6
 10
619.0746
 20
838.4685
 11
637.7745
 21
838.4685
  0
LINE
  8
0_00
  6
DASHED
 62
6
 10
616.8746
 20
852.4685
 11
616.5746
 21
852.1684
  0
LINE
  8
0_00
  6
CONTINUOUS
 62
6
 10
617.7745
 20
849.1684
 11
617.7745
 21
845.2582
  0
LINE
  8
0_00
  6
DASHED
 62
6
 10
638.0745
 20
838.7685
 11
637.7745
 21
838.4685
  0
LINE
  8
0_00
  6
CONTINUOUS
 62
6
 10
618.5746
 20
852.4685
 11
618.5746
 21
849.9685
  0
LINE
  8
0_00
  6
CONTINUOUS
 62
6
 10
617.7745
 20
849.1684
 11
618.5746
 21
849.9685
  0
LINE
  8
0_00
  6
DASHED
 62
6
 10
638.0745
 20
838.7685
 11
638.3746
 21
838.4685
  0
LINE
  8
0_00
  6
DASHED
 62
6
 10
638.0745
 20
838.7685
 11
637.7745
 21
838.4685
  0
LINE
  8
0_00
  6
CONTINUOUS
 62
6
 10
659.5745
 20
863.9684
 11
659.5745
 21
852.7684
  0
LINE
  8
0_00
  6
CONTINUOUS
 62
6
 10
657.0745
 20
866.4684
 11
638.3746
 21
866.4684
  0
LINE
  8
0_00
  6
DASHED
 62
6
 10
659.2745
 20
852.4685
 11
659.5745
 21
852.7684
  0
LINE
  8
0_00
  6
CONTINUOUS
 62
6
 10
658.3746
 20
855.7684
 11
658.3746
 21
859.6786
  0
LINE
  8
0_00
  6
DASHED
 62
6
 10
638.0745
 20
866.1684
 11
638.3746
 21
866.4684
  0
LINE
  8
0_00
  6
CONTINUOUS
 62
6
 10
623.3643
 20
865.2685
 11
652.7847
 21
865.2685
  0
LINE
  8
0_00
  6
CONTINUOUS
 62
6
 10
657.5745
 20
852.4685
 11
657.5745
 21
854.9685
  0
LINE
  8
0_00
  6
CONTINUOUS
 62
6
 10
658.3746
 20
855.7684
 11
657.5745
 21
854.9685
  0
LINE
  8
0_00
  6
DASHED
 62
6
 10
638.0745
 20
866.1684
 11
637.7745
 21
866.4684
  0
LINE
  8
0_00
  6
DASHED
 62
6
 10
638.0745
 20
866.1684
 11
638.3746
 21
866.4684
  0
LINE
  8
0_00
  6
CONTINUOUS
 62
6
 10
659.5745
 20
840.9685
 11
659.5745
 21
852.1684
  0
LINE
  8
0_00
  6
CONTINUOUS
 62
6
 10
657.0745
 20
838.4685
 11
638.3746
 21
838.4685
  0
LINE
  8
0_00
  6
DASHED
 62
6
 10
659.2745
 20
852.4685
 11
659.5745
 21
852.1684
  0
LINE
  8
0_00
  6
CONTINUOUS
 62
6
 10
658.3746
 20
849.1684
 11
658.3746
 21
845.2582
  0
LINE
  8
0_00
  6
DASHED
 62
6
 10
638.0745
 20
838.7685
 11
638.3746
 21
838.4685
  0
LINE
  8
0_00
  6
CONTINUOUS
 62
6
 10
623.3643
 20
839.6684
 11
652.7847
 21
839.6684
  0
LINE
  8
0_00
  6
CONTINUOUS
 62
6
 10
657.5745
 20
852.4685
 11
657.5745
 21
849.9685
  0
LINE
  8
0_00
  6
CONTINUOUS
 62
6
 10
658.3746
 20
849.1684
 11
657.5745
 21
849.9685
  0
LINE
  8
0_00
  6
DASHED
 62
6
 10
638.0745
 20
838.7685
 11
637.7745
 21
838.4685
  0
LINE
  8
0_00
  6
DASHED
 62
6
 10
638.0745
 20
838.7685
 11
638.3746
 21
838.4685
  0
LINE
  8
0_00
  6
CONTINUOUS
 62
6
 10
619.5261
 20
840.3593
 11
619.1906
 21
840.0239
  0
LINE
  8
0_00
  6
CONTINUOUS
 62
6
 10
619.1906
 20
840.0239
 11
618.1300
 21
841.0846
  0
LINE
  8
0_00
  6
CONTINUOUS
 62
6
 10
618.1300
 20
841.0846
 11
618.4654
 21
841.4200
  0
LINE
  8
0_00
  6
CONTINUOUS
 62
6
 10
618.4654
 20
842.5169
 11
618.1300
 21
842.8522
  0
LINE
  8
0_00
  6
CONTINUOUS
 62
6
 10
618.1300
 20
842.8522
 11
619.1906
 21
843.9130
  0
LINE
  8
0_00
  6
CONTINUOUS
 62
6
 10
619.1906
 20
843.9130
 11
619.5261
 21
843.5775
  0
LINE
  8
0_00
  6
CONTINUOUS
 62
6
 10
621.6837
 20
841.4200
 11
622.0191
 21
841.0846
  0
LINE
  8
0_00
  6
CONTINUOUS
 62
6
 10
622.0191
 20
841.0846
 11
620.9584
 21
840.0239
  0
LINE
  8
0_00
  6
CONTINUOUS
 62
6
 10
620.9584
 20
840.0239
 11
620.6230
 21
840.3593
  0
LINE
  8
0_00
  6
CONTINUOUS
 62
6
 10
619.5261
 20
864.5775
 11
619.1906
 21
864.9129
  0
LINE
  8
0_00
  6
CONTINUOUS
 62
6
 10
619.1906
 20
864.9129
 11
618.1300
 21
863.8523
  0
LINE
  8
0_00
  6
CONTINUOUS
 62
6
 10
618.1300
 20
863.8523
 11
618.4654
 21
863.5168
  0
LINE
  8
0_00
  6
CONTINUOUS
 62
6
 10
618.4654
 20
862.4200
 11
618.1300
 21
862.0846
  0
LINE
  8
0_00
  6
CONTINUOUS
 62
6
 10
618.1300
 20
862.0846
 11
619.1906
 21
861.0239
  0
LINE
  8
0_00
  6
CONTINUOUS
 62
6
 10
619.1906
 20
861.0239
 11
619.5261
 21
861.3593
  0
LINE
  8
0_00
  6
CONTINUOUS
 62
6
 10
621.6837
 20
863.5168
 11
622.0191
 21
863.8523
  0
LINE
  8
0_00
  6
CONTINUOUS
 62
6
 10
622.0191
 20
863.8523
 11
620.9584
 21
864.9129
  0
LINE
  8
0_00
  6
CONTINUOUS
 62
6
 10
620.9584
 20
864.9129
 11
620.6230
 21
864.5775
  0
LINE
  8
0_00
  6
CONTINUOUS
 62
6
 10
656.6230
 20
840.3593
 11
656.9585
 21
840.0239
  0
LINE
  8
0_00
  6
CONTINUOUS
 62
6
 10
656.9585
 20
840.0239
 11
658.0191
 21
841.0846
  0
LINE
  8
0_00
  6
CONTINUOUS
 62
6
 10
658.0191
 20
841.0846
 11
657.6836
 21
841.4200
  0
LINE
  8
0_00
  6
CONTINUOUS
 62
6
 10
657.6836
 20
842.5169
 11
658.0191
 21
842.8522
  0
LINE
  8
0_00
  6
CONTINUOUS
 62
6
 10
658.0191
 20
842.8522
 11
656.9585
 21
843.9130
  0
LINE
  8
0_00
  6
CONTINUOUS
 62
6
 10
656.9585
 20
843.9130
 11
656.6230
 21
843.5775
  0
LINE
  8
0_00
  6
CONTINUOUS
 62
6
 10
654.4654
 20
841.4200
 11
654.1300
 21
841.0846
  0
LINE
  8
0_00
  6
CONTINUOUS
 62
6
 10
654.1300
 20
841.0846
 11
655.1907
 21
840.0239
  0
LINE
  8
0_00
  6
CONTINUOUS
 62
6
 10
655.1907
 20
840.0239
 11
655.5261
 21
840.3593
  0
LINE
  8
0_00
  6
CONTINUOUS
 62
6
 10
656.6230
 20
864.5775
 11
656.9585
 21
864.9129
  0
LINE
  8
0_00
  6
CONTINUOUS
 62
6
 10
656.9585
 20
864.9129
 11
658.0191
 21
863.8523
  0
LINE
  8
0_00
  6
CONTINUOUS
 62
6
 10
658.0191
 20
863.8523
 11
657.6836
 21
863.5168
  0
LINE
  8
0_00
  6
CONTINUOUS
 62
6
 10
657.6836
 20
862.4200
 11
658.0191
 21
862.0846
  0
LINE
  8
0_00
  6
CONTINUOUS
 62
6
 10
658.0191
 20
862.0846
 11
656.9585
 21
861.0239
  0
LINE
  8
0_00
  6
CONTINUOUS
 62
6
 10
656.9585
 20
861.0239
 11
656.6230
 21
861.3593
  0
LINE
  8
0_00
  6
CONTINUOUS
 62
6
 10
654.4654
 20
863.5168
 11
654.1300
 21
863.8523
  0
LINE
  8
0_00
  6
CONTINUOUS
 62
6
 10
654.1300
 20
863.8523
 11
655.1907
 21
864.9129
  0
LINE
  8
0_00
  6
CONTINUOUS
 62
6
 10
655.1907
 20
864.9129
 11
655.5261
 21
864.5775
  0
LINE
  8
0_00
  6
CONTINUOUS
 62
6
 10
638.0745
 20
1272.4684
 11
638.0745
 21
1420.0000
  0
LINE
  8
0_00
  6
CONTINUOUS
 62
6
 10
688.0745
 20
1222.4684
 11
688.0745
 21
1420.0000
  0
LINE
  8
0_00
  6
CONTINUOUS
 62
6
 10
638.0745
 20
1399.9998
 11
688.0745
 21
1399.9998
  0
LINE
  8
0_00
  6
CONTINUOUS
 62
6
 10
444.0746
 20
1399.9998
 11
638.0745
 21
1399.9998
  0
LINE
  8
0_00
  6
CONTINUOUS
 62
6
 10
638.0745
 20
1399.9998
 11
613.6208
 21
1405.1976
  0
LINE
  8
0_00
  6
CONTINUOUS
 62
6
 10
638.0745
 20
1399.9998
 11
613.6208
 21
1394.8022
  0
LINE
  8
0_00
  6
CONTINUOUS
 62
6
 10
748.0746
 20
1399.9998
 11
688.0745
 21
1399.9998
  0
LINE
  8
0_00
  6
CONTINUOUS
 62
6
 10
688.0745
 20
1399.9998
 11
712.5282
 21
1394.8022
  0
LINE
  8
0_00
  6
CONTINUOUS
 62
6
 10
688.0745
 20
1399.9998
 11
712.5282
 21
1405.1976
  0
LINE
  8
0_00
  6
CONTINUOUS
 62
4
 10
1369.9248
 20
494.4051
 11
1591.9247
 21
494.4051
  0
LINE
  8
0_00
  6
CONTINUOUS
 62
4
 10
2029.7453
 20
1191.9274
 11
1970.8765
 21
1192.4411
  0
LINE
  8
0_00
  6
CONTINUOUS
 62
4
 10
1967.8519
 20
1189.3413
 11
1973.6502
 21
1015.3938
  0
LINE
  8
0_00
  6
CONTINUOUS
 62
4
 10
1976.6748
 20
1012.4939
 11
2030.7455
 21
1012.9658
  0
LINE
  8
0_00
  6
CONTINUOUS
 62
4
 10
2032.4873
 20
1185.1143
 11
2032.7190
 21
1188.9013
  0
LINE
  8
0_00
  6
CONTINUOUS
 62
4
 10
2033.7193
 20
1015.9919
 11
2033.4875
 21
1019.7789
  0
LINE
  8
0_00
  6
CONTINUOUS
 62
4
 10
1971.0384
 20
1147.7783
 11
1970.7486
 21
1147.4684
  0
LINE
  8
0_00
  6
CONTINUOUS
 62
4
 10
1970.7486
 20
1147.4684
 11
1971.0583
 21
1147.1786
  0
LINE
  8
0_00
  6
CONTINUOUS
 62
4
 10
1971.0583
 20
1147.1786
 11
1970.7684
 21
1146.8687
  0
LINE
  8
0_00
  6
CONTINUOUS
 62
4
 10
1971.0384
 20
1147.7783
 11
1970.7285
 21
1148.0681
  0
LINE
  8
0_00
  6
CONTINUOUS
 62
4
 10
1972.5383
 20
1102.7783
 11
1972.2485
 21
1102.4685
  0
LINE
  8
0_00
  6
CONTINUOUS
 62
4
 10
1972.2485
 20
1102.4685
 11
1972.5583
 21
1102.1786
  0
LINE
  8
0_00
  6
CONTINUOUS
 62
4
 10
1972.5583
 20
1102.1786
 11
1972.2685
 21
1101.8687
  0
LINE
  8
0_00
  6
CONTINUOUS
 62
4
 10
1972.5383
 20
1102.7783
 11
1972.2285
 21
1103.0680
  0
LINE
  8
0_00
  6
CONTINUOUS
 62
4
 10
1974.0384
 20
1057.7782
 11
1973.7485
 21
1057.4685
  0
LINE
  8
0_00
  6
CONTINUOUS
 62
4
 10
1973.7485
 20
1057.4685
 11
1974.0584
 21
1057.1786
  0
LINE
  8
0_00
  6
CONTINUOUS
 62
4
 10
1974.0584
 20
1057.1786
 11
1973.7685
 21
1056.8687
  0
LINE
  8
0_00
  6
CONTINUOUS
 62
4
 10
1974.0384
 20
1057.7782
 11
1973.7285
 21
1058.0680
  0
LINE
  8
0_00
  6
CONTINUOUS
 62
4
 10
2011.5331
 20
1014.2982
 11
2011.2305
 21
1014.5956
  0
LINE
  8
0_00
  6
CONTINUOUS
 62
4
 10
2011.2305
 20
1014.5956
 11
2010.9331
 21
1014.2929
  0
LINE
  8
0_00
  6
CONTINUOUS
 62
4
 10
2006.5332
 20
1014.2546
 11
2006.2306
 21
1014.5519
  0
LINE
  8
0_00
  6
CONTINUOUS
 62
4
 10
2006.2306
 20
1014.5519
 11
2005.9332
 21
1014.2493
  0
LINE
  8
0_00
  6
CONTINUOUS
 62
4
 10
2001.5334
 20
1014.2110
 11
2001.2308
 21
1014.5084
  0
LINE
  8
0_00
  6
CONTINUOUS
 62
4
 10
2001.2308
 20
1014.5084
 11
2000.9335
 21
1014.2058
  0
LINE
  8
0_00
  6
CONTINUOUS
 62
4
 10
1996.5335
 20
1014.1673
 11
1996.2311
 21
1014.4646
  0
LINE
  8
0_00
  6
CONTINUOUS
 62
4
 10
1996.2311
 20
1014.4646
 11
1995.9335
 21
1014.1621
  0
LINE
  8
0_00
  6
CONTINUOUS
 62
4
 10
2030.9903
 20
1185.2058
 11
2031.0524
 21
1186.2227
  0
LINE
  8
0_00
  6
CONTINUOUS
 62
4
 10
2031.0767
 20
1186.6220
 11
2031.2190
 21
1188.9470
  0
LINE
  8
0_00
  6
CONTINUOUS
 62
4
 10
2029.7322
 20
1190.4274
 11
1970.8632
 21
1190.9411
  0
LINE
  8
0_00
  6
CONTINUOUS
 62
4
 10
1969.3512
 20
1189.3913
 11
1970.7285
 21
1148.0681
  0
LINE
  8
0_00
  6
CONTINUOUS
 62
4
 10
1970.7684
 20
1146.8687
 11
1971.7784
 21
1116.5681
  0
LINE
  8
0_00
  6
CONTINUOUS
 62
4
 10
1971.8185
 20
1115.3688
 11
1972.2285
 21
1103.0680
  0
LINE
  8
0_00
  6
CONTINUOUS
 62
4
 10
1972.2685
 20
1101.8687
 11
1972.6785
 21
1089.5681
  0
LINE
  8
0_00
  6
CONTINUOUS
 62
4
 10
1972.7185
 20
1088.3688
 11
1973.7285
 21
1058.0680
  0
LINE
  8
0_00
  6
CONTINUOUS
 62
4
 10
1973.7685
 20
1056.8687
 11
1975.1492
 21
1015.4439
  0
LINE
  8
0_00
  6
CONTINUOUS
 62
4
 10
1976.6617
 20
1013.9939
 11
1995.9335
 21
1014.1621
  0
LINE
  8
0_00
  6
CONTINUOUS
 62
4
 10
1996.5335
 20
1014.1673
 11
2000.9335
 21
1014.2058
  0
LINE
  8
0_00
  6
CONTINUOUS
 62
4
 10
2001.5334
 20
1014.2110
 11
2005.9332
 21
1014.2493
  0
LINE
  8
0_00
  6
CONTINUOUS
 62
4
 10
2006.5332
 20
1014.2546
 11
2010.9331
 21
1014.2929
  0
LINE
  8
0_00
  6
CONTINUOUS
 62
4
 10
2011.5331
 20
1014.2982
 11
2030.7324
 21
1014.4658
  0
LINE
  8
0_00
  6
CONTINUOUS
 62
4
 10
2032.2192
 20
1015.9462
 11
2031.9904
 21
1019.6873
  0
LINE
  8
0_00
  6
CONTINUOUS
 62
4
 10
2031.0767
 20
1186.6220
 11
2031.2642
 21
1186.4101
  0
LINE
  8
0_00
  6
CONTINUOUS
 62
4
 10
2031.2642
 20
1186.4101
 11
2031.0524
 21
1186.2227
  0
LINE
  8
0_00
  6
CONTINUOUS
 62
4
 10
1972.0885
 20
1116.2782
 11
1971.7984
 21
1115.9685
  0
LINE
  8
0_00
  6
CONTINUOUS
 62
4
 10
1971.7984
 20
1115.9685
 11
1972.1083
 21
1115.6787
  0
LINE
  8
0_00
  6
CONTINUOUS
 62
4
 10
1972.1083
 20
1115.6787
 11
1971.8185
 21
1115.3688
  0
LINE
  8
0_00
  6
CONTINUOUS
 62
4
 10
1971.7784
 20
1116.5681
 11
1972.0885
 21
1116.2782
  0
LINE
  8
0_00
  6
CONTINUOUS
 62
4
 10
1972.9883
 20
1089.2782
 11
1972.6985
 21
1088.9684
  0
LINE
  8
0_00
  6
CONTINUOUS
 62
4
 10
1972.6985
 20
1088.9684
 11
1973.0083
 21
1088.6787
  0
LINE
  8
0_00
  6
CONTINUOUS
 62
4
 10
1973.0083
 20
1088.6787
 11
1972.7185
 21
1088.3688
  0
LINE
  8
0_00
  6
CONTINUOUS
 62
4
 10
1972.6785
 20
1089.5681
 11
1972.9883
 21
1089.2782
  0
LINE
  8
0_00
  6
CONTINUOUS
 62
6
 10
500.3516
 20
852.4685
 11
400.0000
 21
852.4685
  0
LINE
  8
0_00
  6
CONTINUOUS
 62
6
 10
588.0746
 20
1102.4685
 11
400.0000
 21
1102.4685
  0
LINE
  8
0_00
  6
CONTINUOUS
 62
6
 10
420.0000
 20
1102.4685
 11
420.0000
 21
852.4685
  0
LINE
  8
0_00
  6
CONTINUOUS
 62
6
 10
420.0000
 20
1102.4685
 11
414.8022
 21
1078.0148
  0
LINE
  8
0_00
  6
CONTINUOUS
 62
6
 10
420.0000
 20
1102.4685
 11
425.1978
 21
1078.0148
  0
LINE
  8
0_00
  6
CONTINUOUS
 62
6
 10
420.0000
 20
852.4685
 11
425.1978
 21
876.9221
  0
LINE
  8
0_00
  6
CONTINUOUS
 62
6
 10
420.0000
 20
852.4685
 11
414.8022
 21
876.9221
  0
LINE
  8
0_00
  6
CONTINUOUS
 62
4
 10
1823.5600
 20
1546.1703
 11
2069.5599
 21
1546.1703
  0
LINE
  8
0_00
  6
CONTINUOUS
 62
6
 10
1320.5745
 20
1249.5531
 11
1320.5745
 21
1349.9998
  0
LINE
  8
0_00
  6
CONTINUOUS
 62
6
 10
1355.5745
 20
1249.5531
 11
1355.5745
 21
1349.9998
  0
LINE
  8
0_00
  6
CONTINUOUS
 62
6
 10
1320.5745
 20
1329.9998
 11
1355.5745
 21
1329.9998
  0
LINE
  8
0_00
  6
CONTINUOUS
 62
6
 10
1453.5745
 20
1329.9998
 11
1355.5745
 21
1329.9998
  0
LINE
  8
0_00
  6
CONTINUOUS
 62
6
 10
1355.5745
 20
1329.9998
 11
1380.0282
 21
1324.8022
  0
LINE
  8
0_00
  6
CONTINUOUS
 62
6
 10
1355.5745
 20
1329.9998
 11
1380.0282
 21
1335.1976
  0
LINE
  8
0_00
  6
CONTINUOUS
 62
6
 10
1260.5745
 20
1329.9998
 11
1320.5745
 21
1329.9998
  0
LINE
  8
0_00
  6
CONTINUOUS
 62
6
 10
1320.5745
 20
1329.9998
 11
1296.1209
 21
1335.1976
  0
LINE
  8
0_00
  6
CONTINUOUS
 62
6
 10
1320.5745
 20
1329.9998
 11
1296.1209
 21
1324.8022
  0
LINE
  8
0_00
  6
CONTINUOUS
 62
6
 10
638.0745
 20
1222.4684
 11
638.0745
 21
1349.9998
  0
LINE
  8
0_00
  6
CONTINUOUS
 62
6
 10
669.0744
 20
1222.4684
 11
669.0744
 21
1349.9998
  0
LINE
  8
0_00
  6
CONTINUOUS
 62
6
 10
638.0745
 20
1329.9998
 11
669.0744
 21
1329.9998
  0
LINE
  8
0_00
  6
CONTINUOUS
 62
6
 10
550.9394
 20
1329.9998
 11
638.0745
 21
1329.9998
  0
LINE
  8
0_00
  6
CONTINUOUS
 62
6
 10
638.0745
 20
1329.9998
 11
613.6208
 21
1335.1976
  0
LINE
  8
0_00
  6
CONTINUOUS
 62
6
 10
638.0745
 20
1329.9998
 11
613.6208
 21
1324.8022
  0
LINE
  8
0_00
  6
CONTINUOUS
 62
6
 10
729.0745
 20
1329.9998
 11
669.0744
 21
1329.9998
  0
LINE
  8
0_00
  6
CONTINUOUS
 62
6
 10
669.0744
 20
1329.9998
 11
693.5281
 21
1324.8022
  0
LINE
  8
0_00
  6
CONTINUOUS
 62
6
 10
669.0744
 20
1329.9998
 11
693.5281
 21
1335.1976
  0
LINE
  8
0_00
  6
CONTINUOUS
 62
6
 10
1149.3320
 20
2491.1989
 11
1029.9999
 21
2491.1989
  0
LINE
  8
0_00
  6
CONTINUOUS
 62
6
 10
1208.2819
 20
2585.2887
 11
1029.9999
 21
2585.2887
  0
LINE
  8
0_00
  6
CONTINUOUS
 62
6
 10
1050.0000
 20
2585.2887
 11
1050.0000
 21
2491.1989
  0
LINE
  8
0_00
  6
CONTINUOUS
 62
6
 10
1050.0000
 20
2645.2887
 11
1050.0000
 21
2585.2887
  0
LINE
  8
0_00
  6
CONTINUOUS
 62
6
 10
1050.0000
 20
2585.2887
 11
1055.1977
 21
2609.7427
  0
LINE
  8
0_00
  6
CONTINUOUS
 62
6
 10
1050.0000
 20
2585.2887
 11
1044.8022
 21
2609.7427
  0
LINE
  8
0_00
  6
CONTINUOUS
 62
6
 10
1050.0000
 20
2431.1989
 11
1050.0000
 21
2491.1989
  0
LINE
  8
0_00
  6
CONTINUOUS
 62
6
 10
1050.0000
 20
2491.1989
 11
1044.8022
 21
2466.7451
  0
LINE
  8
0_00
  6
CONTINUOUS
 62
6
 10
1050.0000
 20
2491.1989
 11
1055.1977
 21
2466.7451
  0
LINE
  8
0_00
  6
CONTINUOUS
 62
6
 10
1242.7820
 20
2657.0715
 11
1242.7820
 21
2750.0000
  0
LINE
  8
0_00
  6
CONTINUOUS
 62
6
 10
1367.7818
 20
2657.0715
 11
1367.7818
 21
2750.0000
  0
LINE
  8
0_00
  6
CONTINUOUS
 62
6
 10
1242.7820
 20
2729.9997
 11
1367.7818
 21
2729.9997
  0
LINE
  8
0_00
  6
CONTINUOUS
 62
6
 10
1242.7820
 20
2729.9997
 11
1267.2357
 21
2724.8022
  0
LINE
  8
0_00
  6
CONTINUOUS
 62
6
 10
1242.7820
 20
2729.9997
 11
1267.2357
 21
2735.1974
  0
LINE
  8
0_00
  6
CONTINUOUS
 62
6
 10
1367.7818
 20
2729.9997
 11
1343.3282
 21
2735.1974
  0
LINE
  8
0_00
  6
CONTINUOUS
 62
6
 10
1367.7818
 20
2729.9997
 11
1343.3282
 21
2724.8022
  0
LINE
  8
0_00
  6
CONTINUOUS
 62
6
 10
1817.7818
 20
2657.0715
 11
1817.7818
 21
2750.0000
  0
LINE
  8
0_00
  6
CONTINUOUS
 62
6
 10
1367.7818
 20
2729.9997
 11
1817.7818
 21
2729.9997
  0
LINE
  8
0_00
  6
CONTINUOUS
 62
6
 10
1367.7818
 20
2729.9997
 11
1392.2356
 21
2724.8022
  0
LINE
  8
0_00
  6
CONTINUOUS
 62
6
 10
1367.7818
 20
2729.9997
 11
1392.2356
 21
2735.1974
  0
LINE
  8
0_00
  6
CONTINUOUS
 62
6
 10
1817.7818
 20
2729.9997
 11
1793.3282
 21
2735.1974
  0
LINE
  8
0_00
  6
CONTINUOUS
 62
6
 10
1817.7818
 20
2729.9997
 11
1793.3282
 21
2724.8022
  0
LINE
  8
0_00
  6
CONTINUOUS
 62
6
 10
638.0745
 20
2235.6210
 11
638.0745
 21
2238.2220
  0
LINE
  8
0_00
  6
CONTINUOUS
 62
6
 10
1050.0000
 20
1072.4684
 11
1050.0000
 21
1132.4685
  0
LINE
  8
0_00
  6
CONTINUOUS
 62
6
 10
1050.0000
 20
912.0000
 11
1050.0000
 21
1072.4684
  0
LINE
  8
0_00
  6
CONTINUOUS
 62
6
 10
1050.0000
 20
1072.4684
 11
1044.8022
 21
1048.0147
  0
LINE
  8
0_00
  6
CONTINUOUS
 62
6
 10
1050.0000
 20
1072.4684
 11
1055.1977
 21
1048.0147
  0
LINE
  8
0_00
  6
CONTINUOUS
 62
6
 10
1050.0000
 20
1192.4684
 11
1050.0000
 21
1132.4685
  0
LINE
  8
0_00
  6
CONTINUOUS
 62
6
 10
1050.0000
 20
1132.4685
 11
1055.1977
 21
1156.9221
  0
LINE
  8
0_00
  6
CONTINUOUS
 62
6
 10
1050.0000
 20
1132.4685
 11
1044.8022
 21
1156.9221
  0
LINE
  8
0_00
  6
CONTINUOUS
 62
6
 10
832.2907
 20
2155.6210
 11
930.0000
 21
2155.6210
  0
LINE
  8
0_00
  6
CONTINUOUS
 62
6
 10
832.2907
 20
2075.6210
 11
930.0000
 21
2075.6210
  0
LINE
  8
0_00
  6
CONTINUOUS
 62
6
 10
910.0000
 20
2155.6210
 11
910.0000
 21
2075.6210
  0
LINE
  8
0_00
  6
CONTINUOUS
 62
6
 10
910.0000
 20
2253.6211
 11
910.0000
 21
2155.6210
  0
LINE
  8
0_00
  6
CONTINUOUS
 62
6
 10
910.0000
 20
2155.6210
 11
915.1977
 21
2180.0745
  0
LINE
  8
0_00
  6
CONTINUOUS
 62
6
 10
910.0000
 20
2155.6210
 11
904.8022
 21
2180.0745
  0
LINE
  8
0_00
  6
CONTINUOUS
 62
6
 10
910.0000
 20
2015.6210
 11
910.0000
 21
2075.6210
  0
LINE
  8
0_00
  6
CONTINUOUS
 62
6
 10
910.0000
 20
2075.6210
 11
904.8022
 21
2051.1673
  0
LINE
  8
0_00
  6
CONTINUOUS
 62
6
 10
910.0000
 20
2075.6210
 11
915.1977
 21
2051.1673
  0
LINE
  8
0_00
  6
CONTINUOUS
 62
6
 10
678.8746
 20
2206.4212
 11
678.8746
 21
2315.0000
  0
LINE
  8
0_00
  6
CONTINUOUS
 62
6
 10
638.0745
 20
2137.9295
 11
638.0745
 21
2315.0000
  0
LINE
  8
0_00
  6
CONTINUOUS
 62
6
 10
638.0745
 20
2294.9998
 11
678.8746
 21
2294.9998
  0
LINE
  8
0_00
  6
CONTINUOUS
 62
6
 10
540.0745
 20
2294.9998
 11
638.0745
 21
2294.9998
  0
LINE
  8
0_00
  6
CONTINUOUS
 62
6
 10
638.0745
 20
2294.9998
 11
613.6208
 21
2300.1976
  0
LINE
  8
0_00
  6
CONTINUOUS
 62
6
 10
638.0745
 20
2294.9998
 11
613.6208
 21
2289.8021
  0
LINE
  8
0_00
  6
CONTINUOUS
 62
6
 10
738.8746
 20
2294.9998
 11
678.8746
 21
2294.9998
  0
LINE
  8
0_00
  6
CONTINUOUS
 62
6
 10
678.8746
 20
2294.9998
 11
703.3282
 21
2289.8021
  0
LINE
  8
0_00
  6
CONTINUOUS
 62
6
 10
678.8746
 20
2294.9998
 11
703.3282
 21
2300.1976
  0
LINE
  8
0_00
  6
CONTINUOUS
 62
6
 10
638.0745
 20
2640.6430
 11
638.0745
 21
2643.2440
  0
LINE
  8
0_00
  6
CONTINUOUS
 62
6
 10
638.0745
 20
2570.6430
 11
638.0745
 21
2720.0217
  0
LINE
  8
0_00
  6
CONTINUOUS
 62
6
 10
669.0746
 20
2570.6430
 11
669.0746
 21
2720.0217
  0
LINE
  8
0_00
  6
CONTINUOUS
 62
6
 10
638.0745
 20
2700.0217
 11
669.0746
 21
2700.0217
  0
LINE
  8
0_00
  6
CONTINUOUS
 62
6
 10
540.0745
 20
2700.0217
 11
638.0745
 21
2700.0217
  0
LINE
  8
0_00
  6
CONTINUOUS
 62
6
 10
638.0745
 20
2700.0217
 11
613.6208
 21
2705.2194
  0
LINE
  8
0_00
  6
CONTINUOUS
 62
6
 10
638.0745
 20
2700.0217
 11
613.6208
 21
2694.8239
  0
LINE
  8
0_00
  6
CONTINUOUS
 62
6
 10
729.0746
 20
2700.0217
 11
669.0746
 21
2700.0217
  0
LINE
  8
0_00
  6
CONTINUOUS
 62
6
 10
669.0746
 20
2700.0217
 11
693.5283
 21
2694.8239
  0
LINE
  8
0_00
  6
CONTINUOUS
 62
6
 10
669.0746
 20
2700.0217
 11
693.5283
 21
2705.2194
  0
LINE
  8
0_00
  6
CONTINUOUS
 62
6
 10
832.2907
 20
2549.6429
 11
930.0000
 21
2549.6429
  0
LINE
  8
0_00
  6
CONTINUOUS
 62
6
 10
832.2907
 20
2491.6431
 11
930.0000
 21
2491.6431
  0
LINE
  8
0_00
  6
CONTINUOUS
 62
6
 10
910.0000
 20
2549.6429
 11
910.0000
 21
2491.6431
  0
LINE
  8
0_00
  6
CONTINUOUS
 62
6
 10
910.0000
 20
2671.6428
 11
910.0000
 21
2549.6429
  0
LINE
  8
0_00
  6
CONTINUOUS
 62
6
 10
910.0000
 20
2549.6429
 11
915.1977
 21
2574.0964
  0
LINE
  8
0_00
  6
CONTINUOUS
 62
6
 10
910.0000
 20
2549.6429
 11
904.8022
 21
2574.0964
  0
LINE
  8
0_00
  6
CONTINUOUS
 62
6
 10
910.0000
 20
2431.6428
 11
910.0000
 21
2491.6431
  0
LINE
  8
0_00
  6
CONTINUOUS
 62
6
 10
910.0000
 20
2491.6431
 11
904.8022
 21
2467.1893
  0
LINE
  8
0_00
  6
CONTINUOUS
 62
6
 10
910.0000
 20
2491.6431
 11
915.1977
 21
2467.1893
  0
LINE
  8
0_00
  6
CONTINUOUS
 62
6
 10
2816.2750
 20
1473.9685
 11
2827.4756
 21
1473.9685
  0
LINE
  8
0_00
  6
CONTINUOUS
 62
6
 10
2813.7753
 20
1471.4685
 11
2813.7753
 21
1452.7682
  0
LINE
  8
0_00
  6
DASHED
 62
6
 10
2827.7753
 20
1473.6684
 11
2827.4756
 21
1473.9685
  0
LINE
  8
0_00
  6
CONTINUOUS
 62
6
 10
2824.4754
 20
1472.7684
 11
2820.5649
 21
1472.7684
  0
LINE
  8
0_00
  6
DASHED
 62
6
 10
2814.0753
 20
1452.4684
 11
2813.7753
 21
1452.7682
  0
LINE
  8
0_00
  6
CONTINUOUS
 62
6
 10
2827.7753
 20
1471.9684
 11
2825.2753
 21
1471.9684
  0
LINE
  8
0_00
  6
CONTINUOUS
 62
6
 10
2824.4754
 20
1472.7684
 11
2825.2753
 21
1471.9684
  0
LINE
  8
0_00
  6
DASHED
 62
6
 10
2814.0753
 20
1452.4684
 11
2813.7753
 21
1452.1684
  0
LINE
  8
0_00
  6
DASHED
 62
6
 10
2814.0753
 20
1452.4684
 11
2813.7753
 21
1452.7682
  0
LINE
  8
0_00
  6
CONTINUOUS
 62
6
 10
2839.2752
 20
1473.9685
 11
2828.0753
 21
1473.9685
  0
LINE
  8
0_00
  6
CONTINUOUS
 62
6
 10
2841.7752
 20
1471.4685
 11
2841.7752
 21
1452.7682
  0
LINE
  8
0_00
  6
DASHED
 62
6
 10
2827.7753
 20
1473.6684
 11
2828.0753
 21
1473.9685
  0
LINE
  8
0_00
  6
CONTINUOUS
 62
6
 10
2831.0751
 20
1472.7684
 11
2834.9857
 21
1472.7684
  0
LINE
  8
0_00
  6
DASHED
 62
6
 10
2841.4755
 20
1452.4684
 11
2841.7752
 21
1452.7682
  0
LINE
  8
0_00
  6
CONTINUOUS
 62
6
 10
2827.7753
 20
1471.9684
 11
2830.2753
 21
1471.9684
  0
LINE
  8
0_00
  6
CONTINUOUS
 62
6
 10
2831.0751
 20
1472.7684
 11
2830.2753
 21
1471.9684
  0
LINE
  8
0_00
  6
DASHED
 62
6
 10
2841.4755
 20
1452.4684
 11
2841.7752
 21
1452.1684
  0
LINE
  8
0_00
  6
DASHED
 62
6
 10
2841.4755
 20
1452.4684
 11
2841.7752
 21
1452.7682
  0
LINE
  8
0_00
  6
CONTINUOUS
 62
6
 10
2816.2750
 20
1430.9683
 11
2827.4756
 21
1430.9683
  0
LINE
  8
0_00
  6
CONTINUOUS
 62
6
 10
2813.7753
 20
1433.4683
 11
2813.7753
 21
1452.1684
  0
LINE
  8
0_00
  6
DASHED
 62
6
 10
2827.7753
 20
1431.2683
 11
2827.4756
 21
1430.9683
  0
LINE
  8
0_00
  6
CONTINUOUS
 62
6
 10
2824.4754
 20
1432.1683
 11
2820.5649
 21
1432.1683
  0
LINE
  8
0_00
  6
DASHED
 62
6
 10
2814.0753
 20
1452.4684
 11
2813.7753
 21
1452.1684
  0
LINE
  8
0_00
  6
CONTINUOUS
 62
6
 10
2814.9753
 20
1467.1786
 11
2814.9753
 21
1437.7582
  0
LINE
  8
0_00
  6
CONTINUOUS
 62
6
 10
2827.7753
 20
1432.9684
 11
2825.2753
 21
1432.9684
  0
LINE
  8
0_00
  6
CONTINUOUS
 62
6
 10
2824.4754
 20
1432.1683
 11
2825.2753
 21
1432.9684
  0
LINE
  8
0_00
  6
DASHED
 62
6
 10
2814.0753
 20
1452.4684
 11
2813.7753
 21
1452.7682
  0
LINE
  8
0_00
  6
DASHED
 62
6
 10
2814.0753
 20
1452.4684
 11
2813.7753
 21
1452.1684
  0
LINE
  8
0_00
  6
CONTINUOUS
 62
6
 10
2839.2752
 20
1430.9683
 11
2828.0753
 21
1430.9683
  0
LINE
  8
0_00
  6
CONTINUOUS
 62
6
 10
2841.7752
 20
1433.4683
 11
2841.7752
 21
1452.1684
  0
LINE
  8
0_00
  6
DASHED
 62
6
 10
2827.7753
 20
1431.2683
 11
2828.0753
 21
1430.9683
  0
LINE
  8
0_00
  6
CONTINUOUS
 62
6
 10
2831.0751
 20
1432.1683
 11
2834.9857
 21
1432.1683
  0
LINE
  8
0_00
  6
DASHED
 62
6
 10
2841.4755
 20
1452.4684
 11
2841.7752
 21
1452.1684
  0
LINE
  8
0_00
  6
CONTINUOUS
 62
6
 10
2840.5753
 20
1467.1786
 11
2840.5753
 21
1437.7582
  0
LINE
  8
0_00
  6
CONTINUOUS
 62
6
 10
2827.7753
 20
1432.9684
 11
2830.2753
 21
1432.9684
  0
LINE
  8
0_00
  6
CONTINUOUS
 62
6
 10
2831.0751
 20
1432.1683
 11
2830.2753
 21
1432.9684
  0
LINE
  8
0_00
  6
DASHED
 62
6
 10
2841.4755
 20
1452.4684
 11
2841.7752
 21
1452.7682
  0
LINE
  8
0_00
  6
DASHED
 62
6
 10
2841.4755
 20
1452.4684
 11
2841.7752
 21
1452.1684
  0
LINE
  8
0_00
  6
CONTINUOUS
 62
6
 10
2839.8843
 20
1471.0168
 11
2840.2200
 21
1471.3522
  0
LINE
  8
0_00
  6
CONTINUOUS
 62
6
 10
2840.2200
 20
1471.3522
 11
2839.1592
 21
1472.4129
  0
LINE
  8
0_00
  6
CONTINUOUS
 62
6
 10
2839.1592
 20
1472.4129
 11
2838.8239
 21
1472.0775
  0
LINE
  8
0_00
  6
CONTINUOUS
 62
6
 10
2837.7271
 20
1472.0775
 11
2837.3914
 21
1472.4129
  0
LINE
  8
0_00
  6
CONTINUOUS
 62
6
 10
2837.3914
 20
1472.4129
 11
2836.3309
 21
1471.3522
  0
LINE
  8
0_00
  6
CONTINUOUS
 62
6
 10
2836.3309
 20
1471.3522
 11
2836.6666
 21
1471.0168
  0
LINE
  8
0_00
  6
CONTINUOUS
 62
6
 10
2838.8239
 20
1468.8593
 11
2839.1592
 21
1468.5237
  0
LINE
  8
0_00
  6
CONTINUOUS
 62
6
 10
2839.1592
 20
1468.5237
 11
2840.2200
 21
1469.5845
  0
LINE
  8
0_00
  6
CONTINUOUS
 62
6
 10
2840.2200
 20
1469.5845
 11
2839.8843
 21
1469.9199
  0
LINE
  8
0_00
  6
CONTINUOUS
 62
6
 10
2815.6662
 20
1471.0168
 11
2815.3308
 21
1471.3522
  0
LINE
  8
0_00
  6
CONTINUOUS
 62
6
 10
2815.3308
 20
1471.3522
 11
2816.3916
 21
1472.4129
  0
LINE
  8
0_00
  6
CONTINUOUS
 62
6
 10
2816.3916
 20
1472.4129
 11
2816.7270
 21
1472.0775
  0
LINE
  8
0_00
  6
CONTINUOUS
 62
6
 10
2817.8238
 20
1472.0775
 11
2818.1592
 21
1472.4129
  0
LINE
  8
0_00
  6
CONTINUOUS
 62
6
 10
2818.1592
 20
1472.4129
 11
2819.2197
 21
1471.3522
  0
LINE
  8
0_00
  6
CONTINUOUS
 62
6
 10
2819.2197
 20
1471.3522
 11
2818.8843
 21
1471.0168
  0
LINE
  8
0_00
  6
CONTINUOUS
 62
6
 10
2816.7270
 20
1468.8593
 11
2816.3916
 21
1468.5237
  0
LINE
  8
0_00
  6
CONTINUOUS
 62
6
 10
2816.3916
 20
1468.5237
 11
2815.3308
 21
1469.5845
  0
LINE
  8
0_00
  6
CONTINUOUS
 62
6
 10
2815.3308
 20
1469.5845
 11
2815.6662
 21
1469.9199
  0
LINE
  8
0_00
  6
CONTINUOUS
 62
6
 10
2839.8843
 20
1433.9200
 11
2840.2200
 21
1433.5846
  0
LINE
  8
0_00
  6
CONTINUOUS
 62
6
 10
2840.2200
 20
1433.5846
 11
2839.1592
 21
1432.5240
  0
LINE
  8
0_00
  6
CONTINUOUS
 62
6
 10
2839.1592
 20
1432.5240
 11
2838.8239
 21
1432.8593
  0
LINE
  8
0_00
  6
CONTINUOUS
 62
6
 10
2837.7271
 20
1432.8593
 11
2837.3914
 21
1432.5240
  0
LINE
  8
0_00
  6
CONTINUOUS
 62
6
 10
2837.3914
 20
1432.5240
 11
2836.3309
 21
1433.5846
  0
LINE
  8
0_00
  6
CONTINUOUS
 62
6
 10
2836.3309
 20
1433.5846
 11
2836.6666
 21
1433.9200
  0
LINE
  8
0_00
  6
CONTINUOUS
 62
6
 10
2838.8239
 20
1436.0774
 11
2839.1592
 21
1436.4130
  0
LINE
  8
0_00
  6
CONTINUOUS
 62
6
 10
2839.1592
 20
1436.4130
 11
2840.2200
 21
1435.3523
  0
LINE
  8
0_00
  6
CONTINUOUS
 62
6
 10
2840.2200
 20
1435.3523
 11
2839.8843
 21
1435.0168
  0
LINE
  8
0_00
  6
CONTINUOUS
 62
6
 10
2815.6662
 20
1433.9200
 11
2815.3308
 21
1433.5846
  0
LINE
  8
0_00
  6
CONTINUOUS
 62
6
 10
2815.3308
 20
1433.5846
 11
2816.3916
 21
1432.5240
  0
LINE
  8
0_00
  6
CONTINUOUS
 62
6
 10
2816.3916
 20
1432.5240
 11
2816.7270
 21
1432.8593
  0
LINE
  8
0_00
  6
CONTINUOUS
 62
6
 10
2817.8238
 20
1432.8593
 11
2818.1592
 21
1432.5240
  0
LINE
  8
0_00
  6
CONTINUOUS
 62
6
 10
2818.1592
 20
1432.5240
 11
2819.2197
 21
1433.5846
  0
LINE
  8
0_00
  6
CONTINUOUS
 62
6
 10
2819.2197
 20
1433.5846
 11
2818.8843
 21
1433.9200
  0
LINE
  8
0_00
  6
CONTINUOUS
 62
6
 10
2816.7270
 20
1436.0774
 11
2816.3916
 21
1436.4130
  0
LINE
  8
0_00
  6
CONTINUOUS
 62
6
 10
2816.3916
 20
1436.4130
 11
2815.3308
 21
1435.3523
  0
LINE
  8
0_00
  6
CONTINUOUS
 62
6
 10
2815.3308
 20
1435.3523
 11
2815.6662
 21
1435.0168
  0
LINE
  8
0_00
  6
CONTINUOUS
 62
6
 10
3716.2750
 20
1473.9685
 11
3727.4753
 21
1473.9685
  0
LINE
  8
0_00
  6
CONTINUOUS
 62
6
 10
3713.7753
 20
1471.4685
 11
3713.7753
 21
1452.7682
  0
LINE
  8
0_00
  6
DASHED
 62
6
 10
3727.7753
 20
1473.6684
 11
3727.4753
 21
1473.9685
  0
LINE
  8
0_00
  6
CONTINUOUS
 62
6
 10
3724.4754
 20
1472.7684
 11
3720.5652
 21
1472.7684
  0
LINE
  8
0_00
  6
DASHED
 62
6
 10
3714.0753
 20
1452.4684
 11
3713.7753
 21
1452.7682
  0
LINE
  8
0_00
  6
CONTINUOUS
 62
6
 10
3727.7753
 20
1471.9684
 11
3725.2753
 21
1471.9684
  0
LINE
  8
0_00
  6
CONTINUOUS
 62
6
 10
3724.4754
 20
1472.7684
 11
3725.2753
 21
1471.9684
  0
LINE
  8
0_00
  6
DASHED
 62
6
 10
3714.0753
 20
1452.4684
 11
3713.7753
 21
1452.1684
  0
LINE
  8
0_00
  6
DASHED
 62
6
 10
3714.0753
 20
1452.4684
 11
3713.7753
 21
1452.7682
  0
LINE
  8
0_00
  6
CONTINUOUS
 62
6
 10
3739.2752
 20
1473.9685
 11
3728.0756
 21
1473.9685
  0
LINE
  8
0_00
  6
CONTINUOUS
 62
6
 10
3741.7752
 20
1471.4685
 11
3741.7752
 21
1452.7682
  0
LINE
  8
0_00
  6
DASHED
 62
6
 10
3727.7753
 20
1473.6684
 11
3728.0756
 21
1473.9685
  0
LINE
  8
0_00
  6
CONTINUOUS
 62
6
 10
3731.0754
 20
1472.7684
 11
3734.9857
 21
1472.7684
  0
LINE
  8
0_00
  6
DASHED
 62
6
 10
3741.4755
 20
1452.4684
 11
3741.7752
 21
1452.7682
  0
LINE
  8
0_00
  6
CONTINUOUS
 62
6
 10
3727.7753
 20
1471.9684
 11
3730.2750
 21
1471.9684
  0
LINE
  8
0_00
  6
CONTINUOUS
 62
6
 10
3731.0754
 20
1472.7684
 11
3730.2750
 21
1471.9684
  0
LINE
  8
0_00
  6
DASHED
 62
6
 10
3741.4755
 20
1452.4684
 11
3741.7752
 21
1452.1684
  0
LINE
  8
0_00
  6
DASHED
 62
6
 10
3741.4755
 20
1452.4684
 11
3741.7752
 21
1452.7682
  0
LINE
  8
0_00
  6
CONTINUOUS
 62
6
 10
3716.2750
 20
1430.9683
 11
3727.4753
 21
1430.9683
  0
LINE
  8
0_00
  6
CONTINUOUS
 62
6
 10
3713.7753
 20
1433.4683
 11
3713.7753
 21
1452.1684
  0
LINE
  8
0_00
  6
DASHED
 62
6
 10
3727.7753
 20
1431.2683
 11
3727.4753
 21
1430.9683
  0
LINE
  8
0_00
  6
CONTINUOUS
 62
6
 10
3724.4754
 20
1432.1683
 11
3720.5652
 21
1432.1683
  0
LINE
  8
0_00
  6
DASHED
 62
6
 10
3714.0753
 20
1452.4684
 11
3713.7753
 21
1452.1684
  0
LINE
  8
0_00
  6
CONTINUOUS
 62
6
 10
3714.9753
 20
1467.1786
 11
3714.9753
 21
1437.7582
  0
LINE
  8
0_00
  6
CONTINUOUS
 62
6
 10
3727.7753
 20
1432.9684
 11
3725.2753
 21
1432.9684
  0
LINE
  8
0_00
  6
CONTINUOUS
 62
6
 10
3724.4754
 20
1432.1683
 11
3725.2753
 21
1432.9684
  0
LINE
  8
0_00
  6
DASHED
 62
6
 10
3714.0753
 20
1452.4684
 11
3713.7753
 21
1452.7682
  0
LINE
  8
0_00
  6
DASHED
 62
6
 10
3714.0753
 20
1452.4684
 11
3713.7753
 21
1452.1684
  0
LINE
  8
0_00
  6
CONTINUOUS
 62
6
 10
3739.2752
 20
1430.9683
 11
3728.0756
 21
1430.9683
  0
LINE
  8
0_00
  6
CONTINUOUS
 62
6
 10
3741.7752
 20
1433.4683
 11
3741.7752
 21
1452.1684
  0
LINE
  8
0_00
  6
DASHED
 62
6
 10
3727.7753
 20
1431.2683
 11
3728.0756
 21
1430.9683
  0
LINE
  8
0_00
  6
CONTINUOUS
 62
6
 10
3731.0754
 20
1432.1683
 11
3734.9857
 21
1432.1683
  0
LINE
  8
0_00
  6
DASHED
 62
6
 10
3741.4755
 20
1452.4684
 11
3741.7752
 21
1452.1684
  0
LINE
  8
0_00
  6
CONTINUOUS
 62
6
 10
3740.5756
 20
1467.1786
 11
3740.5756
 21
1437.7582
  0
LINE
  8
0_00
  6
CONTINUOUS
 62
6
 10
3727.7753
 20
1432.9684
 11
3730.2750
 21
1432.9684
  0
LINE
  8
0_00
  6
CONTINUOUS
 62
6
 10
3731.0754
 20
1432.1683
 11
3730.2750
 21
1432.9684
  0
LINE
  8
0_00
  6
DASHED
 62
6
 10
3741.4755
 20
1452.4684
 11
3741.7752
 21
1452.7682
  0
LINE
  8
0_00
  6
DASHED
 62
6
 10
3741.4755
 20
1452.4684
 11
3741.7752
 21
1452.1684
  0
LINE
  8
0_00
  6
CONTINUOUS
 62
6
 10
3739.8846
 20
1471.0168
 11
3740.2200
 21
1471.3522
  0
LINE
  8
0_00
  6
CONTINUOUS
 62
6
 10
3740.2200
 20
1471.3522
 11
3739.1592
 21
1472.4129
  0
LINE
  8
0_00
  6
CONTINUOUS
 62
6
 10
3739.1592
 20
1472.4129
 11
3738.8239
 21
1472.0775
  0
LINE
  8
0_00
  6
CONTINUOUS
 62
6
 10
3737.7267
 20
1472.0775
 11
3737.3914
 21
1472.4129
  0
LINE
  8
0_00
  6
CONTINUOUS
 62
6
 10
3737.3914
 20
1472.4129
 11
3736.3309
 21
1471.3522
  0
LINE
  8
0_00
  6
CONTINUOUS
 62
6
 10
3736.3309
 20
1471.3522
 11
3736.6663
 21
1471.0168
  0
LINE
  8
0_00
  6
CONTINUOUS
 62
6
 10
3738.8239
 20
1468.8593
 11
3739.1592
 21
1468.5237
  0
LINE
  8
0_00
  6
CONTINUOUS
 62
6
 10
3739.1592
 20
1468.5237
 11
3740.2200
 21
1469.5845
  0
LINE
  8
0_00
  6
CONTINUOUS
 62
6
 10
3740.2200
 20
1469.5845
 11
3739.8846
 21
1469.9199
  0
LINE
  8
0_00
  6
CONTINUOUS
 62
6
 10
3715.6662
 20
1471.0168
 11
3715.3308
 21
1471.3522
  0
LINE
  8
0_00
  6
CONTINUOUS
 62
6
 10
3715.3308
 20
1471.3522
 11
3716.3916
 21
1472.4129
  0
LINE
  8
0_00
  6
CONTINUOUS
 62
6
 10
3716.3916
 20
1472.4129
 11
3716.7267
 21
1472.0775
  0
LINE
  8
0_00
  6
CONTINUOUS
 62
6
 10
3717.8235
 20
1472.0775
 11
3718.1592
 21
1472.4129
  0
LINE
  8
0_00
  6
CONTINUOUS
 62
6
 10
3718.1592
 20
1472.4129
 11
3719.2200
 21
1471.3522
  0
LINE
  8
0_00
  6
CONTINUOUS
 62
6
 10
3719.2200
 20
1471.3522
 11
3718.8846
 21
1471.0168
  0
LINE
  8
0_00
  6
CONTINUOUS
 62
6
 10
3716.7267
 20
1468.8593
 11
3716.3916
 21
1468.5237
  0
LINE
  8
0_00
  6
CONTINUOUS
 62
6
 10
3716.3916
 20
1468.5237
 11
3715.3308
 21
1469.5845
  0
LINE
  8
0_00
  6
CONTINUOUS
 62
6
 10
3715.3308
 20
1469.5845
 11
3715.6662
 21
1469.9199
  0
LINE
  8
0_00
  6
CONTINUOUS
 62
6
 10
3739.8846
 20
1433.9200
 11
3740.2200
 21
1433.5846
  0
LINE
  8
0_00
  6
CONTINUOUS
 62
6
 10
3740.2200
 20
1433.5846
 11
3739.1592
 21
1432.5240
  0
LINE
  8
0_00
  6
CONTINUOUS
 62
6
 10
3739.1592
 20
1432.5240
 11
3738.8239
 21
1432.8593
  0
LINE
  8
0_00
  6
CONTINUOUS
 62
6
 10
3737.7267
 20
1432.8593
 11
3737.3914
 21
1432.5240
  0
LINE
  8
0_00
  6
CONTINUOUS
 62
6
 10
3737.3914
 20
1432.5240
 11
3736.3309
 21
1433.5846
  0
LINE
  8
0_00
  6
CONTINUOUS
 62
6
 10
3736.3309
 20
1433.5846
 11
3736.6663
 21
1433.9200
  0
LINE
  8
0_00
  6
CONTINUOUS
 62
6
 10
3738.8239
 20
1436.0774
 11
3739.1592
 21
1436.4130
  0
LINE
  8
0_00
  6
CONTINUOUS
 62
6
 10
3739.1592
 20
1436.4130
 11
3740.2200
 21
1435.3523
  0
LINE
  8
0_00
  6
CONTINUOUS
 62
6
 10
3740.2200
 20
1435.3523
 11
3739.8846
 21
1435.0168
  0
LINE
  8
0_00
  6
CONTINUOUS
 62
6
 10
3715.6662
 20
1433.9200
 11
3715.3308
 21
1433.5846
  0
LINE
  8
0_00
  6
CONTINUOUS
 62
6
 10
3715.3308
 20
1433.5846
 11
3716.3916
 21
1432.5240
  0
LINE
  8
0_00
  6
CONTINUOUS
 62
6
 10
3716.3916
 20
1432.5240
 11
3716.7267
 21
1432.8593
  0
LINE
  8
0_00
  6
CONTINUOUS
 62
6
 10
3717.8235
 20
1432.8593
 11
3718.1592
 21
1432.5240
  0
LINE
  8
0_00
  6
CONTINUOUS
 62
6
 10
3718.1592
 20
1432.5240
 11
3719.2200
 21
1433.5846
  0
LINE
  8
0_00
  6
CONTINUOUS
 62
6
 10
3719.2200
 20
1433.5846
 11
3718.8846
 21
1433.9200
  0
LINE
  8
0_00
  6
CONTINUOUS
 62
6
 10
3716.7267
 20
1436.0774
 11
3716.3916
 21
1436.4130
  0
LINE
  8
0_00
  6
CONTINUOUS
 62
6
 10
3716.3916
 20
1436.4130
 11
3715.3308
 21
1435.3523
  0
LINE
  8
0_00
  6
CONTINUOUS
 62
6
 10
3715.3308
 20
1435.3523
 11
3715.6662
 21
1435.0168
  0
LINE
  8
0_00
  6
CONTINUOUS
 62
6
 10
2556.2753
 20
1213.9684
 11
2556.2753
 21
1202.7683
  0
LINE
  8
0_00
  6
CONTINUOUS
 62
6
 10
2558.7752
 20
1216.4685
 11
2577.4756
 21
1216.4685
  0
LINE
  8
0_00
  6
DASHED
 62
6
 10
2556.5752
 20
1202.4684
 11
2556.2753
 21
1202.7683
  0
LINE
  8
0_00
  6
CONTINUOUS
 62
6
 10
2557.4754
 20
1205.7683
 11
2557.4754
 21
1209.6786
  0
LINE
  8
0_00
  6
DASHED
 62
6
 10
2577.7753
 20
1216.1683
 11
2577.4756
 21
1216.4685
  0
LINE
  8
0_00
  6
CONTINUOUS
 62
6
 10
2558.2753
 20
1202.4684
 11
2558.2753
 21
1204.9685
  0
LINE
  8
0_00
  6
CONTINUOUS
 62
6
 10
2557.4754
 20
1205.7683
 11
2558.2753
 21
1204.9685
  0
LINE
  8
0_00
  6
DASHED
 62
6
 10
2577.7753
 20
1216.1683
 11
2578.0753
 21
1216.4685
  0
LINE
  8
0_00
  6
DASHED
 62
6
 10
2577.7753
 20
1216.1683
 11
2577.4756
 21
1216.4685
  0
LINE
  8
0_00
  6
CONTINUOUS
 62
6
 10
2556.2753
 20
1190.9684
 11
2556.2753
 21
1202.1684
  0
LINE
  8
0_00
  6
CONTINUOUS
 62
6
 10
2558.7752
 20
1188.4684
 11
2577.4756
 21
1188.4684
  0
LINE
  8
0_00
  6
DASHED
 62
6
 10
2556.5752
 20
1202.4684
 11
2556.2753
 21
1202.1684
  0
LINE
  8
0_00
  6
CONTINUOUS
 62
6
 10
2557.4754
 20
1199.1683
 11
2557.4754
 21
1195.2582
  0
LINE
  8
0_00
  6
DASHED
 62
6
 10
2577.7753
 20
1188.7683
 11
2577.4756
 21
1188.4684
  0
LINE
  8
0_00
  6
CONTINUOUS
 62
6
 10
2558.2753
 20
1202.4684
 11
2558.2753
 21
1199.9684
  0
LINE
  8
0_00
  6
CONTINUOUS
 62
6
 10
2557.4754
 20
1199.1683
 11
2558.2753
 21
1199.9684
  0
LINE
  8
0_00
  6
DASHED
 62
6
 10
2577.7753
 20
1188.7683
 11
2578.0753
 21
1188.4684
  0
LINE
  8
0_00
  6
DASHED
 62
6
 10
2577.7753
 20
1188.7683
 11
2577.4756
 21
1188.4684
  0
LINE
  8
0_00
  6
CONTINUOUS
 62
6
 10
2599.2752
 20
1213.9684
 11
2599.2752
 21
1202.7683
  0
LINE
  8
0_00
  6
CONTINUOUS
 62
6
 10
2596.7752
 20
1216.4685
 11
2578.0753
 21
1216.4685
  0
LINE
  8
0_00
  6
DASHED
 62
6
 10
2598.9755
 20
1202.4684
 11
2599.2752
 21
1202.7683
  0
LINE
  8
0_00
  6
CONTINUOUS
 62
6
 10
2598.0753
 20
1205.7683
 11
2598.0753
 21
1209.6786
  0
LINE
  8
0_00
  6
DASHED
 62
6
 10
2577.7753
 20
1216.1683
 11
2578.0753
 21
1216.4685
  0
LINE
  8
0_00
  6
CONTINUOUS
 62
6
 10
2563.0652
 20
1215.2684
 11
2592.4857
 21
1215.2684
  0
LINE
  8
0_00
  6
CONTINUOUS
 62
6
 10
2597.2754
 20
1202.4684
 11
2597.2754
 21
1204.9685
  0
LINE
  8
0_00
  6
CONTINUOUS
 62
6
 10
2598.0753
 20
1205.7683
 11
2597.2754
 21
1204.9685
  0
LINE
  8
0_00
  6
DASHED
 62
6
 10
2577.7753
 20
1216.1683
 11
2577.4756
 21
1216.4685
  0
LINE
  8
0_00
  6
DASHED
 62
6
 10
2577.7753
 20
1216.1683
 11
2578.0753
 21
1216.4685
  0
LINE
  8
0_00
  6
CONTINUOUS
 62
6
 10
2599.2752
 20
1190.9684
 11
2599.2752
 21
1202.1684
  0
LINE
  8
0_00
  6
CONTINUOUS
 62
6
 10
2596.7752
 20
1188.4684
 11
2578.0753
 21
1188.4684
  0
LINE
  8
0_00
  6
DASHED
 62
6
 10
2598.9755
 20
1202.4684
 11
2599.2752
 21
1202.1684
  0
LINE
  8
0_00
  6
CONTINUOUS
 62
6
 10
2598.0753
 20
1199.1683
 11
2598.0753
 21
1195.2582
  0
LINE
  8
0_00
  6
DASHED
 62
6
 10
2577.7753
 20
1188.7683
 11
2578.0753
 21
1188.4684
  0
LINE
  8
0_00
  6
CONTINUOUS
 62
6
 10
2563.0652
 20
1189.6684
 11
2592.4857
 21
1189.6684
  0
LINE
  8
0_00
  6
CONTINUOUS
 62
6
 10
2597.2754
 20
1202.4684
 11
2597.2754
 21
1199.9684
  0
LINE
  8
0_00
  6
CONTINUOUS
 62
6
 10
2598.0753
 20
1199.1683
 11
2597.2754
 21
1199.9684
  0
LINE
  8
0_00
  6
DASHED
 62
6
 10
2577.7753
 20
1188.7683
 11
2577.4756
 21
1188.4684
  0
LINE
  8
0_00
  6
DASHED
 62
6
 10
2577.7753
 20
1188.7683
 11
2578.0753
 21
1188.4684
  0
LINE
  8
0_00
  6
CONTINUOUS
 62
6
 10
2559.2270
 20
1190.3593
 11
2558.8914
 21
1190.0238
  0
LINE
  8
0_00
  6
CONTINUOUS
 62
6
 10
2558.8914
 20
1190.0238
 11
2557.8310
 21
1191.0845
  0
LINE
  8
0_00
  6
CONTINUOUS
 62
6
 10
2557.8310
 20
1191.0845
 11
2558.1662
 21
1191.4200
  0
LINE
  8
0_00
  6
CONTINUOUS
 62
6
 10
2558.1662
 20
1192.5168
 11
2557.8310
 21
1192.8522
  0
LINE
  8
0_00
  6
CONTINUOUS
 62
6
 10
2557.8310
 20
1192.8522
 11
2558.8914
 21
1193.9130
  0
LINE
  8
0_00
  6
CONTINUOUS
 62
6
 10
2558.8914
 20
1193.9130
 11
2559.2270
 21
1193.5776
  0
LINE
  8
0_00
  6
CONTINUOUS
 62
6
 10
2561.3846
 20
1191.4200
 11
2561.7197
 21
1191.0845
  0
LINE
  8
0_00
  6
CONTINUOUS
 62
6
 10
2561.7197
 20
1191.0845
 11
2560.6592
 21
1190.0238
  0
LINE
  8
0_00
  6
CONTINUOUS
 62
6
 10
2560.6592
 20
1190.0238
 11
2560.3238
 21
1190.3593
  0
LINE
  8
0_00
  6
CONTINUOUS
 62
6
 10
2559.2270
 20
1214.5776
 11
2558.8914
 21
1214.9131
  0
LINE
  8
0_00
  6
CONTINUOUS
 62
6
 10
2558.8914
 20
1214.9131
 11
2557.8310
 21
1213.8522
  0
LINE
  8
0_00
  6
CONTINUOUS
 62
6
 10
2557.8310
 20
1213.8522
 11
2558.1662
 21
1213.5168
  0
LINE
  8
0_00
  6
CONTINUOUS
 62
6
 10
2558.1662
 20
1212.4200
 11
2557.8310
 21
1212.0846
  0
LINE
  8
0_00
  6
CONTINUOUS
 62
6
 10
2557.8310
 20
1212.0846
 11
2558.8914
 21
1211.0238
  0
LINE
  8
0_00
  6
CONTINUOUS
 62
6
 10
2558.8914
 20
1211.0238
 11
2559.2270
 21
1211.3593
  0
LINE
  8
0_00
  6
CONTINUOUS
 62
6
 10
2561.3846
 20
1213.5168
 11
2561.7197
 21
1213.8522
  0
LINE
  8
0_00
  6
CONTINUOUS
 62
6
 10
2561.7197
 20
1213.8522
 11
2560.6592
 21
1214.9131
  0
LINE
  8
0_00
  6
CONTINUOUS
 62
6
 10
2560.6592
 20
1214.9131
 11
2560.3238
 21
1214.5776
  0
LINE
  8
0_00
  6
CONTINUOUS
 62
6
 10
2596.3239
 20
1190.3593
 11
2596.6592
 21
1190.0238
  0
LINE
  8
0_00
  6
CONTINUOUS
 62
6
 10
2596.6592
 20
1190.0238
 11
2597.7197
 21
1191.0845
  0
LINE
  8
0_00
  6
CONTINUOUS
 62
6
 10
2597.7197
 20
1191.0845
 11
2597.3843
 21
1191.4200
  0
LINE
  8
0_00
  6
CONTINUOUS
 62
6
 10
2597.3843
 20
1192.5168
 11
2597.7197
 21
1192.8522
  0
LINE
  8
0_00
  6
CONTINUOUS
 62
6
 10
2597.7197
 20
1192.8522
 11
2596.6592
 21
1193.9130
  0
LINE
  8
0_00
  6
CONTINUOUS
 62
6
 10
2596.6592
 20
1193.9130
 11
2596.3239
 21
1193.5776
  0
LINE
  8
0_00
  6
CONTINUOUS
 62
6
 10
2594.1663
 20
1191.4200
 11
2593.8309
 21
1191.0845
  0
LINE
  8
0_00
  6
CONTINUOUS
 62
6
 10
2593.8309
 20
1191.0845
 11
2594.8914
 21
1190.0238
  0
LINE
  8
0_00
  6
CONTINUOUS
 62
6
 10
2594.8914
 20
1190.0238
 11
2595.2267
 21
1190.3593
  0
LINE
  8
0_00
  6
CONTINUOUS
 62
6
 10
2596.3239
 20
1214.5776
 11
2596.6592
 21
1214.9131
  0
LINE
  8
0_00
  6
CONTINUOUS
 62
6
 10
2596.6592
 20
1214.9131
 11
2597.7197
 21
1213.8522
  0
LINE
  8
0_00
  6
CONTINUOUS
 62
6
 10
2597.7197
 20
1213.8522
 11
2597.3843
 21
1213.5168
  0
LINE
  8
0_00
  6
CONTINUOUS
 62
6
 10
2597.3843
 20
1212.4200
 11
2597.7197
 21
1212.0846
  0
LINE
  8
0_00
  6
CONTINUOUS
 62
6
 10
2597.7197
 20
1212.0846
 11
2596.6592
 21
1211.0238
  0
LINE
  8
0_00
  6
CONTINUOUS
 62
6
 10
2596.6592
 20
1211.0238
 11
2596.3239
 21
1211.3593
  0
LINE
  8
0_00
  6
CONTINUOUS
 62
6
 10
2594.1663
 20
1213.5168
 11
2593.8309
 21
1213.8522
  0
LINE
  8
0_00
  6
CONTINUOUS
 62
6
 10
2593.8309
 20
1213.8522
 11
2594.8914
 21
1214.9131
  0
LINE
  8
0_00
  6
CONTINUOUS
 62
6
 10
2594.8914
 20
1214.9131
 11
2595.2267
 21
1214.5776
  0
LINE
  8
0_00
  6
CONTINUOUS
 62
6
 10
2577.7753
 20
1622.4684
 11
2577.7753
 21
1769.9998
  0
LINE
  8
0_00
  6
CONTINUOUS
 62
6
 10
2627.7753
 20
1622.4684
 11
2627.7753
 21
1769.9998
  0
LINE
  8
0_00
  6
CONTINUOUS
 62
6
 10
2577.7753
 20
1750.0000
 11
2627.7753
 21
1750.0000
  0
LINE
  8
0_00
  6
CONTINUOUS
 62
6
 10
2383.7753
 20
1750.0000
 11
2577.7753
 21
1750.0000
  0
LINE
  8
0_00
  6
CONTINUOUS
 62
6
 10
2577.7753
 20
1750.0000
 11
2553.3217
 21
1755.1976
  0
LINE
  8
0_00
  6
CONTINUOUS
 62
6
 10
2577.7753
 20
1750.0000
 11
2553.3217
 21
1744.8021
  0
LINE
  8
0_00
  6
CONTINUOUS
 62
6
 10
2687.7753
 20
1750.0000
 11
2627.7753
 21
1750.0000
  0
LINE
  8
0_00
  6
CONTINUOUS
 62
6
 10
2627.7753
 20
1750.0000
 11
2652.2290
 21
1744.8021
  0
LINE
  8
0_00
  6
CONTINUOUS
 62
6
 10
2627.7753
 20
1750.0000
 11
2652.2290
 21
1755.1976
  0
LINE
  8
0_00
  6
CONTINUOUS
 62
4
 10
3309.6255
 20
844.4051
 11
3531.6254
 21
844.4051
  0
LINE
  8
0_00
  6
CONTINUOUS
 62
6
 10
2440.0523
 20
1202.4684
 11
2339.7009
 21
1202.4684
  0
LINE
  8
0_00
  6
CONTINUOUS
 62
6
 10
2527.7751
 20
1452.4684
 11
2339.7009
 21
1452.4684
  0
LINE
  8
0_00
  6
CONTINUOUS
 62
6
 10
2359.7006
 20
1452.4684
 11
2359.7006
 21
1202.4684
  0
LINE
  8
0_00
  6
CONTINUOUS
 62
6
 10
2359.7006
 20
1452.4684
 11
2354.5030
 21
1428.0147
  0
LINE
  8
0_00
  6
CONTINUOUS
 62
6
 10
2359.7006
 20
1452.4684
 11
2364.8987
 21
1428.0147
  0
LINE
  8
0_00
  6
CONTINUOUS
 62
6
 10
2359.7006
 20
1202.4684
 11
2364.8987
 21
1226.9221
  0
LINE
  8
0_00
  6
CONTINUOUS
 62
6
 10
2359.7006
 20
1202.4684
 11
2354.5030
 21
1226.9221
  0
LINE
  8
0_00
  6
CONTINUOUS
 62
6
 10
3260.2753
 20
1622.4684
 11
3260.2753
 21
1699.9998
  0
LINE
  8
0_00
  6
CONTINUOUS
 62
6
 10
3295.2750
 20
1622.4684
 11
3295.2750
 21
1699.9998
  0
LINE
  8
0_00
  6
CONTINUOUS
 62
6
 10
3260.2753
 20
1680.0000
 11
3295.2750
 21
1680.0000
  0
LINE
  8
0_00
  6
CONTINUOUS
 62
6
 10
3393.2751
 20
1680.0000
 11
3295.2750
 21
1680.0000
  0
LINE
  8
0_00
  6
CONTINUOUS
 62
6
 10
3295.2750
 20
1680.0000
 11
3319.7290
 21
1674.8021
  0
LINE
  8
0_00
  6
CONTINUOUS
 62
6
 10
3295.2750
 20
1680.0000
 11
3319.7290
 21
1685.1978
  0
LINE
  8
0_00
  6
CONTINUOUS
 62
6
 10
3200.2753
 20
1680.0000
 11
3260.2753
 21
1680.0000
  0
LINE
  8
0_00
  6
CONTINUOUS
 62
6
 10
3260.2753
 20
1680.0000
 11
3235.8215
 21
1685.1978
  0
LINE
  8
0_00
  6
CONTINUOUS
 62
6
 10
3260.2753
 20
1680.0000
 11
3235.8215
 21
1674.8021
  0
LINE
  8
0_00
  6
CONTINUOUS
 62
6
 10
2577.7753
 20
1572.4684
 11
2577.7753
 21
1699.9998
  0
LINE
  8
0_00
  6
CONTINUOUS
 62
6
 10
2608.7753
 20
1622.4684
 11
2608.7753
 21
1699.9998
  0
LINE
  8
0_00
  6
CONTINUOUS
 62
6
 10
2577.7753
 20
1680.0000
 11
2608.7753
 21
1680.0000
  0
LINE
  8
0_00
  6
CONTINUOUS
 62
6
 10
2490.6401
 20
1680.0000
 11
2577.7753
 21
1680.0000
  0
LINE
  8
0_00
  6
CONTINUOUS
 62
6
 10
2577.7753
 20
1680.0000
 11
2553.3217
 21
1685.1978
  0
LINE
  8
0_00
  6
CONTINUOUS
 62
6
 10
2577.7753
 20
1680.0000
 11
2553.3217
 21
1674.8021
  0
LINE
  8
0_00
  6
CONTINUOUS
 62
6
 10
2668.7753
 20
1680.0000
 11
2608.7753
 21
1680.0000
  0
LINE
  8
0_00
  6
CONTINUOUS
 62
6
 10
2608.7753
 20
1680.0000
 11
2633.2288
 21
1674.8021
  0
LINE
  8
0_00
  6
CONTINUOUS
 62
6
 10
2608.7753
 20
1680.0000
 11
2633.2288
 21
1685.1978
  0
LINE
  8
0_00
  6
CONTINUOUS
 62
6
 10
2989.7009
 20
1422.4684
 11
2989.7009
 21
1482.4684
  0
LINE
  8
0_00
  6
CONTINUOUS
 62
6
 10
2989.7009
 20
1261.9999
 11
2989.7009
 21
1422.4684
  0
LINE
  8
0_00
  6
CONTINUOUS
 62
6
 10
2989.7009
 20
1422.4684
 11
2984.5032
 21
1398.0147
  0
LINE
  8
0_00
  6
CONTINUOUS
 62
6
 10
2989.7009
 20
1422.4684
 11
2994.8984
 21
1398.0147
  0
LINE
  8
0_00
  6
CONTINUOUS
 62
6
 10
2989.7009
 20
1542.4684
 11
2989.7009
 21
1482.4684
  0
LINE
  8
0_00
  6
CONTINUOUS
 62
6
 10
2989.7009
 20
1482.4684
 11
2994.8984
 21
1506.9220
  0
LINE
  8
0_00
  6
CONTINUOUS
 62
6
 10
2989.7009
 20
1482.4684
 11
2984.5032
 21
1506.9220
  0
LINE
  8
0_00
  6
CONTINUOUS
 62
4
 10
2556.2753
 20
690.9685
 11
2556.2753
 21
702.1684
  0
LINE
  8
0_00
  6
CONTINUOUS
 62
4
 10
2558.7752
 20
688.4685
 11
2577.4756
 21
688.4685
  0
LINE
  8
0_00
  6
CONTINUOUS
 62
4
 10
2556.5752
 20
702.4685
 11
2556.2753
 21
702.1684
  0
LINE
  8
0_00
  6
CONTINUOUS
 62
4
 10
2557.4754
 20
699.1684
 11
2557.4754
 21
695.2582
  0
LINE
  8
0_00
  6
CONTINUOUS
 62
4
 10
2577.7753
 20
688.7685
 11
2577.4756
 21
688.4685
  0
LINE
  8
0_00
  6
CONTINUOUS
 62
4
 10
2558.2753
 20
702.4685
 11
2558.2753
 21
699.9685
  0
LINE
  8
0_00
  6
CONTINUOUS
 62
4
 10
2557.4754
 20
699.1684
 11
2558.2753
 21
699.9685
  0
LINE
  8
0_00
  6
CONTINUOUS
 62
4
 10
2577.7753
 20
688.7685
 11
2578.0753
 21
688.4685
  0
LINE
  8
0_00
  6
CONTINUOUS
 62
4
 10
2577.7753
 20
688.7685
 11
2577.4756
 21
688.4685
  0
LINE
  8
0_00
  6
CONTINUOUS
 62
4
 10
2556.2753
 20
713.9685
 11
2556.2753
 21
702.7684
  0
LINE
  8
0_00
  6
CONTINUOUS
 62
4
 10
2558.7752
 20
716.4684
 11
2577.4756
 21
716.4684
  0
LINE
  8
0_00
  6
CONTINUOUS
 62
4
 10
2556.5752
 20
702.4685
 11
2556.2753
 21
702.7684
  0
LINE
  8
0_00
  6
CONTINUOUS
 62
4
 10
2557.4754
 20
705.7684
 11
2557.4754
 21
709.6786
  0
LINE
  8
0_00
  6
CONTINUOUS
 62
4
 10
2577.7753
 20
716.1684
 11
2577.4756
 21
716.4684
  0
LINE
  8
0_00
  6
CONTINUOUS
 62
4
 10
2558.2753
 20
702.4685
 11
2558.2753
 21
704.9685
  0
LINE
  8
0_00
  6
CONTINUOUS
 62
4
 10
2557.4754
 20
705.7684
 11
2558.2753
 21
704.9685
  0
LINE
  8
0_00
  6
CONTINUOUS
 62
4
 10
2577.7753
 20
716.1684
 11
2578.0753
 21
716.4684
  0
LINE
  8
0_00
  6
CONTINUOUS
 62
4
 10
2577.7753
 20
716.1684
 11
2577.4756
 21
716.4684
  0
LINE
  8
0_00
  6
CONTINUOUS
 62
4
 10
2599.2752
 20
690.9685
 11
2599.2752
 21
702.1684
  0
LINE
  8
0_00
  6
CONTINUOUS
 62
4
 10
2596.7752
 20
688.4685
 11
2578.0753
 21
688.4685
  0
LINE
  8
0_00
  6
CONTINUOUS
 62
4
 10
2598.9755
 20
702.4685
 11
2599.2752
 21
702.1684
  0
LINE
  8
0_00
  6
CONTINUOUS
 62
4
 10
2598.0753
 20
699.1684
 11
2598.0753
 21
695.2582
  0
LINE
  8
0_00
  6
CONTINUOUS
 62
4
 10
2577.7753
 20
688.7685
 11
2578.0753
 21
688.4685
  0
LINE
  8
0_00
  6
CONTINUOUS
 62
4
 10
2563.0652
 20
689.6684
 11
2592.4857
 21
689.6684
  0
LINE
  8
0_00
  6
CONTINUOUS
 62
4
 10
2597.2754
 20
702.4685
 11
2597.2754
 21
699.9685
  0
LINE
  8
0_00
  6
CONTINUOUS
 62
4
 10
2598.0753
 20
699.1684
 11
2597.2754
 21
699.9685
  0
LINE
  8
0_00
  6
CONTINUOUS
 62
4
 10
2577.7753
 20
688.7685
 11
2577.4756
 21
688.4685
  0
LINE
  8
0_00
  6
CONTINUOUS
 62
4
 10
2577.7753
 20
688.7685
 11
2578.0753
 21
688.4685
  0
LINE
  8
0_00
  6
CONTINUOUS
 62
4
 10
2599.2752
 20
713.9685
 11
2599.2752
 21
702.7684
  0
LINE
  8
0_00
  6
CONTINUOUS
 62
4
 10
2596.7752
 20
716.4684
 11
2578.0753
 21
716.4684
  0
LINE
  8
0_00
  6
CONTINUOUS
 62
4
 10
2598.9755
 20
702.4685
 11
2599.2752
 21
702.7684
  0
LINE
  8
0_00
  6
CONTINUOUS
 62
4
 10
2598.0753
 20
705.7684
 11
2598.0753
 21
709.6786
  0
LINE
  8
0_00
  6
CONTINUOUS
 62
4
 10
2577.7753
 20
716.1684
 11
2578.0753
 21
716.4684
  0
LINE
  8
0_00
  6
CONTINUOUS
 62
4
 10
2563.0652
 20
715.2685
 11
2592.4857
 21
715.2685
  0
LINE
  8
0_00
  6
CONTINUOUS
 62
4
 10
2597.2754
 20
702.4685
 11
2597.2754
 21
704.9685
  0
LINE
  8
0_00
  6
CONTINUOUS
 62
4
 10
2598.0753
 20
705.7684
 11
2597.2754
 21
704.9685
  0
LINE
  8
0_00
  6
CONTINUOUS
 62
4
 10
2577.7753
 20
716.1684
 11
2577.4756
 21
716.4684
  0
LINE
  8
0_00
  6
CONTINUOUS
 62
4
 10
2577.7753
 20
716.1684
 11
2578.0753
 21
716.4684
  0
LINE
  8
0_00
  6
CONTINUOUS
 62
4
 10
2559.2270
 20
714.5776
 11
2558.8914
 21
714.9129
  0
LINE
  8
0_00
  6
CONTINUOUS
 62
4
 10
2558.8914
 20
714.9129
 11
2557.8310
 21
713.8523
  0
LINE
  8
0_00
  6
CONTINUOUS
 62
4
 10
2557.8310
 20
713.8523
 11
2558.1662
 21
713.5168
  0
LINE
  8
0_00
  6
CONTINUOUS
 62
4
 10
2558.1662
 20
712.4200
 11
2557.8310
 21
712.0846
  0
LINE
  8
0_00
  6
CONTINUOUS
 62
4
 10
2557.8310
 20
712.0846
 11
2558.8914
 21
711.0239
  0
LINE
  8
0_00
  6
CONTINUOUS
 62
4
 10
2558.8914
 20
711.0239
 11
2559.2270
 21
711.3593
  0
LINE
  8
0_00
  6
CONTINUOUS
 62
4
 10
2561.3846
 20
713.5168
 11
2561.7197
 21
713.8523
  0
LINE
  8
0_00
  6
CONTINUOUS
 62
4
 10
2561.7197
 20
713.8523
 11
2560.6592
 21
714.9129
  0
LINE
  8
0_00
  6
CONTINUOUS
 62
4
 10
2560.6592
 20
714.9129
 11
2560.3238
 21
714.5776
  0
LINE
  8
0_00
  6
CONTINUOUS
 62
4
 10
2559.2270
 20
690.3593
 11
2558.8914
 21
690.0239
  0
LINE
  8
0_00
  6
CONTINUOUS
 62
4
 10
2558.8914
 20
690.0239
 11
2557.8310
 21
691.0846
  0
LINE
  8
0_00
  6
CONTINUOUS
 62
4
 10
2557.8310
 20
691.0846
 11
2558.1662
 21
691.4200
  0
LINE
  8
0_00
  6
CONTINUOUS
 62
4
 10
2558.1662
 20
692.5169
 11
2557.8310
 21
692.8523
  0
LINE
  8
0_00
  6
CONTINUOUS
 62
4
 10
2557.8310
 20
692.8523
 11
2558.8914
 21
693.9130
  0
LINE
  8
0_00
  6
CONTINUOUS
 62
4
 10
2558.8914
 20
693.9130
 11
2559.2270
 21
693.5775
  0
LINE
  8
0_00
  6
CONTINUOUS
 62
4
 10
2561.3846
 20
691.4200
 11
2561.7197
 21
691.0846
  0
LINE
  8
0_00
  6
CONTINUOUS
 62
4
 10
2561.7197
 20
691.0846
 11
2560.6592
 21
690.0239
  0
LINE
  8
0_00
  6
CONTINUOUS
 62
4
 10
2560.6592
 20
690.0239
 11
2560.3238
 21
690.3593
  0
LINE
  8
0_00
  6
CONTINUOUS
 62
4
 10
2596.3239
 20
714.5776
 11
2596.6592
 21
714.9129
  0
LINE
  8
0_00
  6
CONTINUOUS
 62
4
 10
2596.6592
 20
714.9129
 11
2597.7197
 21
713.8523
  0
LINE
  8
0_00
  6
CONTINUOUS
 62
4
 10
2597.7197
 20
713.8523
 11
2597.3843
 21
713.5168
  0
LINE
  8
0_00
  6
CONTINUOUS
 62
4
 10
2597.3843
 20
712.4200
 11
2597.7197
 21
712.0846
  0
LINE
  8
0_00
  6
CONTINUOUS
 62
4
 10
2597.7197
 20
712.0846
 11
2596.6592
 21
711.0239
  0
LINE
  8
0_00
  6
CONTINUOUS
 62
4
 10
2596.6592
 20
711.0239
 11
2596.3239
 21
711.3593
  0
LINE
  8
0_00
  6
CONTINUOUS
 62
4
 10
2594.1663
 20
713.5168
 11
2593.8309
 21
713.8523
  0
LINE
  8
0_00
  6
CONTINUOUS
 62
4
 10
2593.8309
 20
713.8523
 11
2594.8914
 21
714.9129
  0
LINE
  8
0_00
  6
CONTINUOUS
 62
4
 10
2594.8914
 20
714.9129
 11
2595.2267
 21
714.5776
  0
LINE
  8
0_00
  6
CONTINUOUS
 62
4
 10
2596.3239
 20
690.3593
 11
2596.6592
 21
690.0239
  0
LINE
  8
0_00
  6
CONTINUOUS
 62
4
 10
2596.6592
 20
690.0239
 11
2597.7197
 21
691.0846
  0
LINE
  8
0_00
  6
CONTINUOUS
 62
4
 10
2597.7197
 20
691.0846
 11
2597.3843
 21
691.4200
  0
LINE
  8
0_00
  6
CONTINUOUS
 62
4
 10
2597.3843
 20
692.5169
 11
2597.7197
 21
692.8523
  0
LINE
  8
0_00
  6
CONTINUOUS
 62
4
 10
2597.7197
 20
692.8523
 11
2596.6592
 21
693.9130
  0
LINE
  8
0_00
  6
CONTINUOUS
 62
4
 10
2596.6592
 20
693.9130
 11
2596.3239
 21
693.5775
  0
LINE
  8
0_00
  6
CONTINUOUS
 62
4
 10
2594.1663
 20
691.4200
 11
2593.8309
 21
691.0846
  0
LINE
  8
0_00
  6
CONTINUOUS
 62
4
 10
2593.8309
 20
691.0846
 11
2594.8914
 21
690.0239
  0
LINE
  8
0_00
  6
CONTINUOUS
 62
4
 10
2594.8914
 20
690.0239
 11
2595.2267
 21
690.3593
  0
LINE
  8
0_00
  6
CONTINUOUS
 62
4
 10
2488.3165
 20
517.4289
 11
2487.8026
 21
576.2978
  0
LINE
  8
0_00
  6
CONTINUOUS
 62
4
 10
2490.9024
 20
579.3224
 11
2664.8499
 21
573.5241
  0
LINE
  8
0_00
  6
CONTINUOUS
 62
4
 10
2667.7499
 20
570.4996
 11
2667.2781
 21
516.4288
  0
LINE
  8
0_00
  6
CONTINUOUS
 62
4
 10
2495.1294
 20
514.6869
 11
2491.3423
 21
514.4552
  0
LINE
  8
0_00
  6
CONTINUOUS
 62
4
 10
2664.2517
 20
513.4550
 11
2660.4651
 21
513.6867
  0
LINE
  8
0_00
  6
CONTINUOUS
 62
4
 10
2532.4654
 20
576.1359
 11
2532.7753
 21
576.4257
  0
LINE
  8
0_00
  6
CONTINUOUS
 62
4
 10
2532.7753
 20
576.4257
 11
2533.0652
 21
576.1159
  0
LINE
  8
0_00
  6
CONTINUOUS
 62
4
 10
2533.0652
 20
576.1159
 11
2533.3749
 21
576.4058
  0
LINE
  8
0_00
  6
CONTINUOUS
 62
4
 10
2532.4654
 20
576.1359
 11
2532.1756
 21
576.4458
  0
LINE
  8
0_00
  6
CONTINUOUS
 62
4
 10
2577.4652
 20
574.6358
 11
2577.7753
 21
574.9257
  0
LINE
  8
0_00
  6
CONTINUOUS
 62
4
 10
2577.7753
 20
574.9257
 11
2578.0655
 21
574.6159
  0
LINE
  8
0_00
  6
CONTINUOUS
 62
4
 10
2578.0655
 20
574.6159
 11
2578.3752
 21
574.9058
  0
LINE
  8
0_00
  6
CONTINUOUS
 62
4
 10
2577.4652
 20
574.6358
 11
2577.1756
 21
574.9458
  0
LINE
  8
0_00
  6
CONTINUOUS
 62
4
 10
2622.4658
 20
573.1359
 11
2622.7753
 21
573.4258
  0
LINE
  8
0_00
  6
CONTINUOUS
 62
4
 10
2622.7753
 20
573.4258
 11
2623.0652
 21
573.1159
  0
LINE
  8
0_00
  6
CONTINUOUS
 62
4
 10
2623.0652
 20
573.1159
 11
2623.3749
 21
573.4058
  0
LINE
  8
0_00
  6
CONTINUOUS
 62
4
 10
2622.4658
 20
573.1359
 11
2622.1756
 21
573.4457
  0
LINE
  8
0_00
  6
CONTINUOUS
 62
4
 10
2665.9454
 20
535.6412
 11
2665.6485
 21
535.9438
  0
LINE
  8
0_00
  6
CONTINUOUS
 62
4
 10
2665.6485
 20
535.9438
 11
2665.9506
 21
536.2412
  0
LINE
  8
0_00
  6
CONTINUOUS
 62
4
 10
2665.9891
 20
540.6410
 11
2665.6918
 21
540.9436
  0
LINE
  8
0_00
  6
CONTINUOUS
 62
4
 10
2665.6918
 20
540.9436
 11
2665.9946
 21
541.2410
  0
LINE
  8
0_00
  6
CONTINUOUS
 62
4
 10
2666.0330
 20
545.6408
 11
2665.7355
 21
545.9434
  0
LINE
  8
0_00
  6
CONTINUOUS
 62
4
 10
2665.7355
 20
545.9434
 11
2666.0379
 21
546.2408
  0
LINE
  8
0_00
  6
CONTINUOUS
 62
4
 10
2666.0764
 20
550.6406
 11
2665.7791
 21
550.9433
  0
LINE
  8
0_00
  6
CONTINUOUS
 62
4
 10
2665.7791
 20
550.9433
 11
2666.0815
 21
551.2406
  0
LINE
  8
0_00
  6
CONTINUOUS
 62
4
 10
2495.0378
 20
516.1840
 11
2494.0211
 21
516.1219
  0
LINE
  8
0_00
  6
CONTINUOUS
 62
4
 10
2493.6218
 20
516.0975
 11
2491.2965
 21
515.9552
  0
LINE
  8
0_00
  6
CONTINUOUS
 62
4
 10
2489.8161
 20
517.4421
 11
2489.3025
 21
576.3109
  0
LINE
  8
0_00
  6
CONTINUOUS
 62
4
 10
2490.8525
 20
577.8231
 11
2532.1756
 21
576.4458
  0
LINE
  8
0_00
  6
CONTINUOUS
 62
4
 10
2533.3749
 20
576.4058
 11
2563.6758
 21
575.3957
  0
LINE
  8
0_00
  6
CONTINUOUS
 62
4
 10
2564.8752
 20
575.3557
 11
2577.1756
 21
574.9458
  0
LINE
  8
0_00
  6
CONTINUOUS
 62
4
 10
2578.3752
 20
574.9058
 11
2590.6757
 21
574.4958
  0
LINE
  8
0_00
  6
CONTINUOUS
 62
4
 10
2591.8753
 20
574.4558
 11
2622.1756
 21
573.4457
  0
LINE
  8
0_00
  6
CONTINUOUS
 62
4
 10
2623.3749
 20
573.4058
 11
2664.7998
 21
572.0250
  0
LINE
  8
0_00
  6
CONTINUOUS
 62
4
 10
2666.2500
 20
570.5127
 11
2666.0815
 21
551.2406
  0
LINE
  8
0_00
  6
CONTINUOUS
 62
4
 10
2666.0764
 20
550.6406
 11
2666.0379
 21
546.2408
  0
LINE
  8
0_00
  6
CONTINUOUS
 62
4
 10
2666.0330
 20
545.6408
 11
2665.9946
 21
541.2410
  0
LINE
  8
0_00
  6
CONTINUOUS
 62
4
 10
2665.9891
 20
540.6410
 11
2665.9506
 21
536.2412
  0
LINE
  8
0_00
  6
CONTINUOUS
 62
4
 10
2665.9454
 20
535.6412
 11
2665.7779
 21
516.4418
  0
LINE
  8
0_00
  6
CONTINUOUS
 62
4
 10
2664.2975
 20
514.9551
 11
2660.5566
 21
515.1839
  0
LINE
  8
0_00
  6
CONTINUOUS
 62
4
 10
2493.6218
 20
516.0975
 11
2493.8336
 21
515.9101
  0
LINE
  8
0_00
  6
CONTINUOUS
 62
4
 10
2493.8336
 20
515.9101
 11
2494.0211
 21
516.1219
  0
LINE
  8
0_00
  6
CONTINUOUS
 62
4
 10
2563.9655
 20
575.0859
 11
2564.2752
 21
575.3758
  0
LINE
  8
0_00
  6
CONTINUOUS
 62
4
 10
2564.2752
 20
575.3758
 11
2564.5654
 21
575.0659
  0
LINE
  8
0_00
  6
CONTINUOUS
 62
4
 10
2564.5654
 20
575.0659
 11
2564.8752
 21
575.3557
  0
LINE
  8
0_00
  6
CONTINUOUS
 62
4
 10
2563.6758
 20
575.3957
 11
2563.9655
 21
575.0859
  0
LINE
  8
0_00
  6
CONTINUOUS
 62
4
 10
2590.9653
 20
574.1859
 11
2591.2750
 21
574.4757
  0
LINE
  8
0_00
  6
CONTINUOUS
 62
4
 10
2591.2750
 20
574.4757
 11
2591.5652
 21
574.1659
  0
LINE
  8
0_00
  6
CONTINUOUS
 62
4
 10
2591.5652
 20
574.1659
 11
2591.8753
 21
574.4558
  0
LINE
  8
0_00
  6
CONTINUOUS
 62
4
 10
2590.6757
 20
574.4958
 11
2590.9653
 21
574.1859
  0
LINE
  8
0_00
  6
CONTINUOUS
 62
4
 10
3906.5527
 20
1569.3411
 11
3914.3506
 21
1335.3938
  0
LINE
  8
0_00
  6
CONTINUOUS
 62
4
 10
3968.4460
 20
1571.9273
 11
3909.5773
 21
1572.4411
  0
LINE
  8
0_00
  6
CONTINUOUS
 62
4
 10
3971.4462
 20
1332.9657
 11
3917.3755
 21
1332.4940
  0
LINE
  8
0_00
  6
CONTINUOUS
 62
4
 10
3971.2054
 20
1565.3981
 11
3971.4197
 21
1568.9012
  0
LINE
  8
0_00
  6
CONTINUOUS
 62
4
 10
3974.4202
 20
1335.9920
 11
3974.2059
 21
1339.4951
  0
LINE
  8
0_00
  6
CONTINUOUS
 62
4
 10
3911.3397
 20
1497.7782
 11
3911.0495
 21
1497.4684
  0
LINE
  8
0_00
  6
CONTINUOUS
 62
4
 10
3911.0495
 20
1497.4684
 11
3911.3596
 21
1497.1785
  0
LINE
  8
0_00
  6
CONTINUOUS
 62
4
 10
3911.3397
 20
1497.7782
 11
3911.0297
 21
1498.0679
  0
LINE
  8
0_00
  6
CONTINUOUS
 62
4
 10
3911.3596
 20
1497.1785
 11
3911.0696
 21
1496.8686
  0
LINE
  8
0_00
  6
CONTINUOUS
 62
4
 10
3914.3396
 20
1407.7782
 11
3914.0497
 21
1407.4684
  0
LINE
  8
0_00
  6
CONTINUOUS
 62
4
 10
3914.0497
 20
1407.4684
 11
3914.3597
 21
1407.1785
  0
LINE
  8
0_00
  6
CONTINUOUS
 62
4
 10
3914.3396
 20
1407.7782
 11
3914.0295
 21
1408.0681
  0
LINE
  8
0_00
  6
CONTINUOUS
 62
4
 10
3914.3597
 20
1407.1785
 11
3914.0695
 21
1406.8687
  0
LINE
  8
0_00
  6
CONTINUOUS
 62
4
 10
3912.8397
 20
1452.7782
 11
3912.5497
 21
1452.4684
  0
LINE
  8
0_00
  6
CONTINUOUS
 62
4
 10
3912.5497
 20
1452.4684
 11
3912.8598
 21
1452.1785
  0
LINE
  8
0_00
  6
CONTINUOUS
 62
4
 10
3912.8397
 20
1452.7782
 11
3912.5296
 21
1453.0681
  0
LINE
  8
0_00
  6
CONTINUOUS
 62
4
 10
3912.8598
 20
1452.1785
 11
3912.5696
 21
1451.8687
  0
LINE
  8
0_00
  6
CONTINUOUS
 62
4
 10
3947.2287
 20
1334.8546
 11
3946.9260
 21
1335.1518
  0
LINE
  8
0_00
  6
CONTINUOUS
 62
4
 10
3946.9260
 20
1335.1518
 11
3946.6287
 21
1334.8492
  0
LINE
  8
0_00
  6
CONTINUOUS
 62
4
 10
3942.2290
 20
1334.8109
 11
3941.9263
 21
1335.1083
  0
LINE
  8
0_00
  6
CONTINUOUS
 62
4
 10
3941.9263
 20
1335.1083
 11
3941.6293
 21
1334.8058
  0
LINE
  8
0_00
  6
CONTINUOUS
 62
4
 10
3972.1097
 20
1339.3669
 11
3972.3196
 21
1335.9346
  0
LINE
  8
0_00
  6
CONTINUOUS
 62
4
 10
3971.4279
 20
1335.0658
 11
3947.2287
 21
1334.8546
  0
LINE
  8
0_00
  6
CONTINUOUS
 62
4
 10
3946.6287
 20
1334.8492
 11
3942.2290
 21
1334.8109
  0
LINE
  8
0_00
  6
CONTINUOUS
 62
4
 10
3941.6293
 20
1334.8058
 11
3917.3572
 21
1334.5940
  0
LINE
  8
0_00
  6
CONTINUOUS
 62
4
 10
3916.4499
 20
1335.4637
 11
3914.0695
 21
1406.8687
  0
LINE
  8
0_00
  6
CONTINUOUS
 62
4
 10
3914.0295
 20
1408.0681
 11
3913.0197
 21
1438.3687
  0
LINE
  8
0_00
  6
CONTINUOUS
 62
4
 10
3912.9797
 20
1439.5680
 11
3912.5696
 21
1451.8687
  0
LINE
  8
0_00
  6
CONTINUOUS
 62
4
 10
3912.5296
 20
1453.0681
 11
3912.1194
 21
1465.3687
  0
LINE
  8
0_00
  6
CONTINUOUS
 62
4
 10
3912.0795
 20
1466.5680
 11
3911.0696
 21
1496.8686
  0
LINE
  8
0_00
  6
CONTINUOUS
 62
4
 10
3911.0297
 20
1498.0679
 11
3908.6517
 21
1569.4112
  0
LINE
  8
0_00
  6
CONTINUOUS
 62
4
 10
3909.5587
 20
1570.3412
 11
3968.4277
 21
1569.8274
  0
LINE
  8
0_00
  6
CONTINUOUS
 62
4
 10
3969.3192
 20
1568.9584
 11
3969.1763
 21
1566.6240
  0
LINE
  8
0_00
  6
CONTINUOUS
 62
4
 10
3969.1522
 20
1566.2248
 11
3969.1098
 21
1565.5263
  0
LINE
  8
0_00
  6
CONTINUOUS
 62
4
 10
3969.1763
 20
1566.6240
 11
3969.3640
 21
1566.4122
  0
LINE
  8
0_00
  6
CONTINUOUS
 62
4
 10
3969.3640
 20
1566.4122
 11
3969.1522
 21
1566.2248
  0
LINE
  8
0_00
  6
CONTINUOUS
 62
4
 10
3912.3895
 20
1466.2782
 11
3912.0996
 21
1465.9685
  0
LINE
  8
0_00
  6
CONTINUOUS
 62
4
 10
3912.0996
 20
1465.9685
 11
3912.4094
 21
1465.6784
  0
LINE
  8
0_00
  6
CONTINUOUS
 62
4
 10
3912.4094
 20
1465.6784
 11
3912.1194
 21
1465.3687
  0
LINE
  8
0_00
  6
CONTINUOUS
 62
4
 10
3912.0795
 20
1466.5680
 11
3912.3895
 21
1466.2782
  0
LINE
  8
0_00
  6
CONTINUOUS
 62
4
 10
3913.2892
 20
1439.2783
 11
3912.9996
 21
1438.9685
  0
LINE
  8
0_00
  6
CONTINUOUS
 62
4
 10
3912.9996
 20
1438.9685
 11
3913.3093
 21
1438.6784
  0
LINE
  8
0_00
  6
CONTINUOUS
 62
4
 10
3913.3093
 20
1438.6784
 11
3913.0197
 21
1438.3687
  0
LINE
  8
0_00
  6
CONTINUOUS
 62
4
 10
3912.9797
 20
1439.5680
 11
3913.2892
 21
1439.2783
  0
LINE
  8
0_00
  6
CONTINUOUS
 62
2
 10
3267.2208
 20
622.5513
 11
3723.2211
 21
622.5513
  0
LINE
  8
0_00
  6
CONTINUOUS
 62
6
 10
638.0745
 20
1222.4684
 11
638.0745
 21
1490.0000
  0
LINE
  8
0_00
  6
CONTINUOUS
 62
6
 10
888.0745
 20
1299.3991
 11
888.0745
 21
1490.0000
  0
LINE
  8
0_00
  6
CONTINUOUS
 62
6
 10
638.0745
 20
1469.9998
 11
888.0745
 21
1469.9998
  0
LINE
  8
0_00
  6
CONTINUOUS
 62
6
 10
638.0745
 20
1469.9998
 11
662.5283
 21
1464.8021
  0
LINE
  8
0_00
  6
CONTINUOUS
 62
6
 10
638.0745
 20
1469.9998
 11
662.5283
 21
1475.1976
  0
LINE
  8
0_00
  6
CONTINUOUS
 62
6
 10
888.0745
 20
1469.9998
 11
863.6208
 21
1475.1976
  0
LINE
  8
0_00
  6
CONTINUOUS
 62
6
 10
888.0745
 20
1469.9998
 11
863.6208
 21
1464.8021
  0
LINE
  8
0_00
  6
CONTINUOUS
 62
6
 10
1788.0745
 20
1249.5531
 11
1788.0745
 21
1490.0000
  0
LINE
  8
0_00
  6
CONTINUOUS
 62
6
 10
888.0745
 20
1469.9998
 11
1788.0745
 21
1469.9998
  0
LINE
  8
0_00
  6
CONTINUOUS
 62
6
 10
888.0745
 20
1469.9998
 11
912.5282
 21
1464.8021
  0
LINE
  8
0_00
  6
CONTINUOUS
 62
6
 10
888.0745
 20
1469.9998
 11
912.5282
 21
1475.1976
  0
LINE
  8
0_00
  6
CONTINUOUS
 62
6
 10
1788.0745
 20
1469.9998
 11
1763.6208
 21
1475.1976
  0
LINE
  8
0_00
  6
CONTINUOUS
 62
6
 10
1788.0745
 20
1469.9998
 11
1763.6208
 21
1464.8021
  0
LINE
  8
0_00
  6
CONTINUOUS
 62
6
 10
888.0745
 20
1366.0510
 11
888.0745
 21
1420.0000
  0
LINE
  8
0_00
  6
CONTINUOUS
 62
6
 10
1338.0745
 20
1249.5531
 11
1338.0745
 21
1420.0000
  0
LINE
  8
0_00
  6
CONTINUOUS
 62
6
 10
888.0745
 20
1399.9998
 11
1338.0745
 21
1399.9998
  0
LINE
  8
0_00
  6
CONTINUOUS
 62
6
 10
888.0745
 20
1399.9998
 11
912.5282
 21
1394.8022
  0
LINE
  8
0_00
  6
CONTINUOUS
 62
6
 10
888.0745
 20
1399.9998
 11
912.5282
 21
1405.1976
  0
LINE
  8
0_00
  6
CONTINUOUS
 62
6
 10
1338.0745
 20
1399.9998
 11
1313.6208
 21
1405.1976
  0
LINE
  8
0_00
  6
CONTINUOUS
 62
6
 10
1338.0745
 20
1399.9998
 11
1313.6208
 21
1394.8022
  0
LINE
  8
0_00
  6
CONTINUOUS
 62
4
 10
1049.6735
 20
554.3084
 11
1583.6736
 21
554.3084
  0
LINE
  8
0_00
  6
CONTINUOUS
 62
6
 10
1149.3320
 20
1747.0871
 11
1029.9999
 21
1747.0871
  0
LINE
  8
0_00
  6
CONTINUOUS
 62
6
 10
1208.2819
 20
1845.6387
 11
1029.9999
 21
1845.6387
  0
LINE
  8
0_00
  6
CONTINUOUS
 62
6
 10
1050.0000
 20
1845.6387
 11
1050.0000
 21
1747.0871
  0
LINE
  8
0_00
  6
CONTINUOUS
 62
6
 10
1050.0000
 20
1905.6389
 11
1050.0000
 21
1845.6387
  0
LINE
  8
0_00
  6
CONTINUOUS
 62
6
 10
1050.0000
 20
1845.6387
 11
1055.1977
 21
1870.0923
  0
LINE
  8
0_00
  6
CONTINUOUS
 62
6
 10
1050.0000
 20
1845.6387
 11
1044.8022
 21
1870.0923
  0
LINE
  8
0_00
  6
CONTINUOUS
 62
6
 10
1050.0000
 20
1687.0869
 11
1050.0000
 21
1747.0871
  0
LINE
  8
0_00
  6
CONTINUOUS
 62
6
 10
1050.0000
 20
1747.0871
 11
1044.8022
 21
1722.6335
  0
LINE
  8
0_00
  6
CONTINUOUS
 62
6
 10
1050.0000
 20
1747.0871
 11
1055.1977
 21
1722.6335
  0
LINE
  8
0_00
  6
CONTINUOUS
 62
6
 10
1149.3320
 20
2086.5489
 11
1029.9999
 21
2086.5489
  0
LINE
  8
0_00
  6
CONTINUOUS
 62
6
 10
1213.1820
 20
2180.2667
 11
1029.9999
 21
2180.2667
  0
LINE
  8
0_00
  6
CONTINUOUS
 62
6
 10
1050.0000
 20
2180.2667
 11
1050.0000
 21
2086.5489
  0
LINE
  8
0_00
  6
CONTINUOUS
 62
6
 10
1050.0000
 20
2240.2667
 11
1050.0000
 21
2180.2667
  0
LINE
  8
0_00
  6
CONTINUOUS
 62
6
 10
1050.0000
 20
2180.2667
 11
1055.1977
 21
2204.7205
  0
LINE
  8
0_00
  6
CONTINUOUS
 62
6
 10
1050.0000
 20
2180.2667
 11
1044.8022
 21
2204.7205
  0
LINE
  8
0_00
  6
CONTINUOUS
 62
6
 10
1050.0000
 20
2026.5489
 11
1050.0000
 21
2086.5489
  0
LINE
  8
0_00
  6
CONTINUOUS
 62
6
 10
1050.0000
 20
2086.5489
 11
1044.8022
 21
2062.0953
  0
LINE
  8
0_00
  6
CONTINUOUS
 62
6
 10
1050.0000
 20
2086.5489
 11
1055.1977
 21
2062.0953
  0
LINE
  8
0_00
  6
CONTINUOUS
 62
6
 10
2577.7753
 20
1622.4684
 11
2577.7753
 21
1839.9998
  0
LINE
  8
0_00
  6
CONTINUOUS
 62
6
 10
2827.7753
 20
1663.9830
 11
2827.7753
 21
1839.9998
  0
LINE
  8
0_00
  6
CONTINUOUS
 62
6
 10
2577.7753
 20
1820.0000
 11
2827.7753
 21
1820.0000
  0
LINE
  8
0_00
  6
CONTINUOUS
 62
6
 10
2577.7753
 20
1820.0000
 11
2602.2290
 21
1814.8021
  0
LINE
  8
0_00
  6
CONTINUOUS
 62
6
 10
2577.7753
 20
1820.0000
 11
2602.2290
 21
1825.1976
  0
LINE
  8
0_00
  6
CONTINUOUS
 62
6
 10
2827.7753
 20
1820.0000
 11
2803.3218
 21
1825.1976
  0
LINE
  8
0_00
  6
CONTINUOUS
 62
6
 10
2827.7753
 20
1820.0000
 11
2803.3218
 21
1814.8021
  0
LINE
  8
0_00
  6
CONTINUOUS
 62
6
 10
3727.7753
 20
1599.5531
 11
3727.7753
 21
1839.9998
  0
LINE
  8
0_00
  6
CONTINUOUS
 62
6
 10
2827.7753
 20
1820.0000
 11
3727.7753
 21
1820.0000
  0
LINE
  8
0_00
  6
CONTINUOUS
 62
6
 10
2827.7753
 20
1820.0000
 11
2852.2293
 21
1814.8021
  0
LINE
  8
0_00
  6
CONTINUOUS
 62
6
 10
2827.7753
 20
1820.0000
 11
2852.2293
 21
1825.1976
  0
LINE
  8
0_00
  6
CONTINUOUS
 62
6
 10
3727.7753
 20
1820.0000
 11
3703.3215
 21
1825.1976
  0
LINE
  8
0_00
  6
CONTINUOUS
 62
6
 10
3727.7753
 20
1820.0000
 11
3703.3215
 21
1814.8021
  0
LINE
  8
0_00
  6
CONTINUOUS
 62
6
 10
2827.7753
 20
1716.0510
 11
2827.7753
 21
1769.9998
  0
LINE
  8
0_00
  6
CONTINUOUS
 62
6
 10
3277.7753
 20
1622.4684
 11
3277.7753
 21
1769.9998
  0
LINE
  8
0_00
  6
CONTINUOUS
 62
6
 10
2827.7753
 20
1750.0000
 11
3277.7753
 21
1750.0000
  0
LINE
  8
0_00
  6
CONTINUOUS
 62
6
 10
2827.7753
 20
1750.0000
 11
2852.2293
 21
1744.8021
  0
LINE
  8
0_00
  6
CONTINUOUS
 62
6
 10
2827.7753
 20
1750.0000
 11
2852.2293
 21
1755.1976
  0
LINE
  8
0_00
  6
CONTINUOUS
 62
6
 10
3277.7753
 20
1750.0000
 11
3253.3218
 21
1755.1976
  0
LINE
  8
0_00
  6
CONTINUOUS
 62
6
 10
3277.7753
 20
1750.0000
 11
3253.3218
 21
1744.8021
  0
LINE
  8
0_00
  6
CONTINUOUS
 62
4
 10
2989.3744
 20
904.3084
 11
3523.3743
 21
904.3084
  0
ARC
  8
0_00
  6
CONTINUOUS
 62
4
 10
1354.5746
 20
1193.3839
 40
1.0000
 50
0.0000
 51
85.7515
  0
ARC
  8
0_00
  6
CONTINUOUS
 62
4
 10
1321.5744
 20
1193.3839
 40
1.0000
 50
94.2484
 51
180.0000
  0
ARC
  8
0_00
  6
CONTINUOUS
 62
4
 10
1354.5746
 20
1011.5528
 40
1.0000
 50
274.2485
 51
360.0000
  0
ARC
  8
0_00
  6
CONTINUOUS
 62
4
 10
1321.5744
 20
1011.5528
 40
1.0000
 50
180.0000
 51
265.7516
  0
ARC
  8
0_00
  6
CONTINUOUS
 62
4
 10
547.1590
 20
585.9685
 40
1.0000
 50
184.2485
 51
270.0000
  0
ARC
  8
0_00
  6
CONTINUOUS
 62
4
 10
547.1590
 20
618.9685
 40
1.0000
 50
90.0000
 51
175.7515
  0
ARC
  8
0_00
  6
CONTINUOUS
 62
4
 10
728.9901
 20
585.9685
 40
1.0000
 50
270.0000
 51
355.7516
  0
ARC
  8
0_00
  6
CONTINUOUS
 62
4
 10
728.9901
 20
618.9685
 40
1.0000
 50
4.2484
 51
90.0000
  0
ARC
  8
0_00
  6
CONTINUOUS
 62
4
 10
1360.0319
 20
1748.0518
 40
0.2500
 50
90.0000
 51
180.0000
  0
ARC
  8
0_00
  6
CONTINUOUS
 62
4
 10
1375.5319
 20
1748.0518
 40
0.2500
 50
0.0000
 51
90.0000
  0
ARC
  8
0_00
  6
CONTINUOUS
 62
4
 10
1199.2819
 20
1745.5879
 40
1.5000
 50
88.0908
 51
180.0000
  0
ARC
  8
0_00
  6
CONTINUOUS
 62
4
 10
1199.2819
 20
1716.1388
 40
1.5000
 50
180.0000
 51
270.0000
  0
ARC
  8
2_02
  6
CONTINUOUS
 62
4
 10
1242.7820
 20
1744.8387
 40
101.1500
 50
89.8197
 51
97.0407
  0
ARC
  8
2_02
  6
CONTINUOUS
 62
4
 10
1230.7819
 20
1842.0007
 40
3.2500
 50
97.0407
 51
180.0000
  0
ARC
  8
2_02
  6
CONTINUOUS
 62
4
 10
1258.0319
 20
1845.7382
 40
0.2500
 50
0.0000
 51
90.0000
  0
ARC
  8
2_02
  6
CONTINUOUS
 62
4
 10
1258.0319
 20
1822.2388
 40
0.2500
 50
270.0000
 51
360.0000
  0
ARC
  8
2_02
  6
CONTINUOUS
 62
4
 10
1227.7819
 20
1822.2388
 40
0.2500
 50
180.0000
 51
270.0000
  0
ARC
  8
0_00
  6
CONTINUOUS
 62
4
 10
1810.0319
 20
1748.0518
 40
0.2500
 50
90.0000
 51
180.0000
  0
ARC
  8
0_00
  6
CONTINUOUS
 62
4
 10
1825.5318
 20
1748.0518
 40
0.2500
 50
0.0000
 51
90.0000
  0
ARC
  8
3_03
  6
CONTINUOUS
 62
4
 10
1601.0320
 20
1747.5729
 40
0.5000
 50
0.0000
 51
85.7515
  0
ARC
  8
3_03
  6
CONTINUOUS
 62
4
 10
1584.5319
 20
1747.5729
 40
0.5000
 50
94.2484
 51
180.0000
  0
ARC
  8
3_03
  6
CONTINUOUS
 62
4
 10
1601.0320
 20
1713.8513
 40
0.5000
 50
274.2485
 51
360.0000
  0
ARC
  8
3_03
  6
CONTINUOUS
 62
4
 10
1584.5319
 20
1713.8513
 40
0.5000
 50
180.0000
 51
265.7516
  0
ARC
  8
32_20
  6
CONTINUOUS
 62
4
 10
1230.4819
 20
2168.8397
 40
8.1000
 50
123.4747
 51
248.0903
  0
ARC
  8
32_20
  6
CONTINUOUS
 62
4
 10
1227.6461
 20
2161.7886
 40
0.5000
 50
248.0903
 51
270.0000
  0
ARC
  8
32_20
  6
CONTINUOUS
 62
4
 10
1257.9179
 20
2161.7886
 40
0.5000
 50
270.0000
 51
291.9097
  0
ARC
  8
32_20
  6
CONTINUOUS
 62
4
 10
1242.7820
 20
2150.2386
 40
30.4000
 50
90.0000
 51
123.4747
  0
ARC
  8
0_00
  6
CONTINUOUS
 62
4
 10
1360.0319
 20
2087.5134
 40
0.2500
 50
90.0000
 51
180.0000
  0
ARC
  8
0_00
  6
CONTINUOUS
 62
4
 10
1375.5319
 20
2087.5134
 40
0.2500
 50
0.0000
 51
90.0000
  0
ARC
  8
0_00
  6
CONTINUOUS
 62
4
 10
1810.0319
 20
2087.5134
 40
0.2500
 50
90.0000
 51
180.0000
  0
ARC
  8
0_00
  6
CONTINUOUS
 62
4
 10
1825.5318
 20
2087.5134
 40
0.2500
 50
0.0000
 51
90.0000
  0
ARC
  8
2_02
  6
CONTINUOUS
 62
4
 10
608.0746
 20
1071.9685
 40
0.5000
 50
180.0000
 51
270.0000
  0
ARC
  8
2_02
  6
CONTINUOUS
 62
4
 10
668.5744
 20
1132.4685
 40
0.5000
 50
0.0000
 51
90.0000
  0
ARC
  8
2_02
  6
CONTINUOUS
 62
4
 10
614.0746
 20
1126.4684
 40
6.5000
 50
90.0000
 51
180.0000
  0
ARC
  8
0_00
  6
CONTINUOUS
 62
4
 10
1199.2819
 20
2085.0497
 40
1.5000
 50
88.0908
 51
180.0000
  0
ARC
  8
0_00
  6
CONTINUOUS
 62
4
 10
1199.2819
 20
2055.6004
 40
1.5000
 50
180.0000
 51
270.0000
  0
ARC
  8
3_03
  6
CONTINUOUS
 62
4
 10
1601.0320
 20
2087.0349
 40
0.5000
 50
0.0000
 51
85.7515
  0
ARC
  8
3_03
  6
CONTINUOUS
 62
4
 10
1584.5319
 20
2087.0349
 40
0.5000
 50
94.2484
 51
180.0000
  0
ARC
  8
3_03
  6
CONTINUOUS
 62
4
 10
1601.0320
 20
2053.3131
 40
0.5000
 50
274.2485
 51
360.0000
  0
ARC
  8
3_03
  6
CONTINUOUS
 62
4
 10
1584.5319
 20
2053.3131
 40
0.5000
 50
180.0000
 51
265.7516
  0
ARC
  8
0_00
  6
CONTINUOUS
 62
4
 10
1360.0319
 20
2492.1637
 40
0.2500
 50
90.0000
 51
180.0000
  0
ARC
  8
0_00
  6
CONTINUOUS
 62
4
 10
1375.5319
 20
2492.1637
 40
0.2500
 50
0.0000
 51
90.0000
  0
ARC
  8
0_00
  6
CONTINUOUS
 62
4
 10
1810.0319
 20
2492.1637
 40
0.2500
 50
90.0000
 51
180.0000
  0
ARC
  8
0_00
  6
CONTINUOUS
 62
4
 10
1825.5318
 20
2492.1637
 40
0.2500
 50
0.0000
 51
90.0000
  0
ARC
  8
0_00
  6
CONTINUOUS
 62
4
 10
1199.2819
 20
2489.6997
 40
1.5000
 50
88.0908
 51
180.0000
  0
ARC
  8
0_00
  6
CONTINUOUS
 62
4
 10
1199.2819
 20
2460.2505
 40
1.5000
 50
180.0000
 51
270.0000
  0
ARC
  8
3_03
  6
CONTINUOUS
 62
4
 10
1601.0320
 20
2491.6846
 40
0.5000
 50
0.0000
 51
85.7515
  0
ARC
  8
3_03
  6
CONTINUOUS
 62
4
 10
1584.5319
 20
2491.6846
 40
0.5000
 50
94.2484
 51
180.0000
  0
ARC
  8
3_03
  6
CONTINUOUS
 62
4
 10
1601.0320
 20
2457.9633
 40
0.5000
 50
274.2485
 51
360.0000
  0
ARC
  8
3_03
  6
CONTINUOUS
 62
4
 10
1584.5319
 20
2457.9633
 40
0.5000
 50
180.0000
 51
265.7516
  0
ARC
  8
0_00
  6
CONTINUOUS
 62
4
 10
1362.0319
 20
2559.8833
 40
1.7500
 50
90.0000
 51
180.0000
  0
ARC
  8
0_00
  6
CONTINUOUS
 62
4
 10
1373.5320
 20
2559.8833
 40
1.7500
 50
0.0000
 51
90.0000
  0
ARC
  8
0_00
  6
CONTINUOUS
 62
4
 10
1242.7820
 20
2570.7886
 40
14.9000
 50
90.0000
 51
270.0000
  0
ARC
  8
0_00
  6
CONTINUOUS
 62
4
 10
1812.0319
 20
2559.8833
 40
1.7500
 50
90.0000
 51
180.0000
  0
ARC
  8
0_00
  6
CONTINUOUS
 62
4
 10
1823.5320
 20
2559.8833
 40
1.7500
 50
0.0000
 51
90.0000
  0
ARC
  8
0_00
  6
CONTINUOUS
 62
4
 10
603.7745
 20
2149.9210
 40
6.5000
 50
90.0000
 51
180.0000
  0
ARC
  8
0_00
  6
CONTINUOUS
 62
4
 10
667.8746
 20
2490.8427
 40
59.6000
 50
90.0000
 51
180.0000
  0
ARC
  8
0_00
  6
CONTINUOUS
 62
4
 10
3294.2752
 20
1573.3568
 40
1.0000
 50
0.0000
 51
85.7515
  0
ARC
  8
0_00
  6
CONTINUOUS
 62
4
 10
3261.2750
 20
1573.3568
 40
1.0000
 50
94.2484
 51
180.0000
  0
ARC
  8
0_00
  6
CONTINUOUS
 62
4
 10
3294.2752
 20
1331.5784
 40
1.0000
 50
274.2485
 51
360.0000
  0
ARC
  8
0_00
  6
CONTINUOUS
 62
4
 10
3261.2750
 20
1331.5784
 40
1.0000
 50
180.0000
 51
265.7516
  0
ARC
  8
0_00
  6
CONTINUOUS
 62
4
 10
2486.8597
 20
935.9685
 40
1.0000
 50
184.2485
 51
270.0000
  0
ARC
  8
0_00
  6
CONTINUOUS
 62
4
 10
2486.8597
 20
968.9684
 40
1.0000
 50
90.0000
 51
175.7515
  0
ARC
  8
0_00
  6
CONTINUOUS
 62
4
 10
2668.6908
 20
935.9685
 40
1.0000
 50
270.0000
 51
355.7516
  0
ARC
  8
0_00
  6
CONTINUOUS
 62
4
 10
2668.6908
 20
968.9684
 40
1.0000
 50
4.2484
 51
90.0000
  0
ARC
  8
2_02
  6
CONTINUOUS
 62
4
 10
2547.7753
 20
1421.9685
 40
0.5000
 50
180.0000
 51
270.0000
  0
ARC
  8
2_02
  6
CONTINUOUS
 62
4
 10
2608.2751
 20
1482.4684
 40
0.5000
 50
0.0000
 51
90.0000
  0
ARC
  8
2_02
  6
CONTINUOUS
 62
4
 10
2553.7752
 20
1476.4685
 40
6.5000
 50
90.0000
 51
180.0000
  0
ARC
  8
0_00
  6
CONTINUOUS
 62
3
 10
3632.2531
 20
240.7876
 40
1.7875
 50
270.0000
 51
450.0000
  0
ARC
  8
0_00
  6
CONTINUOUS
 62
3
 10
3627.2806
 20
256.8752
 40
2.1775
 50
0.0000
 51
180.0000
  0
ARC
  8
0_00
  6
CONTINUOUS
 62
3
 10
3630.6284
 20
278.0002
 40
6.5001
 50
333.9999
 51
450.0000
  0
CIRCLE
  8
0_00
  6
CONTINUOUS
 62
3
 10
3633.5532
 20
291.0001
 40
5.2000
  0
ARC
  8
0_00
  6
CONTINUOUS
 62
3
 10
3627.6035
 20
256.8752
 40
1.5000
 50
0.0000
 51
180.0000
  0
ARC
  8
0_00
  6
CONTINUOUS
 62
3
 10
3627.6035
 20
256.8752
 40
0.5000
 50
0.0000
 51
180.0000
  0
ARC
  8
0_00
  6
CONTINUOUS
 62
3
 10
3632.2531
 20
240.5752
 40
1.0000
 50
270.0000
 51
450.0000
  0
CIRCLE
  8
0_00
  6
CONTINUOUS
 62
3
 10
3633.5532
 20
291.0001
 40
4.4148
  0
CIRCLE
  8
0_00
  6
CONTINUOUS
 62
3
 10
3633.5532
 20
291.0001
 40
3.4185
  0
CIRCLE
  8
0_00
  6
CONTINUOUS
 62
3
 10
3633.5532
 20
291.0001
 40
2.3422
  0
CIRCLE
  8
0_00
  6
CONTINUOUS
 62
3
 10
3633.5532
 20
291.0001
 40
1.1467
  0
CIRCLE
  8
0_00
  6
CONTINUOUS
 62
3
 10
3633.5532
 20
291.0001
 40
0.5665
  0
CIRCLE
  8
0_00
  6
CONTINUOUS
 62
4
 10
2936.8030
 20
274.0002
 40
12.5000
  0
CIRCLE
  8
0_00
  6
CONTINUOUS
 62
4
 10
2936.8030
 20
274.0002
 40
20.0000
  0
ARC
  8
0_00
  6
CONTINUOUS
 62
6
 10
899.5745
 20
1121.4684
 40
2.5000
 50
0.0000
 51
90.0000
  0
ARC
  8
0_00
  6
CONTINUOUS
 62
6
 10
895.2847
 20
1122.2684
 40
0.5000
 50
331.3146
 51
450.0000
  0
ARC
  8
0_00
  6
CONTINUOUS
 62
6
 10
900.3745
 20
1117.1786
 40
0.5000
 50
0.0000
 51
118.6854
  0
ARC
  8
0_00
  6
CONTINUOUS
 62
6
 10
898.5745
 20
1120.4684
 40
1.7000
 50
161.1790
 51
176.7520
  0
ARC
  8
0_00
  6
CONTINUOUS
 62
6
 10
898.5745
 20
1120.4684
 40
3.2500
 50
273.2480
 51
298.6854
  0
ARC
  8
0_00
  6
CONTINUOUS
 62
6
 10
898.5745
 20
1120.4684
 40
3.2500
 50
151.3146
 51
176.7520
  0
ARC
  8
0_00
  6
CONTINUOUS
 62
6
 10
898.5745
 20
1120.4684
 40
1.7000
 50
341.1790
 51
378.8210
  0
ARC
  8
0_00
  6
CONTINUOUS
 62
6
 10
898.5745
 20
1120.4684
 40
1.7000
 50
71.1790
 51
108.8210
  0
ARC
  8
0_00
  6
CONTINUOUS
 62
6
 10
898.5745
 20
1120.4684
 40
1.7000
 50
273.2480
 51
288.8210
  0
ARC
  8
0_00
  6
CONTINUOUS
 62
6
 10
896.1034
 20
1120.6085
 40
0.7750
 50
176.7520
 51
356.7520
  0
ARC
  8
0_00
  6
CONTINUOUS
 62
6
 10
898.7148
 20
1117.9973
 40
0.7750
 50
93.2480
 51
273.2480
  0
ARC
  8
0_00
  6
CONTINUOUS
 62
6
 10
876.5746
 20
1121.4684
 40
2.5000
 50
90.0000
 51
180.0000
  0
ARC
  8
0_00
  6
CONTINUOUS
 62
6
 10
880.8643
 20
1122.2684
 40
0.5000
 50
90.0000
 51
208.6854
  0
ARC
  8
0_00
  6
CONTINUOUS
 62
6
 10
875.7745
 20
1117.1786
 40
0.5000
 50
61.3146
 51
180.0000
  0
ARC
  8
0_00
  6
CONTINUOUS
 62
6
 10
877.5745
 20
1120.4684
 40
1.7000
 50
3.2480
 51
18.8210
  0
ARC
  8
0_00
  6
CONTINUOUS
 62
6
 10
877.5745
 20
1120.4684
 40
3.2500
 50
241.3146
 51
266.7520
  0
ARC
  8
0_00
  6
CONTINUOUS
 62
6
 10
877.5745
 20
1120.4684
 40
3.2500
 50
3.2480
 51
28.6854
  0
ARC
  8
0_00
  6
CONTINUOUS
 62
6
 10
877.5745
 20
1120.4684
 40
1.7000
 50
161.1790
 51
198.8210
  0
ARC
  8
0_00
  6
CONTINUOUS
 62
6
 10
877.5745
 20
1120.4684
 40
1.7000
 50
71.1790
 51
108.8210
  0
ARC
  8
0_00
  6
CONTINUOUS
 62
6
 10
877.5745
 20
1120.4684
 40
1.7000
 50
251.1790
 51
266.7520
  0
ARC
  8
0_00
  6
CONTINUOUS
 62
6
 10
880.0455
 20
1120.6085
 40
0.7750
 50
183.2480
 51
363.2480
  0
ARC
  8
0_00
  6
CONTINUOUS
 62
6
 10
877.4343
 20
1117.9973
 40
0.7750
 50
266.7520
 51
446.7520
  0
ARC
  8
0_00
  6
CONTINUOUS
 62
6
 10
899.5745
 20
1083.4685
 40
2.5000
 50
270.0000
 51
360.0000
  0
ARC
  8
0_00
  6
CONTINUOUS
 62
6
 10
895.2847
 20
1082.6684
 40
0.5000
 50
270.0000
 51
388.6854
  0
ARC
  8
0_00
  6
CONTINUOUS
 62
6
 10
900.3745
 20
1087.7582
 40
0.5000
 50
241.3146
 51
360.0000
  0
ARC
  8
0_00
  6
CONTINUOUS
 62
6
 10
898.5745
 20
1084.4685
 40
1.7000
 50
183.2480
 51
198.8210
  0
ARC
  8
0_00
  6
CONTINUOUS
 62
6
 10
898.5745
 20
1084.4685
 40
3.2500
 50
61.3146
 51
86.7520
  0
ARC
  8
0_00
  6
CONTINUOUS
 62
6
 10
898.5745
 20
1084.4685
 40
3.2500
 50
183.2480
 51
208.6854
  0
ARC
  8
0_00
  6
CONTINUOUS
 62
6
 10
898.5745
 20
1084.4685
 40
1.7000
 50
341.1790
 51
378.8210
  0
ARC
  8
0_00
  6
CONTINUOUS
 62
6
 10
898.5745
 20
1084.4685
 40
1.7000
 50
251.1790
 51
288.8210
  0
ARC
  8
0_00
  6
CONTINUOUS
 62
6
 10
898.5745
 20
1084.4685
 40
1.7000
 50
71.1790
 51
86.7520
  0
ARC
  8
0_00
  6
CONTINUOUS
 62
6
 10
896.1034
 20
1084.3282
 40
0.7750
 50
3.2480
 51
183.2480
  0
ARC
  8
0_00
  6
CONTINUOUS
 62
6
 10
898.7148
 20
1086.9394
 40
0.7750
 50
86.7520
 51
266.7520
  0
ARC
  8
0_00
  6
CONTINUOUS
 62
6
 10
876.5746
 20
1083.4685
 40
2.5000
 50
180.0000
 51
270.0000
  0
ARC
  8
0_00
  6
CONTINUOUS
 62
6
 10
880.8643
 20
1082.6684
 40
0.5000
 50
151.3146
 51
270.0000
  0
ARC
  8
0_00
  6
CONTINUOUS
 62
6
 10
875.7745
 20
1087.7582
 40
0.5000
 50
180.0000
 51
298.6854
  0
ARC
  8
0_00
  6
CONTINUOUS
 62
6
 10
877.5745
 20
1084.4685
 40
1.7000
 50
341.1790
 51
356.7520
  0
ARC
  8
0_00
  6
CONTINUOUS
 62
6
 10
877.5745
 20
1084.4685
 40
3.2500
 50
93.2480
 51
118.6854
  0
ARC
  8
0_00
  6
CONTINUOUS
 62
6
 10
877.5745
 20
1084.4685
 40
3.2500
 50
331.3146
 51
356.7520
  0
ARC
  8
0_00
  6
CONTINUOUS
 62
6
 10
877.5745
 20
1084.4685
 40
1.7000
 50
161.1790
 51
198.8210
  0
ARC
  8
0_00
  6
CONTINUOUS
 62
6
 10
877.5745
 20
1084.4685
 40
1.7000
 50
251.1790
 51
288.8210
  0
ARC
  8
0_00
  6
CONTINUOUS
 62
6
 10
877.5745
 20
1084.4685
 40
1.7000
 50
93.2480
 51
108.8210
  0
ARC
  8
0_00
  6
CONTINUOUS
 62
6
 10
880.0455
 20
1084.3282
 40
0.7750
 50
356.7520
 51
536.7520
  0
ARC
  8
0_00
  6
CONTINUOUS
 62
6
 10
877.4343
 20
1086.9394
 40
0.7750
 50
273.2480
 51
453.2480
  0
ARC
  8
0_00
  6
CONTINUOUS
 62
6
 10
1799.5746
 20
1121.4684
 40
2.5000
 50
0.0000
 51
90.0000
  0
ARC
  8
0_00
  6
CONTINUOUS
 62
6
 10
1795.2846
 20
1122.2684
 40
0.5000
 50
331.3146
 51
450.0000
  0
ARC
  8
0_00
  6
CONTINUOUS
 62
6
 10
1800.3743
 20
1117.1786
 40
0.5000
 50
0.0000
 51
118.6854
  0
ARC
  8
0_00
  6
CONTINUOUS
 62
6
 10
1798.5745
 20
1120.4684
 40
1.7000
 50
161.1790
 51
176.7520
  0
ARC
  8
0_00
  6
CONTINUOUS
 62
6
 10
1798.5745
 20
1120.4684
 40
3.2500
 50
273.2480
 51
298.6854
  0
ARC
  8
0_00
  6
CONTINUOUS
 62
6
 10
1798.5745
 20
1120.4684
 40
3.2500
 50
151.3146
 51
176.7520
  0
ARC
  8
0_00
  6
CONTINUOUS
 62
6
 10
1798.5745
 20
1120.4684
 40
1.7000
 50
341.1790
 51
378.8210
  0
ARC
  8
0_00
  6
CONTINUOUS
 62
6
 10
1798.5745
 20
1120.4684
 40
1.7000
 50
71.1790
 51
108.8210
  0
ARC
  8
0_00
  6
CONTINUOUS
 62
6
 10
1798.5745
 20
1120.4684
 40
1.7000
 50
273.2480
 51
288.8210
  0
ARC
  8
0_00
  6
CONTINUOUS
 62
6
 10
1796.1034
 20
1120.6085
 40
0.7750
 50
176.7520
 51
356.7520
  0
ARC
  8
0_00
  6
CONTINUOUS
 62
6
 10
1798.7148
 20
1117.9973
 40
0.7750
 50
93.2480
 51
273.2480
  0
ARC
  8
0_00
  6
CONTINUOUS
 62
6
 10
1776.5746
 20
1121.4684
 40
2.5000
 50
90.0000
 51
180.0000
  0
ARC
  8
0_00
  6
CONTINUOUS
 62
6
 10
1780.8641
 20
1122.2684
 40
0.5000
 50
90.0000
 51
208.6854
  0
ARC
  8
0_00
  6
CONTINUOUS
 62
6
 10
1775.7744
 20
1117.1786
 40
0.5000
 50
61.3146
 51
180.0000
  0
ARC
  8
0_00
  6
CONTINUOUS
 62
6
 10
1777.5745
 20
1120.4684
 40
1.7000
 50
3.2480
 51
18.8210
  0
ARC
  8
0_00
  6
CONTINUOUS
 62
6
 10
1777.5745
 20
1120.4684
 40
3.2500
 50
241.3146
 51
266.7520
  0
ARC
  8
0_00
  6
CONTINUOUS
 62
6
 10
1777.5745
 20
1120.4684
 40
3.2500
 50
3.2480
 51
28.6854
  0
ARC
  8
0_00
  6
CONTINUOUS
 62
6
 10
1777.5745
 20
1120.4684
 40
1.7000
 50
161.1790
 51
198.8210
  0
ARC
  8
0_00
  6
CONTINUOUS
 62
6
 10
1777.5745
 20
1120.4684
 40
1.7000
 50
71.1790
 51
108.8210
  0
ARC
  8
0_00
  6
CONTINUOUS
 62
6
 10
1777.5745
 20
1120.4684
 40
1.7000
 50
251.1790
 51
266.7520
  0
ARC
  8
0_00
  6
CONTINUOUS
 62
6
 10
1780.0456
 20
1120.6085
 40
0.7750
 50
183.2480
 51
363.2480
  0
ARC
  8
0_00
  6
CONTINUOUS
 62
6
 10
1777.4342
 20
1117.9973
 40
0.7750
 50
266.7520
 51
446.7520
  0
ARC
  8
0_00
  6
CONTINUOUS
 62
6
 10
1799.5746
 20
1083.4685
 40
2.5000
 50
270.0000
 51
360.0000
  0
ARC
  8
0_00
  6
CONTINUOUS
 62
6
 10
1795.2846
 20
1082.6684
 40
0.5000
 50
270.0000
 51
388.6854
  0
ARC
  8
0_00
  6
CONTINUOUS
 62
6
 10
1800.3743
 20
1087.7582
 40
0.5000
 50
241.3146
 51
360.0000
  0
ARC
  8
0_00
  6
CONTINUOUS
 62
6
 10
1798.5745
 20
1084.4685
 40
1.7000
 50
183.2480
 51
198.8210
  0
ARC
  8
0_00
  6
CONTINUOUS
 62
6
 10
1798.5745
 20
1084.4685
 40
3.2500
 50
61.3146
 51
86.7520
  0
ARC
  8
0_00
  6
CONTINUOUS
 62
6
 10
1798.5745
 20
1084.4685
 40
3.2500
 50
183.2480
 51
208.6854
  0
ARC
  8
0_00
  6
CONTINUOUS
 62
6
 10
1798.5745
 20
1084.4685
 40
1.7000
 50
341.1790
 51
378.8210
  0
ARC
  8
0_00
  6
CONTINUOUS
 62
6
 10
1798.5745
 20
1084.4685
 40
1.7000
 50
251.1790
 51
288.8210
  0
ARC
  8
0_00
  6
CONTINUOUS
 62
6
 10
1798.5745
 20
1084.4685
 40
1.7000
 50
71.1790
 51
86.7520
  0
ARC
  8
0_00
  6
CONTINUOUS
 62
6
 10
1796.1034
 20
1084.3282
 40
0.7750
 50
3.2480
 51
183.2480
  0
ARC
  8
0_00
  6
CONTINUOUS
 62
6
 10
1798.7148
 20
1086.9394
 40
0.7750
 50
86.7520
 51
266.7520
  0
ARC
  8
0_00
  6
CONTINUOUS
 62
6
 10
1776.5746
 20
1083.4685
 40
2.5000
 50
180.0000
 51
270.0000
  0
ARC
  8
0_00
  6
CONTINUOUS
 62
6
 10
1780.8641
 20
1082.6684
 40
0.5000
 50
151.3146
 51
270.0000
  0
ARC
  8
0_00
  6
CONTINUOUS
 62
6
 10
1775.7744
 20
1087.7582
 40
0.5000
 50
180.0000
 51
298.6854
  0
ARC
  8
0_00
  6
CONTINUOUS
 62
6
 10
1777.5745
 20
1084.4685
 40
1.7000
 50
341.1790
 51
356.7520
  0
ARC
  8
0_00
  6
CONTINUOUS
 62
6
 10
1777.5745
 20
1084.4685
 40
3.2500
 50
93.2480
 51
118.6854
  0
ARC
  8
0_00
  6
CONTINUOUS
 62
6
 10
1777.5745
 20
1084.4685
 40
3.2500
 50
331.3146
 51
356.7520
  0
ARC
  8
0_00
  6
CONTINUOUS
 62
6
 10
1777.5745
 20
1084.4685
 40
1.7000
 50
161.1790
 51
198.8210
  0
ARC
  8
0_00
  6
CONTINUOUS
 62
6
 10
1777.5745
 20
1084.4685
 40
1.7000
 50
251.1790
 51
288.8210
  0
ARC
  8
0_00
  6
CONTINUOUS
 62
6
 10
1777.5745
 20
1084.4685
 40
1.7000
 50
93.2480
 51
108.8210
  0
ARC
  8
0_00
  6
CONTINUOUS
 62
6
 10
1780.0456
 20
1084.3282
 40
0.7750
 50
356.7520
 51
536.7520
  0
ARC
  8
0_00
  6
CONTINUOUS
 62
6
 10
1777.4342
 20
1086.9394
 40
0.7750
 50
273.2480
 51
453.2480
  0
ARC
  8
0_00
  6
CONTINUOUS
 62
6
 10
619.0746
 20
840.9685
 40
2.5000
 50
180.0000
 51
270.0000
  0
ARC
  8
0_00
  6
CONTINUOUS
 62
6
 10
618.2745
 20
845.2582
 40
0.5000
 50
180.0000
 51
298.6854
  0
ARC
  8
0_00
  6
CONTINUOUS
 62
6
 10
623.3643
 20
840.1685
 40
0.5000
 50
151.3146
 51
270.0000
  0
ARC
  8
0_00
  6
CONTINUOUS
 62
6
 10
620.0745
 20
841.9685
 40
1.7000
 50
93.2480
 51
108.8210
  0
ARC
  8
0_00
  6
CONTINUOUS
 62
6
 10
620.0745
 20
841.9685
 40
3.2500
 50
331.3146
 51
356.7520
  0
ARC
  8
0_00
  6
CONTINUOUS
 62
6
 10
620.0745
 20
841.9685
 40
3.2500
 50
93.2480
 51
118.6854
  0
ARC
  8
0_00
  6
CONTINUOUS
 62
6
 10
620.0745
 20
841.9685
 40
1.7000
 50
251.1790
 51
288.8210
  0
ARC
  8
0_00
  6
CONTINUOUS
 62
6
 10
620.0745
 20
841.9685
 40
1.7000
 50
161.1790
 51
198.8210
  0
ARC
  8
0_00
  6
CONTINUOUS
 62
6
 10
620.0745
 20
841.9685
 40
1.7000
 50
341.1790
 51
356.7520
  0
ARC
  8
0_00
  6
CONTINUOUS
 62
6
 10
619.9343
 20
844.4395
 40
0.7750
 50
273.2480
 51
453.2480
  0
ARC
  8
0_00
  6
CONTINUOUS
 62
6
 10
622.5456
 20
841.8282
 40
0.7750
 50
356.7520
 51
536.7520
  0
ARC
  8
0_00
  6
CONTINUOUS
 62
6
 10
619.0746
 20
863.9684
 40
2.5000
 50
90.0000
 51
180.0000
  0
ARC
  8
0_00
  6
CONTINUOUS
 62
6
 10
618.2745
 20
859.6786
 40
0.5000
 50
61.3146
 51
180.0000
  0
ARC
  8
0_00
  6
CONTINUOUS
 62
6
 10
623.3643
 20
864.7684
 40
0.5000
 50
90.0000
 51
208.6854
  0
ARC
  8
0_00
  6
CONTINUOUS
 62
6
 10
620.0745
 20
862.9684
 40
1.7000
 50
251.1790
 51
266.7520
  0
ARC
  8
0_00
  6
CONTINUOUS
 62
6
 10
620.0745
 20
862.9684
 40
3.2500
 50
3.2480
 51
28.6854
  0
ARC
  8
0_00
  6
CONTINUOUS
 62
6
 10
620.0745
 20
862.9684
 40
3.2500
 50
241.3146
 51
266.7520
  0
ARC
  8
0_00
  6
CONTINUOUS
 62
6
 10
620.0745
 20
862.9684
 40
1.7000
 50
71.1790
 51
108.8210
  0
ARC
  8
0_00
  6
CONTINUOUS
 62
6
 10
620.0745
 20
862.9684
 40
1.7000
 50
161.1790
 51
198.8210
  0
ARC
  8
0_00
  6
CONTINUOUS
 62
6
 10
620.0745
 20
862.9684
 40
1.7000
 50
3.2480
 51
18.8210
  0
ARC
  8
0_00
  6
CONTINUOUS
 62
6
 10
619.9343
 20
860.4974
 40
0.7750
 50
266.7520
 51
446.7520
  0
ARC
  8
0_00
  6
CONTINUOUS
 62
6
 10
622.5456
 20
863.1086
 40
0.7750
 50
183.2480
 51
363.2480
  0
ARC
  8
0_00
  6
CONTINUOUS
 62
6
 10
657.0745
 20
840.9685
 40
2.5000
 50
270.0000
 51
360.0000
  0
ARC
  8
0_00
  6
CONTINUOUS
 62
6
 10
657.8746
 20
845.2582
 40
0.5000
 50
241.3146
 51
360.0000
  0
ARC
  8
0_00
  6
CONTINUOUS
 62
6
 10
652.7847
 20
840.1685
 40
0.5000
 50
270.0000
 51
388.6854
  0
ARC
  8
0_00
  6
CONTINUOUS
 62
6
 10
656.0745
 20
841.9685
 40
1.7000
 50
71.1790
 51
86.7520
  0
ARC
  8
0_00
  6
CONTINUOUS
 62
6
 10
656.0745
 20
841.9685
 40
3.2500
 50
183.2480
 51
208.6854
  0
ARC
  8
0_00
  6
CONTINUOUS
 62
6
 10
656.0745
 20
841.9685
 40
3.2500
 50
61.3146
 51
86.7520
  0
ARC
  8
0_00
  6
CONTINUOUS
 62
6
 10
656.0745
 20
841.9685
 40
1.7000
 50
251.1790
 51
288.8210
  0
ARC
  8
0_00
  6
CONTINUOUS
 62
6
 10
656.0745
 20
841.9685
 40
1.7000
 50
341.1790
 51
378.8210
  0
ARC
  8
0_00
  6
CONTINUOUS
 62
6
 10
656.0745
 20
841.9685
 40
1.7000
 50
183.2480
 51
198.8210
  0
ARC
  8
0_00
  6
CONTINUOUS
 62
6
 10
656.2148
 20
844.4395
 40
0.7750
 50
86.7520
 51
266.7520
  0
ARC
  8
0_00
  6
CONTINUOUS
 62
6
 10
653.6035
 20
841.8282
 40
0.7750
 50
3.2480
 51
183.2480
  0
ARC
  8
0_00
  6
CONTINUOUS
 62
6
 10
657.0745
 20
863.9684
 40
2.5000
 50
0.0000
 51
90.0000
  0
ARC
  8
0_00
  6
CONTINUOUS
 62
6
 10
657.8746
 20
859.6786
 40
0.5000
 50
0.0000
 51
118.6854
  0
ARC
  8
0_00
  6
CONTINUOUS
 62
6
 10
652.7847
 20
864.7684
 40
0.5000
 50
331.3146
 51
450.0000
  0
ARC
  8
0_00
  6
CONTINUOUS
 62
6
 10
656.0745
 20
862.9684
 40
1.7000
 50
273.2480
 51
288.8210
  0
ARC
  8
0_00
  6
CONTINUOUS
 62
6
 10
656.0745
 20
862.9684
 40
3.2500
 50
151.3146
 51
176.7520
  0
ARC
  8
0_00
  6
CONTINUOUS
 62
6
 10
656.0745
 20
862.9684
 40
3.2500
 50
273.2480
 51
298.6854
  0
ARC
  8
0_00
  6
CONTINUOUS
 62
6
 10
656.0745
 20
862.9684
 40
1.7000
 50
71.1790
 51
108.8210
  0
ARC
  8
0_00
  6
CONTINUOUS
 62
6
 10
656.0745
 20
862.9684
 40
1.7000
 50
341.1790
 51
378.8210
  0
ARC
  8
0_00
  6
CONTINUOUS
 62
6
 10
656.0745
 20
862.9684
 40
1.7000
 50
161.1790
 51
176.7520
  0
ARC
  8
0_00
  6
CONTINUOUS
 62
6
 10
656.2148
 20
860.4974
 40
0.7750
 50
93.2480
 51
273.2480
  0
ARC
  8
0_00
  6
CONTINUOUS
 62
6
 10
653.6035
 20
863.1086
 40
0.7750
 50
176.7520
 51
356.7520
  0
ARC
  8
0_00
  6
CONTINUOUS
 62
4
 10
1970.8502
 20
1189.4412
 40
3.0000
 50
89.5000
 51
181.9092
  0
ARC
  8
0_00
  6
CONTINUOUS
 62
4
 10
1976.6484
 20
1015.4939
 40
3.0000
 50
181.9092
 51
270.5000
  0
ARC
  8
0_00
  6
CONTINUOUS
 62
4
 10
2029.7191
 20
1188.9275
 40
3.0000
 50
359.5000
 51
449.5000
  0
ARC
  8
0_00
  6
CONTINUOUS
 62
4
 10
2030.7193
 20
1015.9657
 40
3.0000
 50
270.5000
 51
360.5000
  0
ARC
  8
0_00
  6
CONTINUOUS
 62
4
 10
2029.7191
 20
1188.9275
 40
1.5000
 50
0.7431
 51
89.5000
  0
ARC
  8
0_00
  6
CONTINUOUS
 62
4
 10
1970.8502
 20
1189.4412
 40
1.5000
 50
89.5000
 51
181.9092
  0
ARC
  8
0_00
  6
CONTINUOUS
 62
4
 10
1976.6484
 20
1015.4939
 40
1.5000
 50
181.9092
 51
270.5000
  0
ARC
  8
0_00
  6
CONTINUOUS
 62
4
 10
2030.7193
 20
1015.9657
 40
1.5000
 50
270.5000
 51
359.2569
  0
ARC
  8
0_00
  6
CONTINUOUS
 62
4
 10
2031.7387
 20
1185.1601
 40
0.7500
 50
176.5000
 51
356.5000
  0
ARC
  8
0_00
  6
CONTINUOUS
 62
4
 10
2032.7391
 20
1019.7331
 40
0.7500
 50
3.5000
 51
183.5000
  0
ARC
  8
0_00
  6
CONTINUOUS
 62
6
 10
2839.2752
 20
1471.4685
 40
2.5000
 50
0.0000
 51
90.0000
  0
ARC
  8
0_00
  6
CONTINUOUS
 62
6
 10
2834.9857
 20
1472.2682
 40
0.5000
 50
331.3146
 51
450.0000
  0
ARC
  8
0_00
  6
CONTINUOUS
 62
6
 10
2840.0751
 20
1467.1786
 40
0.5000
 50
0.0000
 51
118.6854
  0
ARC
  8
0_00
  6
CONTINUOUS
 62
6
 10
2838.2751
 20
1470.4684
 40
1.7000
 50
161.1790
 51
176.7520
  0
ARC
  8
0_00
  6
CONTINUOUS
 62
6
 10
2838.2751
 20
1470.4684
 40
3.2500
 50
273.2480
 51
298.6854
  0
ARC
  8
0_00
  6
CONTINUOUS
 62
6
 10
2838.2751
 20
1470.4684
 40
3.2500
 50
151.3146
 51
176.7520
  0
ARC
  8
0_00
  6
CONTINUOUS
 62
6
 10
2838.2751
 20
1470.4684
 40
1.7000
 50
341.1790
 51
378.8210
  0
ARC
  8
0_00
  6
CONTINUOUS
 62
6
 10
2838.2751
 20
1470.4684
 40
1.7000
 50
71.1790
 51
108.8210
  0
ARC
  8
0_00
  6
CONTINUOUS
 62
6
 10
2838.2751
 20
1470.4684
 40
1.7000
 50
273.2480
 51
288.8210
  0
ARC
  8
0_00
  6
CONTINUOUS
 62
6
 10
2835.8044
 20
1470.6087
 40
0.7750
 50
176.7520
 51
356.7520
  0
ARC
  8
0_00
  6
CONTINUOUS
 62
6
 10
2838.4155
 20
1467.9973
 40
0.7750
 50
93.2480
 51
273.2480
  0
ARC
  8
0_00
  6
CONTINUOUS
 62
6
 10
2816.2750
 20
1471.4685
 40
2.5000
 50
90.0000
 51
180.0000
  0
ARC
  8
0_00
  6
CONTINUOUS
 62
6
 10
2820.5649
 20
1472.2682
 40
0.5000
 50
90.0000
 51
208.6854
  0
ARC
  8
0_00
  6
CONTINUOUS
 62
6
 10
2815.4755
 20
1467.1786
 40
0.5000
 50
61.3146
 51
180.0000
  0
ARC
  8
0_00
  6
CONTINUOUS
 62
6
 10
2817.2754
 20
1470.4684
 40
1.7000
 50
3.2480
 51
18.8210
  0
ARC
  8
0_00
  6
CONTINUOUS
 62
6
 10
2817.2754
 20
1470.4684
 40
3.2500
 50
241.3146
 51
266.7520
  0
ARC
  8
0_00
  6
CONTINUOUS
 62
6
 10
2817.2754
 20
1470.4684
 40
3.2500
 50
3.2480
 51
28.6854
  0
ARC
  8
0_00
  6
CONTINUOUS
 62
6
 10
2817.2754
 20
1470.4684
 40
1.7000
 50
161.1790
 51
198.8210
  0
ARC
  8
0_00
  6
CONTINUOUS
 62
6
 10
2817.2754
 20
1470.4684
 40
1.7000
 50
71.1790
 51
108.8210
  0
ARC
  8
0_00
  6
CONTINUOUS
 62
6
 10
2817.2754
 20
1470.4684
 40
1.7000
 50
251.1790
 51
266.7520
  0
ARC
  8
0_00
  6
CONTINUOUS
 62
6
 10
2819.7464
 20
1470.6087
 40
0.7750
 50
183.2480
 51
363.2480
  0
ARC
  8
0_00
  6
CONTINUOUS
 62
6
 10
2817.1350
 20
1467.9973
 40
0.7750
 50
266.7520
 51
446.7520
  0
ARC
  8
0_00
  6
CONTINUOUS
 62
6
 10
2839.2752
 20
1433.4683
 40
2.5000
 50
270.0000
 51
360.0000
  0
ARC
  8
0_00
  6
CONTINUOUS
 62
6
 10
2834.9857
 20
1432.6685
 40
0.5000
 50
270.0000
 51
388.6854
  0
ARC
  8
0_00
  6
CONTINUOUS
 62
6
 10
2840.0751
 20
1437.7582
 40
0.5000
 50
241.3146
 51
360.0000
  0
ARC
  8
0_00
  6
CONTINUOUS
 62
6
 10
2838.2751
 20
1434.4684
 40
1.7000
 50
183.2480
 51
198.8210
  0
ARC
  8
0_00
  6
CONTINUOUS
 62
6
 10
2838.2751
 20
1434.4684
 40
3.2500
 50
61.3146
 51
86.7520
  0
ARC
  8
0_00
  6
CONTINUOUS
 62
6
 10
2838.2751
 20
1434.4684
 40
3.2500
 50
183.2480
 51
208.6854
  0
ARC
  8
0_00
  6
CONTINUOUS
 62
6
 10
2838.2751
 20
1434.4684
 40
1.7000
 50
341.1790
 51
378.8210
  0
ARC
  8
0_00
  6
CONTINUOUS
 62
6
 10
2838.2751
 20
1434.4684
 40
1.7000
 50
251.1790
 51
288.8210
  0
ARC
  8
0_00
  6
CONTINUOUS
 62
6
 10
2838.2751
 20
1434.4684
 40
1.7000
 50
71.1790
 51
86.7520
  0
ARC
  8
0_00
  6
CONTINUOUS
 62
6
 10
2835.8044
 20
1434.3282
 40
0.7750
 50
3.2480
 51
183.2480
  0
ARC
  8
0_00
  6
CONTINUOUS
 62
6
 10
2838.4155
 20
1436.9394
 40
0.7750
 50
86.7520
 51
266.7520
  0
ARC
  8
0_00
  6
CONTINUOUS
 62
6
 10
2816.2750
 20
1433.4683
 40
2.5000
 50
180.0000
 51
270.0000
  0
ARC
  8
0_00
  6
CONTINUOUS
 62
6
 10
2820.5649
 20
1432.6685
 40
0.5000
 50
151.3146
 51
270.0000
  0
ARC
  8
0_00
  6
CONTINUOUS
 62
6
 10
2815.4755
 20
1437.7582
 40
0.5000
 50
180.0000
 51
298.6854
  0
ARC
  8
0_00
  6
CONTINUOUS
 62
6
 10
2817.2754
 20
1434.4684
 40
1.7000
 50
341.1790
 51
356.7520
  0
ARC
  8
0_00
  6
CONTINUOUS
 62
6
 10
2817.2754
 20
1434.4684
 40
3.2500
 50
93.2480
 51
118.6854
  0
ARC
  8
0_00
  6
CONTINUOUS
 62
6
 10
2817.2754
 20
1434.4684
 40
3.2500
 50
331.3146
 51
356.7520
  0
ARC
  8
0_00
  6
CONTINUOUS
 62
6
 10
2817.2754
 20
1434.4684
 40
1.7000
 50
161.1790
 51
198.8210
  0
ARC
  8
0_00
  6
CONTINUOUS
 62
6
 10
2817.2754
 20
1434.4684
 40
1.7000
 50
251.1790
 51
288.8210
  0
ARC
  8
0_00
  6
CONTINUOUS
 62
6
 10
2817.2754
 20
1434.4684
 40
1.7000
 50
93.2480
 51
108.8210
  0
ARC
  8
0_00
  6
CONTINUOUS
 62
6
 10
2819.7464
 20
1434.3282
 40
0.7750
 50
356.7520
 51
536.7520
  0
ARC
  8
0_00
  6
CONTINUOUS
 62
6
 10
2817.1350
 20
1436.9394
 40
0.7750
 50
273.2480
 51
453.2480
  0
ARC
  8
0_00
  6
CONTINUOUS
 62
6
 10
3739.2752
 20
1471.4685
 40
2.5000
 50
0.0000
 51
90.0000
  0
ARC
  8
0_00
  6
CONTINUOUS
 62
6
 10
3734.9857
 20
1472.2682
 40
0.5000
 50
331.3146
 51
450.0000
  0
ARC
  8
0_00
  6
CONTINUOUS
 62
6
 10
3740.0754
 20
1467.1786
 40
0.5000
 50
0.0000
 51
118.6854
  0
ARC
  8
0_00
  6
CONTINUOUS
 62
6
 10
3738.2751
 20
1470.4684
 40
1.7000
 50
161.1790
 51
176.7520
  0
ARC
  8
0_00
  6
CONTINUOUS
 62
6
 10
3738.2751
 20
1470.4684
 40
3.2500
 50
273.2480
 51
298.6854
  0
ARC
  8
0_00
  6
CONTINUOUS
 62
6
 10
3738.2751
 20
1470.4684
 40
3.2500
 50
151.3146
 51
176.7520
  0
ARC
  8
0_00
  6
CONTINUOUS
 62
6
 10
3738.2751
 20
1470.4684
 40
1.7000
 50
341.1790
 51
378.8210
  0
ARC
  8
0_00
  6
CONTINUOUS
 62
6
 10
3738.2751
 20
1470.4684
 40
1.7000
 50
71.1790
 51
108.8210
  0
ARC
  8
0_00
  6
CONTINUOUS
 62
6
 10
3738.2751
 20
1470.4684
 40
1.7000
 50
273.2480
 51
288.8210
  0
ARC
  8
0_00
  6
CONTINUOUS
 62
6
 10
3735.8041
 20
1470.6087
 40
0.7750
 50
176.7520
 51
356.7520
  0
ARC
  8
0_00
  6
CONTINUOUS
 62
6
 10
3738.4155
 20
1467.9973
 40
0.7750
 50
93.2480
 51
273.2480
  0
ARC
  8
0_00
  6
CONTINUOUS
 62
6
 10
3716.2750
 20
1471.4685
 40
2.5000
 50
90.0000
 51
180.0000
  0
ARC
  8
0_00
  6
CONTINUOUS
 62
6
 10
3720.5652
 20
1472.2682
 40
0.5000
 50
90.0000
 51
208.6854
  0
ARC
  8
0_00
  6
CONTINUOUS
 62
6
 10
3715.4755
 20
1467.1786
 40
0.5000
 50
61.3146
 51
180.0000
  0
ARC
  8
0_00
  6
CONTINUOUS
 62
6
 10
3717.2751
 20
1470.4684
 40
1.7000
 50
3.2480
 51
18.8210
  0
ARC
  8
0_00
  6
CONTINUOUS
 62
6
 10
3717.2751
 20
1470.4684
 40
3.2500
 50
241.3146
 51
266.7520
  0
ARC
  8
0_00
  6
CONTINUOUS
 62
6
 10
3717.2751
 20
1470.4684
 40
3.2500
 50
3.2480
 51
28.6854
  0
ARC
  8
0_00
  6
CONTINUOUS
 62
6
 10
3717.2751
 20
1470.4684
 40
1.7000
 50
161.1790
 51
198.8210
  0
ARC
  8
0_00
  6
CONTINUOUS
 62
6
 10
3717.2751
 20
1470.4684
 40
1.7000
 50
71.1790
 51
108.8210
  0
ARC
  8
0_00
  6
CONTINUOUS
 62
6
 10
3717.2751
 20
1470.4684
 40
1.7000
 50
251.1790
 51
266.7520
  0
ARC
  8
0_00
  6
CONTINUOUS
 62
6
 10
3719.7461
 20
1470.6087
 40
0.7750
 50
183.2480
 51
363.2480
  0
ARC
  8
0_00
  6
CONTINUOUS
 62
6
 10
3717.1350
 20
1467.9973
 40
0.7750
 50
266.7520
 51
446.7520
  0
ARC
  8
0_00
  6
CONTINUOUS
 62
6
 10
3739.2752
 20
1433.4683
 40
2.5000
 50
270.0000
 51
360.0000
  0
ARC
  8
0_00
  6
CONTINUOUS
 62
6
 10
3734.9857
 20
1432.6685
 40
0.5000
 50
270.0000
 51
388.6854
  0
ARC
  8
0_00
  6
CONTINUOUS
 62
6
 10
3740.0754
 20
1437.7582
 40
0.5000
 50
241.3146
 51
360.0000
  0
ARC
  8
0_00
  6
CONTINUOUS
 62
6
 10
3738.2751
 20
1434.4684
 40
1.7000
 50
183.2480
 51
198.8210
  0
ARC
  8
0_00
  6
CONTINUOUS
 62
6
 10
3738.2751
 20
1434.4684
 40
3.2500
 50
61.3146
 51
86.7520
  0
ARC
  8
0_00
  6
CONTINUOUS
 62
6
 10
3738.2751
 20
1434.4684
 40
3.2500
 50
183.2480
 51
208.6854
  0
ARC
  8
0_00
  6
CONTINUOUS
 62
6
 10
3738.2751
 20
1434.4684
 40
1.7000
 50
341.1790
 51
378.8210
  0
ARC
  8
0_00
  6
CONTINUOUS
 62
6
 10
3738.2751
 20
1434.4684
 40
1.7000
 50
251.1790
 51
288.8210
  0
ARC
  8
0_00
  6
CONTINUOUS
 62
6
 10
3738.2751
 20
1434.4684
 40
1.7000
 50
71.1790
 51
86.7520
  0
ARC
  8
0_00
  6
CONTINUOUS
 62
6
 10
3735.8041
 20
1434.3282
 40
0.7750
 50
3.2480
 51
183.2480
  0
ARC
  8
0_00
  6
CONTINUOUS
 62
6
 10
3738.4155
 20
1436.9394
 40
0.7750
 50
86.7520
 51
266.7520
  0
ARC
  8
0_00
  6
CONTINUOUS
 62
6
 10
3716.2750
 20
1433.4683
 40
2.5000
 50
180.0000
 51
270.0000
  0
ARC
  8
0_00
  6
CONTINUOUS
 62
6
 10
3720.5652
 20
1432.6685
 40
0.5000
 50
151.3146
 51
270.0000
  0
ARC
  8
0_00
  6
CONTINUOUS
 62
6
 10
3715.4755
 20
1437.7582
 40
0.5000
 50
180.0000
 51
298.6854
  0
ARC
  8
0_00
  6
CONTINUOUS
 62
6
 10
3717.2751
 20
1434.4684
 40
1.7000
 50
341.1790
 51
356.7520
  0
ARC
  8
0_00
  6
CONTINUOUS
 62
6
 10
3717.2751
 20
1434.4684
 40
3.2500
 50
93.2480
 51
118.6854
  0
ARC
  8
0_00
  6
CONTINUOUS
 62
6
 10
3717.2751
 20
1434.4684
 40
3.2500
 50
331.3146
 51
356.7520
  0
ARC
  8
0_00
  6
CONTINUOUS
 62
6
 10
3717.2751
 20
1434.4684
 40
1.7000
 50
161.1790
 51
198.8210
  0
ARC
  8
0_00
  6
CONTINUOUS
 62
6
 10
3717.2751
 20
1434.4684
 40
1.7000
 50
251.1790
 51
288.8210
  0
ARC
  8
0_00
  6
CONTINUOUS
 62
6
 10
3717.2751
 20
1434.4684
 40
1.7000
 50
93.2480
 51
108.8210
  0
ARC
  8
0_00
  6
CONTINUOUS
 62
6
 10
3719.7461
 20
1434.3282
 40
0.7750
 50
356.7520
 51
536.7520
  0
ARC
  8
0_00
  6
CONTINUOUS
 62
6
 10
3717.1350
 20
1436.9394
 40
0.7750
 50
273.2480
 51
453.2480
  0
ARC
  8
0_00
  6
CONTINUOUS
 62
6
 10
2558.7752
 20
1190.9684
 40
2.5000
 50
180.0000
 51
270.0000
  0
ARC
  8
0_00
  6
CONTINUOUS
 62
6
 10
2557.9755
 20
1195.2582
 40
0.5000
 50
180.0000
 51
298.6854
  0
ARC
  8
0_00
  6
CONTINUOUS
 62
6
 10
2563.0652
 20
1190.1683
 40
0.5000
 50
151.3146
 51
270.0000
  0
ARC
  8
0_00
  6
CONTINUOUS
 62
6
 10
2559.7754
 20
1191.9685
 40
1.7000
 50
93.2480
 51
108.8210
  0
ARC
  8
0_00
  6
CONTINUOUS
 62
6
 10
2559.7754
 20
1191.9685
 40
3.2500
 50
331.3146
 51
356.7520
  0
ARC
  8
0_00
  6
CONTINUOUS
 62
6
 10
2559.7754
 20
1191.9685
 40
3.2500
 50
93.2480
 51
118.6854
  0
ARC
  8
0_00
  6
CONTINUOUS
 62
6
 10
2559.7754
 20
1191.9685
 40
1.7000
 50
251.1790
 51
288.8210
  0
ARC
  8
0_00
  6
CONTINUOUS
 62
6
 10
2559.7754
 20
1191.9685
 40
1.7000
 50
161.1790
 51
198.8210
  0
ARC
  8
0_00
  6
CONTINUOUS
 62
6
 10
2559.7754
 20
1191.9685
 40
1.7000
 50
341.1790
 51
356.7520
  0
ARC
  8
0_00
  6
CONTINUOUS
 62
6
 10
2559.6350
 20
1194.4394
 40
0.7750
 50
273.2480
 51
453.2480
  0
ARC
  8
0_00
  6
CONTINUOUS
 62
6
 10
2562.2464
 20
1191.8282
 40
0.7750
 50
356.7520
 51
536.7520
  0
ARC
  8
0_00
  6
CONTINUOUS
 62
6
 10
2558.7752
 20
1213.9684
 40
2.5000
 50
90.0000
 51
180.0000
  0
ARC
  8
0_00
  6
CONTINUOUS
 62
6
 10
2557.9755
 20
1209.6786
 40
0.5000
 50
61.3146
 51
180.0000
  0
ARC
  8
0_00
  6
CONTINUOUS
 62
6
 10
2563.0652
 20
1214.7683
 40
0.5000
 50
90.0000
 51
208.6854
  0
ARC
  8
0_00
  6
CONTINUOUS
 62
6
 10
2559.7754
 20
1212.9684
 40
1.7000
 50
251.1790
 51
266.7520
  0
ARC
  8
0_00
  6
CONTINUOUS
 62
6
 10
2559.7754
 20
1212.9684
 40
3.2500
 50
3.2480
 51
28.6854
  0
ARC
  8
0_00
  6
CONTINUOUS
 62
6
 10
2559.7754
 20
1212.9684
 40
3.2500
 50
241.3146
 51
266.7520
  0
ARC
  8
0_00
  6
CONTINUOUS
 62
6
 10
2559.7754
 20
1212.9684
 40
1.7000
 50
71.1790
 51
108.8210
  0
ARC
  8
0_00
  6
CONTINUOUS
 62
6
 10
2559.7754
 20
1212.9684
 40
1.7000
 50
161.1790
 51
198.8210
  0
ARC
  8
0_00
  6
CONTINUOUS
 62
6
 10
2559.7754
 20
1212.9684
 40
1.7000
 50
3.2480
 51
18.8210
  0
ARC
  8
0_00
  6
CONTINUOUS
 62
6
 10
2559.6350
 20
1210.4974
 40
0.7750
 50
266.7520
 51
446.7520
  0
ARC
  8
0_00
  6
CONTINUOUS
 62
6
 10
2562.2464
 20
1213.1086
 40
0.7750
 50
183.2480
 51
363.2480
  0
ARC
  8
0_00
  6
CONTINUOUS
 62
6
 10
2596.7752
 20
1190.9684
 40
2.5000
 50
270.0000
 51
360.0000
  0
ARC
  8
0_00
  6
CONTINUOUS
 62
6
 10
2597.5754
 20
1195.2582
 40
0.5000
 50
241.3146
 51
360.0000
  0
ARC
  8
0_00
  6
CONTINUOUS
 62
6
 10
2592.4857
 20
1190.1683
 40
0.5000
 50
270.0000
 51
388.6854
  0
ARC
  8
0_00
  6
CONTINUOUS
 62
6
 10
2595.7755
 20
1191.9685
 40
1.7000
 50
71.1790
 51
86.7520
  0
ARC
  8
0_00
  6
CONTINUOUS
 62
6
 10
2595.7755
 20
1191.9685
 40
3.2500
 50
183.2480
 51
208.6854
  0
ARC
  8
0_00
  6
CONTINUOUS
 62
6
 10
2595.7755
 20
1191.9685
 40
3.2500
 50
61.3146
 51
86.7520
  0
ARC
  8
0_00
  6
CONTINUOUS
 62
6
 10
2595.7755
 20
1191.9685
 40
1.7000
 50
251.1790
 51
288.8210
  0
ARC
  8
0_00
  6
CONTINUOUS
 62
6
 10
2595.7755
 20
1191.9685
 40
1.7000
 50
341.1790
 51
378.8210
  0
ARC
  8
0_00
  6
CONTINUOUS
 62
6
 10
2595.7755
 20
1191.9685
 40
1.7000
 50
183.2480
 51
198.8210
  0
ARC
  8
0_00
  6
CONTINUOUS
 62
6
 10
2595.9155
 20
1194.4394
 40
0.7750
 50
86.7520
 51
266.7520
  0
ARC
  8
0_00
  6
CONTINUOUS
 62
6
 10
2593.3041
 20
1191.8282
 40
0.7750
 50
3.2480
 51
183.2480
  0
ARC
  8
0_00
  6
CONTINUOUS
 62
6
 10
2596.7752
 20
1213.9684
 40
2.5000
 50
0.0000
 51
90.0000
  0
ARC
  8
0_00
  6
CONTINUOUS
 62
6
 10
2597.5754
 20
1209.6786
 40
0.5000
 50
0.0000
 51
118.6854
  0
ARC
  8
0_00
  6
CONTINUOUS
 62
6
 10
2592.4857
 20
1214.7683
 40
0.5000
 50
331.3146
 51
450.0000
  0
ARC
  8
0_00
  6
CONTINUOUS
 62
6
 10
2595.7755
 20
1212.9684
 40
1.7000
 50
273.2480
 51
288.8210
  0
ARC
  8
0_00
  6
CONTINUOUS
 62
6
 10
2595.7755
 20
1212.9684
 40
3.2500
 50
151.3146
 51
176.7520
  0
ARC
  8
0_00
  6
CONTINUOUS
 62
6
 10
2595.7755
 20
1212.9684
 40
3.2500
 50
273.2480
 51
298.6854
  0
ARC
  8
0_00
  6
CONTINUOUS
 62
6
 10
2595.7755
 20
1212.9684
 40
1.7000
 50
71.1790
 51
108.8210
  0
ARC
  8
0_00
  6
CONTINUOUS
 62
6
 10
2595.7755
 20
1212.9684
 40
1.7000
 50
341.1790
 51
378.8210
  0
ARC
  8
0_00
  6
CONTINUOUS
 62
6
 10
2595.7755
 20
1212.9684
 40
1.7000
 50
161.1790
 51
176.7520
  0
ARC
  8
0_00
  6
CONTINUOUS
 62
6
 10
2595.9155
 20
1210.4974
 40
0.7750
 50
93.2480
 51
273.2480
  0
ARC
  8
0_00
  6
CONTINUOUS
 62
6
 10
2593.3041
 20
1213.1086
 40
0.7750
 50
176.7520
 51
356.7520
  0
ARC
  8
0_00
  6
CONTINUOUS
 62
4
 10
2558.7752
 20
713.9685
 40
2.5000
 50
90.0000
 51
180.0000
  0
ARC
  8
0_00
  6
CONTINUOUS
 62
4
 10
2557.9755
 20
709.6786
 40
0.5000
 50
61.3146
 51
180.0000
  0
ARC
  8
0_00
  6
CONTINUOUS
 62
4
 10
2563.0652
 20
714.7684
 40
0.5000
 50
90.0000
 51
208.6854
  0
ARC
  8
0_00
  6
CONTINUOUS
 62
4
 10
2559.7754
 20
712.9684
 40
1.7000
 50
251.1790
 51
266.7520
  0
ARC
  8
0_00
  6
CONTINUOUS
 62
4
 10
2559.7754
 20
712.9684
 40
3.2500
 50
3.2480
 51
28.6854
  0
ARC
  8
0_00
  6
CONTINUOUS
 62
4
 10
2559.7754
 20
712.9684
 40
3.2500
 50
241.3146
 51
266.7520
  0
ARC
  8
0_00
  6
CONTINUOUS
 62
4
 10
2559.7754
 20
712.9684
 40
1.7000
 50
71.1790
 51
108.8210
  0
ARC
  8
0_00
  6
CONTINUOUS
 62
4
 10
2559.7754
 20
712.9684
 40
1.7000
 50
161.1790
 51
198.8210
  0
ARC
  8
0_00
  6
CONTINUOUS
 62
4
 10
2559.7754
 20
712.9684
 40
1.7000
 50
3.2480
 51
18.8210
  0
ARC
  8
0_00
  6
CONTINUOUS
 62
4
 10
2559.6350
 20
710.4974
 40
0.7750
 50
266.7520
 51
446.7520
  0
ARC
  8
0_00
  6
CONTINUOUS
 62
4
 10
2562.2464
 20
713.1086
 40
0.7750
 50
183.2480
 51
363.2480
  0
ARC
  8
0_00
  6
CONTINUOUS
 62
4
 10
2558.7752
 20
690.9685
 40
2.5000
 50
180.0000
 51
270.0000
  0
ARC
  8
0_00
  6
CONTINUOUS
 62
4
 10
2557.9755
 20
695.2582
 40
0.5000
 50
180.0000
 51
298.6854
  0
ARC
  8
0_00
  6
CONTINUOUS
 62
4
 10
2563.0652
 20
690.1685
 40
0.5000
 50
151.3146
 51
270.0000
  0
ARC
  8
0_00
  6
CONTINUOUS
 62
4
 10
2559.7754
 20
691.9685
 40
1.7000
 50
93.2480
 51
108.8210
  0
ARC
  8
0_00
  6
CONTINUOUS
 62
4
 10
2559.7754
 20
691.9685
 40
3.2500
 50
331.3146
 51
356.7520
  0
ARC
  8
0_00
  6
CONTINUOUS
 62
4
 10
2559.7754
 20
691.9685
 40
3.2500
 50
93.2480
 51
118.6854
  0
ARC
  8
0_00
  6
CONTINUOUS
 62
4
 10
2559.7754
 20
691.9685
 40
1.7000
 50
251.1790
 51
288.8210
  0
ARC
  8
0_00
  6
CONTINUOUS
 62
4
 10
2559.7754
 20
691.9685
 40
1.7000
 50
161.1790
 51
198.8210
  0
ARC
  8
0_00
  6
CONTINUOUS
 62
4
 10
2559.7754
 20
691.9685
 40
1.7000
 50
341.1790
 51
356.7520
  0
ARC
  8
0_00
  6
CONTINUOUS
 62
4
 10
2559.6350
 20
694.4395
 40
0.7750
 50
273.2480
 51
453.2480
  0
ARC
  8
0_00
  6
CONTINUOUS
 62
4
 10
2562.2464
 20
691.8282
 40
0.7750
 50
356.7520
 51
536.7520
  0
ARC
  8
0_00
  6
CONTINUOUS
 62
4
 10
2596.7752
 20
713.9685
 40
2.5000
 50
0.0000
 51
90.0000
  0
ARC
  8
0_00
  6
CONTINUOUS
 62
4
 10
2597.5754
 20
709.6786
 40
0.5000
 50
0.0000
 51
118.6854
  0
ARC
  8
0_00
  6
CONTINUOUS
 62
4
 10
2592.4857
 20
714.7684
 40
0.5000
 50
331.3146
 51
450.0000
  0
ARC
  8
0_00
  6
CONTINUOUS
 62
4
 10
2595.7755
 20
712.9684
 40
1.7000
 50
273.2480
 51
288.8210
  0
ARC
  8
0_00
  6
CONTINUOUS
 62
4
 10
2595.7755
 20
712.9684
 40
3.2500
 50
151.3146
 51
176.7520
  0
ARC
  8
0_00
  6
CONTINUOUS
 62
4
 10
2595.7755
 20
712.9684
 40
3.2500
 50
273.2480
 51
298.6854
  0
ARC
  8
0_00
  6
CONTINUOUS
 62
4
 10
2595.7755
 20
712.9684
 40
1.7000
 50
71.1790
 51
108.8210
  0
ARC
  8
0_00
  6
CONTINUOUS
 62
4
 10
2595.7755
 20
712.9684
 40
1.7000
 50
341.1790
 51
378.8210
  0
ARC
  8
0_00
  6
CONTINUOUS
 62
4
 10
2595.7755
 20
712.9684
 40
1.7000
 50
161.1790
 51
176.7520
  0
ARC
  8
0_00
  6
CONTINUOUS
 62
4
 10
2595.9155
 20
710.4974
 40
0.7750
 50
93.2480
 51
273.2480
  0
ARC
  8
0_00
  6
CONTINUOUS
 62
4
 10
2593.3041
 20
713.1086
 40
0.7750
 50
176.7520
 51
356.7520
  0
ARC
  8
0_00
  6
CONTINUOUS
 62
4
 10
2596.7752
 20
690.9685
 40
2.5000
 50
270.0000
 51
360.0000
  0
ARC
  8
0_00
  6
CONTINUOUS
 62
4
 10
2597.5754
 20
695.2582
 40
0.5000
 50
241.3146
 51
360.0000
  0
ARC
  8
0_00
  6
CONTINUOUS
 62
4
 10
2592.4857
 20
690.1685
 40
0.5000
 50
270.0000
 51
388.6854
  0
ARC
  8
0_00
  6
CONTINUOUS
 62
4
 10
2595.7755
 20
691.9685
 40
1.7000
 50
71.1790
 51
86.7520
  0
ARC
  8
0_00
  6
CONTINUOUS
 62
4
 10
2595.7755
 20
691.9685
 40
3.2500
 50
183.2480
 51
208.6854
  0
ARC
  8
0_00
  6
CONTINUOUS
 62
4
 10
2595.7755
 20
691.9685
 40
3.2500
 50
61.3146
 51
86.7520
  0
ARC
  8
0_00
  6
CONTINUOUS
 62
4
 10
2595.7755
 20
691.9685
 40
1.7000
 50
251.1790
 51
288.8210
  0
ARC
  8
0_00
  6
CONTINUOUS
 62
4
 10
2595.7755
 20
691.9685
 40
1.7000
 50
341.1790
 51
378.8210
  0
ARC
  8
0_00
  6
CONTINUOUS
 62
4
 10
2595.7755
 20
691.9685
 40
1.7000
 50
183.2480
 51
198.8210
  0
ARC
  8
0_00
  6
CONTINUOUS
 62
4
 10
2595.9155
 20
694.4395
 40
0.7750
 50
86.7520
 51
266.7520
  0
ARC
  8
0_00
  6
CONTINUOUS
 62
4
 10
2593.3041
 20
691.8282
 40
0.7750
 50
3.2480
 51
183.2480
  0
ARC
  8
0_00
  6
CONTINUOUS
 62
4
 10
2490.8025
 20
576.3240
 40
3.0000
 50
88.0908
 51
180.5000
  0
ARC
  8
0_00
  6
CONTINUOUS
 62
4
 10
2664.7501
 20
570.5258
 40
3.0000
 50
359.5000
 51
448.0908
  0
ARC
  8
0_00
  6
CONTINUOUS
 62
4
 10
2491.3162
 20
517.4551
 40
3.0000
 50
180.5000
 51
270.5000
  0
ARC
  8
0_00
  6
CONTINUOUS
 62
4
 10
2664.2780
 20
516.4549
 40
3.0000
 50
269.5000
 51
359.5000
  0
ARC
  8
0_00
  6
CONTINUOUS
 62
4
 10
2491.3162
 20
517.4551
 40
1.5000
 50
180.5000
 51
269.2569
  0
ARC
  8
0_00
  6
CONTINUOUS
 62
4
 10
2490.8025
 20
576.3240
 40
1.5000
 50
88.0908
 51
180.5000
  0
ARC
  8
0_00
  6
CONTINUOUS
 62
4
 10
2664.7501
 20
570.5258
 40
1.5000
 50
359.5000
 51
448.0908
  0
ARC
  8
0_00
  6
CONTINUOUS
 62
4
 10
2664.2780
 20
516.4549
 40
1.5000
 50
270.7431
 51
359.5000
  0
ARC
  8
0_00
  6
CONTINUOUS
 62
4
 10
2495.0836
 20
515.4354
 40
0.7500
 50
273.5000
 51
453.5000
  0
ARC
  8
0_00
  6
CONTINUOUS
 62
4
 10
2660.5106
 20
514.4353
 40
0.7500
 50
86.5000
 51
266.5000
  0
ARC
  8
0_00
  6
CONTINUOUS
 62
4
 10
3917.3495
 20
1335.4938
 40
3.0000
 50
181.9092
 51
270.5000
  0
ARC
  8
0_00
  6
CONTINUOUS
 62
4
 10
3909.5511
 20
1569.4412
 40
3.0000
 50
89.5000
 51
181.9092
  0
ARC
  8
0_00
  6
CONTINUOUS
 62
4
 10
3968.4201
 20
1568.9275
 40
3.0000
 50
359.5000
 51
449.5000
  0
ARC
  8
0_00
  6
CONTINUOUS
 62
4
 10
3971.4203
 20
1335.9657
 40
3.0000
 50
270.5000
 51
360.5000
  0
ARC
  8
0_00
  6
CONTINUOUS
 62
4
 10
3971.4203
 20
1335.9657
 40
0.9000
 50
270.5000
 51
358.0213
  0
ARC
  8
0_00
  6
CONTINUOUS
 62
4
 10
3917.3495
 20
1335.4938
 40
0.9000
 50
181.9092
 51
270.5000
  0
ARC
  8
0_00
  6
CONTINUOUS
 62
4
 10
3909.5511
 20
1569.4412
 40
0.9000
 50
89.5000
 51
181.9092
  0
ARC
  8
0_00
  6
CONTINUOUS
 62
4
 10
3968.4201
 20
1568.9275
 40
0.9000
 50
1.9787
 51
89.5000
  0
ARC
  8
0_00
  6
CONTINUOUS
 62
4
 10
3973.1577
 20
1339.4310
 40
1.0500
 50
3.5000
 51
183.5000
  0
ARC
  8
0_00
  6
CONTINUOUS
 62
4
 10
3970.1575
 20
1565.4622
 40
1.0500
 50
176.5000
 51
356.5000
  0
TEXT
  8
15_0F
 62
7
 10
2747.2034
 20
234.0001
 40
25.00
 41
1.00
 50
0.0000
  1
１
  0
TEXT
  8
15_0F
 62
7
 10
2830.2036
 20
234.0001
 40
25.00
 41
1.00
 50
0.0000
  1
１０
  0
TEXT
  8
15_0F
 62
7
 10
2347.7034
 20
249.0001
 40
25.00
 41
1.00
 50
0.0000
  1
納まり図
  0
TEXT
  8
15_0F
 62
7
 10
1693.7033
 20
139.0001
 40
25.00
 41
1.00
 50
0.0000
  1
ＲＣ造
  0
TEXT
  8
15_0F
 62
7
 10
1657.7032
 20
239.0001
 40
25.00
 41
1.00
 50
0.0000
  1
低・中・高層
  0
TEXT
  8
15_0F
 62
7
 10
1920.2032
 20
239.0001
 40
25.00
 41
1.00
 50
0.0000
  1
手すり付笠木
  0
TEXT
  8
15_0F
 62
7
 10
1840.5367
 20
141.5001
 40
20.00
 41
1.00
 50
0.0000
  1
ＫＯＡ、ＤＯＡ、ＭＯＡ型
  0
TEXT
  8
15_0F
 62
7
 10
2131.7032
 20
149.0001
 40
25.00
 41
1.00
 50
0.0000
  1
トップレール手すり［コーナー部］納まり図－１
  0
TEXT
  8
15_0F
 62
7
 10
670.3016
 20
334.0002
 40
25.00
 41
1.00
 50
0.0000
  1
1）Ｈ、Ｌ、ＬＣは発注寸法とする。
  0
TEXT
  8
15_0F
 62
7
 10
668.4573
 20
281.5089
 40
25.00
 41
1.00
 50
0.0000
  1
　　（躯体寸法発注の場合、Ｌは標準割付寸法、ＬＣは標準寸法とする。）
  0
TEXT
  8
15_0F
 62
7
 10
668.3452
 20
229.5669
 40
25.00
 41
1.00
 50
0.0000
  1
２）［　］内寸法は標準寸法とする。
  0
TEXT
  8
0_00
 62
7
 10
1397.7974
 20
930.1331
 40
25.00
 41
1.00
 50
0.0000
  1
ジョイントカバー
  0
TEXT
  8
0_00
 62
7
 10
740.4117
 20
1251.6029
 40
25.00
 41
1.00
 50
0.0000
  1
コーナーブラケット
  0
TEXT
  8
0_00
 62
7
 10
242.7263
 20
1236.1974
 40
25.00
 41
1.00
 50
0.0000
  1
Ｋ型笠木９０度コーナー金具
  0
TEXT
  8
0_00
 62
7
 10
252.3244
 20
2236.7392
 40
25.00
 41
1.00
 50
0.0000
  1
Ｄ型笠木９０度コーナー金具
  0
TEXT
  8
0_00
 62
7
 10
302.6070
 20
2637.8073
 40
25.00
 41
1.00
 50
0.0000
  1
Ｍ型笠木９０度コーナー
  0
TEXT
  8
0_00
 62
7
 10
3350.8408
 20
1257.0229
 40
25.00
 41
1.00
 50
0.0000
  1
ジョイントカバー
  0
TEXT
  8
0_00
 62
7
 10
2707.2003
 20
1622.5395
 40
25.00
 41
1.00
 50
0.0000
  1
コーナーブラケット
  0
TEXT
  8
0_00
 62
7
 10
2161.4450
 20
1622.5395
 40
25.00
 41
1.00
 50
0.0000
  1
Ｋ型笠木９０度コーナー金具
  0
TEXT
  8
0_00
 62
7
 10
1021.5714
 20
1251.6029
 40
25.00
 41
1.00
 50
0.0000
  1
出隅９０度コーナー笠木
  0
TEXT
  8
0_00
 62
7
 10
2742.6288
 20
1177.8801
 40
25.00
 41
1.00
 50
0.0000
  1
出隅特殊（親子）コーナー笠木
  0
TEXT
  8
15_0F
 62
7
 10
295.3697
 20
1762.7760
 40
25.00
 41
1.00
 50
0.0000
  1
［ＫＯＡ型］
  0
TEXT
  8
15_0F
 62
7
 10
295.3697
 20
2102.2375
 40
25.00
 41
1.00
 50
0.0000
  1
［ＤＯＡ型］
  0
TEXT
  8
15_0F
 62
7
 10
295.3697
 20
2506.8878
 40
25.00
 41
1.00
 50
0.0000
  1
［ＭＯＡ型］
  0
TEXT
  8
0_00
 62
2
 10
296.0784
 20
1408.9001
 40
40.00
 41
1.00
 50
0.0000
  1
屋外側
  0
TEXT
  8
0_00
 62
2
 10
861.5688
 20
800.0103
 40
40.00
 41
1.00
 50
0.0000
  1
建物側
  0
TEXT
  8
0_00
 62
2
 10
2821.0519
 20
1080.4041
 40
40.00
 41
1.00
 50
0.0000
  1
建物側
  0
TEXT
  8
0_00
 62
2
 10
2235.7791
 20
1758.9001
 40
40.00
 41
1.00
 50
0.0000
  1
屋外側
  0
TEXT
  8
0_00
 62
7
 10
234.3016
 20
134.0002
 40
25.00
 41
1.00
 50
0.0000
  1
適用製品
  0
TEXT
  8
0_00
 62
7
 10
434.3016
 20
134.0002
 40
25.00
 41
1.00
 50
0.0000
  1
適用日付
  0
TEXT
  8
0_00
 62
7
 10
595.3016
 20
334.0002
 40
25.00
 41
1.00
 50
0.0000
  1
記事
  0
TEXT
  8
0_00
 62
7
 10
1575.2032
 20
284.0002
 40
25.00
 41
1.00
 50
0.0000
  1
階層仕様
  0
TEXT
  8
0_00
 62
7
 10
1575.2032
 20
184.0001
 40
25.00
 41
1.00
 50
0.0000
  1
適用躯体
  0
TEXT
  8
0_00
 62
7
 10
2100.2031
 20
284.0002
 40
25.00
 41
1.00
 50
0.0000
  1
名　称
  0
TEXT
  8
0_00
 62
7
 10
2100.2031
 20
184.0001
 40
25.00
 41
1.00
 50
0.0000
  1
図　名
  0
TEXT
  8
0_00
 62
7
 10
2716.4557
 20
334.1526
 40
25.00
 41
1.00
 50
0.0000
  1
Ｎｏ．
  0
TEXT
  8
0_00
 62
7
 10
3745.2032
 20
334.0002
 40
25.00
 41
1.00
 50
0.0000
  1
適　　　　　　　　用
  0
TEXT
  8
0_00
 62
7
 10
3594.7037
 20
334.0002
 40
25.00
 41
1.00
 50
0.0000
  1
個数
  0
TEXT
  8
0_00
 62
7
 10
3410.7034
 20
334.0002
 40
25.00
 41
1.00
 50
0.0000
  1
材　　質
  0
TEXT
  8
0_00
 62
7
 10
3087.2034
 20
334.0002
 40
25.00
 41
1.00
 50
0.0000
  1
部　　　品　　　名
  0
TEXT
  8
0_00
 62
7
 10
2986.4532
 20
334.0002
 40
25.00
 41
1.00
 50
0.0000
  1
品番
  0
TEXT
  8
0_00
 62
7
 10
2836.2036
 20
334.0002
 40
25.00
 41
1.00
 50
0.0000
  1
図　　番
  0
TEXT
  8
0_00
 62
7
 10
2722.2034
 20
284.0002
 40
25.00
 41
1.00
 50
0.0000
  1
尺度
  0
TEXT
  8
0_00
 62
7
 10
2722.2034
 20
184.0001
 40
25.00
 41
1.00
 50
0.0000
  1
日付
  0
TEXT
  8
0_00
 62
7
 10
3094.6469
 20
284.0002
 40
25.00
 41
1.00
 50
0.0000
  1
承認
  0
TEXT
  8
0_00
 62
7
 10
3235.2032
 20
284.0002
 40
25.00
 41
1.00
 50
0.0000
  1
検図
  0
TEXT
  8
0_00
 62
7
 10
3356.2033
 20
284.0002
 40
25.00
 41
1.00
 50
0.0000
  1
設計
  0
TEXT
  8
0_00
 62
7
 10
3480.7034
 20
284.0002
 40
25.00
 41
1.00
 50
0.0000
  1
製図
  0
TEXT
  8
0_00
 62
7
 10
3581.7032
 20
184.0001
 40
25.00
 41
1.00
 50
0.0000
  1
図番
  0
TEXT
  8
0_00
 62
2
 10
3679.7394
 20
247.4502
 40
40.00
 41
1.00
 50
0.0000
  1
文化シヤッター株式会社
  0
TEXT
  8
0_00
 62
7
 10
669.3016
 20
2876.4999
 40
25.00
 41
1.00
 50
180.0000
  1
図番
  0
TEXT
  8
0_00
 62
7
 10
2663.5034
 20
2846.7230
 40
20.00
 41
1.00
 50
0.0000
  1
ＮＯ
  0
TEXT
  8
0_00
 62
7
 10
2750.7034
 20
2846.5002
 40
25.00
 41
1.00
 50
0.0000
  1
個　数
  0
TEXT
  8
0_00
 62
7
 10
2901.2033
 20
2846.5002
 40
25.00
 41
1.00
 50
0.0000
  1
日　　付
  0
TEXT
  8
0_00
 62
7
 10
3280.7034
 20
2846.5002
 40
25.00
 41
1.00
 50
0.0000
  1
訂　　　正　　　記　　　事
  0
TEXT
  8
0_00
 62
7
 10
2794.7034
 20
234.0001
 40
22.50
 41
0.75
 50
0.0000
  1
:
  0
TEXT
  8
0_00
 62
7
 10
3792.9041
 20
89.0001
 40
20.00
 41
1.00
 50
0.0000
  1
ＪＩＳ　Ａ－３
  0
TEXT
  8
0_00
 62
7
 10
3931.6614
 20
88.9943
 40
20.00
 41
1.00
 50
0.0000
  1
（２９７×４２０）
  0
TEXT
  8
0_00
 62
7
 10
3843.7033
 20
2846.5002
 40
25.00
 41
1.00
 50
0.0000
  1
担　当
  0
TEXT
  8
0_00
 62
7
 10
3963.7033
 20
2846.5002
 40
25.00
 41
1.00
 50
0.0000
  1
承　認
  0
TEXT
  8
0_00
 62
7
 10
1837.7032
 20
284.0002
 40
25.00
 41
1.00
 50
0.0000
  1
機種名
  0
TEXT
  8
0_00
 62
7
 10
1837.7032
 20
184.0001
 40
25.00
 41
1.00
 50
0.0000
  1
型　式
  0
TEXT
  8
0_00
 62
7
 10
464.0746
 20
1410.0000
 40
22.50
 41
0.75
 50
0.0000
  1
(0～50)
  0
TEXT
  8
0_00
 62
7
 10
1372.9247
 20
497.4051
 40
25.00
 41
1.00
 50
0.0000
  1
平面図（１：１０）
  0
TEXT
  8
0_00
 62
7
 10
410.0000
 20
797.4685
 40
25.00
 41
1.00
 50
90.0000
  1
１１０≦ＬＣ［２５０］≦４５５
  0
TEXT
  8
0_00
 62
7
 10
1826.5601
 20
1549.1704
 40
25.00
 41
1.00
 50
0.0000
  1
外観姿図（１：２０）
  0
TEXT
  8
0_00
 62
7
 10
1385.5745
 20
1340.0000
 40
22.50
 41
0.75
 50
0.0000
  1
35
  0
TEXT
  8
0_00
 62
7
 10
560.0745
 20
1340.0000
 40
22.50
 41
0.75
 50
0.0000
  1
31
  0
TEXT
  8
0_00
 62
7
 10
1039.9999
 20
2526.2437
 40
22.50
 41
0.75
 50
90.0000
  1
H
  0
TEXT
  8
0_00
 62
7
 10
1281.2819
 20
2740.0000
 40
22.50
 41
0.75
 50
0.0000
  1
LC
  0
TEXT
  8
0_00
 62
7
 10
1580.7819
 20
2740.0000
 40
22.50
 41
0.75
 50
0.0000
  1
L
  0
TEXT
  8
0_00
 62
7
 10
1039.9999
 20
932.0000
 40
22.50
 41
0.75
 50
90.0000
  1
60
  0
TEXT
  8
0_00
 62
7
 10
899.9999
 20
2185.6209
 40
22.50
 41
0.75
 50
90.0000
  1
80
  0
TEXT
  8
0_00
 62
7
 10
560.0745
 20
2304.9998
 40
22.50
 41
0.75
 50
0.0000
  1
41
  0
TEXT
  8
0_00
 62
7
 10
560.0745
 20
2710.0217
 40
22.50
 41
0.75
 50
0.0000
  1
31
  0
TEXT
  8
0_00
 62
7
 10
899.9999
 20
2579.6429
 40
22.50
 41
0.75
 50
90.0000
  1
φ58
  0
TEXT
  8
0_00
 62
7
 10
2403.7752
 20
1759.9998
 40
22.50
 41
0.75
 50
0.0000
  1
(0～50)
  0
TEXT
  8
0_00
 62
7
 10
3312.6257
 20
847.4050
 40
25.00
 41
1.00
 50
0.0000
  1
平面図（１：１０）
  0
TEXT
  8
0_00
 62
7
 10
2349.7009
 20
1147.4684
 40
25.00
 41
1.00
 50
90.0000
  1
１１０≦ＬＣ［２５０］≦４５５
  0
TEXT
  8
0_00
 62
7
 10
3325.2753
 20
1689.9998
 40
22.50
 41
0.75
 50
0.0000
  1
35
  0
TEXT
  8
0_00
 62
7
 10
2499.7751
 20
1689.9998
 40
22.50
 41
0.75
 50
0.0000
  1
31
  0
TEXT
  8
0_00
 62
7
 10
2979.7006
 20
1282.0000
 40
22.50
 41
0.75
 50
90.0000
  1
60
  0
TEXT
  8
0_00
 62
2
 10
3271.2210
 20
626.5513
 40
40.00
 41
1.00
 50
0.0000
  1
［９０度親子コーナー納まり］
  0
TEXT
  8
0_00
 62
7
 10
583.0746
 20
1479.9998
 40
25.00
 41
1.00
 50
0.0000
  1
１１０≦ＬＣ［２５０］≦４５５
  0
TEXT
  8
0_00
 62
7
 10
1218.0745
 20
1479.9998
 40
25.00
 41
1.00
 50
0.0000
  1
２２５≦Ｌ≦１３６５
  0
TEXT
  8
0_00
 62
7
 10
1077.0745
 20
1410.0000
 40
22.50
 41
0.75
 50
0.0000
  1
L/2
  0
TEXT
  8
0_00
 62
7
 10
1052.6736
 20
557.3085
 40
25.00
 41
1.00
 50
0.0000
  1
※Ｌ：柱スパン寸法、ＬＣ：コーナースパン寸法
  0
TEXT
  8
0_00
 62
7
 10
1039.9999
 20
1784.3629
 40
22.50
 41
0.75
 50
90.0000
  1
H
  0
TEXT
  8
0_00
 62
7
 10
1039.9999
 20
2121.4078
 40
22.50
 41
0.75
 50
90.0000
  1
H
  0
TEXT
  8
0_00
 62
7
 10
2522.7751
 20
1829.9998
 40
25.00
 41
1.00
 50
0.0000
  1
１１０≦ＬＣ［２５０］≦４５５
  0
TEXT
  8
0_00
 62
7
 10
3157.7753
 20
1829.9998
 40
25.00
 41
1.00
 50
0.0000
  1
２２５≦Ｌ≦１３６５
  0
TEXT
  8
0_00
 62
7
 10
3016.7752
 20
1759.9998
 40
22.50
 41
0.75
 50
0.0000
  1
L/2
  0
TEXT
  8
0_00
 62
7
 10
2992.3743
 20
907.3084
 40
25.00
 41
1.00
 50
0.0000
  1
※Ｌ：柱スパン寸法、ＬＣ：コーナースパン寸法
  0
POINT
  8
2_02
 62
5
 10
1242.7820
 20
1845.9883
  0
POINT
  8
2_02
 62
5
 10
638.0745
 20
1102.4685
  0
POINT
  8
2_02
 62
5
 10
2577.7753
 20
1452.4684
  0
POINT
  8
0_00
 62
2
 10
80.3016
 20
49.9968
  0
POINT
  8
0_00
 62
2
 10
80.3016
 20
49.9968
  0
POINT
  8
0_00
 62
2
 10
282.3016
 20
199.0002
  0
POINT
  8
0_00
 62
2
 10
282.3016
 20
249.0002
  0
POINT
  8
0_00
 62
2
 10
282.3016
 20
299.0002
  0
POINT
  8
0_00
 62
2
 10
282.3016
 20
349.0002
  0
POINT
  8
0_00
 62
2
 10
1729.7034
 20
254.0001
  0
POINT
  8
0_00
 62
2
 10
1729.7034
 20
154.0001
  0
POINT
  8
0_00
 62
2
 10
2395.7031
 20
264.0001
  0
POINT
  8
0_00
 62
2
 10
2395.7031
 20
164.0001
  0
POINT
  8
0_00
 62
2
 10
3659.2035
 20
174.0001
  0
POINT
  8
0_00
 62
2
 10
3380.2032
 20
199.0002
  0
POINT
  8
0_00
 62
2
 10
482.3016
 20
199.0002
  0
POINT
  8
0_00
 62
2
 10
482.3016
 20
249.0002
  0
POINT
  8
0_00
 62
2
 10
482.3016
 20
299.0002
  0
POINT
  8
0_00
 62
2
 10
482.3016
 20
349.0002
  0
POINT
  8
0_00
 62
2
 10
2854.2035
 20
249.0001
  0
POINT
  8
0_00
 62
2
 10
2759.2035
 20
249.0001
  0
POINT
  8
0_00
 62
2
 10
682.3016
 20
349.0002
  0
POINT
  8
0_00
 62
2
 10
682.3016
 20
299.0002
  0
POINT
  8
0_00
 62
2
 10
682.3016
 20
249.0002
  0
POINT
  8
0_00
 62
2
 10
682.3016
 20
199.0002
  0
POINT
  8
0_00
 62
2
 10
682.3016
 20
149.0002
  0
POINT
  8
0_00
 62
2
 10
3504.7034
 20
199.0002
  0
POINT
  8
0_00
 62
2
 10
282.3016
 20
149.0002
  0
POINT
  8
0_00
 62
2
 10
482.3016
 20
149.0002
  0
POINT
  8
0_00
 62
2
 10
582.3016
 20
2861.4996
  0
POINT
  8
0_00
 62
2
 10
2875.4535
 20
164.0001
  0
POINT
  8
0_00
 62
2
 10
1992.2032
 20
254.0001
  0
POINT
  8
0_00
 62
2
 10
1992.2032
 20
154.0001
  0
POINT
  8
0_00
 62
5
 10
1990.7477
 20
1102.4685
  0
POINT
  8
0_00
 62
5
 10
1990.7477
 20
1102.4685
  0
POINT
  8
0_00
 62
5
 10
2577.7753
 20
556.4266
  0
POINT
  8
0_00
 62
5
 10
2577.7753
 20
556.4266
  0
POINT
  8
0_00
 62
5
 10
3930.4483
 20
1452.4684
  0
POINT
  8
0_00
 62
5
 10
3930.4483
 20
1452.4684
  0
ENDSEC
  0
EOF
