999
  
  0
SECTION
  2
HEADER
  9
$EXTMIN
 10
0
 20
0
  9
$EXTMAX
 10
1260
 20
888
  9
$LTSCALE
 40
3.00
  9
$PDMODE
 70
33
  9
$PDSIZE
 40
1.80
  0
ENDSEC
  0
SECTION
  2
TABLES
  0
TABLE
  2
LTYPE
 70
9
  0
LTYPE
  2
CONTINUOUS
 70
64
  3
実線
 72
65
 73
0
 40
0.00
  0
LTYPE
  2
DASHED
 70
64
  3
__  __  __  __  __  __  __ 
 72
65
 73
2
 40
1.00
 49
0.50
 49
-0.50
  0
LTYPE
  2
HIDDEN1
 70
64
  3
____    ____    ____    ___
 72
65
 73
2
 40
2.20
 49
1.20
 49
-1.00
  0
LTYPE
  2
HIDDEN2
 70
64
  3
______  ______  ______  ___
 72
65
 73
2
 40
4.50
 49
3.50
 49
-1.00
  0
LTYPE
  2
CENTER1
 70
64
  3
_______ _ _______ _ _______
 72
65
 73
4
 40
20.00
 49
17.00
 49
-1.00
 49
1.00
 49
-1.00
  0
LTYPE
  2
CENTER2
 70
64
  3
___________  __  __________
 72
65
 73
4
 40
40.00
 49
34.00
 49
-2.00
 49
2.00
 49
-2.00
  0
LTYPE
  2
PHANTOM1
 70
64
  3
______ _ _ ______ _ _ _____
 72
65
 73
6
 40
20.00
 49
15.00
 49
-1.00
 49
1.00
 49
-1.00
 49
1.00
 49
-1.00
  0
LTYPE
  2
PHANTOM2
 70
64
  3
__________  _  _  _________
 72
65
 73
6
 40
40.00
 49
30.00
 49
-2.00
 49
2.00
 49
-2.00
 49
2.00
 49
-2.00
  0
LTYPE
  2
DOT
 70
64
  3
 .  .  .  .  .  .  .  .  . 
 72
65
 73
2
 40
1.00
 49
0.00
 49
-1.00
  0
ENDTAB
  0
TABLE
  2
STYLE
 70
1
  0
STYLE
  2
STANDARD
 70
64
 40
0.0
 41
1.0
 42
0.0
 50
0.0
 71
0
  3
ROMANS
  4
BIGFONT
  0
ENDTAB
  0
TABLE
  2
LAYER
 70
8
  0
LAYER
  2
0_00
 70
64
 62
7
  6
CONTINUOUS
  0
LAYER
  2
3_03
 70
64
 62
7
  6
CONTINUOUS
  0
LAYER
  2
6_06
 70
64
 62
7
  6
CONTINUOUS
  0
LAYER
  2
11_0B
 70
64
 62
7
  6
CONTINUOUS
  0
LAYER
  2
12_0C
 70
64
 62
7
  6
CONTINUOUS
  0
LAYER
  2
14_0E
 70
64
 62
7
  6
CONTINUOUS
  0
LAYER
  2
15_0F
 70
64
 62
7
  6
CONTINUOUS
  0
LAYER
  2
16_10
 70
64
 62
7
  6
CONTINUOUS
  0
ENDTAB
  0
ENDSEC
  0
SECTION
  2
ENTITIES
  0
LINE
  8
16_10
  6
CONTINUOUS
 62
7
 10
924.6552
 20
149.6097
 11
988.2063
 21
149.6097
  0
LINE
  8
16_10
  6
CENTER1
 62
6
 10
871.7890
 20
244.0668
 11
1157.9634
 21
244.0668
  0
LINE
  8
16_10
  6
CENTER1
 62
6
 10
948.3174
 20
258.2285
 11
948.3174
 21
231.0495
  0
LINE
  8
16_10
  6
CENTER1
 62
6
 10
976.4112
 20
284.7979
 11
1004.7532
 21
277.5609
  0
LINE
  8
0_00
  6
CONTINUOUS
 62
4
 10
353.6845
 20
676.3203
 11
141.5030
 21
676.3203
  0
LINE
  8
15_0F
  6
CONTINUOUS
 62
6
 10
353.6845
 20
476.3204
 11
93.0986
 21
476.3204
  0
LINE
  8
15_0F
  6
CONTINUOUS
 62
6
 10
139.5030
 20
676.3203
 11
93.0986
 21
676.3203
  0
LINE
  8
15_0F
  6
CONTINUOUS
 62
6
 10
96.0986
 20
676.3203
 11
96.0986
 21
476.3204
  0
LINE
  8
15_0F
  6
CONTINUOUS
 62
6
 10
96.0986
 20
676.3203
 11
94.5393
 21
668.9843
  0
LINE
  8
15_0F
  6
CONTINUOUS
 62
6
 10
96.0986
 20
676.3203
 11
97.6580
 21
668.9843
  0
LINE
  8
15_0F
  6
CONTINUOUS
 62
6
 10
96.0986
 20
476.3204
 11
97.6580
 21
483.6564
  0
LINE
  8
15_0F
  6
CONTINUOUS
 62
6
 10
96.0986
 20
476.3204
 11
94.5393
 21
483.6564
  0
LINE
  8
16_10
  6
CONTINUOUS
 62
6
 10
985.9188
 20
237.8355
 11
985.9188
 21
187.5093
  0
LINE
  8
16_10
  6
CONTINUOUS
 62
6
 10
985.9188
 20
190.5094
 11
1157.9634
 21
190.5094
  0
LINE
  8
16_10
  6
CONTINUOUS
 62
6
 10
985.9188
 20
190.5094
 11
993.2549
 21
188.9501
  0
LINE
  8
16_10
  6
CONTINUOUS
 62
6
 10
985.9188
 20
190.5094
 11
993.2549
 21
192.0688
  0
LINE
  8
16_10
  6
CONTINUOUS
 62
6
 10
1150.0510
 20
244.0668
 11
1151.0300
 21
251.5027
  0
LINE
  8
16_10
  6
CONTINUOUS
 62
6
 10
1150.0510
 20
244.0668
 11
1147.9209
 21
251.2580
  0
LINE
  8
16_10
  6
CONTINUOUS
 62
6
 10
1121.8014
 20
244.0668
 11
1123.9315
 21
251.2580
  0
LINE
  8
16_10
  6
CONTINUOUS
 62
6
 10
1121.8014
 20
244.0668
 11
1120.8225
 21
251.5027
  0
LINE
  8
16_10
  6
CONTINUOUS
 62
7
 10
1037.4783
 20
148.6617
 11
1184.6404
 21
148.6617
  0
LINE
  8
16_10
  6
CONTINUOUS
 62
7
 10
1037.4783
 20
133.6833
 11
1184.6404
 21
133.6833
  0
LINE
  8
14_0E
  6
CONTINUOUS
 62
7
 10
550.2682
 20
380.0910
 11
654.1896
 21
380.0910
  0
LINE
  8
14_0E
  6
CONTINUOUS
 62
7
 10
195.1531
 20
380.0910
 11
243.3659
 21
380.0910
  0
LINE
  8
16_10
  6
CENTER1
 62
6
 10
969.3517
 20
260.9507
 11
969.3517
 21
228.8321
  0
LINE
  8
16_10
  6
CONTINUOUS
 62
7
 10
969.3517
 20
228.8321
 11
969.3517
 21
219.4730
  0
LINE
  8
16_10
  6
CONTINUOUS
 62
7
 10
960.6337
 20
224.5779
 11
969.3517
 21
224.5779
  0
LINE
  8
16_10
  6
CONTINUOUS
 62
7
 10
969.3517
 20
224.5779
 11
962.0156
 21
226.1373
  0
LINE
  8
16_10
  6
CONTINUOUS
 62
7
 10
969.3517
 20
224.5779
 11
962.0156
 21
223.0186
  0
LINE
  8
16_10
  6
CONTINUOUS
 62
7
 10
969.3517
 20
270.3098
 11
969.3517
 21
260.9507
  0
LINE
  8
16_10
  6
CONTINUOUS
 62
7
 10
960.6337
 20
266.0557
 11
969.3517
 21
266.0557
  0
LINE
  8
16_10
  6
CONTINUOUS
 62
7
 10
969.3517
 20
266.0557
 11
962.0156
 21
267.6150
  0
LINE
  8
16_10
  6
CONTINUOUS
 62
7
 10
969.3517
 20
266.0557
 11
962.0156
 21
264.4963
  0
LINE
  8
0_00
  6
CENTER1
 62
6
 10
353.6845
 20
690.8190
 11
353.6845
 21
395.6935
  0
LINE
  8
0_00
  6
CENTER1
 62
6
 10
696.3896
 20
684.5247
 11
696.3896
 21
391.0137
  0
LINE
  8
15_0F
  6
CONTINUOUS
 62
6
 10
674.3895
 20
479.8464
 11
501.1407
 21
479.8464
  0
LINE
  8
15_0F
  6
CONTINUOUS
 62
6
 10
558.2101
 20
629.3203
 11
501.1407
 21
629.3203
  0
LINE
  8
15_0F
  6
CONTINUOUS
 62
6
 10
504.1407
 20
479.8464
 11
504.1407
 21
629.3203
  0
LINE
  8
15_0F
  6
CONTINUOUS
 62
6
 10
504.1407
 20
479.8464
 11
505.7000
 21
487.1825
  0
LINE
  8
15_0F
  6
CONTINUOUS
 62
6
 10
504.1407
 20
479.8464
 11
502.5813
 21
487.1825
  0
LINE
  8
15_0F
  6
CONTINUOUS
 62
6
 10
504.1407
 20
629.3203
 11
502.5813
 21
621.9842
  0
LINE
  8
15_0F
  6
CONTINUOUS
 62
6
 10
504.1407
 20
629.3203
 11
505.7000
 21
621.9842
  0
LINE
  8
15_0F
  6
CONTINUOUS
 62
6
 10
504.1407
 20
629.3203
 11
504.1407
 21
676.3203
  0
LINE
  8
15_0F
  6
CONTINUOUS
 62
6
 10
504.1407
 20
629.3203
 11
505.7000
 21
636.6564
  0
LINE
  8
15_0F
  6
CONTINUOUS
 62
6
 10
504.1407
 20
629.3203
 11
502.5813
 21
636.6564
  0
LINE
  8
15_0F
  6
CONTINUOUS
 62
6
 10
504.1407
 20
676.3203
 11
502.5813
 21
668.9843
  0
LINE
  8
15_0F
  6
CONTINUOUS
 62
6
 10
504.1407
 20
676.3203
 11
505.7000
 21
668.9843
  0
LINE
  8
0_00
  6
CONTINUOUS
 62
6
 10
558.2101
 20
676.3203
 11
501.1407
 21
676.3203
  0
LINE
  8
0_00
  6
DASHED
 62
2
 10
307.2071
 20
456.3203
 11
404.2797
 21
456.3203
  0
LINE
  8
0_00
  6
CONTINUOUS
 62
2
 10
309.1844
 20
456.3203
 11
398.1844
 21
456.3203
  0
LINE
  8
0_00
  6
CONTINUOUS
 62
2
 10
309.1844
 20
454.3203
 11
398.1844
 21
454.3203
  0
LINE
  8
0_00
  6
CONTINUOUS
 62
2
 10
309.1844
 20
452.3204
 11
398.1844
 21
452.3204
  0
LINE
  8
0_00
  6
CONTINUOUS
 62
2
 10
309.1844
 20
450.3203
 11
398.1844
 21
450.3203
  0
LINE
  8
0_00
  6
CONTINUOUS
 62
2
 10
400.1845
 20
448.3203
 11
400.1845
 21
400.0197
  0
LINE
  8
0_00
  6
CONTINUOUS
 62
2
 10
402.1844
 20
448.3203
 11
402.1844
 21
400.0197
  0
LINE
  8
0_00
  6
CONTINUOUS
 62
2
 10
404.1844
 20
448.3203
 11
404.1844
 21
400.0197
  0
LINE
  8
0_00
  6
CONTINUOUS
 62
2
 10
406.1845
 20
448.3203
 11
406.1845
 21
400.0197
  0
LINE
  8
0_00
  6
CONTINUOUS
 62
4
 10
301.1844
 20
448.3203
 11
398.1844
 21
448.3203
  0
LINE
  8
0_00
  6
CONTINUOUS
 62
4
 10
301.1844
 20
400.0197
 11
301.1844
 21
448.3203
  0
LINE
  8
0_00
  6
CONTINUOUS
 62
4
 10
398.1844
 20
400.0197
 11
398.1844
 21
448.3203
  0
LINE
  8
0_00
  6
CONTINUOUS
 62
6
 10
315.0730
 20
448.3203
 11
301.1844
 21
434.4317
  0
LINE
  8
0_00
  6
CONTINUOUS
 62
6
 10
317.9015
 20
448.3203
 11
301.1844
 21
431.6033
  0
LINE
  8
0_00
  6
CONTINUOUS
 62
6
 10
320.7299
 20
448.3203
 11
301.1844
 21
428.7749
  0
LINE
  8
0_00
  6
CONTINUOUS
 62
6
 10
374.2208
 20
448.3203
 11
325.9202
 21
400.0197
  0
LINE
  8
0_00
  6
CONTINUOUS
 62
6
 10
377.0492
 20
448.3203
 11
328.7486
 21
400.0197
  0
LINE
  8
0_00
  6
CONTINUOUS
 62
6
 10
379.8776
 20
448.3203
 11
331.5770
 21
400.0197
  0
LINE
  8
0_00
  6
CONTINUOUS
 62
6
 10
398.1844
 20
418.7931
 11
379.4111
 21
400.0197
  0
LINE
  8
0_00
  6
CONTINUOUS
 62
6
 10
398.1844
 20
415.9646
 11
382.2395
 21
400.0197
  0
LINE
  8
0_00
  6
CONTINUOUS
 62
6
 10
398.1844
 20
413.1362
 11
385.0680
 21
400.0197
  0
LINE
  8
0_00
  6
CONTINUOUS
 62
2
 10
309.1844
 20
456.3203
 11
309.1844
 21
448.3203
  0
LINE
  8
0_00
  6
PHANTOM1
 62
2
 10
411.1844
 20
400.0197
 11
411.1844
 21
456.3203
  0
LINE
  8
0_00
  6
PHANTOM1
 62
2
 10
296.1844
 20
400.0197
 11
296.1844
 21
456.3203
  0
LINE
  8
0_00
  6
CONTINUOUS
 62
4
 10
289.1844
 20
478.4686
 11
185.3271
 21
478.4686
  0
LINE
  8
0_00
  6
DASHED
 62
2
 10
287.4844
 20
456.3203
 11
185.3271
 21
456.3203
  0
LINE
  8
0_00
  6
CONTINUOUS
 62
4
 10
301.3844
 20
459.6204
 11
301.3844
 21
456.3203
  0
LINE
  8
3_03
  6
CONTINUOUS
 62
4
 10
417.8845
 20
415.6203
 11
418.1845
 21
415.6203
  0
LINE
  8
3_03
  6
CONTINUOUS
 62
4
 10
414.9845
 20
456.3203
 11
418.6844
 21
426.8714
  0
LINE
  8
3_03
  6
CONTINUOUS
 62
4
 10
411.7491
 20
455.8956
 11
417.8845
 21
415.6203
  0
LINE
  8
3_03
  6
CONTINUOUS
 62
4
 10
296.1148
 20
456.3203
 11
411.2548
 21
456.3203
  0
LINE
  8
3_03
  6
CONTINUOUS
 62
4
 10
411.2347
 20
459.6204
 11
405.9094
 21
459.6204
  0
LINE
  8
3_03
  6
CONTINUOUS
 62
4
 10
301.4594
 20
459.8203
 11
353.3844
 21
459.8203
  0
LINE
  8
3_03
  6
CONTINUOUS
 62
4
 10
353.9844
 20
459.8203
 11
395.6845
 21
459.8203
  0
LINE
  8
3_03
  6
CONTINUOUS
 62
4
 10
396.2844
 20
459.8203
 11
405.9094
 21
459.8203
  0
LINE
  8
3_03
  6
CONTINUOUS
 62
4
 10
301.4594
 20
459.6204
 11
301.3844
 21
459.6204
  0
LINE
  8
3_03
  6
CONTINUOUS
 62
4
 10
353.9844
 20
459.8203
 11
353.6845
 21
459.5203
  0
LINE
  8
3_03
  6
CONTINUOUS
 62
4
 10
353.6845
 20
459.5203
 11
353.3844
 21
459.8203
  0
LINE
  8
3_03
  6
CONTINUOUS
 62
4
 10
395.6845
 20
459.8203
 11
395.9844
 21
459.5203
  0
LINE
  8
3_03
  6
CONTINUOUS
 62
4
 10
395.9844
 20
459.5203
 11
396.2844
 21
459.8203
  0
LINE
  8
0_00
  6
CONTINUOUS
 62
4
 10
411.2399
 20
471.0785
 11
414.9845
 21
456.3203
  0
LINE
  8
0_00
  6
CONTINUOUS
 62
4
 10
301.4594
 20
459.8203
 11
301.4594
 21
459.6204
  0
LINE
  8
0_00
  6
CONTINUOUS
 62
4
 10
405.9094
 20
459.8203
 11
405.9094
 21
459.6204
  0
LINE
  8
0_00
  6
CONTINUOUS
 62
4
 10
405.9844
 20
471.1601
 11
405.9844
 21
469.7527
  0
LINE
  8
3_03
  6
CONTINUOUS
 62
4
 10
406.2944
 20
471.4600
 11
410.9591
 21
471.3045
  0
LINE
  8
0_00
  6
CONTINUOUS
 62
4
 10
409.4587
 20
469.1533
 11
411.7194
 21
460.2433
  0
LINE
  8
0_00
  6
CONTINUOUS
 62
4
 10
406.4678
 20
469.2530
 11
409.4587
 21
469.1533
  0
LINE
  8
6_06
  6
CONTINUOUS
 62
2
 10
405.9844
 20
471.4703
 11
405.9844
 21
473.1763
  0
LINE
  8
6_06
  6
CONTINUOUS
 62
2
 10
410.9844
 20
471.3037
 11
410.9844
 21
473.0096
  0
LINE
  8
6_06
  6
CONTINUOUS
 62
2
 10
405.9844
 20
472.4691
 11
406.6687
 21
473.1534
  0
LINE
  8
6_06
  6
CONTINUOUS
 62
2
 10
405.9844
 20
471.7620
 11
407.3530
 21
473.1306
  0
LINE
  8
6_06
  6
CONTINUOUS
 62
2
 10
406.3865
 20
471.4569
 11
408.0373
 21
473.1078
  0
LINE
  8
6_06
  6
CONTINUOUS
 62
2
 10
407.0708
 20
471.4341
 11
408.7216
 21
473.0850
  0
LINE
  8
6_06
  6
CONTINUOUS
 62
2
 10
407.7551
 20
471.4113
 11
409.4060
 21
473.0621
  0
LINE
  8
6_06
  6
CONTINUOUS
 62
2
 10
408.4394
 20
471.3885
 11
410.0902
 21
473.0394
  0
LINE
  8
6_06
  6
CONTINUOUS
 62
2
 10
409.1237
 20
471.3657
 11
410.7746
 21
473.0165
  0
LINE
  8
6_06
  6
CONTINUOUS
 62
2
 10
409.8080
 20
471.3429
 11
410.9844
 21
472.5194
  0
LINE
  8
6_06
  6
CONTINUOUS
 62
2
 10
410.4922
 20
471.3201
 11
410.9844
 21
471.8123
  0
LINE
  8
15_0F
  6
CONTINUOUS
 62
6
 10
183.2268
 20
456.3203
 11
93.0986
 21
456.3203
  0
LINE
  8
15_0F
  6
CONTINUOUS
 62
6
 10
96.0986
 20
476.3204
 11
96.0986
 21
456.3203
  0
LINE
  8
15_0F
  6
CONTINUOUS
 62
6
 10
96.0986
 20
476.3204
 11
94.5393
 21
468.9842
  0
LINE
  8
15_0F
  6
CONTINUOUS
 62
6
 10
96.0986
 20
476.3204
 11
97.6580
 21
468.9842
  0
LINE
  8
15_0F
  6
CONTINUOUS
 62
6
 10
96.0986
 20
456.3203
 11
97.6580
 21
463.6565
  0
LINE
  8
15_0F
  6
CONTINUOUS
 62
6
 10
96.0986
 20
456.3203
 11
94.5393
 21
463.6565
  0
LINE
  8
15_0F
  6
CONTINUOUS
 62
6
 10
139.5030
 20
629.3203
 11
114.0986
 21
629.3203
  0
LINE
  8
15_0F
  6
CONTINUOUS
 62
6
 10
117.0986
 20
676.3203
 11
117.0986
 21
629.3203
  0
LINE
  8
15_0F
  6
CONTINUOUS
 62
6
 10
117.0986
 20
676.3203
 11
115.5393
 21
668.9843
  0
LINE
  8
15_0F
  6
CONTINUOUS
 62
6
 10
117.0986
 20
676.3203
 11
118.6580
 21
668.9843
  0
LINE
  8
15_0F
  6
CONTINUOUS
 62
6
 10
117.0986
 20
629.3203
 11
118.6580
 21
636.6564
  0
LINE
  8
15_0F
  6
CONTINUOUS
 62
6
 10
117.0986
 20
629.3203
 11
115.5393
 21
636.6564
  0
LINE
  8
0_00
  6
CENTER1
 62
6
 10
655.7117
 20
291.9453
 11
655.7117
 21
136.7808
  0
LINE
  8
0_00
  6
CONTINUOUS
 62
2
 10
660.0116
 20
221.5975
 11
655.9118
 21
221.5975
  0
LINE
  8
0_00
  6
CONTINUOUS
 62
2
 10
655.5117
 20
221.5975
 11
651.4118
 21
221.5975
  0
LINE
  8
0_00
  6
CONTINUOUS
 62
2
 10
662.7117
 20
215.3475
 11
662.7117
 21
214.0475
  0
LINE
  8
0_00
  6
CONTINUOUS
 62
2
 10
662.7117
 20
213.6475
 11
662.7117
 21
212.3475
  0
LINE
  8
0_00
  6
CONTINUOUS
 62
2
 10
651.3799
 20
220.5475
 11
652.7130
 21
220.5475
  0
LINE
  8
0_00
  6
CONTINUOUS
 62
2
 10
660.0435
 20
220.5475
 11
658.7105
 21
220.5475
  0
LINE
  8
0_00
  6
CONTINUOUS
 62
2
 10
657.7117
 20
219.0975
 11
657.7117
 21
217.5975
  0
LINE
  8
0_00
  6
CONTINUOUS
 62
2
 10
653.7117
 20
219.0975
 11
653.7117
 21
217.5975
  0
LINE
  8
0_00
  6
CONTINUOUS
 62
2
 10
654.9618
 20
220.3475
 11
656.4618
 21
220.3475
  0
LINE
  8
0_00
  6
CONTINUOUS
 62
2
 10
656.4618
 20
220.3475
 11
656.4618
 21
219.8732
  0
LINE
  8
0_00
  6
CONTINUOUS
 62
2
 10
654.9618
 20
220.3475
 11
654.9618
 21
219.8732
  0
LINE
  8
0_00
  6
CONTINUOUS
 62
2
 10
657.2374
 20
219.0975
 11
657.7117
 21
219.0975
  0
LINE
  8
0_00
  6
CONTINUOUS
 62
2
 10
657.2374
 20
217.5975
 11
657.7117
 21
217.5975
  0
LINE
  8
0_00
  6
CONTINUOUS
 62
2
 10
653.7117
 20
219.0975
 11
654.1861
 21
219.0975
  0
LINE
  8
0_00
  6
CONTINUOUS
 62
2
 10
653.7117
 20
217.5975
 11
654.1861
 21
217.5975
  0
LINE
  8
0_00
  6
CONTINUOUS
 62
2
 10
654.0347
 20
216.3475
 11
654.3191
 21
216.3475
  0
LINE
  8
0_00
  6
CONTINUOUS
 62
2
 10
657.1044
 20
216.3475
 11
657.3888
 21
216.3475
  0
LINE
  8
0_00
  6
CONTINUOUS
 62
2
 10
661.6117
 20
215.3475
 11
661.6117
 21
212.3475
  0
LINE
  8
0_00
  6
CONTINUOUS
 62
2
 10
662.5117
 20
213.8475
 11
662.7117
 21
214.0475
  0
LINE
  8
0_00
  6
CONTINUOUS
 62
2
 10
662.5117
 20
213.8475
 11
662.7117
 21
213.6475
  0
LINE
  8
0_00
  6
CONTINUOUS
 62
2
 10
655.5117
 20
221.5975
 11
655.7117
 21
221.3975
  0
LINE
  8
0_00
  6
CONTINUOUS
 62
2
 10
655.9118
 20
221.5975
 11
655.7117
 21
221.3975
  0
LINE
  8
0_00
  6
CONTINUOUS
 62
2
 10
648.7117
 20
215.3475
 11
648.7117
 21
214.0475
  0
LINE
  8
0_00
  6
CONTINUOUS
 62
2
 10
648.7117
 20
213.6475
 11
648.7117
 21
212.3475
  0
LINE
  8
0_00
  6
CONTINUOUS
 62
2
 10
649.8117
 20
215.3475
 11
649.8117
 21
212.3475
  0
LINE
  8
0_00
  6
CONTINUOUS
 62
2
 10
648.9118
 20
213.8475
 11
648.7117
 21
214.0475
  0
LINE
  8
0_00
  6
CONTINUOUS
 62
2
 10
648.9118
 20
213.8475
 11
648.7117
 21
213.6475
  0
LINE
  8
0_00
  6
CONTINUOUS
 62
2
 10
660.0116
 20
206.0975
 11
655.9118
 21
206.0975
  0
LINE
  8
0_00
  6
CONTINUOUS
 62
2
 10
655.5117
 20
206.0975
 11
651.4118
 21
206.0975
  0
LINE
  8
0_00
  6
CONTINUOUS
 62
2
 10
662.7117
 20
212.3475
 11
662.7117
 21
213.6475
  0
LINE
  8
0_00
  6
CONTINUOUS
 62
2
 10
651.3799
 20
207.1475
 11
652.7130
 21
207.1475
  0
LINE
  8
0_00
  6
CONTINUOUS
 62
2
 10
660.0435
 20
207.1475
 11
658.7105
 21
207.1475
  0
LINE
  8
0_00
  6
CONTINUOUS
 62
2
 10
657.7117
 20
208.5975
 11
657.7117
 21
210.0975
  0
LINE
  8
0_00
  6
CONTINUOUS
 62
2
 10
653.7117
 20
208.5975
 11
653.7117
 21
210.0975
  0
LINE
  8
0_00
  6
CONTINUOUS
 62
2
 10
654.9618
 20
207.3475
 11
656.4618
 21
207.3475
  0
LINE
  8
0_00
  6
CONTINUOUS
 62
2
 10
656.4618
 20
207.3475
 11
656.4618
 21
207.8219
  0
LINE
  8
0_00
  6
CONTINUOUS
 62
2
 10
654.9618
 20
207.3475
 11
654.9618
 21
207.8219
  0
LINE
  8
0_00
  6
CONTINUOUS
 62
2
 10
657.2374
 20
208.5975
 11
657.7117
 21
208.5975
  0
LINE
  8
0_00
  6
CONTINUOUS
 62
2
 10
657.2374
 20
210.0975
 11
657.7117
 21
210.0975
  0
LINE
  8
0_00
  6
CONTINUOUS
 62
2
 10
653.7117
 20
208.5975
 11
654.1861
 21
208.5975
  0
LINE
  8
0_00
  6
CONTINUOUS
 62
2
 10
653.7117
 20
210.0975
 11
654.1861
 21
210.0975
  0
LINE
  8
0_00
  6
CONTINUOUS
 62
2
 10
654.0347
 20
211.3475
 11
654.3191
 21
211.3475
  0
LINE
  8
0_00
  6
CONTINUOUS
 62
2
 10
657.1044
 20
211.3475
 11
657.3888
 21
211.3475
  0
LINE
  8
0_00
  6
CONTINUOUS
 62
2
 10
662.5117
 20
213.8475
 11
662.7117
 21
213.6475
  0
LINE
  8
0_00
  6
CONTINUOUS
 62
2
 10
662.5117
 20
213.8475
 11
662.7117
 21
214.0475
  0
LINE
  8
0_00
  6
CONTINUOUS
 62
2
 10
655.5117
 20
206.0975
 11
655.7117
 21
206.2975
  0
LINE
  8
0_00
  6
CONTINUOUS
 62
2
 10
655.9118
 20
206.0975
 11
655.7117
 21
206.2975
  0
LINE
  8
0_00
  6
CONTINUOUS
 62
2
 10
648.7117
 20
212.3475
 11
648.7117
 21
213.6475
  0
LINE
  8
0_00
  6
CONTINUOUS
 62
2
 10
648.9118
 20
213.8475
 11
648.7117
 21
213.6475
  0
LINE
  8
0_00
  6
CONTINUOUS
 62
2
 10
648.9118
 20
213.8475
 11
648.7117
 21
214.0475
  0
LINE
  8
0_00
  6
CONTINUOUS
 62
4
 10
665.9118
 20
234.3475
 11
665.9118
 21
265.8475
  0
LINE
  8
0_00
  6
CONTINUOUS
 62
4
 10
645.5117
 20
234.3475
 11
645.5117
 21
265.8475
  0
LINE
  8
0_00
  6
CONTINUOUS
 62
4
 10
677.7117
 20
218.0975
 11
676.2327
 21
218.0975
  0
LINE
  8
0_00
  6
CONTINUOUS
 62
4
 10
633.7117
 20
209.5975
 11
635.1907
 21
209.5975
  0
LINE
  8
0_00
  6
CONTINUOUS
 62
4
 10
633.7117
 20
218.0975
 11
635.1907
 21
218.0975
  0
LINE
  8
0_00
  6
CONTINUOUS
 62
4
 10
682.7117
 20
265.8475
 11
628.7117
 21
265.8475
  0
LINE
  8
0_00
  6
CONTINUOUS
 62
4
 10
682.7117
 20
161.8475
 11
628.7117
 21
161.8475
  0
LINE
  8
0_00
  6
CONTINUOUS
 62
4
 10
685.7118
 20
164.8475
 11
685.7118
 21
262.8475
  0
LINE
  8
0_00
  6
CONTINUOUS
 62
4
 10
625.7118
 20
164.8475
 11
625.7118
 21
262.8475
  0
LINE
  8
0_00
  6
CONTINUOUS
 62
4
 10
665.9118
 20
193.3475
 11
665.9118
 21
161.8475
  0
LINE
  8
0_00
  6
CONTINUOUS
 62
4
 10
645.5117
 20
193.3475
 11
645.5117
 21
161.8475
  0
LINE
  8
0_00
  6
CONTINUOUS
 62
4
 10
656.0117
 20
260.8475
 11
655.4117
 21
260.8475
  0
LINE
  8
0_00
  6
CONTINUOUS
 62
4
 10
656.0117
 20
260.8475
 11
656.0117
 21
265.8475
  0
LINE
  8
0_00
  6
CONTINUOUS
 62
4
 10
655.7117
 20
260.8475
 11
655.7117
 21
265.8475
  0
LINE
  8
0_00
  6
CONTINUOUS
 62
4
 10
655.4117
 20
260.8475
 11
655.4117
 21
265.8475
  0
LINE
  8
0_00
  6
CONTINUOUS
 62
4
 10
656.0117
 20
166.8475
 11
655.4117
 21
166.8475
  0
LINE
  8
0_00
  6
CONTINUOUS
 62
4
 10
656.0117
 20
166.8475
 11
656.0117
 21
161.8475
  0
LINE
  8
0_00
  6
CONTINUOUS
 62
4
 10
655.7117
 20
166.8475
 11
655.7117
 21
161.8475
  0
LINE
  8
0_00
  6
CONTINUOUS
 62
4
 10
655.4117
 20
166.8475
 11
655.4117
 21
161.8475
  0
LINE
  8
0_00
  6
CONTINUOUS
 62
4
 10
629.2218
 20
213.5476
 11
625.7118
 21
213.5476
  0
LINE
  8
0_00
  6
CONTINUOUS
 62
4
 10
629.2117
 20
213.8475
 11
625.7118
 21
213.8475
  0
LINE
  8
0_00
  6
CONTINUOUS
 62
4
 10
629.2218
 20
214.1475
 11
625.7118
 21
214.1475
  0
LINE
  8
0_00
  6
CONTINUOUS
 62
4
 10
682.2018
 20
213.5476
 11
685.7118
 21
213.5476
  0
LINE
  8
0_00
  6
CONTINUOUS
 62
4
 10
682.2117
 20
213.8475
 11
685.7118
 21
213.8475
  0
LINE
  8
0_00
  6
CONTINUOUS
 62
4
 10
682.2018
 20
214.1475
 11
685.7118
 21
214.1475
  0
LINE
  8
0_00
  6
CONTINUOUS
 62
4
 10
677.7117
 20
209.5975
 11
676.2327
 21
209.5975
  0
LINE
  8
0_00
  6
CONTINUOUS
 62
4
 10
685.7118
 20
248.0975
 11
685.7118
 21
179.3475
  0
LINE
  8
0_00
  6
CONTINUOUS
 62
4
 10
656.0117
 20
203.8475
 11
655.4117
 21
203.8475
  0
LINE
  8
0_00
  6
CONTINUOUS
 62
4
 10
655.7117
 20
203.8475
 11
655.7117
 21
193.8475
  0
LINE
  8
0_00
  6
CONTINUOUS
 62
4
 10
656.0117
 20
203.8475
 11
656.0117
 21
193.8475
  0
LINE
  8
0_00
  6
CONTINUOUS
 62
4
 10
655.4117
 20
203.8475
 11
655.4117
 21
193.8475
  0
LINE
  8
0_00
  6
CONTINUOUS
 62
4
 10
667.2117
 20
233.8475
 11
667.2117
 21
193.8475
  0
LINE
  8
0_00
  6
CONTINUOUS
 62
4
 10
625.7118
 20
248.0975
 11
625.7118
 21
179.3475
  0
LINE
  8
0_00
  6
CONTINUOUS
 62
4
 10
665.6493
 20
193.8475
 11
665.6493
 21
233.8475
  0
LINE
  8
0_00
  6
CONTINUOUS
 62
4
 10
644.2117
 20
233.8475
 11
644.2117
 21
193.8475
  0
LINE
  8
0_00
  6
CONTINUOUS
 62
4
 10
645.7741
 20
193.8475
 11
645.7741
 21
233.8475
  0
LINE
  8
0_00
  6
CENTER1
 62
6
 10
636.9618
 20
253.5788
 11
636.9618
 21
230.9780
  0
LINE
  8
0_00
  6
CENTER1
 62
6
 10
623.9165
 20
241.8475
 11
646.7962
 21
241.8475
  0
LINE
  8
0_00
  6
CONTINUOUS
 62
2
 10
635.6858
 20
243.9374
 11
636.5548
 21
243.0987
  0
LINE
  8
0_00
  6
CONTINUOUS
 62
2
 10
636.5548
 20
243.0987
 11
636.9618
 21
242.9502
  0
LINE
  8
0_00
  6
CONTINUOUS
 62
2
 10
636.9618
 20
242.9502
 11
637.3467
 21
243.0905
  0
LINE
  8
0_00
  6
CONTINUOUS
 62
2
 10
637.3467
 20
243.0905
 11
638.2431
 21
243.9347
  0
LINE
  8
0_00
  6
CONTINUOUS
 62
2
 10
634.8718
 20
243.1235
 11
635.7106
 21
242.2545
  0
LINE
  8
0_00
  6
CONTINUOUS
 62
2
 10
635.7106
 20
242.2545
 11
635.8591
 21
241.8475
  0
LINE
  8
0_00
  6
CONTINUOUS
 62
2
 10
635.8591
 20
241.8475
 11
635.7188
 21
241.4626
  0
LINE
  8
0_00
  6
CONTINUOUS
 62
2
 10
635.7188
 20
241.4626
 11
634.8746
 21
240.5661
  0
LINE
  8
0_00
  6
CONTINUOUS
 62
2
 10
639.0516
 20
240.5716
 11
638.2129
 21
241.4406
  0
LINE
  8
0_00
  6
CONTINUOUS
 62
2
 10
638.2129
 20
241.4406
 11
638.0645
 21
241.8475
  0
LINE
  8
0_00
  6
CONTINUOUS
 62
2
 10
638.0645
 20
241.8475
 11
638.2046
 21
242.2325
  0
LINE
  8
0_00
  6
CONTINUOUS
 62
2
 10
638.2046
 20
242.2325
 11
639.0489
 21
243.1290
  0
LINE
  8
0_00
  6
CONTINUOUS
 62
2
 10
638.2376
 20
239.7576
 11
637.3687
 21
240.5964
  0
LINE
  8
0_00
  6
CONTINUOUS
 62
2
 10
637.3687
 20
240.5964
 11
636.9618
 21
240.7448
  0
LINE
  8
0_00
  6
CONTINUOUS
 62
2
 10
636.9618
 20
240.7448
 11
636.5768
 21
240.6046
  0
LINE
  8
0_00
  6
CONTINUOUS
 62
2
 10
636.5768
 20
240.6046
 11
635.6803
 21
239.7604
  0
LINE
  8
0_00
  6
CENTER1
 62
6
 10
674.4618
 20
174.1162
 11
674.4618
 21
196.7171
  0
LINE
  8
0_00
  6
CENTER1
 62
6
 10
687.5070
 20
185.8475
 11
664.6273
 21
185.8475
  0
LINE
  8
0_00
  6
CONTINUOUS
 62
2
 10
675.7376
 20
183.7577
 11
674.8687
 21
184.5963
  0
LINE
  8
0_00
  6
CONTINUOUS
 62
2
 10
674.8687
 20
184.5963
 11
674.4618
 21
184.7448
  0
LINE
  8
0_00
  6
CONTINUOUS
 62
2
 10
674.4618
 20
184.7448
 11
674.0768
 21
184.6046
  0
LINE
  8
0_00
  6
CONTINUOUS
 62
2
 10
674.0768
 20
184.6046
 11
673.1803
 21
183.7604
  0
LINE
  8
0_00
  6
CONTINUOUS
 62
2
 10
676.5517
 20
184.5716
 11
675.7129
 21
185.4406
  0
LINE
  8
0_00
  6
CONTINUOUS
 62
2
 10
675.7129
 20
185.4406
 11
675.5645
 21
185.8475
  0
LINE
  8
0_00
  6
CONTINUOUS
 62
2
 10
675.5645
 20
185.8475
 11
675.7047
 21
186.2325
  0
LINE
  8
0_00
  6
CONTINUOUS
 62
2
 10
675.7047
 20
186.2325
 11
676.5489
 21
187.1290
  0
LINE
  8
0_00
  6
CONTINUOUS
 62
2
 10
672.3718
 20
187.1235
 11
673.2106
 21
186.2545
  0
LINE
  8
0_00
  6
CONTINUOUS
 62
2
 10
673.2106
 20
186.2545
 11
673.3591
 21
185.8475
  0
LINE
  8
0_00
  6
CONTINUOUS
 62
2
 10
673.3591
 20
185.8475
 11
673.2188
 21
185.4626
  0
LINE
  8
0_00
  6
CONTINUOUS
 62
2
 10
673.2188
 20
185.4626
 11
672.3745
 21
184.5661
  0
LINE
  8
0_00
  6
CONTINUOUS
 62
2
 10
673.1857
 20
187.9374
 11
674.0547
 21
187.0987
  0
LINE
  8
0_00
  6
CONTINUOUS
 62
2
 10
674.0547
 20
187.0987
 11
674.4618
 21
186.9502
  0
LINE
  8
0_00
  6
CONTINUOUS
 62
2
 10
674.4618
 20
186.9502
 11
674.8467
 21
187.0905
  0
LINE
  8
0_00
  6
CONTINUOUS
 62
2
 10
674.8467
 20
187.0905
 11
675.7431
 21
187.9347
  0
LINE
  8
0_00
  6
CONTINUOUS
 62
4
 10
685.7118
 20
147.6476
 11
625.7118
 21
147.6476
  0
LINE
  8
0_00
  6
CONTINUOUS
 62
4
 10
543.9542
 20
474.0704
 11
880.0393
 21
474.0704
  0
LINE
  8
0_00
  6
CONTINUOUS
 62
4
 10
543.9542
 20
414.0704
 11
880.0393
 21
414.0704
  0
LINE
  8
15_0F
  6
CENTER1
 62
6
 10
644.3528
 20
476.3448
 11
748.4263
 21
476.3448
  0
LINE
  8
15_0F
  6
CONTINUOUS
 62
7
 10
754.3527
 20
476.3448
 11
748.4263
 21
476.3448
  0
LINE
  8
15_0F
  6
CONTINUOUS
 62
7
 10
751.3895
 20
487.0508
 11
751.3895
 21
476.3448
  0
LINE
  8
15_0F
  6
CONTINUOUS
 62
7
 10
751.3895
 20
476.3448
 11
752.9489
 21
483.6809
  0
LINE
  8
15_0F
  6
CONTINUOUS
 62
7
 10
751.3895
 20
476.3448
 11
749.8302
 21
483.6809
  0
LINE
  8
15_0F
  6
CONTINUOUS
 62
7
 10
644.3528
 20
476.3448
 11
638.4263
 21
476.3448
  0
LINE
  8
15_0F
  6
CONTINUOUS
 62
7
 10
641.3896
 20
487.0508
 11
641.3896
 21
476.3448
  0
LINE
  8
15_0F
  6
CONTINUOUS
 62
7
 10
641.3896
 20
476.3448
 11
642.9489
 21
483.6809
  0
LINE
  8
15_0F
  6
CONTINUOUS
 62
7
 10
641.3896
 20
476.3448
 11
639.8302
 21
483.6809
  0
LINE
  8
0_00
  6
DASHED
 62
6
 10
726.3895
 20
476.2035
 11
726.3895
 21
415.7703
  0
LINE
  8
0_00
  6
DASHED
 62
6
 10
666.3896
 20
476.2035
 11
666.3896
 21
415.7703
  0
LINE
  8
0_00
  6
DASHED
 62
6
 10
666.3896
 20
415.7703
 11
726.3895
 21
415.7703
  0
LINE
  8
0_00
  6
DASHED
 62
6
 10
666.3896
 20
476.2035
 11
726.3895
 21
476.2035
  0
LINE
  8
0_00
  6
DASHED
 62
6
 10
666.3896
 20
471.2437
 11
726.3895
 21
471.2437
  0
LINE
  8
0_00
  6
CENTER1
 62
6
 10
609.3109
 20
213.8475
 11
695.9071
 21
213.8475
  0
LINE
  8
15_0F
  6
CONTINUOUS
 62
6
 10
301.1844
 20
397.0197
 11
301.1844
 21
362.0197
  0
LINE
  8
15_0F
  6
CONTINUOUS
 62
6
 10
406.1845
 20
397.0197
 11
406.1845
 21
362.0197
  0
LINE
  8
15_0F
  6
CONTINUOUS
 62
6
 10
301.1844
 20
365.0197
 11
406.1845
 21
365.0197
  0
LINE
  8
15_0F
  6
CONTINUOUS
 62
6
 10
301.1844
 20
365.0197
 11
308.5205
 21
363.4604
  0
LINE
  8
15_0F
  6
CONTINUOUS
 62
6
 10
301.1844
 20
365.0197
 11
308.5205
 21
366.5790
  0
LINE
  8
15_0F
  6
CONTINUOUS
 62
6
 10
406.1845
 20
365.0197
 11
398.8483
 21
366.5790
  0
LINE
  8
15_0F
  6
CONTINUOUS
 62
6
 10
406.1845
 20
365.0197
 11
398.8483
 21
363.4604
  0
LINE
  8
15_0F
  6
CONTINUOUS
 62
6
 10
296.1844
 20
397.0197
 11
296.1844
 21
341.0197
  0
LINE
  8
15_0F
  6
CONTINUOUS
 62
6
 10
411.1844
 20
397.0197
 11
411.1844
 21
341.0197
  0
LINE
  8
15_0F
  6
CONTINUOUS
 62
6
 10
296.1844
 20
344.0197
 11
411.1844
 21
344.0197
  0
LINE
  8
15_0F
  6
CONTINUOUS
 62
6
 10
296.1844
 20
344.0197
 11
303.5205
 21
342.4604
  0
LINE
  8
15_0F
  6
CONTINUOUS
 62
6
 10
296.1844
 20
344.0197
 11
303.5205
 21
345.5790
  0
LINE
  8
15_0F
  6
CONTINUOUS
 62
6
 10
411.1844
 20
344.0197
 11
403.8483
 21
345.5790
  0
LINE
  8
15_0F
  6
CONTINUOUS
 62
6
 10
411.1844
 20
344.0197
 11
403.8483
 21
342.4604
  0
LINE
  8
15_0F
  6
CONTINUOUS
 62
6
 10
286.1845
 20
413.5703
 11
286.1845
 21
318.5126
  0
LINE
  8
15_0F
  6
CONTINUOUS
 62
6
 10
421.1845
 20
414.0704
 11
421.1845
 21
318.5126
  0
LINE
  8
15_0F
  6
CONTINUOUS
 62
6
 10
286.1845
 20
323.0197
 11
421.1845
 21
323.0197
  0
LINE
  8
15_0F
  6
CONTINUOUS
 62
6
 10
286.1845
 20
323.0197
 11
293.5205
 21
321.4604
  0
LINE
  8
15_0F
  6
CONTINUOUS
 62
6
 10
286.1845
 20
323.0197
 11
293.5205
 21
324.5790
  0
LINE
  8
15_0F
  6
CONTINUOUS
 62
6
 10
421.1845
 20
323.0197
 11
413.8483
 21
324.5790
  0
LINE
  8
15_0F
  6
CONTINUOUS
 62
6
 10
421.1845
 20
323.0197
 11
413.8483
 21
321.4604
  0
LINE
  8
0_00
  6
CONTINUOUS
 62
6
 10
326.8672
 20
459.8203
 11
305.5863
 21
496.6800
  0
LINE
  8
0_00
  6
CONTINUOUS
 62
6
 10
326.8672
 20
459.8203
 11
324.5496
 21
466.9532
  0
LINE
  8
0_00
  6
CONTINUOUS
 62
6
 10
326.8672
 20
459.8203
 11
321.8487
 21
465.3939
  0
LINE
  8
0_00
  6
CONTINUOUS
 62
6
 10
305.5863
 20
496.6800
 11
220.8675
 21
496.6800
  0
LINE
  8
0_00
  6
CONTINUOUS
 62
6
 10
356.0018
 20
462.5634
 11
389.3510
 21
520.3260
  0
LINE
  8
0_00
  6
CONTINUOUS
 62
6
 10
356.0018
 20
462.5634
 11
361.0202
 21
468.1370
  0
LINE
  8
0_00
  6
CONTINUOUS
 62
6
 10
356.0018
 20
462.5634
 11
358.3193
 21
469.6963
  0
LINE
  8
0_00
  6
CONTINUOUS
 62
6
 10
389.3510
 20
520.3260
 11
443.3510
 21
520.3260
  0
LINE
  8
0_00
  6
CONTINUOUS
 62
6
 10
375.6990
 20
496.6800
 11
420.0989
 21
496.6800
  0
LINE
  8
0_00
  6
CONTINUOUS
 62
6
 10
712.3895
 20
481.3203
 11
730.9636
 21
513.4916
  0
LINE
  8
0_00
  6
CONTINUOUS
 62
6
 10
712.3895
 20
481.3203
 11
717.4081
 21
486.8939
  0
LINE
  8
0_00
  6
CONTINUOUS
 62
6
 10
712.3895
 20
481.3203
 11
714.7072
 21
488.4532
  0
LINE
  8
0_00
  6
CONTINUOUS
 62
6
 10
730.9636
 20
513.4916
 11
827.9625
 21
513.4916
  0
LINE
  8
0_00
  6
CONTINUOUS
 62
6
 10
633.7515
 20
251.3475
 11
612.1838
 21
288.7039
  0
LINE
  8
0_00
  6
CONTINUOUS
 62
6
 10
633.7515
 20
251.3475
 11
631.4339
 21
258.4805
  0
LINE
  8
0_00
  6
CONTINUOUS
 62
6
 10
633.7515
 20
251.3475
 11
628.7330
 21
256.9211
  0
LINE
  8
0_00
  6
CONTINUOUS
 62
6
 10
612.1838
 20
288.7039
 11
455.3372
 21
288.7039
  0
LINE
  8
0_00
  6
CONTINUOUS
 62
6
 10
677.5758
 20
275.1475
 11
688.0593
 21
293.3056
  0
LINE
  8
0_00
  6
CONTINUOUS
 62
6
 10
677.5758
 20
275.1475
 11
682.5942
 21
280.7211
  0
LINE
  8
0_00
  6
CONTINUOUS
 62
6
 10
677.5758
 20
275.1475
 11
679.8934
 21
282.2804
  0
LINE
  8
0_00
  6
CONTINUOUS
 62
6
 10
688.0593
 20
293.3056
 11
724.7785
 21
293.3056
  0
LINE
  8
15_0F
  6
CONTINUOUS
 62
6
 10
674.4618
 20
199.7171
 11
674.4618
 21
313.9244
  0
LINE
  8
15_0F
  6
CONTINUOUS
 62
6
 10
636.9618
 20
256.5789
 11
636.9618
 21
313.9244
  0
LINE
  8
15_0F
  6
CONTINUOUS
 62
6
 10
636.9618
 20
310.9244
 11
674.4618
 21
310.9244
  0
LINE
  8
15_0F
  6
CONTINUOUS
 62
6
 10
636.9618
 20
310.9244
 11
644.2979
 21
309.3651
  0
LINE
  8
15_0F
  6
CONTINUOUS
 62
6
 10
636.9618
 20
310.9244
 11
644.2979
 21
312.4838
  0
LINE
  8
15_0F
  6
CONTINUOUS
 62
6
 10
674.4618
 20
310.9244
 11
667.1256
 21
312.4838
  0
LINE
  8
15_0F
  6
CONTINUOUS
 62
6
 10
674.4618
 20
310.9244
 11
667.1256
 21
309.3651
  0
LINE
  8
15_0F
  6
CONTINUOUS
 62
6
 10
685.7118
 20
282.4333
 11
685.7118
 21
334.9244
  0
LINE
  8
15_0F
  6
CONTINUOUS
 62
6
 10
625.7118
 20
282.4333
 11
625.7118
 21
334.9244
  0
LINE
  8
15_0F
  6
CONTINUOUS
 62
6
 10
625.7118
 20
331.9244
 11
685.7118
 21
331.9244
  0
LINE
  8
15_0F
  6
CONTINUOUS
 62
6
 10
625.7118
 20
331.9244
 11
633.0479
 21
330.3651
  0
LINE
  8
15_0F
  6
CONTINUOUS
 62
6
 10
625.7118
 20
331.9244
 11
633.0479
 21
333.4837
  0
LINE
  8
15_0F
  6
CONTINUOUS
 62
6
 10
685.7118
 20
331.9244
 11
678.3756
 21
333.4837
  0
LINE
  8
15_0F
  6
CONTINUOUS
 62
6
 10
685.7118
 20
331.9244
 11
678.3756
 21
330.3651
  0
LINE
  8
15_0F
  6
CONTINUOUS
 62
6
 10
649.7962
 20
241.8475
 11
728.8194
 21
241.8475
  0
LINE
  8
15_0F
  6
CONTINUOUS
 62
6
 10
690.5071
 20
185.8475
 11
728.8194
 21
185.8475
  0
LINE
  8
15_0F
  6
CONTINUOUS
 62
6
 10
725.8194
 20
241.8475
 11
725.8194
 21
185.8475
  0
LINE
  8
15_0F
  6
CONTINUOUS
 62
6
 10
725.8194
 20
241.8475
 11
724.2601
 21
234.5114
  0
LINE
  8
15_0F
  6
CONTINUOUS
 62
6
 10
725.8194
 20
241.8475
 11
727.3787
 21
234.5114
  0
LINE
  8
15_0F
  6
CONTINUOUS
 62
6
 10
725.8194
 20
185.8475
 11
727.3787
 21
193.1836
  0
LINE
  8
15_0F
  6
CONTINUOUS
 62
6
 10
725.8194
 20
185.8475
 11
724.2601
 21
193.1836
  0
LINE
  8
0_00
  6
CONTINUOUS
 62
4
 10
628.7117
 20
265.8475
 11
682.7117
 21
265.8475
  0
LINE
  8
0_00
  6
CONTINUOUS
 62
4
 10
642.7117
 20
234.3475
 11
668.7117
 21
234.3475
  0
LINE
  8
0_00
  6
CONTINUOUS
 62
4
 10
645.5117
 20
234.3475
 11
645.5117
 21
265.8475
  0
LINE
  8
0_00
  6
CONTINUOUS
 62
4
 10
665.9118
 20
234.3475
 11
665.9118
 21
265.8475
  0
LINE
  8
0_00
  6
CONTINUOUS
 62
4
 10
655.4117
 20
260.8475
 11
656.0117
 21
260.8475
  0
LINE
  8
0_00
  6
CONTINUOUS
 62
4
 10
655.4117
 20
260.8475
 11
655.4117
 21
265.8475
  0
LINE
  8
0_00
  6
CONTINUOUS
 62
4
 10
655.7117
 20
260.8475
 11
655.7117
 21
265.8475
  0
LINE
  8
0_00
  6
CONTINUOUS
 62
4
 10
656.0117
 20
260.8475
 11
656.0117
 21
265.8475
  0
LINE
  8
0_00
  6
CONTINUOUS
 62
4
 10
643.2117
 20
233.8475
 11
668.2117
 21
233.8475
  0
LINE
  8
0_00
  6
CONTINUOUS
 62
4
 10
655.4117
 20
223.8475
 11
656.0117
 21
223.8475
  0
LINE
  8
0_00
  6
CONTINUOUS
 62
4
 10
655.7117
 20
223.8475
 11
655.7117
 21
233.8475
  0
LINE
  8
0_00
  6
CONTINUOUS
 62
4
 10
655.4117
 20
223.8475
 11
655.4117
 21
233.8475
  0
LINE
  8
0_00
  6
CONTINUOUS
 62
4
 10
656.0117
 20
223.8475
 11
656.0117
 21
233.8475
  0
LINE
  8
0_00
  6
CONTINUOUS
 62
4
 10
642.2118
 20
234.8475
 11
642.2118
 21
237.5975
  0
LINE
  8
0_00
  6
CONTINUOUS
 62
4
 10
642.2118
 20
246.0975
 11
642.2118
 21
249.3475
  0
LINE
  8
0_00
  6
CONTINUOUS
 62
4
 10
640.2117
 20
251.3475
 11
628.7117
 21
251.3475
  0
LINE
  8
0_00
  6
CONTINUOUS
 62
4
 10
669.2118
 20
234.8475
 11
669.2118
 21
237.5975
  0
LINE
  8
0_00
  6
CONTINUOUS
 62
4
 10
669.2118
 20
246.0975
 11
669.2118
 21
249.3475
  0
LINE
  8
0_00
  6
CONTINUOUS
 62
4
 10
671.2117
 20
251.3475
 11
682.7117
 21
251.3475
  0
LINE
  8
0_00
  6
CONTINUOUS
 62
4
 10
677.4618
 20
245.0975
 11
670.2117
 21
245.0975
  0
LINE
  8
0_00
  6
CONTINUOUS
 62
4
 10
670.2117
 20
238.5975
 11
677.4618
 21
238.5975
  0
LINE
  8
0_00
  6
CONTINUOUS
 62
4
 10
642.2118
 20
192.8475
 11
642.2118
 21
190.0975
  0
LINE
  8
0_00
  6
CONTINUOUS
 62
4
 10
642.2118
 20
181.5975
 11
642.2118
 21
178.3475
  0
LINE
  8
0_00
  6
CONTINUOUS
 62
4
 10
640.2117
 20
176.3475
 11
628.7117
 21
176.3475
  0
LINE
  8
0_00
  6
CONTINUOUS
 62
4
 10
633.9618
 20
182.5975
 11
641.2118
 21
182.5975
  0
LINE
  8
0_00
  6
CONTINUOUS
 62
4
 10
641.2118
 20
189.0975
 11
633.9618
 21
189.0975
  0
LINE
  8
0_00
  6
CONTINUOUS
 62
4
 10
642.7117
 20
193.3475
 11
668.7117
 21
193.3475
  0
LINE
  8
0_00
  6
CONTINUOUS
 62
4
 10
643.2117
 20
193.8475
 11
668.2117
 21
193.8475
  0
LINE
  8
0_00
  6
CONTINUOUS
 62
4
 10
669.2118
 20
192.8475
 11
669.2118
 21
190.0975
  0
LINE
  8
0_00
  6
CONTINUOUS
 62
4
 10
669.2118
 20
181.5975
 11
669.2118
 21
178.3475
  0
LINE
  8
0_00
  6
CONTINUOUS
 62
4
 10
671.2117
 20
176.3475
 11
682.7117
 21
176.3475
  0
LINE
  8
0_00
  6
CONTINUOUS
 62
4
 10
696.3896
 20
632.0828
 11
696.3896
 21
631.8205
  0
LINE
  8
15_0F
  6
CONTINUOUS
 62
6
 10
501.6475
 20
757.3203
 11
696.3896
 21
757.3203
  0
LINE
  8
15_0F
  6
CONTINUOUS
 62
6
 10
696.3896
 20
757.3203
 11
689.0534
 21
758.8797
  0
LINE
  8
15_0F
  6
CONTINUOUS
 62
6
 10
696.3896
 20
757.3203
 11
689.0534
 21
755.7610
  0
LINE
  8
15_0F
  6
CONTINUOUS
 62
6
 10
696.3896
 20
690.2654
 11
696.3896
 21
760.3203
  0
LINE
  8
15_0F
  6
CONTINUOUS
 62
6
 10
696.3896
 20
757.3203
 11
885.3194
 21
757.3203
  0
LINE
  8
15_0F
  6
CONTINUOUS
 62
6
 10
696.3896
 20
757.3203
 11
703.7257
 21
755.7610
  0
LINE
  8
15_0F
  6
CONTINUOUS
 62
6
 10
696.3896
 20
757.3203
 11
703.7257
 21
758.8797
  0
LINE
  8
0_00
  6
CONTINUOUS
 62
6
 10
373.6948
 20
648.7127
 11
387.8453
 21
673.2221
  0
LINE
  8
0_00
  6
CONTINUOUS
 62
6
 10
373.6948
 20
648.7127
 11
378.7132
 21
654.2862
  0
LINE
  8
0_00
  6
CONTINUOUS
 62
6
 10
373.6948
 20
648.7127
 11
376.0124
 21
655.8456
  0
LINE
  8
0_00
  6
CONTINUOUS
 62
6
 10
387.8453
 20
673.2221
 11
428.9726
 21
673.2221
  0
LINE
  8
0_00
  6
CONTINUOUS
 62
6
 10
370.5841
 20
676.5204
 11
387.8453
 21
706.4177
  0
LINE
  8
0_00
  6
CONTINUOUS
 62
6
 10
370.5841
 20
676.5204
 11
375.6026
 21
682.0939
  0
LINE
  8
0_00
  6
CONTINUOUS
 62
6
 10
370.5841
 20
676.5204
 11
372.9017
 21
683.6533
  0
LINE
  8
0_00
  6
CONTINUOUS
 62
6
 10
387.8453
 20
706.4177
 11
524.8360
 21
706.4177
  0
LINE
  8
0_00
  6
CONTINUOUS
 62
4
 10
696.3896
 20
632.0828
 11
696.3896
 21
631.8205
  0
LINE
  8
0_00
  6
CONTINUOUS
 62
6
 10
652.5781
 20
676.3203
 11
637.5778
 21
702.3015
  0
LINE
  8
0_00
  6
CONTINUOUS
 62
6
 10
652.5781
 20
676.3203
 11
650.2603
 21
683.4532
  0
LINE
  8
0_00
  6
CONTINUOUS
 62
6
 10
652.5781
 20
676.3203
 11
647.5595
 21
681.8939
  0
LINE
  8
0_00
  6
CONTINUOUS
 62
6
 10
637.5778
 20
702.3015
 11
547.5465
 21
702.3015
  0
LINE
  8
0_00
  6
CONTINUOUS
 62
6
 10
655.6112
 20
630.8203
 11
636.6346
 21
597.9520
  0
LINE
  8
0_00
  6
CONTINUOUS
 62
6
 10
655.6112
 20
630.8203
 11
650.5927
 21
625.2468
  0
LINE
  8
0_00
  6
CONTINUOUS
 62
6
 10
655.6112
 20
630.8203
 11
653.2936
 21
623.6874
  0
LINE
  8
0_00
  6
CONTINUOUS
 62
6
 10
566.6176
 20
597.9520
 11
636.6346
 21
597.9520
  0
LINE
  8
0_00
  6
CONTINUOUS
 62
6
 10
688.3619
 20
638.3203
 11
639.4910
 21
722.9672
  0
LINE
  8
0_00
  6
CONTINUOUS
 62
6
 10
688.3619
 20
638.3203
 11
686.0442
 21
645.4532
  0
LINE
  8
0_00
  6
CONTINUOUS
 62
6
 10
688.3619
 20
638.3203
 11
683.3434
 21
643.8939
  0
LINE
  8
0_00
  6
CONTINUOUS
 62
6
 10
514.4815
 20
722.9672
 11
639.4910
 21
722.9672
  0
LINE
  8
0_00
  6
CONTINUOUS
 62
4
 10
543.9542
 20
478.4686
 11
680.3895
 21
478.4686
  0
LINE
  8
0_00
  6
CONTINUOUS
 62
4
 10
712.3895
 20
478.4686
 11
880.0393
 21
478.4686
  0
LINE
  8
0_00
  6
CONTINUOUS
 62
4
 10
565.4123
 20
676.3203
 11
788.8649
 21
676.3203
  0
LINE
  8
0_00
  6
CONTINUOUS
 62
4
 10
792.8650
 20
676.3203
 11
880.0393
 21
676.3203
  0
LINE
  8
15_0F
  6
CENTER1
 62
6
 10
849.2786
 20
612.1204
 11
849.2786
 21
658.3203
  0
LINE
  8
0_00
  6
CONTINUOUS
 62
6
 10
815.1814
 20
712.3782
 11
773.5954
 21
712.3782
  0
LINE
  8
0_00
  6
CONTINUOUS
 62
6
 10
849.2786
 20
653.3203
 11
815.1814
 21
712.3782
  0
LINE
  8
0_00
  6
CONTINUOUS
 62
6
 10
849.2786
 20
653.3203
 11
846.9609
 21
660.4533
  0
LINE
  8
0_00
  6
CONTINUOUS
 62
6
 10
849.2786
 20
653.3203
 11
844.2600
 21
658.8939
  0
LINE
  8
16_10
  6
CENTER1
 62
6
 10
1135.9263
 20
408.7001
 11
1135.9263
 21
270.8463
  0
LINE
  8
16_10
  6
CENTER1
 62
6
 10
1135.9263
 20
254.2387
 11
1135.9263
 21
234.0663
  0
LINE
  8
16_10
  6
CENTER1
 62
6
 10
910.9150
 20
258.9060
 11
910.9150
 21
227.3790
  0
LINE
  8
16_10
  6
CONTINUOUS
 62
4
 10
913.5402
 20
254.2631
 11
913.5402
 21
248.5668
  0
LINE
  8
16_10
  6
CONTINUOUS
 62
4
 10
913.5402
 20
239.5668
 11
913.5402
 21
233.8706
  0
LINE
  8
16_10
  6
CONTINUOUS
 62
4
 10
908.2898
 20
254.2631
 11
908.2898
 21
248.5668
  0
LINE
  8
16_10
  6
CONTINUOUS
 62
4
 10
908.2898
 20
239.5668
 11
908.2898
 21
233.8706
  0
LINE
  8
16_10
  6
CONTINUOUS
 62
4
 10
913.4012
 20
254.4127
 11
910.9150
 21
254.5974
  0
LINE
  8
16_10
  6
CONTINUOUS
 62
4
 10
908.4287
 20
254.4127
 11
910.9150
 21
254.5974
  0
LINE
  8
16_10
  6
CONTINUOUS
 62
4
 10
913.4012
 20
233.7210
 11
910.9150
 21
233.5363
  0
LINE
  8
16_10
  6
CONTINUOUS
 62
4
 10
908.4287
 20
233.7210
 11
910.9150
 21
233.5363
  0
LINE
  8
16_10
  6
CONTINUOUS
 62
4
 10
882.6618
 20
254.1923
 11
908.2898
 21
254.1923
  0
LINE
  8
16_10
  6
CONTINUOUS
 62
4
 10
913.5402
 20
254.1923
 11
976.1136
 21
254.1923
  0
LINE
  8
16_10
  6
CONTINUOUS
 62
4
 10
882.6618
 20
233.9413
 11
908.2898
 21
233.9413
  0
LINE
  8
16_10
  6
CONTINUOUS
 62
4
 10
913.5402
 20
233.9413
 11
996.4112
 21
233.9413
  0
LINE
  8
16_10
  6
CENTER1
 62
6
 10
991.2599
 20
323.0988
 11
1018.9273
 21
307.9839
  0
LINE
  8
16_10
  6
CONTINUOUS
 62
4
 10
996.5929
 20
323.1766
 11
1001.6115
 21
320.4350
  0
LINE
  8
16_10
  6
CONTINUOUS
 62
4
 10
1009.5109
 20
316.1195
 11
1014.4891
 21
313.3999
  0
LINE
  8
16_10
  6
CONTINUOUS
 62
4
 10
994.0757
 20
318.5691
 11
999.0943
 21
315.8275
  0
LINE
  8
16_10
  6
CONTINUOUS
 62
4
 10
1006.9937
 20
311.5120
 11
1011.9719
 21
308.7924
  0
LINE
  8
16_10
  6
CONTINUOUS
 62
4
 10
996.3951
 20
323.1265
 11
995.0410
 21
321.0331
  0
LINE
  8
16_10
  6
CONTINUOUS
 62
4
 10
994.0111
 20
318.7627
 11
995.0410
 21
321.0331
  0
LINE
  8
16_10
  6
CONTINUOUS
 62
4
 10
1014.5537
 20
313.2063
 11
1013.5238
 21
310.9359
  0
LINE
  8
16_10
  6
CONTINUOUS
 62
4
 10
1012.1698
 20
308.8425
 11
1013.5238
 21
310.9359
  0
LINE
  8
0_00
  6
CONTINUOUS
 62
4
 10
289.1844
 20
413.2408
 11
185.3271
 21
413.2408
  0
LINE
  8
16_10
  6
DASHED
 62
2
 10
1138.0262
 20
390.8493
 11
1138.0262
 21
397.2993
  0
LINE
  8
16_10
  6
DASHED
 62
2
 10
1133.8261
 20
390.8493
 11
1133.8261
 21
397.2993
  0
LINE
  8
16_10
  6
DASHED
 62
2
 10
1133.8261
 20
397.2993
 11
1138.0262
 21
397.2993
  0
LINE
  8
16_10
  6
DASHED
 62
2
 10
1133.8261
 20
390.8493
 11
1138.0262
 21
390.8493
  0
LINE
  8
16_10
  6
DASHED
 62
2
 10
946.2174
 20
247.2918
 11
950.4174
 21
247.2918
  0
LINE
  8
16_10
  6
DASHED
 62
2
 10
950.4174
 20
240.8418
 11
950.4174
 21
247.2918
  0
LINE
  8
16_10
  6
DASHED
 62
2
 10
946.2174
 20
240.8418
 11
950.4174
 21
240.8418
  0
LINE
  8
16_10
  6
DASHED
 62
2
 10
946.2174
 20
240.8418
 11
946.2174
 21
247.2918
  0
LINE
  8
16_10
  6
DASHED
 62
2
 10
994.2264
 20
282.4162
 11
987.9770
 21
284.0120
  0
LINE
  8
16_10
  6
DASHED
 62
2
 10
993.1874
 20
278.3468
 11
986.9378
 21
279.9426
  0
LINE
  8
16_10
  6
DASHED
 62
2
 10
986.9378
 20
279.9426
 11
987.9770
 21
284.0120
  0
LINE
  8
16_10
  6
DASHED
 62
2
 10
993.1874
 20
278.3468
 11
994.2264
 21
282.4162
  0
LINE
  8
16_10
  6
CONTINUOUS
 62
4
 10
981.4842
 20
248.5668
 11
882.6618
 21
248.5668
  0
LINE
  8
16_10
  6
CONTINUOUS
 62
4
 10
882.6618
 20
239.5668
 11
990.4883
 21
239.5668
  0
LINE
  8
16_10
  6
CONTINUOUS
 62
4
 10
990.4883
 20
239.5668
 11
981.4842
 21
248.5668
  0
LINE
  8
0_00
  6
CONTINUOUS
 62
4
 10
325.1844
 20
629.3203
 11
141.5030
 21
629.3203
  0
LINE
  8
0_00
  6
CONTINUOUS
 62
4
 10
680.8895
 20
481.8203
 11
711.8896
 21
481.8203
  0
LINE
  8
0_00
  6
CONTINUOUS
 62
4
 10
680.3895
 20
481.3203
 11
680.3895
 21
476.1153
  0
LINE
  8
0_00
  6
CONTINUOUS
 62
4
 10
712.3895
 20
481.3203
 11
712.3895
 21
476.1153
  0
LINE
  8
0_00
  6
CONTINUOUS
 62
4
 10
680.3895
 20
476.1153
 11
712.3895
 21
476.1153
  0
LINE
  8
0_00
  6
DASHED
 62
3
 10
681.3895
 20
639.8203
 11
711.3895
 21
639.8203
  0
LINE
  8
0_00
  6
DASHED
 62
3
 10
681.3895
 20
637.8203
 11
711.3895
 21
637.8203
  0
LINE
  8
0_00
  6
DASHED
 62
3
 10
711.3895
 20
635.3204
 11
711.3895
 21
639.8203
  0
LINE
  8
0_00
  6
DASHED
 62
3
 10
681.3895
 20
635.3204
 11
681.3895
 21
639.8203
  0
LINE
  8
0_00
  6
DASHED
 62
2
 10
710.3896
 20
629.3203
 11
710.3896
 21
630.8203
  0
LINE
  8
0_00
  6
DASHED
 62
2
 10
682.3895
 20
629.3203
 11
682.3895
 21
630.8203
  0
LINE
  8
0_00
  6
CENTER1
 62
6
 10
685.8895
 20
601.8489
 11
685.8895
 21
638.4844
  0
LINE
  8
0_00
  6
CENTER1
 62
6
 10
706.8895
 20
601.8489
 11
706.8895
 21
638.4844
  0
LINE
  8
0_00
  6
DASHED
 62
2
 10
703.3895
 20
633.8204
 11
703.3895
 21
476.2035
  0
LINE
  8
0_00
  6
DASHED
 62
2
 10
689.3896
 20
633.8204
 11
689.3896
 21
476.2035
  0
LINE
  8
0_00
  6
CONTINUOUS
 62
4
 10
710.3896
 20
629.3203
 11
710.3896
 21
481.8203
  0
LINE
  8
0_00
  6
CONTINUOUS
 62
4
 10
682.3895
 20
629.3203
 11
682.3895
 21
481.8203
  0
LINE
  8
0_00
  6
DASHED
 62
2
 10
565.4123
 20
644.3203
 11
791.2888
 21
644.3203
  0
LINE
  8
0_00
  6
DASHED
 62
2
 10
795.2888
 20
644.3203
 11
880.0393
 21
644.3203
  0
LINE
  8
0_00
  6
DASHED
 62
2
 10
565.4123
 20
640.8203
 11
792.9439
 21
640.8203
  0
LINE
  8
0_00
  6
DASHED
 62
2
 10
796.9439
 20
640.8203
 11
880.0393
 21
640.8203
  0
LINE
  8
0_00
  6
DASHED
 62
2
 10
565.4123
 20
635.3204
 11
795.0588
 21
635.3204
  0
LINE
  8
0_00
  6
DASHED
 62
2
 10
799.0587
 20
635.3204
 11
880.0393
 21
635.3204
  0
LINE
  8
0_00
  6
DASHED
 62
2
 10
565.4123
 20
633.8204
 11
795.4450
 21
633.8204
  0
LINE
  8
0_00
  6
DASHED
 62
2
 10
799.4451
 20
633.8204
 11
880.0393
 21
633.8204
  0
LINE
  8
0_00
  6
DASHED
 62
2
 10
565.4123
 20
630.8203
 11
795.8443
 21
630.8203
  0
LINE
  8
0_00
  6
DASHED
 62
2
 10
799.8444
 20
630.8203
 11
880.0393
 21
630.8203
  0
LINE
  8
0_00
  6
CONTINUOUS
 62
4
 10
565.4123
 20
629.3203
 11
795.8375
 21
629.3203
  0
LINE
  8
0_00
  6
CONTINUOUS
 62
4
 10
799.8375
 20
629.3203
 11
880.0393
 21
629.3203
  0
LINE
  8
0_00
  6
CENTER1
 62
6
 10
944.2233
 20
690.8190
 11
944.2233
 21
612.1204
  0
LINE
  8
0_00
  6
CONTINUOUS
 62
6
 10
674.3895
 20
467.3204
 11
521.8931
 21
467.3204
  0
LINE
  8
0_00
  6
CONTINUOUS
 62
6
 10
421.1845
 20
434.3654
 11
431.4644
 21
452.1708
  0
LINE
  8
0_00
  6
CONTINUOUS
 62
6
 10
421.1845
 20
434.3654
 11
426.2029
 21
439.9389
  0
LINE
  8
0_00
  6
CONTINUOUS
 62
6
 10
421.1845
 20
434.3654
 11
423.5021
 21
441.4982
  0
LINE
  8
0_00
  6
CONTINUOUS
 62
6
 10
431.4644
 20
452.1708
 11
455.4726
 21
452.1708
  0
LINE
  8
0_00
  6
CONTINUOUS
 62
4
 10
244.7604
 20
578.5401
 11
275.9604
 21
578.5401
  0
LINE
  8
0_00
  6
CONTINUOUS
 62
4
 10
275.9604
 20
578.5401
 11
275.9604
 21
592.9402
  0
LINE
  8
0_00
  6
CONTINUOUS
 62
4
 10
244.7604
 20
592.9402
 11
275.9604
 21
592.9402
  0
LINE
  8
0_00
  6
CONTINUOUS
 62
4
 10
244.7604
 20
578.5401
 11
244.7604
 21
592.9402
  0
LINE
  8
0_00
  6
CONTINUOUS
 62
4
 10
418.2180
 20
571.8024
 11
449.4180
 21
571.8024
  0
LINE
  8
0_00
  6
CONTINUOUS
 62
4
 10
449.4180
 20
571.8024
 11
449.4180
 21
586.2024
  0
LINE
  8
0_00
  6
CONTINUOUS
 62
4
 10
418.2180
 20
586.2024
 11
449.4180
 21
586.2024
  0
LINE
  8
0_00
  6
CONTINUOUS
 62
4
 10
418.2180
 20
571.8024
 11
418.2180
 21
586.2024
  0
LINE
  8
0_00
  6
CONTINUOUS
 62
4
 10
1169.1230
 20
443.9100
 11
1200.3232
 21
443.9100
  0
LINE
  8
0_00
  6
CONTINUOUS
 62
4
 10
1200.3232
 20
443.9100
 11
1200.3232
 21
458.3100
  0
LINE
  8
0_00
  6
CONTINUOUS
 62
4
 10
1169.1230
 20
458.3100
 11
1200.3232
 21
458.3100
  0
LINE
  8
0_00
  6
CONTINUOUS
 62
4
 10
1169.1230
 20
443.9100
 11
1169.1230
 21
458.3100
  0
LINE
  8
0_00
  6
CONTINUOUS
 62
4
 10
1169.1230
 20
176.9298
 11
1200.3232
 21
176.9298
  0
LINE
  8
0_00
  6
CONTINUOUS
 62
4
 10
1200.3232
 20
176.9298
 11
1200.3232
 21
191.3298
  0
LINE
  8
0_00
  6
CONTINUOUS
 62
4
 10
1169.1230
 20
191.3298
 11
1200.3232
 21
191.3298
  0
LINE
  8
0_00
  6
CONTINUOUS
 62
4
 10
1169.1230
 20
176.9298
 11
1169.1230
 21
191.3298
  0
LINE
  8
16_10
  6
CONTINUOUS
 62
6
 10
995.7180
 20
322.0798
 11
981.7961
 21
346.1931
  0
LINE
  8
16_10
  6
CONTINUOUS
 62
6
 10
995.7180
 20
322.0798
 11
993.4005
 21
329.2127
  0
LINE
  8
16_10
  6
CONTINUOUS
 62
6
 10
995.7180
 20
322.0798
 11
990.6996
 21
327.6534
  0
LINE
  8
16_10
  6
CONTINUOUS
 62
6
 10
981.7961
 20
346.1931
 11
921.1932
 21
346.1931
  0
LINE
  8
0_00
  6
CONTINUOUS
 62
6
 10
710.3896
 20
518.4305
 11
728.3615
 21
549.5590
  0
LINE
  8
0_00
  6
CONTINUOUS
 62
6
 10
710.3896
 20
518.4305
 11
715.4080
 21
524.0042
  0
LINE
  8
0_00
  6
CONTINUOUS
 62
6
 10
710.3896
 20
518.4305
 11
712.7071
 21
525.5635
  0
LINE
  8
0_00
  6
CONTINUOUS
 62
6
 10
728.3615
 20
549.5590
 11
790.1582
 21
549.5590
  0
LINE
  8
16_10
  6
CONTINUOUS
 62
6
 10
985.9188
 20
235.0664
 11
985.9188
 21
187.5093
  0
LINE
  8
16_10
  6
CONTINUOUS
 62
6
 10
948.3174
 20
190.5094
 11
985.9188
 21
190.5094
  0
LINE
  8
16_10
  6
CONTINUOUS
 62
6
 10
948.3174
 20
227.6565
 11
948.3174
 21
187.5093
  0
LINE
  8
16_10
  6
CONTINUOUS
 62
6
 10
831.8676
 20
190.5094
 11
948.3174
 21
190.5094
  0
LINE
  8
16_10
  6
CONTINUOUS
 62
6
 10
948.3174
 20
190.5094
 11
940.9813
 21
192.0688
  0
LINE
  8
16_10
  6
CONTINUOUS
 62
6
 10
948.3174
 20
190.5094
 11
940.9813
 21
188.9501
  0
LINE
  8
0_00
  6
DASHED
 62
6
 10
356.1844
 20
459.8203
 11
356.1844
 21
414.1505
  0
LINE
  8
0_00
  6
CONTINUOUS
 62
6
 10
347.7844
 20
459.8203
 11
359.5844
 21
459.8203
  0
LINE
  8
0_00
  6
CONTINUOUS
 62
6
 10
359.5844
 20
460.1681
 11
359.5844
 21
459.8203
  0
LINE
  8
0_00
  6
DASHED
 62
6
 10
355.4344
 20
459.8203
 11
355.4344
 21
412.8514
  0
LINE
  8
0_00
  6
DASHED
 62
6
 10
353.6845
 20
409.8203
 11
356.1844
 21
414.1505
  0
LINE
  8
0_00
  6
DASHED
 62
6
 10
351.1844
 20
459.8203
 11
351.1844
 21
414.1505
  0
LINE
  8
0_00
  6
CONTINUOUS
 62
6
 10
347.7844
 20
460.1681
 11
347.7844
 21
459.8203
  0
LINE
  8
0_00
  6
DASHED
 62
6
 10
351.9344
 20
459.8203
 11
351.9344
 21
412.8514
  0
LINE
  8
0_00
  6
DASHED
 62
6
 10
353.6845
 20
409.8203
 11
351.1844
 21
414.1505
  0
LINE
  8
0_00
  6
CONTINUOUS
 62
6
 10
347.7844
 20
460.1681
 11
359.5844
 21
460.1681
  0
LINE
  8
11_0B
  6
DASHED
 62
6
 10
350.6844
 20
456.3203
 11
350.6844
 21
447.3706
  0
LINE
  8
11_0B
  6
DASHED
 62
6
 10
350.2106
 20
445.0188
 11
350.0768
 21
443.4892
  0
LINE
  8
11_0B
  6
DASHED
 62
6
 10
349.8837
 20
441.2831
 11
349.7499
 21
439.7535
  0
LINE
  8
11_0B
  6
DASHED
 62
6
 10
349.5569
 20
437.5473
 11
349.4231
 21
436.0178
  0
LINE
  8
11_0B
  6
DASHED
 62
6
 10
349.2301
 20
433.8116
 11
349.0963
 21
432.2821
  0
LINE
  8
11_0B
  6
DASHED
 62
6
 10
348.9033
 20
430.0759
 11
348.7830
 21
428.7017
  0
LINE
  8
11_0B
  6
DASHED
 62
6
 10
356.6845
 20
456.3203
 11
356.6845
 21
447.3706
  0
LINE
  8
11_0B
  6
DASHED
 62
6
 10
357.1583
 20
445.0188
 11
357.2921
 21
443.4892
  0
LINE
  8
11_0B
  6
DASHED
 62
6
 10
357.4851
 20
441.2831
 11
357.6190
 21
439.7535
  0
LINE
  8
11_0B
  6
DASHED
 62
6
 10
357.8119
 20
437.5473
 11
357.9458
 21
436.0178
  0
LINE
  8
11_0B
  6
DASHED
 62
6
 10
358.1388
 20
433.8116
 11
358.2726
 21
432.2821
  0
LINE
  8
11_0B
  6
DASHED
 62
6
 10
358.4656
 20
430.0759
 11
358.5858
 21
428.7017
  0
LINE
  8
11_0B
  6
DASHED
 62
6
 10
350.6844
 20
456.3203
 11
356.6845
 21
456.3203
  0
LINE
  8
11_0B
  6
DASHED
 62
6
 10
353.3094
 20
450.3203
 11
354.0594
 21
450.3203
  0
LINE
  8
11_0B
  6
DASHED
 62
6
 10
354.0594
 20
450.3203
 11
356.1512
 21
426.4117
  0
LINE
  8
11_0B
  6
DASHED
 62
6
 10
351.2177
 20
426.4117
 11
353.3094
 21
450.3203
  0
LINE
  8
11_0B
  6
DASHED
 62
6
 10
349.7234
 20
426.5424
 11
351.2177
 21
426.4117
  0
LINE
  8
11_0B
  6
DASHED
 62
6
 10
356.1512
 20
426.4117
 11
357.6455
 21
426.5424
  0
LINE
  8
11_0B
  6
DASHED
 62
6
 10
357.6455
 20
426.5424
 11
358.5454
 21
428.4723
  0
LINE
  8
11_0B
  6
DASHED
 62
6
 10
349.7234
 20
426.5424
 11
348.8235
 21
428.4723
  0
LINE
  8
11_0B
  6
DASHED
 62
6
 10
348.7725
 20
428.5816
 11
351.3875
 21
428.3528
  0
LINE
  8
11_0B
  6
DASHED
 62
6
 10
355.9813
 20
428.3528
 11
358.5964
 21
428.5816
  0
LINE
  8
11_0B
  6
DASHED
 62
6
 10
348.9033
 20
430.0759
 11
350.5470
 21
429.9321
  0
LINE
  8
11_0B
  6
DASHED
 62
6
 10
356.8219
 20
429.9321
 11
358.4656
 21
430.0759
  0
LINE
  8
11_0B
  6
DASHED
 62
6
 10
349.2301
 20
433.8116
 11
350.8738
 21
433.6678
  0
LINE
  8
11_0B
  6
DASHED
 62
6
 10
356.4951
 20
433.6678
 11
358.1388
 21
433.8116
  0
LINE
  8
11_0B
  6
DASHED
 62
6
 10
349.5569
 20
437.5473
 11
351.2007
 21
437.4035
  0
LINE
  8
11_0B
  6
DASHED
 62
6
 10
356.1683
 20
437.4035
 11
357.8119
 21
437.5473
  0
LINE
  8
11_0B
  6
DASHED
 62
6
 10
349.8837
 20
441.2831
 11
351.5275
 21
441.1393
  0
LINE
  8
11_0B
  6
DASHED
 62
6
 10
355.8414
 20
441.1393
 11
357.4851
 21
441.2831
  0
LINE
  8
11_0B
  6
DASHED
 62
6
 10
350.2106
 20
445.0188
 11
351.4060
 21
444.9142
  0
LINE
  8
11_0B
  6
DASHED
 62
6
 10
355.9628
 20
444.9142
 11
357.1583
 21
445.0188
  0
LINE
  8
11_0B
  6
DASHED
 62
6
 10
351.3789
 20
442.8837
 11
351.2286
 21
441.1654
  0
LINE
  8
11_0B
  6
DASHED
 62
6
 10
351.0521
 20
439.1479
 11
350.9018
 21
437.4297
  0
LINE
  8
11_0B
  6
DASHED
 62
6
 10
350.7253
 20
435.4122
 11
350.5749
 21
433.6940
  0
LINE
  8
11_0B
  6
DASHED
 62
6
 10
350.3984
 20
431.6765
 11
350.2481
 21
429.9582
  0
LINE
  8
11_0B
  6
DASHED
 62
6
 10
357.1208
 20
429.9582
 11
356.9705
 21
431.6765
  0
LINE
  8
11_0B
  6
DASHED
 62
6
 10
356.7939
 20
433.6940
 11
356.6436
 21
435.4122
  0
LINE
  8
11_0B
  6
DASHED
 62
6
 10
356.4671
 20
437.4297
 11
356.3168
 21
439.1479
  0
LINE
  8
11_0B
  6
DASHED
 62
6
 10
356.1403
 20
441.1654
 11
355.9899
 21
442.8837
  0
LINE
  8
11_0B
  6
DASHED
 62
6
 10
356.7722
 20
431.6234
 11
358.0514
 21
431.9661
  0
LINE
  8
11_0B
  6
DASHED
 62
6
 10
350.7182
 20
431.5908
 11
349.3175
 21
431.9661
  0
LINE
  8
11_0B
  6
DASHED
 62
6
 10
356.4454
 20
435.3591
 11
357.7246
 21
435.7018
  0
LINE
  8
11_0B
  6
DASHED
 62
6
 10
350.9235
 20
435.3591
 11
349.6443
 21
435.7018
  0
LINE
  8
11_0B
  6
DASHED
 62
6
 10
356.1186
 20
439.0948
 11
357.3977
 21
439.4376
  0
LINE
  8
11_0B
  6
DASHED
 62
6
 10
351.2504
 20
439.0948
 11
349.9712
 21
439.4376
  0
LINE
  8
11_0B
  6
DASHED
 62
6
 10
355.7917
 20
442.8306
 11
357.0709
 21
443.1733
  0
LINE
  8
11_0B
  6
DASHED
 62
6
 10
351.5771
 20
442.8306
 11
350.2980
 21
443.1733
  0
LINE
  8
11_0B
  6
DASHED
 62
6
 10
351.2566
 20
444.9273
 11
351.4584
 21
447.2341
  0
LINE
  8
11_0B
  6
DASHED
 62
6
 10
356.1123
 20
444.9273
 11
355.9105
 21
447.2341
  0
LINE
  8
11_0B
  6
DASHED
 62
6
 10
351.7984
 20
442.5146
 11
351.6900
 21
441.2756
  0
LINE
  8
11_0B
  6
DASHED
 62
6
 10
351.4715
 20
438.7789
 11
351.3631
 21
437.5399
  0
LINE
  8
11_0B
  6
DASHED
 62
6
 10
351.1447
 20
435.0432
 11
351.0363
 21
433.8042
  0
LINE
  8
11_0B
  6
DASHED
 62
6
 10
350.8289
 20
431.4328
 11
350.7095
 21
430.0684
  0
LINE
  8
11_0B
  6
DASHED
 62
6
 10
356.6594
 20
430.0684
 11
356.5510
 21
431.3074
  0
LINE
  8
11_0B
  6
DASHED
 62
6
 10
356.3326
 20
433.8042
 11
356.2242
 21
435.0432
  0
LINE
  8
11_0B
  6
DASHED
 62
6
 10
356.0057
 20
437.5399
 11
355.8973
 21
438.7789
  0
LINE
  8
11_0B
  6
DASHED
 62
6
 10
355.6789
 20
441.2756
 11
355.5705
 21
442.5146
  0
LINE
  8
11_0B
  6
DASHED
 62
6
 10
351.4842
 20
447.2295
 11
350.6844
 21
447.3706
  0
LINE
  8
11_0B
  6
DASHED
 62
6
 10
355.8846
 20
447.2295
 11
356.6845
 21
447.3706
  0
LINE
  8
11_0B
  6
DASHED
 62
6
 10
357.4851
 20
441.2831
 11
359.5771
 21
445.7693
  0
LINE
  8
11_0B
  6
DASHED
 62
6
 10
358.8974
 20
446.0863
 11
356.6224
 21
441.2076
  0
LINE
  8
11_0B
  6
DASHED
 62
6
 10
349.8837
 20
441.2831
 11
347.7918
 21
445.7693
  0
LINE
  8
11_0B
  6
DASHED
 62
6
 10
348.4715
 20
446.0863
 11
350.7465
 21
441.2076
  0
LINE
  8
11_0B
  6
DASHED
 62
6
 10
359.4320
 20
446.1680
 11
359.2960
 21
446.2314
  0
LINE
  8
11_0B
  6
DASHED
 62
6
 10
347.9369
 20
446.1680
 11
348.0729
 21
446.2314
  0
LINE
  8
11_0B
  6
DASHED
 62
6
 10
351.7310
 20
446.9080
 11
351.5685
 21
445.0506
  0
LINE
  8
11_0B
  6
DASHED
 62
6
 10
355.6378
 20
446.9080
 11
355.9899
 21
442.8837
  0
LINE
  8
0_00
  6
CONTINUOUS
 62
2
 10
680.7117
 20
266.3475
 11
685.7118
 21
271.3475
  0
LINE
  8
0_00
  6
CONTINUOUS
 62
2
 10
677.8833
 20
266.3475
 11
682.8833
 21
271.3475
  0
LINE
  8
0_00
  6
CONTINUOUS
 62
2
 10
675.0548
 20
266.3475
 11
680.0549
 21
271.3475
  0
LINE
  8
0_00
  6
CONTINUOUS
 62
2
 10
672.2265
 20
266.3475
 11
677.2264
 21
271.3475
  0
LINE
  8
0_00
  6
CONTINUOUS
 62
2
 10
669.3980
 20
266.3475
 11
674.3980
 21
271.3475
  0
LINE
  8
0_00
  6
CONTINUOUS
 62
2
 10
666.5695
 20
266.3475
 11
671.5696
 21
271.3475
  0
LINE
  8
0_00
  6
CONTINUOUS
 62
2
 10
663.7412
 20
266.3475
 11
668.7411
 21
271.3475
  0
LINE
  8
0_00
  6
CONTINUOUS
 62
2
 10
660.9127
 20
266.3475
 11
665.9128
 21
271.3475
  0
LINE
  8
0_00
  6
CONTINUOUS
 62
2
 10
658.0843
 20
266.3475
 11
663.0843
 21
271.3475
  0
LINE
  8
0_00
  6
CONTINUOUS
 62
2
 10
655.2559
 20
266.3475
 11
660.2558
 21
271.3475
  0
LINE
  8
0_00
  6
CONTINUOUS
 62
2
 10
652.4275
 20
266.3475
 11
657.4275
 21
271.3475
  0
LINE
  8
0_00
  6
CONTINUOUS
 62
2
 10
649.5991
 20
266.3475
 11
654.5990
 21
271.3475
  0
LINE
  8
0_00
  6
CONTINUOUS
 62
2
 10
646.7706
 20
266.3475
 11
651.7706
 21
271.3475
  0
LINE
  8
0_00
  6
CONTINUOUS
 62
2
 10
643.9422
 20
266.3475
 11
648.9422
 21
271.3475
  0
LINE
  8
0_00
  6
CONTINUOUS
 62
2
 10
641.1138
 20
266.3475
 11
646.1137
 21
271.3475
  0
LINE
  8
0_00
  6
CONTINUOUS
 62
2
 10
638.2853
 20
266.3475
 11
643.2854
 21
271.3475
  0
LINE
  8
0_00
  6
CONTINUOUS
 62
2
 10
635.4570
 20
266.3475
 11
640.4569
 21
271.3475
  0
LINE
  8
0_00
  6
CONTINUOUS
 62
2
 10
632.6285
 20
266.3475
 11
637.6285
 21
271.3475
  0
LINE
  8
0_00
  6
CONTINUOUS
 62
2
 10
629.8000
 20
266.3475
 11
634.8001
 21
271.3475
  0
LINE
  8
0_00
  6
CONTINUOUS
 62
2
 10
626.9716
 20
266.3475
 11
631.9716
 21
271.3475
  0
LINE
  8
0_00
  6
CONTINUOUS
 62
2
 10
625.7118
 20
267.9161
 11
629.1432
 21
271.3475
  0
LINE
  8
0_00
  6
CONTINUOUS
 62
2
 10
625.7118
 20
270.7445
 11
626.3147
 21
271.3475
  0
LINE
  8
0_00
  6
CONTINUOUS
 62
2
 10
683.5402
 20
266.3475
 11
685.7118
 21
268.5191
  0
LINE
  8
0_00
  6
CONTINUOUS
 62
2
 10
680.7117
 20
156.5475
 11
685.7118
 21
161.5475
  0
LINE
  8
0_00
  6
CONTINUOUS
 62
2
 10
677.8833
 20
156.5475
 11
682.8833
 21
161.5475
  0
LINE
  8
0_00
  6
CONTINUOUS
 62
2
 10
675.0548
 20
156.5475
 11
680.0549
 21
161.5475
  0
LINE
  8
0_00
  6
CONTINUOUS
 62
2
 10
672.2265
 20
156.5475
 11
677.2264
 21
161.5475
  0
LINE
  8
0_00
  6
CONTINUOUS
 62
2
 10
669.3980
 20
156.5475
 11
674.3980
 21
161.5475
  0
LINE
  8
0_00
  6
CONTINUOUS
 62
2
 10
666.5695
 20
156.5475
 11
671.5696
 21
161.5475
  0
LINE
  8
0_00
  6
CONTINUOUS
 62
2
 10
663.7412
 20
156.5475
 11
668.7411
 21
161.5475
  0
LINE
  8
0_00
  6
CONTINUOUS
 62
2
 10
660.9127
 20
156.5475
 11
665.9128
 21
161.5475
  0
LINE
  8
0_00
  6
CONTINUOUS
 62
2
 10
658.0843
 20
156.5475
 11
663.0843
 21
161.5475
  0
LINE
  8
0_00
  6
CONTINUOUS
 62
2
 10
655.2559
 20
156.5475
 11
660.2558
 21
161.5475
  0
LINE
  8
0_00
  6
CONTINUOUS
 62
2
 10
652.4275
 20
156.5475
 11
657.4275
 21
161.5475
  0
LINE
  8
0_00
  6
CONTINUOUS
 62
2
 10
649.5991
 20
156.5475
 11
654.5990
 21
161.5475
  0
LINE
  8
0_00
  6
CONTINUOUS
 62
2
 10
646.7706
 20
156.5475
 11
651.7706
 21
161.5475
  0
LINE
  8
0_00
  6
CONTINUOUS
 62
2
 10
643.9422
 20
156.5475
 11
648.9422
 21
161.5475
  0
LINE
  8
0_00
  6
CONTINUOUS
 62
2
 10
641.1138
 20
156.5475
 11
646.1137
 21
161.5475
  0
LINE
  8
0_00
  6
CONTINUOUS
 62
2
 10
638.2853
 20
156.5475
 11
643.2854
 21
161.5475
  0
LINE
  8
0_00
  6
CONTINUOUS
 62
2
 10
635.4570
 20
156.5475
 11
640.4569
 21
161.5475
  0
LINE
  8
0_00
  6
CONTINUOUS
 62
2
 10
632.6285
 20
156.5475
 11
637.6285
 21
161.5475
  0
LINE
  8
0_00
  6
CONTINUOUS
 62
2
 10
629.8000
 20
156.5475
 11
634.8001
 21
161.5475
  0
LINE
  8
0_00
  6
CONTINUOUS
 62
2
 10
626.9716
 20
156.5475
 11
631.9716
 21
161.5475
  0
LINE
  8
0_00
  6
CONTINUOUS
 62
2
 10
625.7118
 20
158.1161
 11
629.1432
 21
161.5475
  0
LINE
  8
0_00
  6
CONTINUOUS
 62
2
 10
625.7118
 20
160.9445
 11
626.3147
 21
161.5475
  0
LINE
  8
0_00
  6
CONTINUOUS
 62
2
 10
683.5402
 20
156.5475
 11
685.7118
 21
158.7191
  0
LINE
  8
0_00
  6
CONTINUOUS
 62
4
 10
625.7118
 20
262.8468
 11
625.7118
 21
279.4333
  0
LINE
  8
0_00
  6
CONTINUOUS
 62
4
 10
685.7118
 20
262.8483
 11
685.7118
 21
279.4333
  0
LINE
  8
0_00
  6
CONTINUOUS
 62
4
 10
625.7118
 20
275.1475
 11
685.7118
 21
275.1475
  0
LINE
  8
0_00
  6
CONTINUOUS
 62
4
 10
625.7118
 20
271.3475
 11
685.7118
 21
271.3475
  0
LINE
  8
0_00
  6
CONTINUOUS
 62
4
 10
685.7118
 20
266.1475
 11
625.7118
 21
266.1475
  0
LINE
  8
0_00
  6
CONTINUOUS
 62
4
 10
625.7118
 20
161.5475
 11
685.7118
 21
161.5475
  0
LINE
  8
0_00
  6
CONTINUOUS
 62
4
 10
685.7118
 20
164.8484
 11
685.7118
 21
147.6476
  0
LINE
  8
0_00
  6
CONTINUOUS
 62
4
 10
625.7118
 20
164.8467
 11
625.7118
 21
147.6476
  0
LINE
  8
0_00
  6
CONTINUOUS
 62
4
 10
625.7118
 20
152.5475
 11
685.7118
 21
152.5475
  0
LINE
  8
0_00
  6
CONTINUOUS
 62
4
 10
625.7118
 20
161.5475
 11
685.7118
 21
161.5475
  0
LINE
  8
0_00
  6
CONTINUOUS
 62
4
 10
625.7118
 20
156.5475
 11
685.7118
 21
156.5475
  0
LINE
  8
0_00
  6
CONTINUOUS
 62
2
 10
791.8440
 20
680.4028
 11
791.4012
 21
679.8143
  0
LINE
  8
0_00
  6
CONTINUOUS
 62
2
 10
791.4012
 20
679.8143
 11
790.9597
 21
679.2253
  0
LINE
  8
0_00
  6
CONTINUOUS
 62
2
 10
790.9597
 20
679.2253
 11
790.5210
 21
678.6354
  0
LINE
  8
0_00
  6
CONTINUOUS
 62
2
 10
790.5210
 20
678.6354
 11
790.0863
 21
678.0438
  0
LINE
  8
0_00
  6
CONTINUOUS
 62
2
 10
790.0863
 20
678.0438
 11
789.6569
 21
677.4502
  0
LINE
  8
0_00
  6
CONTINUOUS
 62
2
 10
789.6569
 20
677.4502
 11
789.2341
 21
676.8539
  0
LINE
  8
0_00
  6
CONTINUOUS
 62
2
 10
789.2341
 20
676.8539
 11
788.8195
 21
676.2546
  0
LINE
  8
0_00
  6
CONTINUOUS
 62
2
 10
788.8195
 20
676.2546
 11
788.4142
 21
675.6516
  0
LINE
  8
0_00
  6
CONTINUOUS
 62
2
 10
788.4142
 20
675.6516
 11
788.0196
 21
675.0444
  0
LINE
  8
0_00
  6
CONTINUOUS
 62
2
 10
788.0196
 20
675.0444
 11
787.6370
 21
674.4326
  0
LINE
  8
0_00
  6
CONTINUOUS
 62
2
 10
787.6370
 20
674.4326
 11
787.2678
 21
673.8157
  0
LINE
  8
0_00
  6
CONTINUOUS
 62
2
 10
787.2678
 20
673.8157
 11
786.9133
 21
673.1930
  0
LINE
  8
0_00
  6
CONTINUOUS
 62
2
 10
786.9133
 20
673.1930
 11
786.5750
 21
672.5640
  0
LINE
  8
0_00
  6
CONTINUOUS
 62
2
 10
786.5750
 20
672.5640
 11
786.2540
 21
671.9283
  0
LINE
  8
0_00
  6
CONTINUOUS
 62
2
 10
786.2540
 20
671.9283
 11
785.9517
 21
671.2853
  0
LINE
  8
0_00
  6
CONTINUOUS
 62
2
 10
785.9517
 20
671.2853
 11
785.6695
 21
670.6346
  0
LINE
  8
0_00
  6
CONTINUOUS
 62
2
 10
785.6695
 20
670.6346
 11
785.4087
 21
669.9756
  0
LINE
  8
0_00
  6
CONTINUOUS
 62
2
 10
785.4087
 20
669.9756
 11
785.1707
 21
669.3077
  0
LINE
  8
0_00
  6
CONTINUOUS
 62
2
 10
785.1707
 20
669.3077
 11
784.9568
 21
668.6304
  0
LINE
  8
0_00
  6
CONTINUOUS
 62
2
 10
784.9568
 20
668.6304
 11
784.7682
 21
667.9433
  0
LINE
  8
0_00
  6
CONTINUOUS
 62
2
 10
784.7682
 20
667.9433
 11
784.6065
 21
667.2459
  0
LINE
  8
0_00
  6
CONTINUOUS
 62
2
 10
784.6065
 20
667.2459
 11
784.4728
 21
666.5376
  0
LINE
  8
0_00
  6
CONTINUOUS
 62
2
 10
784.4728
 20
666.5376
 11
784.3686
 21
665.8177
  0
LINE
  8
0_00
  6
CONTINUOUS
 62
2
 10
784.3686
 20
665.8177
 11
784.2953
 21
665.0860
  0
LINE
  8
0_00
  6
CONTINUOUS
 62
2
 10
784.2953
 20
665.0860
 11
784.2539
 21
664.3418
  0
LINE
  8
0_00
  6
CONTINUOUS
 62
2
 10
784.2539
 20
664.3418
 11
784.2460
 21
663.5847
  0
LINE
  8
0_00
  6
CONTINUOUS
 62
2
 10
784.2460
 20
663.5847
 11
784.2729
 21
662.8139
  0
LINE
  8
0_00
  6
CONTINUOUS
 62
2
 10
784.2729
 20
662.8139
 11
784.3361
 21
662.0293
  0
LINE
  8
0_00
  6
CONTINUOUS
 62
2
 10
784.3361
 20
662.0293
 11
784.4366
 21
661.2301
  0
LINE
  8
0_00
  6
CONTINUOUS
 62
2
 10
784.4366
 20
661.2301
 11
784.5760
 21
660.4158
  0
LINE
  8
0_00
  6
CONTINUOUS
 62
2
 10
784.5760
 20
660.4158
 11
784.7548
 21
659.5862
  0
LINE
  8
0_00
  6
CONTINUOUS
 62
2
 10
784.7548
 20
659.5862
 11
784.9711
 21
658.7422
  0
LINE
  8
0_00
  6
CONTINUOUS
 62
2
 10
784.9711
 20
658.7422
 11
785.2223
 21
657.8847
  0
LINE
  8
0_00
  6
CONTINUOUS
 62
2
 10
785.2223
 20
657.8847
 11
785.5057
 21
657.0150
  0
LINE
  8
0_00
  6
CONTINUOUS
 62
2
 10
785.5057
 20
657.0150
 11
785.8185
 21
656.1341
  0
LINE
  8
0_00
  6
CONTINUOUS
 62
2
 10
785.8185
 20
656.1341
 11
786.1583
 21
655.2430
  0
LINE
  8
0_00
  6
CONTINUOUS
 62
2
 10
786.1583
 20
655.2430
 11
786.5224
 21
654.3430
  0
LINE
  8
0_00
  6
CONTINUOUS
 62
2
 10
786.5224
 20
654.3430
 11
786.9079
 21
653.4351
  0
LINE
  8
0_00
  6
CONTINUOUS
 62
2
 10
786.9079
 20
653.4351
 11
787.3124
 21
652.5204
  0
LINE
  8
0_00
  6
CONTINUOUS
 62
2
 10
787.3124
 20
652.5204
 11
787.7332
 21
651.6000
  0
LINE
  8
0_00
  6
CONTINUOUS
 62
2
 10
787.7332
 20
651.6000
 11
788.1675
 21
650.6749
  0
LINE
  8
0_00
  6
CONTINUOUS
 62
2
 10
788.1675
 20
650.6749
 11
788.6128
 21
649.7464
  0
LINE
  8
0_00
  6
CONTINUOUS
 62
2
 10
788.6128
 20
649.7464
 11
789.0665
 21
648.8154
  0
LINE
  8
0_00
  6
CONTINUOUS
 62
2
 10
789.0665
 20
648.8154
 11
789.5258
 21
647.8831
  0
LINE
  8
0_00
  6
CONTINUOUS
 62
2
 10
789.5258
 20
647.8831
 11
789.9880
 21
646.9506
  0
LINE
  8
0_00
  6
CONTINUOUS
 62
2
 10
789.9880
 20
646.9506
 11
790.4507
 21
646.0189
  0
LINE
  8
0_00
  6
CONTINUOUS
 62
2
 10
790.4507
 20
646.0189
 11
790.9110
 21
645.0891
  0
LINE
  8
0_00
  6
CONTINUOUS
 62
2
 10
790.9110
 20
645.0891
 11
791.3664
 21
644.1625
  0
LINE
  8
0_00
  6
CONTINUOUS
 62
2
 10
791.3664
 20
644.1625
 11
791.8141
 21
643.2400
  0
LINE
  8
0_00
  6
CONTINUOUS
 62
2
 10
791.8141
 20
643.2400
 11
792.2516
 21
642.3227
  0
LINE
  8
0_00
  6
CONTINUOUS
 62
2
 10
792.2516
 20
642.3227
 11
792.6761
 21
641.4118
  0
LINE
  8
0_00
  6
CONTINUOUS
 62
2
 10
792.6761
 20
641.4118
 11
793.0852
 21
640.5083
  0
LINE
  8
0_00
  6
CONTINUOUS
 62
2
 10
793.0852
 20
640.5083
 11
793.4759
 21
639.6134
  0
LINE
  8
0_00
  6
CONTINUOUS
 62
2
 10
793.4759
 20
639.6134
 11
793.8458
 21
638.7281
  0
LINE
  8
0_00
  6
CONTINUOUS
 62
2
 10
793.8458
 20
638.7281
 11
794.1921
 21
637.8535
  0
LINE
  8
0_00
  6
CONTINUOUS
 62
2
 10
794.1921
 20
637.8535
 11
794.5122
 21
636.9908
  0
LINE
  8
0_00
  6
CONTINUOUS
 62
2
 10
794.5122
 20
636.9908
 11
794.8036
 21
636.1409
  0
LINE
  8
0_00
  6
CONTINUOUS
 62
2
 10
794.8036
 20
636.1409
 11
795.0634
 21
635.3052
  0
LINE
  8
0_00
  6
CONTINUOUS
 62
2
 10
795.0634
 20
635.3052
 11
795.2890
 21
634.4844
  0
LINE
  8
0_00
  6
CONTINUOUS
 62
2
 10
795.2890
 20
634.4844
 11
795.4780
 21
633.6799
  0
LINE
  8
0_00
  6
CONTINUOUS
 62
2
 10
795.4780
 20
633.6799
 11
795.6281
 21
632.8925
  0
LINE
  8
0_00
  6
CONTINUOUS
 62
2
 10
795.6281
 20
632.8925
 11
795.7399
 21
632.1218
  0
LINE
  8
0_00
  6
CONTINUOUS
 62
2
 10
795.7399
 20
632.1218
 11
795.8151
 21
631.3672
  0
LINE
  8
0_00
  6
CONTINUOUS
 62
2
 10
795.8151
 20
631.3672
 11
795.8546
 21
630.6281
  0
LINE
  8
0_00
  6
CONTINUOUS
 62
2
 10
795.8546
 20
630.6281
 11
795.8601
 21
629.9041
  0
LINE
  8
0_00
  6
CONTINUOUS
 62
2
 10
795.8601
 20
629.9041
 11
795.8327
 21
629.1946
  0
LINE
  8
0_00
  6
CONTINUOUS
 62
2
 10
795.8327
 20
629.1946
 11
795.7736
 21
628.4989
  0
LINE
  8
0_00
  6
CONTINUOUS
 62
2
 10
795.7736
 20
628.4989
 11
795.6844
 21
627.8163
  0
LINE
  8
0_00
  6
CONTINUOUS
 62
2
 10
795.6844
 20
627.8163
 11
795.5661
 21
627.1465
  0
LINE
  8
0_00
  6
CONTINUOUS
 62
2
 10
795.5661
 20
627.1465
 11
795.4203
 21
626.4889
  0
LINE
  8
0_00
  6
CONTINUOUS
 62
2
 10
795.4203
 20
626.4889
 11
795.2482
 21
625.8427
  0
LINE
  8
0_00
  6
CONTINUOUS
 62
2
 10
795.2482
 20
625.8427
 11
795.0510
 21
625.2075
  0
LINE
  8
0_00
  6
CONTINUOUS
 62
2
 10
795.0510
 20
625.2075
 11
794.8302
 21
624.5828
  0
LINE
  8
0_00
  6
CONTINUOUS
 62
2
 10
794.8302
 20
624.5828
 11
794.5871
 21
623.9678
  0
LINE
  8
0_00
  6
CONTINUOUS
 62
2
 10
794.5871
 20
623.9678
 11
794.3229
 21
623.3620
  0
LINE
  8
0_00
  6
CONTINUOUS
 62
2
 10
794.3229
 20
623.3620
 11
794.0390
 21
622.7649
  0
LINE
  8
0_00
  6
CONTINUOUS
 62
2
 10
794.0390
 20
622.7649
 11
793.7366
 21
622.1759
  0
LINE
  8
0_00
  6
CONTINUOUS
 62
2
 10
793.7366
 20
622.1759
 11
793.4171
 21
621.5943
  0
LINE
  8
0_00
  6
CONTINUOUS
 62
2
 10
793.4171
 20
621.5943
 11
793.0820
 21
621.0197
  0
LINE
  8
0_00
  6
CONTINUOUS
 62
2
 10
793.0820
 20
621.0197
 11
792.7323
 21
620.4514
  0
LINE
  8
0_00
  6
CONTINUOUS
 62
2
 10
792.7323
 20
620.4514
 11
792.3694
 21
619.8889
  0
LINE
  8
0_00
  6
CONTINUOUS
 62
2
 10
792.3694
 20
619.8889
 11
791.9948
 21
619.3316
  0
LINE
  8
0_00
  6
CONTINUOUS
 62
2
 10
791.9948
 20
619.3316
 11
791.6095
 21
618.7789
  0
LINE
  8
0_00
  6
CONTINUOUS
 62
2
 10
791.6095
 20
618.7789
 11
791.2152
 21
618.2303
  0
LINE
  8
0_00
  6
CONTINUOUS
 62
2
 10
791.2152
 20
618.2303
 11
790.8129
 21
617.6851
  0
LINE
  8
0_00
  6
CONTINUOUS
 62
2
 10
790.8129
 20
617.6851
 11
790.4041
 21
617.1427
  0
LINE
  8
0_00
  6
CONTINUOUS
 62
2
 10
790.4041
 20
617.1427
 11
789.9899
 21
616.6028
  0
LINE
  8
0_00
  6
CONTINUOUS
 62
2
 10
789.9899
 20
616.6028
 11
789.5718
 21
616.0645
  0
LINE
  8
0_00
  6
CONTINUOUS
 62
2
 10
789.5718
 20
616.0645
 11
789.1512
 21
615.5273
  0
LINE
  8
0_00
  6
CONTINUOUS
 62
2
 10
789.1512
 20
615.5273
 11
788.7291
 21
614.9908
  0
LINE
  8
0_00
  6
CONTINUOUS
 62
2
 10
795.8439
 20
680.4028
 11
795.4012
 21
679.8143
  0
LINE
  8
0_00
  6
CONTINUOUS
 62
2
 10
795.4012
 20
679.8143
 11
794.9597
 21
679.2253
  0
LINE
  8
0_00
  6
CONTINUOUS
 62
2
 10
794.9597
 20
679.2253
 11
794.5210
 21
678.6354
  0
LINE
  8
0_00
  6
CONTINUOUS
 62
2
 10
794.5210
 20
678.6354
 11
794.0862
 21
678.0438
  0
LINE
  8
0_00
  6
CONTINUOUS
 62
2
 10
794.0862
 20
678.0438
 11
793.6568
 21
677.4502
  0
LINE
  8
0_00
  6
CONTINUOUS
 62
2
 10
793.6568
 20
677.4502
 11
793.2341
 21
676.8539
  0
LINE
  8
0_00
  6
CONTINUOUS
 62
2
 10
793.2341
 20
676.8539
 11
792.8195
 21
676.2546
  0
LINE
  8
0_00
  6
CONTINUOUS
 62
2
 10
792.8195
 20
676.2546
 11
792.4142
 21
675.6516
  0
LINE
  8
0_00
  6
CONTINUOUS
 62
2
 10
792.4142
 20
675.6516
 11
792.0195
 21
675.0444
  0
LINE
  8
0_00
  6
CONTINUOUS
 62
2
 10
792.0195
 20
675.0444
 11
791.6369
 21
674.4326
  0
LINE
  8
0_00
  6
CONTINUOUS
 62
2
 10
791.6369
 20
674.4326
 11
791.2679
 21
673.8157
  0
LINE
  8
0_00
  6
CONTINUOUS
 62
2
 10
791.2679
 20
673.8157
 11
790.9134
 21
673.1930
  0
LINE
  8
0_00
  6
CONTINUOUS
 62
2
 10
790.9134
 20
673.1930
 11
790.5750
 21
672.5640
  0
LINE
  8
0_00
  6
CONTINUOUS
 62
2
 10
790.5750
 20
672.5640
 11
790.2540
 21
671.9283
  0
LINE
  8
0_00
  6
CONTINUOUS
 62
2
 10
790.2540
 20
671.9283
 11
789.9517
 21
671.2853
  0
LINE
  8
0_00
  6
CONTINUOUS
 62
2
 10
789.9517
 20
671.2853
 11
789.6695
 21
670.6346
  0
LINE
  8
0_00
  6
CONTINUOUS
 62
2
 10
789.6695
 20
670.6346
 11
789.4087
 21
669.9756
  0
LINE
  8
0_00
  6
CONTINUOUS
 62
2
 10
789.4087
 20
669.9756
 11
789.1707
 21
669.3077
  0
LINE
  8
0_00
  6
CONTINUOUS
 62
2
 10
789.1707
 20
669.3077
 11
788.9568
 21
668.6304
  0
LINE
  8
0_00
  6
CONTINUOUS
 62
2
 10
788.9568
 20
668.6304
 11
788.7683
 21
667.9433
  0
LINE
  8
0_00
  6
CONTINUOUS
 62
2
 10
788.7683
 20
667.9433
 11
788.6065
 21
667.2459
  0
LINE
  8
0_00
  6
CONTINUOUS
 62
2
 10
788.6065
 20
667.2459
 11
788.4728
 21
666.5376
  0
LINE
  8
0_00
  6
CONTINUOUS
 62
2
 10
788.4728
 20
666.5376
 11
788.3687
 21
665.8177
  0
LINE
  8
0_00
  6
CONTINUOUS
 62
2
 10
788.3687
 20
665.8177
 11
788.2952
 21
665.0860
  0
LINE
  8
0_00
  6
CONTINUOUS
 62
2
 10
788.2952
 20
665.0860
 11
788.2539
 21
664.3418
  0
LINE
  8
0_00
  6
CONTINUOUS
 62
2
 10
788.2539
 20
664.3418
 11
788.2461
 21
663.5847
  0
LINE
  8
0_00
  6
CONTINUOUS
 62
2
 10
788.2461
 20
663.5847
 11
788.2731
 21
662.8139
  0
LINE
  8
0_00
  6
CONTINUOUS
 62
2
 10
788.2731
 20
662.8139
 11
788.3361
 21
662.0293
  0
LINE
  8
0_00
  6
CONTINUOUS
 62
2
 10
788.3361
 20
662.0293
 11
788.4367
 21
661.2301
  0
LINE
  8
0_00
  6
CONTINUOUS
 62
2
 10
788.4367
 20
661.2301
 11
788.5760
 21
660.4158
  0
LINE
  8
0_00
  6
CONTINUOUS
 62
2
 10
788.5760
 20
660.4158
 11
788.7548
 21
659.5862
  0
LINE
  8
0_00
  6
CONTINUOUS
 62
2
 10
788.7548
 20
659.5862
 11
788.9712
 21
658.7422
  0
LINE
  8
0_00
  6
CONTINUOUS
 62
2
 10
788.9712
 20
658.7422
 11
789.2223
 21
657.8847
  0
LINE
  8
0_00
  6
CONTINUOUS
 62
2
 10
789.2223
 20
657.8847
 11
789.5056
 21
657.0150
  0
LINE
  8
0_00
  6
CONTINUOUS
 62
2
 10
789.5056
 20
657.0150
 11
789.8186
 21
656.1341
  0
LINE
  8
0_00
  6
CONTINUOUS
 62
2
 10
789.8186
 20
656.1341
 11
790.1583
 21
655.2430
  0
LINE
  8
0_00
  6
CONTINUOUS
 62
2
 10
790.1583
 20
655.2430
 11
790.5223
 21
654.3430
  0
LINE
  8
0_00
  6
CONTINUOUS
 62
2
 10
790.5223
 20
654.3430
 11
790.9079
 21
653.4351
  0
LINE
  8
0_00
  6
CONTINUOUS
 62
2
 10
790.9079
 20
653.4351
 11
791.3124
 21
652.5204
  0
LINE
  8
0_00
  6
CONTINUOUS
 62
2
 10
791.3124
 20
652.5204
 11
791.7331
 21
651.6000
  0
LINE
  8
0_00
  6
CONTINUOUS
 62
2
 10
791.7331
 20
651.6000
 11
792.1674
 21
650.6749
  0
LINE
  8
0_00
  6
CONTINUOUS
 62
2
 10
792.1674
 20
650.6749
 11
792.6128
 21
649.7464
  0
LINE
  8
0_00
  6
CONTINUOUS
 62
2
 10
792.6128
 20
649.7464
 11
793.0665
 21
648.8154
  0
LINE
  8
0_00
  6
CONTINUOUS
 62
2
 10
793.0665
 20
648.8154
 11
793.5257
 21
647.8831
  0
LINE
  8
0_00
  6
CONTINUOUS
 62
2
 10
793.5257
 20
647.8831
 11
793.9880
 21
646.9506
  0
LINE
  8
0_00
  6
CONTINUOUS
 62
2
 10
793.9880
 20
646.9506
 11
794.4507
 21
646.0189
  0
LINE
  8
0_00
  6
CONTINUOUS
 62
2
 10
794.4507
 20
646.0189
 11
794.9110
 21
645.0891
  0
LINE
  8
0_00
  6
CONTINUOUS
 62
2
 10
794.9110
 20
645.0891
 11
795.3664
 21
644.1625
  0
LINE
  8
0_00
  6
CONTINUOUS
 62
2
 10
795.3664
 20
644.1625
 11
795.8141
 21
643.2400
  0
LINE
  8
0_00
  6
CONTINUOUS
 62
2
 10
795.8141
 20
643.2400
 11
796.2515
 21
642.3227
  0
LINE
  8
0_00
  6
CONTINUOUS
 62
2
 10
796.2515
 20
642.3227
 11
796.6761
 21
641.4118
  0
LINE
  8
0_00
  6
CONTINUOUS
 62
2
 10
796.6761
 20
641.4118
 11
797.0851
 21
640.5083
  0
LINE
  8
0_00
  6
CONTINUOUS
 62
2
 10
797.0851
 20
640.5083
 11
797.4759
 21
639.6134
  0
LINE
  8
0_00
  6
CONTINUOUS
 62
2
 10
797.4759
 20
639.6134
 11
797.8457
 21
638.7281
  0
LINE
  8
0_00
  6
CONTINUOUS
 62
2
 10
797.8457
 20
638.7281
 11
798.1922
 21
637.8535
  0
LINE
  8
0_00
  6
CONTINUOUS
 62
2
 10
798.1922
 20
637.8535
 11
798.5123
 21
636.9908
  0
LINE
  8
0_00
  6
CONTINUOUS
 62
2
 10
798.5123
 20
636.9908
 11
798.8036
 21
636.1409
  0
LINE
  8
0_00
  6
CONTINUOUS
 62
2
 10
798.8036
 20
636.1409
 11
799.0634
 21
635.3052
  0
LINE
  8
0_00
  6
CONTINUOUS
 62
2
 10
799.0634
 20
635.3052
 11
799.2891
 21
634.4844
  0
LINE
  8
0_00
  6
CONTINUOUS
 62
2
 10
799.2891
 20
634.4844
 11
799.4780
 21
633.6799
  0
LINE
  8
0_00
  6
CONTINUOUS
 62
2
 10
799.4780
 20
633.6799
 11
799.6281
 21
632.8925
  0
LINE
  8
0_00
  6
CONTINUOUS
 62
2
 10
799.6281
 20
632.8925
 11
799.7401
 21
632.1218
  0
LINE
  8
0_00
  6
CONTINUOUS
 62
2
 10
799.7401
 20
632.1218
 11
799.8150
 21
631.3672
  0
LINE
  8
0_00
  6
CONTINUOUS
 62
2
 10
799.8150
 20
631.3672
 11
799.8547
 21
630.6281
  0
LINE
  8
0_00
  6
CONTINUOUS
 62
2
 10
799.8547
 20
630.6281
 11
799.8602
 21
629.9041
  0
LINE
  8
0_00
  6
CONTINUOUS
 62
2
 10
799.8602
 20
629.9041
 11
799.8327
 21
629.1946
  0
LINE
  8
0_00
  6
CONTINUOUS
 62
2
 10
799.8327
 20
629.1946
 11
799.7737
 21
628.4989
  0
LINE
  8
0_00
  6
CONTINUOUS
 62
2
 10
799.7737
 20
628.4989
 11
799.6844
 21
627.8163
  0
LINE
  8
0_00
  6
CONTINUOUS
 62
2
 10
799.6844
 20
627.8163
 11
799.5661
 21
627.1465
  0
LINE
  8
0_00
  6
CONTINUOUS
 62
2
 10
799.5661
 20
627.1465
 11
799.4203
 21
626.4889
  0
LINE
  8
0_00
  6
CONTINUOUS
 62
2
 10
799.4203
 20
626.4889
 11
799.2481
 21
625.8427
  0
LINE
  8
0_00
  6
CONTINUOUS
 62
2
 10
799.2481
 20
625.8427
 11
799.0510
 21
625.2075
  0
LINE
  8
0_00
  6
CONTINUOUS
 62
2
 10
799.0510
 20
625.2075
 11
798.8302
 21
624.5828
  0
LINE
  8
0_00
  6
CONTINUOUS
 62
2
 10
798.8302
 20
624.5828
 11
798.5870
 21
623.9678
  0
LINE
  8
0_00
  6
CONTINUOUS
 62
2
 10
798.5870
 20
623.9678
 11
798.3229
 21
623.3620
  0
LINE
  8
0_00
  6
CONTINUOUS
 62
2
 10
798.3229
 20
623.3620
 11
798.0389
 21
622.7649
  0
LINE
  8
0_00
  6
CONTINUOUS
 62
2
 10
798.0389
 20
622.7649
 11
797.7366
 21
622.1759
  0
LINE
  8
0_00
  6
CONTINUOUS
 62
2
 10
797.7366
 20
622.1759
 11
797.4172
 21
621.5943
  0
LINE
  8
0_00
  6
CONTINUOUS
 62
2
 10
797.4172
 20
621.5943
 11
797.0820
 21
621.0197
  0
LINE
  8
0_00
  6
CONTINUOUS
 62
2
 10
797.0820
 20
621.0197
 11
796.7323
 21
620.4514
  0
LINE
  8
0_00
  6
CONTINUOUS
 62
2
 10
796.7323
 20
620.4514
 11
796.3694
 21
619.8889
  0
LINE
  8
0_00
  6
CONTINUOUS
 62
2
 10
796.3694
 20
619.8889
 11
795.9947
 21
619.3316
  0
LINE
  8
0_00
  6
CONTINUOUS
 62
2
 10
795.9947
 20
619.3316
 11
795.6096
 21
618.7789
  0
LINE
  8
0_00
  6
CONTINUOUS
 62
2
 10
795.6096
 20
618.7789
 11
795.2152
 21
618.2303
  0
LINE
  8
0_00
  6
CONTINUOUS
 62
2
 10
795.2152
 20
618.2303
 11
794.8129
 21
617.6851
  0
LINE
  8
0_00
  6
CONTINUOUS
 62
2
 10
794.8129
 20
617.6851
 11
794.4041
 21
617.1427
  0
LINE
  8
0_00
  6
CONTINUOUS
 62
2
 10
794.4041
 20
617.1427
 11
793.9899
 21
616.6028
  0
LINE
  8
0_00
  6
CONTINUOUS
 62
2
 10
793.9899
 20
616.6028
 11
793.5719
 21
616.0645
  0
LINE
  8
0_00
  6
CONTINUOUS
 62
2
 10
793.5719
 20
616.0645
 11
793.1511
 21
615.5273
  0
LINE
  8
0_00
  6
CONTINUOUS
 62
2
 10
793.1511
 20
615.5273
 11
792.7291
 21
614.9908
  0
LINE
  8
15_0F
  6
CONTINUOUS
 62
6
 10
849.2786
 20
662.8203
 11
849.2786
 21
740.8203
  0
LINE
  8
15_0F
  6
CONTINUOUS
 62
6
 10
696.3896
 20
689.0247
 11
696.3896
 21
740.8203
  0
LINE
  8
15_0F
  6
CONTINUOUS
 62
6
 10
696.3896
 20
736.3203
 11
849.2786
 21
736.3203
  0
LINE
  8
15_0F
  6
CONTINUOUS
 62
6
 10
696.3896
 20
736.3203
 11
703.7257
 21
734.7610
  0
LINE
  8
15_0F
  6
CONTINUOUS
 62
6
 10
696.3896
 20
736.3203
 11
703.7257
 21
737.8797
  0
LINE
  8
15_0F
  6
CONTINUOUS
 62
6
 10
849.2786
 20
736.3203
 11
841.9425
 21
737.8797
  0
LINE
  8
15_0F
  6
CONTINUOUS
 62
6
 10
849.2786
 20
736.3203
 11
841.9425
 21
734.7610
  0
LINE
  8
16_10
  6
CONTINUOUS
 62
6
 10
1140.4265
 20
394.0743
 11
1191.9131
 21
394.0743
  0
LINE
  8
16_10
  6
CONTINUOUS
 62
6
 10
1163.5653
 20
244.0668
 11
1191.9131
 21
244.0668
  0
LINE
  8
16_10
  6
CONTINUOUS
 62
6
 10
1187.4130
 20
394.0743
 11
1187.4130
 21
244.0668
  0
LINE
  8
16_10
  6
CONTINUOUS
 62
6
 10
1187.4130
 20
394.0743
 11
1185.8536
 21
386.7383
  0
LINE
  8
16_10
  6
CONTINUOUS
 62
6
 10
1187.4130
 20
394.0743
 11
1188.9723
 21
386.7383
  0
LINE
  8
16_10
  6
CONTINUOUS
 62
6
 10
1187.4130
 20
244.0668
 11
1188.9723
 21
251.4029
  0
LINE
  8
16_10
  6
CONTINUOUS
 62
6
 10
1187.4130
 20
244.0668
 11
1185.8536
 21
251.4029
  0
LINE
  8
16_10
  6
CONTINUOUS
 62
6
 10
1135.9263
 20
244.0668
 11
1017.3994
 21
336.0106
  0
LINE
  8
16_10
  6
CONTINUOUS
 62
6
 10
1017.3994
 20
336.0106
 11
1022.2403
 21
330.2820
  0
LINE
  8
16_10
  6
CONTINUOUS
 62
6
 10
1017.3994
 20
336.0106
 11
1024.1517
 21
332.7461
  0
LINE
  8
16_10
  6
CONTINUOUS
 62
6
 10
970.5942
 20
286.2832
 11
879.2614
 21
309.6044
  0
LINE
  8
16_10
  6
CONTINUOUS
 62
6
 10
883.6217
 20
308.4910
 11
880.3379
 21
301.7481
  0
LINE
  8
16_10
  6
CONTINUOUS
 62
6
 10
883.6217
 20
308.4910
 11
883.3644
 21
300.9954
  0
LINE
  8
16_10
  6
CONTINUOUS
 62
6
 10
875.5265
 20
244.0668
 11
877.1316
 21
251.3930
  0
LINE
  8
16_10
  6
CONTINUOUS
 62
6
 10
875.5265
 20
244.0668
 11
874.0129
 21
251.4126
  0
LINE
  8
16_10
  6
CONTINUOUS
 62
6
 10
1135.9263
 20
413.6553
 11
1135.9263
 21
508.9668
  0
LINE
  8
16_10
  6
CONTINUOUS
 62
6
 10
970.5942
 20
286.2832
 11
879.2614
 21
309.6044
  0
LINE
  8
16_10
  6
CONTINUOUS
 62
6
 10
1135.9263
 20
504.4666
 11
1128.5427
 21
505.7829
  0
LINE
  8
16_10
  6
CONTINUOUS
 62
6
 10
1135.9263
 20
504.4666
 11
1128.6456
 21
502.6660
  0
LINE
  8
16_10
  6
CONTINUOUS
 62
6
 10
883.6217
 20
308.4910
 11
887.1677
 21
315.0998
  0
LINE
  8
16_10
  6
CONTINUOUS
 62
6
 10
883.6217
 20
308.4910
 11
884.1730
 21
315.9707
  0
LINE
  8
16_10
  6
CONTINUOUS
 62
6
 10
985.9188
 20
233.3353
 11
985.9188
 21
165.0081
  0
LINE
  8
16_10
  6
CONTINUOUS
 62
6
 10
910.9150
 20
169.5084
 11
985.9188
 21
169.5084
  0
LINE
  8
16_10
  6
CONTINUOUS
 62
6
 10
910.9150
 20
169.5084
 11
918.2511
 21
167.9490
  0
LINE
  8
16_10
  6
CONTINUOUS
 62
6
 10
910.9150
 20
169.5084
 11
918.2511
 21
171.0677
  0
LINE
  8
16_10
  6
CONTINUOUS
 62
6
 10
985.9188
 20
169.5084
 11
978.5826
 21
171.0677
  0
LINE
  8
16_10
  6
CONTINUOUS
 62
6
 10
985.9188
 20
169.5084
 11
978.5826
 21
167.9490
  0
LINE
  8
16_10
  6
CONTINUOUS
 62
6
 10
910.9150
 20
222.8788
 11
910.9150
 21
203.5718
  0
LINE
  8
16_10
  6
CONTINUOUS
 62
6
 10
910.9150
 20
187.5093
 11
910.9150
 21
165.0081
  0
LINE
  8
16_10
  6
CONTINUOUS
 62
6
 10
1020.5783
 20
307.0819
 11
1056.7236
 21
287.3356
  0
LINE
  8
16_10
  6
CONTINUOUS
 62
6
 10
1052.7743
 20
289.4932
 11
1047.9602
 21
283.7421
  0
LINE
  8
16_10
  6
CONTINUOUS
 62
6
 10
1052.7743
 20
289.4932
 11
1050.7156
 21
282.2812
  0
LINE
  8
16_10
  6
CONTINUOUS
 62
6
 10
1041.1750
 20
244.0668
 11
1042.8259
 21
251.3829
  0
LINE
  8
16_10
  6
CONTINUOUS
 62
6
 10
1041.1750
 20
244.0668
 11
1039.7075
 21
251.4218
  0
LINE
  8
0_00
  6
CONTINUOUS
 62
3
 10
547.4110
 20
97.2001
 11
547.4110
 21
37.2000
  0
LINE
  8
0_00
  6
CONTINUOUS
 62
7
 10
54.6905
 20
112.2001
 11
1218.5110
 21
112.2001
  0
LINE
  8
0_00
  6
CONTINUOUS
 62
3
 10
1218.5110
 20
851.7001
 11
1218.5110
 21
865.2001
  0
LINE
  8
0_00
  6
CONTINUOUS
 62
7
 10
1218.5110
 20
37.2000
 11
1218.5110
 21
851.7001
  0
LINE
  8
0_00
  6
CONTINUOUS
 62
3
 10
54.6905
 20
851.7001
 11
54.6905
 21
865.2001
  0
LINE
  8
0_00
  6
CONTINUOUS
 62
7
 10
54.6905
 20
37.2000
 11
54.6905
 21
851.7001
  0
LINE
  8
0_00
  6
CONTINUOUS
 62
7
 10
54.6905
 20
851.7001
 11
1218.5110
 21
851.7001
  0
LINE
  8
0_00
  6
CONTINUOUS
 62
7
 10
54.6905
 20
37.2000
 11
1218.5110
 21
37.2000
  0
LINE
  8
0_00
  6
CONTINUOUS
 62
3
 10
39.6905
 20
22.2000
 11
39.6905
 21
865.2001
  0
LINE
  8
0_00
  6
CONTINUOUS
 62
3
 10
1233.5110
 20
22.2000
 11
1233.5110
 21
865.2001
  0
LINE
  8
0_00
  6
CONTINUOUS
 62
3
 10
39.6905
 20
865.2001
 11
1233.5110
 21
865.2001
  0
LINE
  8
0_00
  6
CONTINUOUS
 62
3
 10
1070.6111
 20
37.2000
 11
1070.6111
 21
112.2001
  0
LINE
  8
0_00
  6
CONTINUOUS
 62
3
 10
54.6905
 20
97.2001
 11
812.7610
 21
97.2001
  0
LINE
  8
0_00
  6
CONTINUOUS
 62
7
 10
812.7610
 20
97.2001
 11
1218.5110
 21
97.2001
  0
LINE
  8
0_00
  6
CONTINUOUS
 62
3
 10
1070.6111
 20
67.2000
 11
1218.5110
 21
67.2000
  0
LINE
  8
0_00
  6
CONTINUOUS
 62
3
 10
1100.6111
 20
112.2001
 11
1100.6111
 21
97.2001
  0
LINE
  8
0_00
  6
CONTINUOUS
 62
3
 10
812.7610
 20
37.2000
 11
812.7610
 21
97.2001
  0
LINE
  8
0_00
  6
CONTINUOUS
 62
7
 10
812.7610
 20
97.2001
 11
812.7610
 21
112.2001
  0
LINE
  8
0_00
  6
CONTINUOUS
 62
3
 10
836.7610
 20
97.2001
 11
836.7610
 21
112.2001
  0
LINE
  8
0_00
  6
CONTINUOUS
 62
3
 10
912.5110
 20
37.2000
 11
912.5110
 21
112.2001
  0
LINE
  8
0_00
  6
CONTINUOUS
 62
3
 10
1004.6111
 20
97.2001
 11
1004.6111
 21
112.2001
  0
LINE
  8
0_00
  6
CONTINUOUS
 62
3
 10
1032.2110
 20
37.2000
 11
1032.2110
 21
97.2001
  0
LINE
  8
0_00
  6
CONTINUOUS
 62
3
 10
995.9110
 20
37.2000
 11
995.9110
 21
97.2001
  0
LINE
  8
0_00
  6
CONTINUOUS
 62
3
 10
959.6110
 20
37.2000
 11
959.6110
 21
97.2001
  0
LINE
  8
0_00
  6
CONTINUOUS
 62
3
 10
468.6610
 20
37.2000
 11
468.6610
 21
112.2001
  0
LINE
  8
0_00
  6
CONTINUOUS
 62
3
 10
626.1610
 20
37.2000
 11
626.1610
 21
97.2001
  0
LINE
  8
0_00
  6
CONTINUOUS
 62
3
 10
54.6905
 20
82.2001
 11
468.6610
 21
82.2001
  0
LINE
  8
0_00
  6
CONTINUOUS
 62
3
 10
54.6905
 20
67.2000
 11
912.5110
 21
67.2000
  0
LINE
  8
0_00
  6
CONTINUOUS
 62
3
 10
174.6905
 20
52.2000
 11
468.6610
 21
52.2000
  0
LINE
  8
0_00
  6
CONTINUOUS
 62
7
 10
54.6905
 20
52.2000
 11
174.6905
 21
52.2000
  0
LINE
  8
0_00
  6
CONTINUOUS
 62
3
 10
818.0110
 20
851.7001
 11
818.0110
 21
865.2001
  0
LINE
  8
0_00
  6
CONTINUOUS
 62
3
 10
788.0110
 20
851.7001
 11
788.0110
 21
865.2001
  0
LINE
  8
0_00
  6
CONTINUOUS
 62
3
 10
204.6905
 20
851.7001
 11
204.6905
 21
865.2001
  0
LINE
  8
0_00
  6
CONTINUOUS
 62
3
 10
854.0110
 20
851.7001
 11
854.0110
 21
865.2001
  0
LINE
  8
0_00
  6
CONTINUOUS
 62
3
 10
915.5110
 20
851.7001
 11
915.5110
 21
865.2001
  0
LINE
  8
0_00
  6
CONTINUOUS
 62
3
 10
1146.5110
 20
851.7001
 11
1146.5110
 21
865.2001
  0
LINE
  8
0_00
  6
CONTINUOUS
 62
3
 10
114.6905
 20
112.2001
 11
114.6905
 21
37.2000
  0
LINE
  8
0_00
  6
CONTINUOUS
 62
7
 10
174.6905
 20
112.2001
 11
174.6905
 21
37.2000
  0
LINE
  8
0_00
  6
CONTINUOUS
 62
3
 10
869.7610
 20
67.2000
 11
869.7610
 21
97.2001
  0
LINE
  8
0_00
  6
CONTINUOUS
 62
3
 10
893.7610
 20
112.2001
 11
893.7610
 21
97.2001
  0
LINE
  8
0_00
  6
CONTINUOUS
 62
3
 10
912.5110
 20
82.2001
 11
1070.6111
 21
82.2001
  0
LINE
  8
0_00
  6
CONTINUOUS
 62
3
 10
1076.6111
 20
71.7000
 11
1078.5610
 21
71.7000
  0
LINE
  8
0_00
  6
CONTINUOUS
 62
3
 10
1078.5610
 20
71.7000
 11
1078.5610
 21
91.2000
  0
LINE
  8
0_00
  6
CONTINUOUS
 62
3
 10
1078.5610
 20
91.2000
 11
1076.6111
 21
91.2000
  0
LINE
  8
0_00
  6
CONTINUOUS
 62
3
 10
1076.6111
 20
71.7000
 11
1076.6111
 21
91.2000
  0
LINE
  8
0_00
  6
CONTINUOUS
 62
3
 10
1079.3410
 20
71.7000
 11
1081.2911
 21
71.7000
  0
LINE
  8
0_00
  6
CONTINUOUS
 62
3
 10
1081.2911
 20
71.7000
 11
1081.2911
 21
91.2000
  0
LINE
  8
0_00
  6
CONTINUOUS
 62
3
 10
1081.2911
 20
91.2000
 11
1079.3410
 21
91.2000
  0
LINE
  8
0_00
  6
CONTINUOUS
 62
3
 10
1079.3410
 20
71.7000
 11
1079.3410
 21
91.2000
  0
LINE
  8
0_00
  6
CONTINUOUS
 62
3
 10
1082.0711
 20
71.7000
 11
1084.0210
 21
71.7000
  0
LINE
  8
0_00
  6
CONTINUOUS
 62
3
 10
1084.0210
 20
71.7000
 11
1084.0210
 21
91.2000
  0
LINE
  8
0_00
  6
CONTINUOUS
 62
3
 10
1084.0210
 20
91.2000
 11
1082.0711
 21
91.2000
  0
LINE
  8
0_00
  6
CONTINUOUS
 62
3
 10
1082.0711
 20
71.7000
 11
1082.0711
 21
91.2000
  0
LINE
  8
0_00
  6
CONTINUOUS
 62
3
 10
1084.8010
 20
71.7000
 11
1086.7511
 21
71.7000
  0
LINE
  8
0_00
  6
CONTINUOUS
 62
3
 10
1086.7511
 20
91.2000
 11
1084.8010
 21
91.2000
  0
LINE
  8
0_00
  6
CONTINUOUS
 62
3
 10
1084.8010
 20
71.7000
 11
1084.8010
 21
91.2000
  0
LINE
  8
0_00
  6
CONTINUOUS
 62
3
 10
1092.4061
 20
71.7000
 11
1100.0110
 21
71.7000
  0
LINE
  8
0_00
  6
CONTINUOUS
 62
3
 10
1100.0110
 20
71.7000
 11
1100.0110
 21
73.4550
  0
LINE
  8
0_00
  6
CONTINUOUS
 62
3
 10
1100.0110
 20
73.4550
 11
1092.4061
 21
73.4550
  0
LINE
  8
0_00
  6
CONTINUOUS
 62
3
 10
1092.4061
 20
73.4550
 11
1092.4061
 21
71.7000
  0
LINE
  8
0_00
  6
CONTINUOUS
 62
3
 10
1092.4061
 20
74.2350
 11
1100.0110
 21
74.2350
  0
LINE
  8
0_00
  6
CONTINUOUS
 62
3
 10
1100.0110
 20
74.2350
 11
1100.0110
 21
75.9900
  0
LINE
  8
0_00
  6
CONTINUOUS
 62
3
 10
1100.0110
 20
75.9900
 11
1092.4061
 21
75.9900
  0
LINE
  8
0_00
  6
CONTINUOUS
 62
3
 10
1092.4061
 20
75.9900
 11
1092.4061
 21
74.2350
  0
LINE
  8
0_00
  6
CONTINUOUS
 62
3
 10
1092.4061
 20
76.7700
 11
1100.0110
 21
76.7700
  0
LINE
  8
0_00
  6
CONTINUOUS
 62
3
 10
1100.0110
 20
76.7700
 11
1100.0110
 21
78.5250
  0
LINE
  8
0_00
  6
CONTINUOUS
 62
3
 10
1100.0110
 20
78.5250
 11
1092.4061
 21
78.5250
  0
LINE
  8
0_00
  6
CONTINUOUS
 62
3
 10
1092.4061
 20
78.5250
 11
1092.4061
 21
76.7700
  0
LINE
  8
0_00
  6
CONTINUOUS
 62
3
 10
1092.4061
 20
79.3050
 11
1100.0110
 21
79.3050
  0
LINE
  8
0_00
  6
CONTINUOUS
 62
3
 10
1100.0110
 20
79.3050
 11
1100.0110
 21
81.0600
  0
LINE
  8
0_00
  6
CONTINUOUS
 62
3
 10
1100.0110
 20
81.0600
 11
1092.4061
 21
81.0600
  0
LINE
  8
0_00
  6
CONTINUOUS
 62
3
 10
1092.4061
 20
81.0600
 11
1092.4061
 21
79.3050
  0
LINE
  8
0_00
  6
CONTINUOUS
 62
3
 10
1092.4061
 20
81.8401
 11
1100.0110
 21
81.8401
  0
LINE
  8
0_00
  6
CONTINUOUS
 62
3
 10
1100.0110
 20
81.8401
 11
1100.0110
 21
83.5950
  0
LINE
  8
0_00
  6
CONTINUOUS
 62
3
 10
1100.0110
 20
83.5950
 11
1092.4061
 21
83.5950
  0
LINE
  8
0_00
  6
CONTINUOUS
 62
3
 10
1092.4061
 20
83.5950
 11
1092.4061
 21
81.8401
  0
LINE
  8
0_00
  6
CONTINUOUS
 62
3
 10
1092.4061
 20
84.3751
 11
1100.0110
 21
84.3751
  0
LINE
  8
0_00
  6
CONTINUOUS
 62
3
 10
1100.0110
 20
84.3751
 11
1100.0110
 21
86.1300
  0
LINE
  8
0_00
  6
CONTINUOUS
 62
3
 10
1100.0110
 20
86.1300
 11
1092.4061
 21
86.1300
  0
LINE
  8
0_00
  6
CONTINUOUS
 62
3
 10
1092.4061
 20
86.1300
 11
1092.4061
 21
84.3751
  0
LINE
  8
0_00
  6
CONTINUOUS
 62
3
 10
1092.4061
 20
86.9101
 11
1100.0110
 21
86.9101
  0
LINE
  8
0_00
  6
CONTINUOUS
 62
3
 10
1100.0110
 20
86.9101
 11
1100.0110
 21
88.6650
  0
LINE
  8
0_00
  6
CONTINUOUS
 62
3
 10
1100.0110
 20
88.6650
 11
1092.4061
 21
88.6650
  0
LINE
  8
0_00
  6
CONTINUOUS
 62
3
 10
1092.4061
 20
88.6650
 11
1092.4061
 21
86.9101
  0
LINE
  8
0_00
  6
CONTINUOUS
 62
3
 10
1092.4061
 20
89.4451
 11
1100.0110
 21
89.4451
  0
LINE
  8
0_00
  6
CONTINUOUS
 62
3
 10
1100.0110
 20
89.4451
 11
1100.0110
 21
91.2000
  0
LINE
  8
0_00
  6
CONTINUOUS
 62
3
 10
1100.0110
 20
91.2000
 11
1092.4061
 21
91.2000
  0
LINE
  8
0_00
  6
CONTINUOUS
 62
3
 10
1092.4061
 20
91.2000
 11
1092.4061
 21
89.4451
  0
LINE
  8
0_00
  6
CONTINUOUS
 62
3
 10
1087.5311
 20
71.7000
 11
1087.5311
 21
77.0626
  0
LINE
  8
0_00
  6
CONTINUOUS
 62
3
 10
1088.8375
 20
72.7725
 11
1088.8375
 21
77.0626
  0
LINE
  8
0_00
  6
CONTINUOUS
 62
3
 10
1087.5311
 20
71.7000
 11
1089.6760
 21
71.7000
  0
LINE
  8
0_00
  6
CONTINUOUS
 62
3
 10
1088.8375
 20
72.7725
 11
1089.6760
 21
72.7725
  0
LINE
  8
0_00
  6
CONTINUOUS
 62
3
 10
1089.6050
 20
79.8056
 11
1090.4561
 21
78.1351
  0
LINE
  8
0_00
  6
CONTINUOUS
 62
3
 10
1090.9410
 20
82.5453
 11
1089.6047
 21
79.8055
  0
LINE
  8
0_00
  6
CONTINUOUS
 62
3
 10
1086.7511
 20
85.3501
 11
1086.7511
 21
91.2000
  0
LINE
  8
0_00
  6
CONTINUOUS
 62
3
 10
1086.7511
 20
85.3501
 11
1089.1886
 21
85.3501
  0
LINE
  8
0_00
  6
CONTINUOUS
 62
3
 10
1086.7511
 20
84.1801
 11
1087.8333
 21
84.1801
  0
LINE
  8
0_00
  6
CONTINUOUS
 62
3
 10
1086.7511
 20
78.1351
 11
1090.4561
 21
78.1351
  0
LINE
  8
0_00
  6
CONTINUOUS
 62
3
 10
1086.7511
 20
81.9611
 11
1087.8334
 21
84.1801
  0
LINE
  8
0_00
  6
CONTINUOUS
 62
3
 10
1086.7511
 20
81.9613
 11
1086.7511
 21
84.1801
  0
LINE
  8
0_00
  6
CONTINUOUS
 62
3
 10
1086.7511
 20
78.1351
 11
1086.7511
 21
71.7000
  0
LINE
  8
0_00
  6
CONTINUOUS
 62
3
 10
1076.9110
 20
91.2000
 11
1076.9110
 21
71.7000
  0
LINE
  8
0_00
  6
CONTINUOUS
 62
3
 10
1077.2110
 20
91.2000
 11
1077.2110
 21
71.7000
  0
LINE
  8
0_00
  6
CONTINUOUS
 62
3
 10
1077.5110
 20
91.2000
 11
1077.5110
 21
71.7000
  0
LINE
  8
0_00
  6
CONTINUOUS
 62
3
 10
1077.8109
 20
91.2000
 11
1077.8109
 21
71.7000
  0
LINE
  8
0_00
  6
CONTINUOUS
 62
3
 10
1078.1111
 20
91.2000
 11
1078.1111
 21
71.7000
  0
LINE
  8
0_00
  6
CONTINUOUS
 62
3
 10
1079.6411
 20
91.2000
 11
1079.6411
 21
71.7000
  0
LINE
  8
0_00
  6
CONTINUOUS
 62
3
 10
1079.9410
 20
91.2000
 11
1079.9410
 21
71.7000
  0
LINE
  8
0_00
  6
CONTINUOUS
 62
3
 10
1080.2410
 20
91.2000
 11
1080.2410
 21
71.7000
  0
LINE
  8
0_00
  6
CONTINUOUS
 62
3
 10
1080.5410
 20
91.2000
 11
1080.5410
 21
71.7000
  0
LINE
  8
0_00
  6
CONTINUOUS
 62
3
 10
1080.8410
 20
91.2000
 11
1080.8410
 21
71.7000
  0
LINE
  8
0_00
  6
CONTINUOUS
 62
3
 10
1081.1411
 20
91.2000
 11
1081.1411
 21
71.7000
  0
LINE
  8
0_00
  6
CONTINUOUS
 62
3
 10
1082.3709
 20
91.2000
 11
1082.3709
 21
71.7000
  0
LINE
  8
0_00
  6
CONTINUOUS
 62
3
 10
1082.6711
 20
91.2000
 11
1082.6711
 21
71.7000
  0
LINE
  8
0_00
  6
CONTINUOUS
 62
3
 10
1082.9711
 20
91.2000
 11
1082.9711
 21
71.7000
  0
LINE
  8
0_00
  6
CONTINUOUS
 62
3
 10
1083.2710
 20
91.2000
 11
1083.2710
 21
71.7000
  0
LINE
  8
0_00
  6
CONTINUOUS
 62
3
 10
1083.5711
 20
91.2000
 11
1083.5711
 21
71.7000
  0
LINE
  8
0_00
  6
CONTINUOUS
 62
3
 10
1083.8709
 20
91.2000
 11
1083.8709
 21
71.7000
  0
LINE
  8
0_00
  6
CONTINUOUS
 62
3
 10
1092.4061
 20
72.0001
 11
1100.0110
 21
72.0001
  0
LINE
  8
0_00
  6
CONTINUOUS
 62
3
 10
1092.4061
 20
72.3001
 11
1100.0110
 21
72.3001
  0
LINE
  8
0_00
  6
CONTINUOUS
 62
3
 10
1092.4061
 20
72.6000
 11
1100.0110
 21
72.6000
  0
LINE
  8
0_00
  6
CONTINUOUS
 62
3
 10
1092.4061
 20
72.9000
 11
1100.0110
 21
72.9000
  0
LINE
  8
0_00
  6
CONTINUOUS
 62
3
 10
1092.4061
 20
73.2000
 11
1100.0110
 21
73.2000
  0
LINE
  8
0_00
  6
CONTINUOUS
 62
3
 10
1092.4061
 20
74.5351
 11
1100.0110
 21
74.5351
  0
LINE
  8
0_00
  6
CONTINUOUS
 62
3
 10
1092.4061
 20
74.8351
 11
1100.0110
 21
74.8351
  0
LINE
  8
0_00
  6
CONTINUOUS
 62
3
 10
1092.4061
 20
75.1350
 11
1100.0110
 21
75.1350
  0
LINE
  8
0_00
  6
CONTINUOUS
 62
3
 10
1092.4061
 20
75.4350
 11
1100.0110
 21
75.4350
  0
LINE
  8
0_00
  6
CONTINUOUS
 62
3
 10
1092.4061
 20
75.7350
 11
1100.0110
 21
75.7350
  0
LINE
  8
0_00
  6
CONTINUOUS
 62
3
 10
1092.4061
 20
77.0701
 11
1100.0110
 21
77.0701
  0
LINE
  8
0_00
  6
CONTINUOUS
 62
3
 10
1092.4061
 20
77.3701
 11
1100.0110
 21
77.3701
  0
LINE
  8
0_00
  6
CONTINUOUS
 62
3
 10
1092.4061
 20
77.6700
 11
1100.0110
 21
77.6700
  0
LINE
  8
0_00
  6
CONTINUOUS
 62
3
 10
1092.4061
 20
77.9700
 11
1100.0110
 21
77.9700
  0
LINE
  8
0_00
  6
CONTINUOUS
 62
3
 10
1092.4061
 20
78.2701
 11
1100.0110
 21
78.2701
  0
LINE
  8
0_00
  6
CONTINUOUS
 62
3
 10
1092.4061
 20
79.6051
 11
1100.0110
 21
79.6051
  0
LINE
  8
0_00
  6
CONTINUOUS
 62
3
 10
1092.4061
 20
79.9051
 11
1100.0110
 21
79.9051
  0
LINE
  8
0_00
  6
CONTINUOUS
 62
3
 10
1092.4061
 20
80.2050
 11
1100.0110
 21
80.2050
  0
LINE
  8
0_00
  6
CONTINUOUS
 62
3
 10
1092.4061
 20
80.5050
 11
1100.0110
 21
80.5050
  0
LINE
  8
0_00
  6
CONTINUOUS
 62
3
 10
1092.4061
 20
80.8051
 11
1100.0110
 21
80.8051
  0
LINE
  8
0_00
  6
CONTINUOUS
 62
3
 10
1092.4061
 20
82.1401
 11
1100.0110
 21
82.1401
  0
LINE
  8
0_00
  6
CONTINUOUS
 62
3
 10
1092.4061
 20
82.4401
 11
1100.0110
 21
82.4401
  0
LINE
  8
0_00
  6
CONTINUOUS
 62
3
 10
1092.4061
 20
82.7400
 11
1100.0110
 21
82.7400
  0
LINE
  8
0_00
  6
CONTINUOUS
 62
3
 10
1092.4061
 20
83.0400
 11
1100.0110
 21
83.0400
  0
LINE
  8
0_00
  6
CONTINUOUS
 62
3
 10
1092.4061
 20
83.3401
 11
1100.0110
 21
83.3401
  0
LINE
  8
0_00
  6
CONTINUOUS
 62
3
 10
1100.0110
 20
84.6751
 11
1092.4061
 21
84.6751
  0
LINE
  8
0_00
  6
CONTINUOUS
 62
3
 10
1100.0110
 20
84.9751
 11
1092.4061
 21
84.9751
  0
LINE
  8
0_00
  6
CONTINUOUS
 62
3
 10
1100.0110
 20
85.2750
 11
1092.4061
 21
85.2750
  0
LINE
  8
0_00
  6
CONTINUOUS
 62
3
 10
1100.0110
 20
85.5750
 11
1092.4061
 21
85.5750
  0
LINE
  8
0_00
  6
CONTINUOUS
 62
3
 10
1100.0110
 20
85.8751
 11
1092.4061
 21
85.8751
  0
LINE
  8
0_00
  6
CONTINUOUS
 62
3
 10
1092.4061
 20
87.2101
 11
1100.0110
 21
87.2101
  0
LINE
  8
0_00
  6
CONTINUOUS
 62
3
 10
1092.4061
 20
87.5101
 11
1100.0110
 21
87.5101
  0
LINE
  8
0_00
  6
CONTINUOUS
 62
3
 10
1092.4061
 20
87.8100
 11
1100.0110
 21
87.8100
  0
LINE
  8
0_00
  6
CONTINUOUS
 62
3
 10
1092.4061
 20
88.1100
 11
1100.0110
 21
88.1100
  0
LINE
  8
0_00
  6
CONTINUOUS
 62
3
 10
1092.4061
 20
88.4101
 11
1100.0110
 21
88.4101
  0
LINE
  8
0_00
  6
CONTINUOUS
 62
3
 10
1092.4061
 20
89.7451
 11
1100.0110
 21
89.7451
  0
LINE
  8
0_00
  6
CONTINUOUS
 62
3
 10
1092.4061
 20
90.0451
 11
1100.0110
 21
90.0451
  0
LINE
  8
0_00
  6
CONTINUOUS
 62
3
 10
1092.4061
 20
90.3450
 11
1100.0110
 21
90.3450
  0
LINE
  8
0_00
  6
CONTINUOUS
 62
3
 10
1092.4061
 20
90.6450
 11
1100.0110
 21
90.6450
  0
LINE
  8
0_00
  6
CONTINUOUS
 62
3
 10
1092.4061
 20
90.9451
 11
1100.0110
 21
90.9451
  0
LINE
  8
0_00
  6
CONTINUOUS
 62
3
 10
1085.1010
 20
91.2000
 11
1085.1010
 21
71.7000
  0
LINE
  8
0_00
  6
CONTINUOUS
 62
3
 10
1085.4011
 20
91.2000
 11
1085.4011
 21
71.7000
  0
LINE
  8
0_00
  6
CONTINUOUS
 62
3
 10
1085.7009
 20
91.2000
 11
1085.7009
 21
71.7000
  0
LINE
  8
0_00
  6
CONTINUOUS
 62
3
 10
1086.0008
 20
91.2000
 11
1086.0008
 21
71.7000
  0
LINE
  8
0_00
  6
CONTINUOUS
 62
3
 10
1086.3010
 20
91.2000
 11
1086.3010
 21
71.7000
  0
LINE
  8
0_00
  6
CONTINUOUS
 62
3
 10
1086.6010
 20
91.2000
 11
1086.6010
 21
71.7000
  0
LINE
  8
0_00
  6
CONTINUOUS
 62
3
 10
1087.8311
 20
71.7000
 11
1087.8311
 21
77.0626
  0
LINE
  8
0_00
  6
CONTINUOUS
 62
3
 10
1088.1312
 20
71.7000
 11
1088.1312
 21
77.0626
  0
LINE
  8
0_00
  6
CONTINUOUS
 62
3
 10
1088.4310
 20
71.7000
 11
1088.4310
 21
77.0626
  0
LINE
  8
0_00
  6
CONTINUOUS
 62
3
 10
1088.7309
 20
71.7000
 11
1088.7309
 21
77.0626
  0
LINE
  8
0_00
  6
CONTINUOUS
 62
3
 10
1088.8375
 20
72.4725
 11
1089.6760
 21
72.4725
  0
LINE
  8
0_00
  6
CONTINUOUS
 62
3
 10
1088.8375
 20
72.1725
 11
1089.6760
 21
72.1725
  0
LINE
  8
0_00
  6
CONTINUOUS
 62
3
 10
1088.8375
 20
71.8725
 11
1089.6760
 21
71.8725
  0
LINE
  8
0_00
  6
CONTINUOUS
 62
3
 10
1090.2825
 20
78.4758
 11
1086.7853
 21
78.4758
  0
LINE
  8
0_00
  6
CONTINUOUS
 62
3
 10
1090.1032
 20
78.8278
 11
1086.7853
 21
78.8278
  0
LINE
  8
0_00
  6
CONTINUOUS
 62
3
 10
1089.8939
 20
79.2384
 11
1086.7779
 21
79.2384
  0
LINE
  8
0_00
  6
CONTINUOUS
 62
3
 10
1089.7204
 20
79.5787
 11
1086.7744
 21
79.5787
  0
LINE
  8
0_00
  6
CONTINUOUS
 62
3
 10
1091.0859
 20
83.5262
 11
1089.1502
 21
79.5579
  0
LINE
  8
0_00
  6
CONTINUOUS
 62
3
 10
1090.9896
 20
84.0133
 11
1088.8107
 21
79.5458
  0
LINE
  8
0_00
  6
CONTINUOUS
 62
3
 10
1090.8083
 20
84.3258
 11
1088.4914
 21
79.5758
  0
LINE
  8
0_00
  6
CONTINUOUS
 62
3
 10
1090.6029
 20
84.5893
 11
1088.1454
 21
79.5508
  0
LINE
  8
0_00
  6
CONTINUOUS
 62
3
 10
1090.4008
 20
84.8596
 11
1087.8790
 21
79.6887
  0
LINE
  8
0_00
  6
CONTINUOUS
 62
3
 10
1090.1371
 20
85.0026
 11
1087.4908
 21
79.5774
  0
LINE
  8
0_00
  6
CONTINUOUS
 62
3
 10
1089.8761
 20
85.1521
 11
1087.1534
 21
79.5697
  0
LINE
  8
0_00
  6
CONTINUOUS
 62
3
 10
1089.5665
 20
85.2017
 11
1086.8386
 21
79.6087
  0
LINE
  8
0_00
  6
CONTINUOUS
 62
3
 10
1089.2498
 20
85.2367
 11
1086.7053
 21
80.0197
  0
LINE
  8
0_00
  6
CONTINUOUS
 62
3
 10
1088.9374
 20
85.2802
 11
1086.7329
 21
80.7607
  0
LINE
  8
0_00
  6
CONTINUOUS
 62
3
 10
1088.5957
 20
85.2643
 11
1086.6388
 21
81.2521
  0
LINE
  8
0_00
  6
CONTINUOUS
 62
3
 10
1087.9926
 20
84.4801
 11
1086.7511
 21
84.4801
  0
LINE
  8
0_00
  6
CONTINUOUS
 62
3
 10
1088.2355
 20
84.7801
 11
1086.7511
 21
84.7801
  0
LINE
  8
0_00
  6
CONTINUOUS
 62
3
 10
1088.3496
 20
85.0800
 11
1086.7511
 21
85.0800
  0
LINE
  8
0_00
  6
CONTINUOUS
 62
3
 10
796.2610
 20
852.4893
 11
809.7610
 21
852.4893
  0
LINE
  8
0_00
  6
CONTINUOUS
 62
3
 10
797.1685
 20
854.0609
 11
796.2610
 21
852.4893
  0
LINE
  8
0_00
  6
CONTINUOUS
 62
3
 10
800.8929
 20
860.5119
 11
803.0110
 21
864.1806
  0
LINE
  8
0_00
  6
CONTINUOUS
 62
3
 10
808.8538
 20
854.0609
 11
809.7610
 21
852.4893
  0
LINE
  8
0_00
  6
CONTINUOUS
 62
3
 10
805.1292
 20
860.5119
 11
803.0110
 21
864.1806
  0
LINE
  8
0_00
  6
CONTINUOUS
 62
3
 10
1218.5110
 20
154.2001
 11
1221.5110
 21
154.2001
  0
LINE
  8
0_00
  6
CONTINUOUS
 62
3
 10
1218.5110
 20
175.2001
 11
1221.5110
 21
175.2001
  0
LINE
  8
0_00
  6
CONTINUOUS
 62
3
 10
1218.5110
 20
196.2001
 11
1221.5110
 21
196.2001
  0
LINE
  8
0_00
  6
CONTINUOUS
 62
3
 10
1218.5110
 20
217.2001
 11
1221.5110
 21
217.2001
  0
LINE
  8
0_00
  6
CONTINUOUS
 62
3
 10
1218.5110
 20
238.2001
 11
1221.5110
 21
238.2001
  0
LINE
  8
0_00
  6
CONTINUOUS
 62
3
 10
1218.5110
 20
259.2001
 11
1221.5110
 21
259.2001
  0
LINE
  8
0_00
  6
CONTINUOUS
 62
3
 10
1218.5110
 20
280.2001
 11
1221.5110
 21
280.2001
  0
LINE
  8
0_00
  6
CONTINUOUS
 62
3
 10
1218.5110
 20
301.2001
 11
1221.5110
 21
301.2001
  0
LINE
  8
0_00
  6
CONTINUOUS
 62
3
 10
1218.5110
 20
322.2001
 11
1221.5110
 21
322.2001
  0
LINE
  8
0_00
  6
CONTINUOUS
 62
3
 10
1218.5110
 20
343.2001
 11
1221.5110
 21
343.2001
  0
LINE
  8
0_00
  6
CONTINUOUS
 62
3
 10
1218.5110
 20
364.2001
 11
1221.5110
 21
364.2001
  0
LINE
  8
0_00
  6
CONTINUOUS
 62
3
 10
1218.5110
 20
385.2001
 11
1221.5110
 21
385.2001
  0
LINE
  8
0_00
  6
CONTINUOUS
 62
3
 10
1218.5110
 20
406.2001
 11
1221.5110
 21
406.2001
  0
LINE
  8
0_00
  6
CONTINUOUS
 62
3
 10
1218.5110
 20
427.2001
 11
1221.5110
 21
427.2001
  0
LINE
  8
0_00
  6
CONTINUOUS
 62
3
 10
1218.5110
 20
448.2001
 11
1221.5110
 21
448.2001
  0
LINE
  8
0_00
  6
CONTINUOUS
 62
3
 10
1218.5110
 20
469.2001
 11
1221.5110
 21
469.2001
  0
LINE
  8
0_00
  6
CONTINUOUS
 62
3
 10
1218.5110
 20
490.2001
 11
1221.5110
 21
490.2001
  0
LINE
  8
0_00
  6
CONTINUOUS
 62
3
 10
1218.5110
 20
833.7001
 11
1221.5110
 21
833.7001
  0
LINE
  8
0_00
  6
CONTINUOUS
 62
3
 10
1218.5110
 20
815.7001
 11
1221.5110
 21
815.7001
  0
LINE
  8
0_00
  6
CONTINUOUS
 62
3
 10
1218.5110
 20
797.7001
 11
1221.5110
 21
797.7001
  0
LINE
  8
0_00
  6
CONTINUOUS
 62
3
 10
1218.5110
 20
779.7001
 11
1221.5110
 21
779.7001
  0
LINE
  8
0_00
  6
CONTINUOUS
 62
3
 10
1218.5110
 20
761.7001
 11
1221.5110
 21
761.7001
  0
LINE
  8
0_00
  6
CONTINUOUS
 62
3
 10
1218.5110
 20
743.7001
 11
1221.5110
 21
743.7001
  0
LINE
  8
0_00
  6
CONTINUOUS
 62
3
 10
1218.5110
 20
511.2001
 11
1221.5110
 21
511.2001
  0
LINE
  8
0_00
  6
CONTINUOUS
 62
3
 10
1218.5110
 20
532.2001
 11
1221.5110
 21
532.2001
  0
LINE
  8
0_00
  6
CONTINUOUS
 62
3
 10
1218.5110
 20
553.2001
 11
1221.5110
 21
553.2001
  0
LINE
  8
0_00
  6
CONTINUOUS
 62
3
 10
1218.5110
 20
574.2001
 11
1221.5110
 21
574.2001
  0
LINE
  8
0_00
  6
CONTINUOUS
 62
3
 10
1218.5110
 20
595.2001
 11
1221.5110
 21
595.2001
  0
LINE
  8
0_00
  6
CONTINUOUS
 62
3
 10
1218.5110
 20
616.2001
 11
1221.5110
 21
616.2001
  0
LINE
  8
0_00
  6
CONTINUOUS
 62
3
 10
1218.5110
 20
637.2000
 11
1221.5110
 21
637.2000
  0
LINE
  8
0_00
  6
CONTINUOUS
 62
3
 10
1218.5110
 20
658.2000
 11
1221.5110
 21
658.2000
  0
LINE
  8
0_00
  6
CONTINUOUS
 62
3
 10
1218.5110
 20
679.2000
 11
1221.5110
 21
679.2000
  0
LINE
  8
0_00
  6
CONTINUOUS
 62
3
 10
1218.5110
 20
700.2001
 11
1221.5110
 21
700.2001
  0
LINE
  8
0_00
  6
CONTINUOUS
 62
3
 10
1218.5110
 20
721.2001
 11
1221.5110
 21
721.2001
  0
LINE
  8
0_00
  6
CENTER1
 62
3
 10
881.0410
 20
73.2001
 11
881.0410
 21
91.2001
  0
LINE
  8
0_00
  6
CONTINUOUS
 62
4
 10
891.5411
 20
78.4501
 11
891.5411
 21
85.9501
  0
LINE
  8
0_00
  6
CONTINUOUS
 62
4
 10
905.0410
 20
76.2001
 11
905.0410
 21
88.2001
  0
LINE
  8
0_00
  6
CONTINUOUS
 62
4
 10
891.5411
 20
85.9501
 11
905.0410
 21
88.2001
  0
LINE
  8
0_00
  6
CONTINUOUS
 62
4
 10
891.5411
 20
78.4501
 11
905.0410
 21
76.2001
  0
LINE
  8
0_00
  6
CENTER1
 62
3
 10
872.0411
 20
82.2001
 11
907.3555
 21
82.2001
  0
LINE
  8
0_00
  6
CONTINUOUS
 62
3
 10
1191.5110
 20
37.2000
 11
1191.5110
 21
67.2000
  0
LINE
  8
0_00
  6
CONTINUOUS
 62
3
 10
39.6905
 20
22.2000
 11
1233.5110
 21
22.2000
  0
LINE
  8
0_00
  6
CONTINUOUS
 62
3
 10
1182.5110
 20
865.2001
 11
1182.5110
 21
851.7001
  0
LINE
  8
0_00
  6
CONTINUOUS
 62
3
 10
0.0000
 20
443.7000
 11
39.6905
 21
443.7000
  0
LINE
  8
0_00
  6
CONTINUOUS
 62
3
 10
626.1610
 20
22.2000
 11
626.1610
 21
0.0000
  0
LINE
  8
0_00
  6
CONTINUOUS
 62
3
 10
626.1610
 20
865.2001
 11
626.1610
 21
891.0000
  0
LINE
  8
0_00
  6
CONTINUOUS
 62
3
 10
1233.5110
 20
443.7000
 11
1260.0000
 21
443.7000
  0
LINE
  8
0_00
  6
CONTINUOUS
 62
6
 10
257.1477
 20
478.6775
 11
257.1477
 21
413.0795
  0
LINE
  8
0_00
  6
CONTINUOUS
 62
6
 10
257.1477
 20
478.6775
 11
255.5883
 21
471.3414
  0
LINE
  8
0_00
  6
CONTINUOUS
 62
6
 10
257.1477
 20
478.6775
 11
258.7070
 21
471.3414
  0
LINE
  8
0_00
  6
CONTINUOUS
 62
6
 10
257.1477
 20
413.0795
 11
258.7070
 21
420.4156
  0
LINE
  8
0_00
  6
CONTINUOUS
 62
6
 10
257.1477
 20
413.0795
 11
255.5883
 21
420.4156
  0
LINE
  8
0_00
  6
CONTINUOUS
 62
4
 10
288.6844
 20
476.5890
 11
288.6844
 21
415.2394
  0
LINE
  8
0_00
  6
CONTINUOUS
 62
4
 10
286.1845
 20
475.5709
 11
286.1845
 21
416.2408
  0
LINE
  8
0_00
  6
CONTINUOUS
 62
4
 10
289.3415
 20
413.2449
 11
292.9737
 21
413.4353
  0
LINE
  8
0_00
  6
CONTINUOUS
 62
4
 10
289.2106
 20
414.7401
 11
292.8952
 21
414.9332
  0
LINE
  8
0_00
  6
CONTINUOUS
 62
4
 10
286.3926
 20
476.6690
 11
421.0460
 21
471.9668
  0
LINE
  8
0_00
  6
CONTINUOUS
 62
4
 10
289.2891
 20
478.5690
 11
418.2891
 21
474.0643
  0
LINE
  8
0_00
  6
CONTINUOUS
 62
4
 10
421.1845
 20
471.0661
 11
421.1845
 21
416.4619
  0
LINE
  8
0_00
  6
CONTINUOUS
 62
4
 10
418.6844
 20
472.0492
 11
418.6844
 21
414.9337
  0
LINE
  8
0_00
  6
CONTINUOUS
 62
4
 10
418.0275
 20
413.4661
 11
414.3952
 21
413.6564
  0
LINE
  8
0_00
  6
CONTINUOUS
 62
4
 10
414.4737
 20
415.1544
 11
418.6844
 21
414.9337
  0
LINE
  8
0_00
  6
CONTINUOUS
 62
6
 10
425.6844
 20
473.9632
 11
500.9787
 21
473.9632
  0
LINE
  8
0_00
  6
CONTINUOUS
 62
6
 10
425.6844
 20
413.3006
 11
500.9787
 21
413.3006
  0
LINE
  8
0_00
  6
CONTINUOUS
 62
6
 10
496.4787
 20
473.9632
 11
496.4787
 21
413.3006
  0
LINE
  8
0_00
  6
CONTINUOUS
 62
6
 10
496.4787
 20
473.9632
 11
494.9193
 21
466.6271
  0
LINE
  8
0_00
  6
CONTINUOUS
 62
6
 10
496.4787
 20
473.9632
 11
498.0380
 21
466.6271
  0
LINE
  8
0_00
  6
CONTINUOUS
 62
6
 10
496.4787
 20
413.3006
 11
498.0380
 21
420.6367
  0
LINE
  8
0_00
  6
CONTINUOUS
 62
6
 10
496.4787
 20
413.3006
 11
494.9193
 21
420.6367
  0
LINE
  8
0_00
  6
CONTINUOUS
 62
4
 10
323.6844
 20
668.8424
 11
323.6844
 21
630.8203
  0
LINE
  8
0_00
  6
CONTINUOUS
 62
4
 10
327.1845
 20
640.8203
 11
335.3844
 21
640.8203
  0
LINE
  8
0_00
  6
CONTINUOUS
 62
4
 10
335.9844
 20
640.8203
 11
353.3844
 21
640.8203
  0
LINE
  8
0_00
  6
CONTINUOUS
 62
4
 10
353.6845
 20
641.1204
 11
353.3844
 21
640.8203
  0
LINE
  8
0_00
  6
CONTINUOUS
 62
4
 10
335.6844
 20
641.1204
 11
335.3844
 21
640.8203
  0
LINE
  8
0_00
  6
CONTINUOUS
 62
4
 10
335.6844
 20
641.1204
 11
335.9844
 21
640.8203
  0
LINE
  8
0_00
  6
CONTINUOUS
 62
4
 10
326.6844
 20
668.8424
 11
326.6844
 21
644.8203
  0
LINE
  8
0_00
  6
CONTINUOUS
 62
4
 10
326.6844
 20
640.3203
 11
326.6844
 21
630.8203
  0
LINE
  8
0_00
  6
CONTINUOUS
 62
4
 10
383.6844
 20
668.8424
 11
383.6844
 21
630.8203
  0
LINE
  8
0_00
  6
CONTINUOUS
 62
4
 10
380.1844
 20
640.8203
 11
371.9845
 21
640.8203
  0
LINE
  8
0_00
  6
CONTINUOUS
 62
4
 10
371.3844
 20
640.8203
 11
353.9844
 21
640.8203
  0
LINE
  8
0_00
  6
CONTINUOUS
 62
4
 10
353.6845
 20
641.1204
 11
353.9844
 21
640.8203
  0
LINE
  8
0_00
  6
CONTINUOUS
 62
4
 10
371.6844
 20
641.1204
 11
371.9845
 21
640.8203
  0
LINE
  8
0_00
  6
CONTINUOUS
 62
4
 10
371.6844
 20
641.1204
 11
371.3844
 21
640.8203
  0
LINE
  8
0_00
  6
CONTINUOUS
 62
4
 10
380.6844
 20
668.8424
 11
380.6844
 21
644.8203
  0
LINE
  8
0_00
  6
CONTINUOUS
 62
4
 10
380.6844
 20
640.3203
 11
380.6844
 21
630.8203
  0
LINE
  8
0_00
  6
CONTINUOUS
 62
4
 10
380.1844
 20
644.3203
 11
327.1845
 21
644.3203
  0
LINE
  8
0_00
  6
CONTINUOUS
 62
4
 10
327.6844
 20
630.8203
 11
335.3844
 21
630.8203
  0
LINE
  8
0_00
  6
CONTINUOUS
 62
4
 10
335.9844
 20
630.8203
 11
340.9845
 21
630.8203
  0
LINE
  8
0_00
  6
CONTINUOUS
 62
4
 10
353.6845
 20
632.6204
 11
353.3844
 21
632.3204
  0
LINE
  8
0_00
  6
CONTINUOUS
 62
4
 10
327.1845
 20
639.8203
 11
327.1845
 21
631.3203
  0
LINE
  8
0_00
  6
CONTINUOUS
 62
4
 10
330.1844
 20
640.3203
 11
330.1844
 21
634.3203
  0
LINE
  8
0_00
  6
CONTINUOUS
 62
4
 10
328.1844
 20
640.8203
 11
329.6844
 21
640.8203
  0
LINE
  8
0_00
  6
CONTINUOUS
 62
4
 10
335.6844
 20
631.1204
 11
335.3844
 21
630.8203
  0
LINE
  8
0_00
  6
CONTINUOUS
 62
4
 10
335.6844
 20
631.1204
 11
335.9844
 21
630.8203
  0
LINE
  8
0_00
  6
CONTINUOUS
 62
4
 10
341.3844
 20
632.3204
 11
353.3844
 21
632.3204
  0
LINE
  8
0_00
  6
CONTINUOUS
 62
4
 10
330.6845
 20
633.8204
 11
338.6796
 21
633.8204
  0
LINE
  8
0_00
  6
CONTINUOUS
 62
4
 10
341.3844
 20
632.3204
 11
340.9845
 21
630.8203
  0
LINE
  8
0_00
  6
CONTINUOUS
 62
4
 10
339.0796
 20
635.3204
 11
338.6796
 21
633.8204
  0
LINE
  8
0_00
  6
CONTINUOUS
 62
4
 10
379.6845
 20
630.8203
 11
371.9845
 21
630.8203
  0
LINE
  8
0_00
  6
CONTINUOUS
 62
4
 10
371.3844
 20
630.8203
 11
366.3844
 21
630.8203
  0
LINE
  8
0_00
  6
CONTINUOUS
 62
4
 10
353.6845
 20
632.6204
 11
353.9844
 21
632.3204
  0
LINE
  8
0_00
  6
CONTINUOUS
 62
4
 10
380.1844
 20
639.8203
 11
380.1844
 21
631.3203
  0
LINE
  8
0_00
  6
CONTINUOUS
 62
4
 10
377.1844
 20
640.3203
 11
377.1844
 21
634.3203
  0
LINE
  8
0_00
  6
CONTINUOUS
 62
4
 10
379.1845
 20
640.8203
 11
377.6845
 21
640.8203
  0
LINE
  8
0_00
  6
CONTINUOUS
 62
4
 10
371.6844
 20
631.1204
 11
371.9845
 21
630.8203
  0
LINE
  8
0_00
  6
CONTINUOUS
 62
4
 10
371.6844
 20
631.1204
 11
371.3844
 21
630.8203
  0
LINE
  8
0_00
  6
CONTINUOUS
 62
4
 10
365.9844
 20
632.3204
 11
353.9844
 21
632.3204
  0
LINE
  8
0_00
  6
CONTINUOUS
 62
4
 10
376.6844
 20
633.8204
 11
368.6892
 21
633.8204
  0
LINE
  8
0_00
  6
CONTINUOUS
 62
4
 10
365.9844
 20
632.3204
 11
366.3844
 21
630.8203
  0
LINE
  8
0_00
  6
CONTINUOUS
 62
4
 10
368.2893
 20
635.3204
 11
339.0796
 21
635.3204
  0
LINE
  8
0_00
  6
CONTINUOUS
 62
4
 10
368.2893
 20
635.3204
 11
368.6892
 21
633.8204
  0
LINE
  8
0_00
  6
CONTINUOUS
 62
2
 10
335.6844
 20
655.8203
 11
333.6447
 21
654.2572
  0
LINE
  8
0_00
  6
CONTINUOUS
 62
2
 10
335.6844
 20
655.8203
 11
337.6845
 21
654.2877
  0
LINE
  8
0_00
  6
CONTINUOUS
 62
2
 10
339.8344
 20
630.8203
 11
331.5344
 21
630.8203
  0
LINE
  8
0_00
  6
CONTINUOUS
 62
2
 10
331.6832
 20
629.1204
 11
339.6857
 21
629.1204
  0
LINE
  8
0_00
  6
CONTINUOUS
 62
2
 10
335.6844
 20
655.8203
 11
333.6844
 21
651.0004
  0
LINE
  8
0_00
  6
CONTINUOUS
 62
2
 10
333.6844
 20
651.0004
 11
337.6845
 21
652.0721
  0
LINE
  8
0_00
  6
CONTINUOUS
 62
2
 10
339.8344
 20
630.8203
 11
339.6857
 21
629.1204
  0
LINE
  8
0_00
  6
CONTINUOUS
 62
2
 10
331.5344
 20
630.8203
 11
331.6832
 21
629.1204
  0
LINE
  8
0_00
  6
CONTINUOUS
 62
2
 10
337.6845
 20
644.3203
 11
337.6845
 21
654.2877
  0
LINE
  8
0_00
  6
DASHED
 62
6
 10
337.6845
 20
644.3203
 11
337.6845
 21
640.8203
  0
LINE
  8
0_00
  6
CONTINUOUS
 62
2
 10
337.1345
 20
644.3203
 11
337.1345
 21
651.9248
  0
LINE
  8
0_00
  6
DASHED
 62
6
 10
337.1345
 20
644.3203
 11
337.1345
 21
640.8203
  0
LINE
  8
0_00
  6
CONTINUOUS
 62
2
 10
334.2344
 20
644.3203
 11
334.2344
 21
651.1477
  0
LINE
  8
0_00
  6
DASHED
 62
6
 10
334.2344
 20
644.3203
 11
334.2344
 21
640.8203
  0
LINE
  8
0_00
  6
CONTINUOUS
 62
2
 10
333.6844
 20
644.3203
 11
333.6844
 21
654.2572
  0
LINE
  8
0_00
  6
DASHED
 62
6
 10
333.6844
 20
644.3203
 11
333.6844
 21
640.8203
  0
LINE
  8
0_00
  6
CONTINUOUS
 62
2
 10
337.6845
 20
633.8204
 11
337.6845
 21
640.8203
  0
LINE
  8
0_00
  6
DASHED
 62
6
 10
337.6845
 20
633.8204
 11
337.6845
 21
630.8203
  0
LINE
  8
0_00
  6
CONTINUOUS
 62
2
 10
337.1345
 20
633.8204
 11
337.1345
 21
640.8203
  0
LINE
  8
0_00
  6
DASHED
 62
6
 10
337.1345
 20
633.8204
 11
337.1345
 21
630.8203
  0
LINE
  8
0_00
  6
CONTINUOUS
 62
2
 10
334.2344
 20
633.8204
 11
334.2344
 21
640.8203
  0
LINE
  8
0_00
  6
DASHED
 62
6
 10
334.2344
 20
633.8204
 11
334.2344
 21
630.8203
  0
LINE
  8
0_00
  6
CONTINUOUS
 62
2
 10
333.6844
 20
633.8204
 11
333.6844
 21
640.8203
  0
LINE
  8
0_00
  6
DASHED
 62
6
 10
333.6844
 20
633.8204
 11
333.6844
 21
630.8203
  0
LINE
  8
0_00
  6
CONTINUOUS
 62
2
 10
371.6844
 20
655.8203
 11
369.6447
 21
654.2572
  0
LINE
  8
0_00
  6
CONTINUOUS
 62
2
 10
371.6844
 20
655.8203
 11
373.6844
 21
654.2877
  0
LINE
  8
0_00
  6
CONTINUOUS
 62
2
 10
375.8345
 20
630.8203
 11
367.5344
 21
630.8203
  0
LINE
  8
0_00
  6
CONTINUOUS
 62
2
 10
367.6832
 20
629.1204
 11
375.6857
 21
629.1204
  0
LINE
  8
0_00
  6
CONTINUOUS
 62
2
 10
371.6844
 20
655.8203
 11
369.6844
 21
651.0004
  0
LINE
  8
0_00
  6
CONTINUOUS
 62
2
 10
369.6844
 20
651.0004
 11
373.6844
 21
652.0721
  0
LINE
  8
0_00
  6
CONTINUOUS
 62
2
 10
375.8345
 20
630.8203
 11
375.6857
 21
629.1204
  0
LINE
  8
0_00
  6
CONTINUOUS
 62
2
 10
367.5344
 20
630.8203
 11
367.6832
 21
629.1204
  0
LINE
  8
0_00
  6
CONTINUOUS
 62
2
 10
373.6844
 20
644.3203
 11
373.6844
 21
654.2877
  0
LINE
  8
0_00
  6
DASHED
 62
6
 10
373.6844
 20
644.3203
 11
373.6844
 21
640.8203
  0
LINE
  8
0_00
  6
CONTINUOUS
 62
2
 10
373.1344
 20
644.3203
 11
373.1344
 21
651.9248
  0
LINE
  8
0_00
  6
DASHED
 62
6
 10
373.1344
 20
644.3203
 11
373.1344
 21
640.8203
  0
LINE
  8
0_00
  6
CONTINUOUS
 62
2
 10
370.2344
 20
644.3203
 11
370.2344
 21
651.1477
  0
LINE
  8
0_00
  6
DASHED
 62
6
 10
370.2344
 20
644.3203
 11
370.2344
 21
640.8203
  0
LINE
  8
0_00
  6
CONTINUOUS
 62
2
 10
369.6844
 20
644.3203
 11
369.6844
 21
654.2572
  0
LINE
  8
0_00
  6
DASHED
 62
6
 10
369.6844
 20
644.3203
 11
369.6844
 21
640.8203
  0
LINE
  8
0_00
  6
CONTINUOUS
 62
2
 10
373.6844
 20
633.8204
 11
373.6844
 21
640.8203
  0
LINE
  8
0_00
  6
DASHED
 62
6
 10
373.6844
 20
633.8204
 11
373.6844
 21
630.8203
  0
LINE
  8
0_00
  6
CONTINUOUS
 62
2
 10
373.1344
 20
633.8204
 11
373.1344
 21
640.8203
  0
LINE
  8
0_00
  6
DASHED
 62
6
 10
373.1344
 20
633.8204
 11
373.1344
 21
630.8203
  0
LINE
  8
0_00
  6
CONTINUOUS
 62
2
 10
370.2344
 20
633.8204
 11
370.2344
 21
640.8203
  0
LINE
  8
0_00
  6
DASHED
 62
6
 10
370.2344
 20
633.8204
 11
370.2344
 21
630.8203
  0
LINE
  8
0_00
  6
CONTINUOUS
 62
2
 10
369.6844
 20
633.8204
 11
369.6844
 21
640.8203
  0
LINE
  8
0_00
  6
DASHED
 62
6
 10
369.6844
 20
633.8204
 11
369.6844
 21
630.8203
  0
LINE
  8
12_0C
  6
DASHED
 62
6
 10
694.3895
 20
637.5204
 11
694.3895
 21
614.6403
  0
LINE
  8
12_0C
  6
DASHED
 62
6
 10
694.8896
 20
637.5204
 11
694.8896
 21
604.8203
  0
LINE
  8
12_0C
  6
DASHED
 62
6
 10
698.3895
 20
637.5204
 11
698.3895
 21
614.6403
  0
LINE
  8
12_0C
  6
DASHED
 62
6
 10
697.8895
 20
637.5204
 11
697.8895
 21
604.8203
  0
LINE
  8
12_0C
  6
DASHED
 62
6
 10
694.3895
 20
614.6403
 11
694.8896
 21
610.2585
  0
LINE
  8
12_0C
  6
DASHED
 62
6
 10
698.3895
 20
614.6403
 11
697.8895
 21
610.2585
  0
LINE
  8
12_0C
  6
DASHED
 62
6
 10
694.8896
 20
604.8203
 11
697.8895
 21
604.8203
  0
LINE
  8
12_0C
  6
DASHED
 62
6
 10
698.3895
 20
614.6403
 11
694.8896
 21
610.2585
  0
LINE
  8
12_0C
  6
DASHED
 62
6
 10
694.3895
 20
637.5204
 11
698.3895
 21
637.5204
  0
LINE
  8
12_0C
  6
DASHED
 62
6
 10
700.3895
 20
639.8203
 11
692.3895
 21
639.8203
  0
LINE
  8
12_0C
  6
DASHED
 62
6
 10
700.3895
 20
639.5203
 11
692.3895
 21
639.5203
  0
LINE
  8
12_0C
  6
DASHED
 62
6
 10
700.3895
 20
639.8203
 11
700.3895
 21
639.5203
  0
LINE
  8
12_0C
  6
DASHED
 62
6
 10
700.3895
 20
639.5203
 11
698.3895
 21
637.5204
  0
LINE
  8
12_0C
  6
DASHED
 62
6
 10
692.3895
 20
639.8203
 11
692.3895
 21
639.5203
  0
LINE
  8
12_0C
  6
DASHED
 62
6
 10
692.3895
 20
639.5203
 11
694.3895
 21
637.5204
  0
LINE
  8
12_0C
  6
DASHED
 62
6
 10
682.3982
 20
634.7903
 11
682.3982
 21
633.8204
  0
LINE
  8
12_0C
  6
DASHED
 62
6
 10
689.3878
 20
634.7903
 11
689.3878
 21
633.8204
  0
LINE
  8
12_0C
  6
DASHED
 62
6
 10
683.8878
 20
633.8204
 11
683.8878
 21
613.6404
  0
LINE
  8
12_0C
  6
DASHED
 62
6
 10
684.3878
 20
633.8204
 11
684.3878
 21
603.8204
  0
LINE
  8
12_0C
  6
DASHED
 62
6
 10
687.8878
 20
633.8204
 11
687.8878
 21
613.6404
  0
LINE
  8
12_0C
  6
DASHED
 62
6
 10
687.3878
 20
633.8204
 11
687.3878
 21
603.8204
  0
LINE
  8
12_0C
  6
DASHED
 62
6
 10
683.8878
 20
613.6404
 11
684.3878
 21
609.2585
  0
LINE
  8
12_0C
  6
DASHED
 62
6
 10
687.8878
 20
613.6404
 11
687.3878
 21
609.2585
  0
LINE
  8
12_0C
  6
DASHED
 62
6
 10
684.3878
 20
603.8204
 11
687.3878
 21
603.8204
  0
LINE
  8
12_0C
  6
DASHED
 62
6
 10
687.8878
 20
613.6404
 11
684.3878
 21
609.2585
  0
LINE
  8
12_0C
  6
DASHED
 62
6
 10
703.3981
 20
634.7903
 11
703.3981
 21
633.8204
  0
LINE
  8
12_0C
  6
DASHED
 62
6
 10
710.3878
 20
634.7903
 11
710.3878
 21
633.8204
  0
LINE
  8
12_0C
  6
DASHED
 62
6
 10
704.8878
 20
633.8204
 11
704.8878
 21
613.6404
  0
LINE
  8
12_0C
  6
DASHED
 62
6
 10
705.3878
 20
633.8204
 11
705.3878
 21
603.8204
  0
LINE
  8
12_0C
  6
DASHED
 62
6
 10
708.8878
 20
633.8204
 11
708.8878
 21
613.6404
  0
LINE
  8
12_0C
  6
DASHED
 62
6
 10
708.3878
 20
633.8204
 11
708.3878
 21
603.8204
  0
LINE
  8
12_0C
  6
DASHED
 62
6
 10
704.8878
 20
613.6404
 11
705.3878
 21
609.2585
  0
LINE
  8
12_0C
  6
DASHED
 62
6
 10
708.8878
 20
613.6404
 11
708.3878
 21
609.2585
  0
LINE
  8
12_0C
  6
DASHED
 62
6
 10
705.3878
 20
603.8204
 11
708.3878
 21
603.8204
  0
LINE
  8
12_0C
  6
DASHED
 62
6
 10
708.8878
 20
613.6404
 11
705.3878
 21
609.2585
  0
LINE
  8
0_00
  6
DASHED
 62
6
 10
849.2786
 20
655.8203
 11
847.2387
 21
654.2572
  0
LINE
  8
0_00
  6
DASHED
 62
6
 10
847.2785
 20
630.8203
 11
847.2785
 21
654.2572
  0
LINE
  8
0_00
  6
DASHED
 62
6
 10
849.2786
 20
655.8203
 11
851.2786
 21
654.2877
  0
LINE
  8
0_00
  6
DASHED
 62
6
 10
851.2786
 20
630.8203
 11
851.2786
 21
654.2877
  0
LINE
  8
0_00
  6
DASHED
 62
6
 10
850.7285
 20
630.8203
 11
850.7285
 21
651.9248
  0
LINE
  8
0_00
  6
DASHED
 62
6
 10
847.8285
 20
630.8203
 11
847.8285
 21
651.1477
  0
LINE
  8
0_00
  6
DASHED
 62
6
 10
853.4285
 20
630.8203
 11
845.1285
 21
630.8203
  0
LINE
  8
0_00
  6
CONTINUOUS
 62
2
 10
845.2773
 20
629.1204
 11
853.2798
 21
629.1204
  0
LINE
  8
0_00
  6
DASHED
 62
6
 10
849.2786
 20
655.8203
 11
847.2785
 21
651.0004
  0
LINE
  8
0_00
  6
DASHED
 62
6
 10
847.2785
 20
651.0004
 11
851.2786
 21
652.0721
  0
LINE
  8
0_00
  6
DASHED
 62
6
 10
853.2973
 20
629.3203
 11
853.4285
 21
630.8203
  0
LINE
  8
0_00
  6
CONTINUOUS
 62
2
 10
853.2973
 20
629.3203
 11
853.2798
 21
629.1204
  0
LINE
  8
0_00
  6
DASHED
 62
6
 10
845.2598
 20
629.3203
 11
845.1285
 21
630.8203
  0
LINE
  8
0_00
  6
CONTINUOUS
 62
2
 10
845.2598
 20
629.3203
 11
845.2773
 21
629.1204
  0
LINE
  8
0_00
  6
CONTINUOUS
 62
4
 10
914.2234
 20
668.8424
 11
914.2234
 21
630.8203
  0
LINE
  8
0_00
  6
CONTINUOUS
 62
4
 10
917.7233
 20
640.8203
 11
925.9233
 21
640.8203
  0
LINE
  8
0_00
  6
CONTINUOUS
 62
4
 10
926.5233
 20
640.8203
 11
943.9233
 21
640.8203
  0
LINE
  8
0_00
  6
CONTINUOUS
 62
4
 10
944.2233
 20
641.1204
 11
943.9233
 21
640.8203
  0
LINE
  8
0_00
  6
CONTINUOUS
 62
4
 10
926.2234
 20
641.1204
 11
925.9233
 21
640.8203
  0
LINE
  8
0_00
  6
CONTINUOUS
 62
4
 10
926.2234
 20
641.1204
 11
926.5233
 21
640.8203
  0
LINE
  8
0_00
  6
CONTINUOUS
 62
4
 10
917.2234
 20
668.8424
 11
917.2234
 21
644.8203
  0
LINE
  8
0_00
  6
CONTINUOUS
 62
4
 10
917.2234
 20
640.3203
 11
917.2234
 21
630.8203
  0
LINE
  8
0_00
  6
CONTINUOUS
 62
4
 10
974.2234
 20
668.8424
 11
974.2234
 21
630.8203
  0
LINE
  8
0_00
  6
CONTINUOUS
 62
4
 10
970.7233
 20
640.8203
 11
962.5234
 21
640.8203
  0
LINE
  8
0_00
  6
CONTINUOUS
 62
4
 10
961.9233
 20
640.8203
 11
944.5234
 21
640.8203
  0
LINE
  8
0_00
  6
CONTINUOUS
 62
4
 10
944.2233
 20
641.1204
 11
944.5234
 21
640.8203
  0
LINE
  8
0_00
  6
CONTINUOUS
 62
4
 10
962.2234
 20
641.1204
 11
962.5234
 21
640.8203
  0
LINE
  8
0_00
  6
CONTINUOUS
 62
4
 10
962.2234
 20
641.1204
 11
961.9233
 21
640.8203
  0
LINE
  8
0_00
  6
CONTINUOUS
 62
4
 10
971.2234
 20
668.8424
 11
971.2234
 21
644.8203
  0
LINE
  8
0_00
  6
CONTINUOUS
 62
4
 10
971.2234
 20
640.3203
 11
971.2234
 21
630.8203
  0
LINE
  8
0_00
  6
CONTINUOUS
 62
4
 10
970.7233
 20
644.3203
 11
917.7233
 21
644.3203
  0
LINE
  8
0_00
  6
CONTINUOUS
 62
2
 10
962.2234
 20
655.8203
 11
960.1837
 21
654.2572
  0
LINE
  8
0_00
  6
CONTINUOUS
 62
2
 10
962.2234
 20
655.8203
 11
964.2233
 21
654.2877
  0
LINE
  8
0_00
  6
CONTINUOUS
 62
2
 10
966.3733
 20
630.8203
 11
958.0733
 21
630.8203
  0
LINE
  8
0_00
  6
CONTINUOUS
 62
2
 10
958.2220
 20
629.1204
 11
966.2246
 21
629.1204
  0
LINE
  8
0_00
  6
CONTINUOUS
 62
2
 10
962.2234
 20
655.8203
 11
960.2233
 21
651.0004
  0
LINE
  8
0_00
  6
CONTINUOUS
 62
2
 10
960.2233
 20
651.0004
 11
964.2233
 21
652.0721
  0
LINE
  8
0_00
  6
CONTINUOUS
 62
2
 10
966.3733
 20
630.8203
 11
966.2246
 21
629.1204
  0
LINE
  8
0_00
  6
CONTINUOUS
 62
2
 10
958.0733
 20
630.8203
 11
958.2220
 21
629.1204
  0
LINE
  8
0_00
  6
CONTINUOUS
 62
2
 10
964.2233
 20
644.3203
 11
964.2233
 21
654.2877
  0
LINE
  8
0_00
  6
DASHED
 62
6
 10
964.2233
 20
644.3203
 11
964.2233
 21
640.8203
  0
LINE
  8
0_00
  6
CONTINUOUS
 62
2
 10
963.6734
 20
644.3203
 11
963.6734
 21
651.9248
  0
LINE
  8
0_00
  6
DASHED
 62
6
 10
963.6734
 20
644.3203
 11
963.6734
 21
640.8203
  0
LINE
  8
0_00
  6
CONTINUOUS
 62
2
 10
960.7733
 20
644.3203
 11
960.7733
 21
651.1477
  0
LINE
  8
0_00
  6
DASHED
 62
6
 10
960.7733
 20
644.3203
 11
960.7733
 21
640.8203
  0
LINE
  8
0_00
  6
CONTINUOUS
 62
2
 10
960.2233
 20
644.3203
 11
960.2233
 21
654.2572
  0
LINE
  8
0_00
  6
DASHED
 62
6
 10
960.2233
 20
644.3203
 11
960.2233
 21
640.8203
  0
LINE
  8
0_00
  6
CONTINUOUS
 62
2
 10
964.2233
 20
633.8204
 11
964.2233
 21
640.8203
  0
LINE
  8
0_00
  6
DASHED
 62
6
 10
964.2233
 20
633.8204
 11
964.2233
 21
630.8203
  0
LINE
  8
0_00
  6
CONTINUOUS
 62
2
 10
963.6734
 20
633.8204
 11
963.6734
 21
640.8203
  0
LINE
  8
0_00
  6
DASHED
 62
6
 10
963.6734
 20
633.8204
 11
963.6734
 21
630.8203
  0
LINE
  8
0_00
  6
CONTINUOUS
 62
2
 10
960.7733
 20
633.8204
 11
960.7733
 21
640.8203
  0
LINE
  8
0_00
  6
DASHED
 62
6
 10
960.7733
 20
633.8204
 11
960.7733
 21
630.8203
  0
LINE
  8
0_00
  6
CONTINUOUS
 62
2
 10
960.2233
 20
633.8204
 11
960.2233
 21
640.8203
  0
LINE
  8
0_00
  6
DASHED
 62
6
 10
960.2233
 20
633.8204
 11
960.2233
 21
630.8203
  0
LINE
  8
0_00
  6
CONTINUOUS
 62
2
 10
926.2234
 20
655.8203
 11
924.1836
 21
654.2572
  0
LINE
  8
0_00
  6
CONTINUOUS
 62
2
 10
926.2234
 20
655.8203
 11
928.2233
 21
654.2877
  0
LINE
  8
0_00
  6
CONTINUOUS
 62
2
 10
930.3733
 20
630.8203
 11
922.0733
 21
630.8203
  0
LINE
  8
0_00
  6
CONTINUOUS
 62
2
 10
922.2220
 20
629.1204
 11
930.2247
 21
629.1204
  0
LINE
  8
0_00
  6
CONTINUOUS
 62
2
 10
926.2234
 20
655.8203
 11
924.2234
 21
651.0004
  0
LINE
  8
0_00
  6
CONTINUOUS
 62
2
 10
924.2234
 20
651.0004
 11
928.2233
 21
652.0721
  0
LINE
  8
0_00
  6
CONTINUOUS
 62
2
 10
930.3733
 20
630.8203
 11
930.2247
 21
629.1204
  0
LINE
  8
0_00
  6
CONTINUOUS
 62
2
 10
922.0733
 20
630.8203
 11
922.2220
 21
629.1204
  0
LINE
  8
0_00
  6
CONTINUOUS
 62
2
 10
928.2233
 20
644.3203
 11
928.2233
 21
654.2877
  0
LINE
  8
0_00
  6
DASHED
 62
6
 10
928.2233
 20
644.3203
 11
928.2233
 21
640.8203
  0
LINE
  8
0_00
  6
CONTINUOUS
 62
2
 10
927.6734
 20
644.3203
 11
927.6734
 21
651.9248
  0
LINE
  8
0_00
  6
DASHED
 62
6
 10
927.6734
 20
644.3203
 11
927.6734
 21
640.8203
  0
LINE
  8
0_00
  6
CONTINUOUS
 62
2
 10
924.7733
 20
644.3203
 11
924.7733
 21
651.1477
  0
LINE
  8
0_00
  6
DASHED
 62
6
 10
924.7733
 20
644.3203
 11
924.7733
 21
640.8203
  0
LINE
  8
0_00
  6
CONTINUOUS
 62
2
 10
924.2234
 20
644.3203
 11
924.2234
 21
654.2572
  0
LINE
  8
0_00
  6
DASHED
 62
6
 10
924.2234
 20
644.3203
 11
924.2234
 21
640.8203
  0
LINE
  8
0_00
  6
CONTINUOUS
 62
2
 10
928.2233
 20
633.8204
 11
928.2233
 21
640.8203
  0
LINE
  8
0_00
  6
DASHED
 62
6
 10
928.2233
 20
633.8204
 11
928.2233
 21
630.8203
  0
LINE
  8
0_00
  6
CONTINUOUS
 62
2
 10
927.6734
 20
633.8204
 11
927.6734
 21
640.8203
  0
LINE
  8
0_00
  6
DASHED
 62
6
 10
927.6734
 20
633.8204
 11
927.6734
 21
630.8203
  0
LINE
  8
0_00
  6
CONTINUOUS
 62
2
 10
924.7733
 20
633.8204
 11
924.7733
 21
640.8203
  0
LINE
  8
0_00
  6
DASHED
 62
6
 10
924.7733
 20
633.8204
 11
924.7733
 21
630.8203
  0
LINE
  8
0_00
  6
CONTINUOUS
 62
2
 10
924.2234
 20
633.8204
 11
924.2234
 21
640.8203
  0
LINE
  8
0_00
  6
DASHED
 62
6
 10
924.2234
 20
633.8204
 11
924.2234
 21
630.8203
  0
LINE
  8
0_00
  6
CONTINUOUS
 62
4
 10
918.2233
 20
630.8203
 11
925.9233
 21
630.8203
  0
LINE
  8
0_00
  6
CONTINUOUS
 62
4
 10
926.5233
 20
630.8203
 11
931.5233
 21
630.8203
  0
LINE
  8
0_00
  6
CONTINUOUS
 62
4
 10
944.2233
 20
632.6204
 11
943.9233
 21
632.3204
  0
LINE
  8
0_00
  6
CONTINUOUS
 62
4
 10
917.7233
 20
639.8203
 11
917.7233
 21
631.3203
  0
LINE
  8
0_00
  6
CONTINUOUS
 62
4
 10
920.7233
 20
640.3203
 11
920.7233
 21
634.3203
  0
LINE
  8
0_00
  6
CONTINUOUS
 62
4
 10
918.7233
 20
640.8203
 11
920.2233
 21
640.8203
  0
LINE
  8
0_00
  6
CONTINUOUS
 62
4
 10
926.2234
 20
631.1204
 11
925.9233
 21
630.8203
  0
LINE
  8
0_00
  6
CONTINUOUS
 62
4
 10
926.2234
 20
631.1204
 11
926.5233
 21
630.8203
  0
LINE
  8
0_00
  6
CONTINUOUS
 62
4
 10
931.9233
 20
632.3204
 11
943.9233
 21
632.3204
  0
LINE
  8
0_00
  6
CONTINUOUS
 62
4
 10
921.2234
 20
633.8204
 11
929.2185
 21
633.8204
  0
LINE
  8
0_00
  6
CONTINUOUS
 62
4
 10
931.9233
 20
632.3204
 11
931.5233
 21
630.8203
  0
LINE
  8
0_00
  6
CONTINUOUS
 62
4
 10
929.6185
 20
635.3204
 11
929.2185
 21
633.8204
  0
LINE
  8
0_00
  6
CONTINUOUS
 62
4
 10
970.2233
 20
630.8203
 11
962.5234
 21
630.8203
  0
LINE
  8
0_00
  6
CONTINUOUS
 62
4
 10
961.9233
 20
630.8203
 11
956.9234
 21
630.8203
  0
LINE
  8
0_00
  6
CONTINUOUS
 62
4
 10
944.2233
 20
632.6204
 11
944.5234
 21
632.3204
  0
LINE
  8
0_00
  6
CONTINUOUS
 62
4
 10
970.7233
 20
639.8203
 11
970.7233
 21
631.3203
  0
LINE
  8
0_00
  6
CONTINUOUS
 62
4
 10
967.7234
 20
640.3203
 11
967.7234
 21
634.3203
  0
LINE
  8
0_00
  6
CONTINUOUS
 62
4
 10
969.7234
 20
640.8203
 11
968.2233
 21
640.8203
  0
LINE
  8
0_00
  6
CONTINUOUS
 62
4
 10
962.2234
 20
631.1204
 11
962.5234
 21
630.8203
  0
LINE
  8
0_00
  6
CONTINUOUS
 62
4
 10
962.2234
 20
631.1204
 11
961.9233
 21
630.8203
  0
LINE
  8
0_00
  6
CONTINUOUS
 62
4
 10
956.5233
 20
632.3204
 11
944.5234
 21
632.3204
  0
LINE
  8
0_00
  6
CONTINUOUS
 62
4
 10
967.2233
 20
633.8204
 11
959.2282
 21
633.8204
  0
LINE
  8
0_00
  6
CONTINUOUS
 62
4
 10
956.5233
 20
632.3204
 11
956.9234
 21
630.8203
  0
LINE
  8
0_00
  6
CONTINUOUS
 62
4
 10
958.8281
 20
635.3204
 11
929.6185
 21
635.3204
  0
LINE
  8
0_00
  6
CONTINUOUS
 62
4
 10
958.8281
 20
635.3204
 11
959.2282
 21
633.8204
  0
ARC
  8
16_10
  6
CENTER1
 62
6
 10
1135.9263
 20
244.0668
 40
150.0075
 50
81.0553
 51
180.0000
  0
ARC
  8
16_10
  6
CONTINUOUS
 62
6
 10
1135.9263
 20
244.0668
 40
14.1248
 50
0.0000
 51
180.0000
  0
ARC
  8
0_00
  6
CONTINUOUS
 62
2
 10
398.1844
 20
448.3203
 40
4.0000
 50
0.0000
 51
90.0000
  0
ARC
  8
0_00
  6
CONTINUOUS
 62
2
 10
398.1844
 20
448.3203
 40
6.0000
 50
0.0000
 51
90.0000
  0
ARC
  8
0_00
  6
CONTINUOUS
 62
2
 10
398.1844
 20
448.3203
 40
8.0000
 50
0.0000
 51
90.0000
  0
ARC
  8
0_00
  6
CONTINUOUS
 62
2
 10
398.1844
 20
448.3203
 40
2.0000
 50
0.0000
 51
90.0000
  0
ARC
  8
0_00
  6
CONTINUOUS
 62
2
 10
309.1844
 20
448.3203
 40
8.0000
 50
90.0000
 51
180.0000
  0
ARC
  8
3_03
  6
CONTINUOUS
 62
4
 10
418.1845
 20
417.3203
 40
1.7000
 50
270.0000
 51
287.1046
  0
ARC
  8
3_03
  6
CONTINUOUS
 62
4
 10
411.2548
 20
455.8203
 40
0.5000
 50
8.6615
 51
90.0000
  0
ARC
  8
3_03
  6
CONTINUOUS
 62
4
 10
406.2844
 20
471.1601
 40
0.3000
 50
88.0908
 51
180.0000
  0
ARC
  8
3_03
  6
CONTINUOUS
 62
4
 10
410.9491
 20
471.0047
 40
0.3000
 50
14.2371
 51
88.0908
  0
ARC
  8
0_00
  6
CONTINUOUS
 62
4
 10
411.2347
 20
460.1203
 40
0.5000
 50
270.0000
 51
374.2371
  0
ARC
  8
0_00
  6
CONTINUOUS
 62
4
 10
406.4844
 20
469.7527
 40
0.5000
 50
180.0000
 51
268.0909
  0
ARC
  8
0_00
  6
CONTINUOUS
 62
4
 10
655.7117
 20
-452.8191
 40
734.1667
 50
82.8516
 51
97.1483
  0
ARC
  8
0_00
  6
CONTINUOUS
 62
4
 10
655.7117
 20
-452.8191
 40
599.1667
 50
81.2295
 51
98.7705
  0
ARC
  8
0_00
  6
CONTINUOUS
 62
4
 10
655.7117
 20
-452.8191
 40
732.8666
 50
82.8516
 51
97.1483
  0
ARC
  8
0_00
  6
CONTINUOUS
 62
4
 10
655.7117
 20
-452.8191
 40
600.4666
 50
81.2295
 51
98.7705
  0
ARC
  8
0_00
  6
CONTINUOUS
 62
2
 10
660.0116
 20
220.0975
 40
1.5000
 50
28.3593
 51
90.0000
  0
ARC
  8
0_00
  6
CONTINUOUS
 62
2
 10
652.7130
 20
220.2475
 40
0.3000
 50
327.6418
 51
450.0000
  0
ARC
  8
0_00
  6
CONTINUOUS
 62
2
 10
658.7105
 20
220.2475
 40
0.3000
 50
90.0000
 51
212.3582
  0
ARC
  8
0_00
  6
CONTINUOUS
 62
2
 10
660.0435
 20
220.2475
 40
0.3000
 50
29.0222
 51
90.0000
  0
ARC
  8
0_00
  6
CONTINUOUS
 62
2
 10
651.2117
 20
215.3475
 40
11.5000
 50
0.0000
 51
28.3593
  0
ARC
  8
0_00
  6
CONTINUOUS
 62
2
 10
655.7117
 20
218.3475
 40
1.7000
 50
116.1790
 51
153.8210
  0
ARC
  8
0_00
  6
CONTINUOUS
 62
2
 10
655.7117
 20
218.3475
 40
1.7000
 50
206.1790
 51
228.7491
  0
ARC
  8
0_00
  6
CONTINUOUS
 62
2
 10
655.7117
 20
218.3475
 40
1.7000
 50
311.2509
 51
333.8210
  0
ARC
  8
0_00
  6
CONTINUOUS
 62
2
 10
655.7117
 20
218.3475
 40
1.7000
 50
26.1790
 51
63.8210
  0
ARC
  8
0_00
  6
CONTINUOUS
 62
2
 10
655.7117
 20
218.3475
 40
3.2500
 50
343.3984
 51
392.3582
  0
ARC
  8
0_00
  6
CONTINUOUS
 62
2
 10
657.3888
 20
217.8475
 40
1.5000
 50
270.0000
 51
343.3984
  0
ARC
  8
0_00
  6
CONTINUOUS
 62
2
 10
655.7117
 20
218.3475
 40
3.2500
 50
147.6418
 51
196.6015
  0
ARC
  8
0_00
  6
CONTINUOUS
 62
2
 10
654.0347
 20
217.8475
 40
1.5000
 50
196.6015
 51
270.0000
  0
ARC
  8
0_00
  6
CONTINUOUS
 62
2
 10
654.3191
 20
216.7596
 40
0.4121
 50
270.0000
 51
408.7491
  0
ARC
  8
0_00
  6
CONTINUOUS
 62
2
 10
657.1044
 20
216.7596
 40
0.4121
 50
131.2509
 51
270.0000
  0
ARC
  8
0_00
  6
CONTINUOUS
 62
2
 10
651.2117
 20
215.3475
 40
10.4000
 50
0.0000
 51
29.0222
  0
ARC
  8
0_00
  6
CONTINUOUS
 62
2
 10
651.4118
 20
220.0975
 40
1.5000
 50
90.0000
 51
151.6406
  0
ARC
  8
0_00
  6
CONTINUOUS
 62
2
 10
651.3799
 20
220.2475
 40
0.3000
 50
90.0000
 51
150.9778
  0
ARC
  8
0_00
  6
CONTINUOUS
 62
2
 10
660.2117
 20
215.3475
 40
11.5000
 50
151.6406
 51
180.0000
  0
ARC
  8
0_00
  6
CONTINUOUS
 62
2
 10
660.2117
 20
215.3475
 40
10.4000
 50
150.9778
 51
180.0000
  0
ARC
  8
0_00
  6
CONTINUOUS
 62
2
 10
660.0116
 20
207.5975
 40
1.5000
 50
270.0000
 51
331.6407
  0
ARC
  8
0_00
  6
CONTINUOUS
 62
2
 10
652.7130
 20
207.4475
 40
0.3000
 50
270.0000
 51
392.3582
  0
ARC
  8
0_00
  6
CONTINUOUS
 62
2
 10
658.7105
 20
207.4475
 40
0.3000
 50
147.6418
 51
270.0000
  0
ARC
  8
0_00
  6
CONTINUOUS
 62
2
 10
660.0435
 20
207.4475
 40
0.3000
 50
270.0000
 51
330.9778
  0
ARC
  8
0_00
  6
CONTINUOUS
 62
2
 10
651.2117
 20
212.3475
 40
11.5000
 50
331.6407
 51
360.0000
  0
ARC
  8
0_00
  6
CONTINUOUS
 62
2
 10
655.7117
 20
209.3475
 40
1.7000
 50
206.1790
 51
243.8210
  0
ARC
  8
0_00
  6
CONTINUOUS
 62
2
 10
655.7117
 20
209.3475
 40
1.7000
 50
131.2509
 51
153.8210
  0
ARC
  8
0_00
  6
CONTINUOUS
 62
2
 10
655.7117
 20
209.3475
 40
1.7000
 50
26.1790
 51
48.7491
  0
ARC
  8
0_00
  6
CONTINUOUS
 62
2
 10
655.7117
 20
209.3475
 40
1.7000
 50
296.1790
 51
333.8210
  0
ARC
  8
0_00
  6
CONTINUOUS
 62
2
 10
655.7117
 20
209.3475
 40
3.2500
 50
327.6418
 51
376.6016
  0
ARC
  8
0_00
  6
CONTINUOUS
 62
2
 10
657.3888
 20
209.8475
 40
1.5000
 50
16.6015
 51
90.0000
  0
ARC
  8
0_00
  6
CONTINUOUS
 62
2
 10
655.7117
 20
209.3475
 40
3.2500
 50
163.3985
 51
212.3582
  0
ARC
  8
0_00
  6
CONTINUOUS
 62
2
 10
654.0347
 20
209.8475
 40
1.5000
 50
90.0000
 51
163.3985
  0
ARC
  8
0_00
  6
CONTINUOUS
 62
2
 10
654.3191
 20
210.9355
 40
0.4121
 50
311.2509
 51
450.0000
  0
ARC
  8
0_00
  6
CONTINUOUS
 62
2
 10
657.1044
 20
210.9355
 40
0.4121
 50
90.0000
 51
228.7491
  0
ARC
  8
0_00
  6
CONTINUOUS
 62
2
 10
651.2117
 20
212.3475
 40
10.4000
 50
330.9778
 51
360.0000
  0
ARC
  8
0_00
  6
CONTINUOUS
 62
2
 10
651.4118
 20
207.5975
 40
1.5000
 50
208.3594
 51
270.0000
  0
ARC
  8
0_00
  6
CONTINUOUS
 62
2
 10
651.3799
 20
207.4475
 40
0.3000
 50
209.0222
 51
270.0000
  0
ARC
  8
0_00
  6
CONTINUOUS
 62
2
 10
660.2117
 20
212.3475
 40
11.5000
 50
180.0000
 51
208.3594
  0
ARC
  8
0_00
  6
CONTINUOUS
 62
2
 10
660.2117
 20
212.3475
 40
10.4000
 50
180.0000
 51
209.0222
  0
CIRCLE
  8
0_00
  6
CONTINUOUS
 62
2
 10
655.7117
 20
218.3475
 40
2.0000
  0
CIRCLE
  8
0_00
  6
CONTINUOUS
 62
2
 10
655.7117
 20
209.3475
 40
2.0000
  0
ARC
  8
0_00
  6
CONTINUOUS
 62
4
 10
677.7117
 20
213.8475
 40
4.2500
 50
270.0000
 51
450.0000
  0
ARC
  8
0_00
  6
CONTINUOUS
 62
4
 10
633.7117
 20
213.8475
 40
4.2500
 50
90.0000
 51
270.0000
  0
ARC
  8
0_00
  6
CONTINUOUS
 62
4
 10
682.7117
 20
164.8475
 40
3.0000
 50
270.0000
 51
360.0000
  0
ARC
  8
0_00
  6
CONTINUOUS
 62
4
 10
682.7117
 20
262.8475
 40
3.0000
 50
0.0000
 51
90.0000
  0
ARC
  8
0_00
  6
CONTINUOUS
 62
4
 10
628.7117
 20
164.8475
 40
3.0000
 50
180.0000
 51
270.0000
  0
ARC
  8
0_00
  6
CONTINUOUS
 62
4
 10
628.7117
 20
262.8475
 40
3.0000
 50
90.0000
 51
180.0000
  0
CIRCLE
  8
0_00
  6
CONTINUOUS
 62
2
 10
655.7118
 20
218.3467
 40
2.2500
  0
CIRCLE
  8
0_00
  6
CONTINUOUS
 62
2
 10
655.7118
 20
209.3467
 40
2.2500
  0
CIRCLE
  8
0_00
  6
CONTINUOUS
 62
4
 10
677.7117
 20
213.8475
 40
4.5000
  0
CIRCLE
  8
0_00
  6
CONTINUOUS
 62
4
 10
633.7117
 20
213.8475
 40
4.5000
  0
ARC
  8
0_00
  6
CONTINUOUS
 62
2
 10
636.9618
 20
241.8475
 40
2.4500
 50
45.0000
 51
58.5444
  0
ARC
  8
0_00
  6
CONTINUOUS
 62
2
 10
636.9618
 20
241.8475
 40
2.4500
 50
121.3667
 51
135.0000
  0
ARC
  8
0_00
  6
CONTINUOUS
 62
2
 10
636.9618
 20
241.8475
 40
2.4500
 50
211.4556
 51
225.0000
  0
ARC
  8
0_00
  6
CONTINUOUS
 62
2
 10
636.9618
 20
241.8475
 40
2.4500
 50
135.0000
 51
148.6333
  0
ARC
  8
0_00
  6
CONTINUOUS
 62
2
 10
636.9618
 20
241.8475
 40
2.4500
 50
31.4556
 51
45.0000
  0
ARC
  8
0_00
  6
CONTINUOUS
 62
2
 10
636.9618
 20
241.8475
 40
2.4500
 50
315.0000
 51
328.6334
  0
ARC
  8
0_00
  6
CONTINUOUS
 62
2
 10
636.9618
 20
241.8475
 40
2.4500
 50
225.0000
 51
238.5444
  0
ARC
  8
0_00
  6
CONTINUOUS
 62
2
 10
636.9618
 20
241.8475
 40
2.4500
 50
301.3667
 51
315.0000
  0
CIRCLE
  8
0_00
  6
CONTINUOUS
 62
2
 10
636.9618
 20
241.8475
 40
5.9000
  0
ARC
  8
0_00
  6
CONTINUOUS
 62
2
 10
674.4618
 20
185.8475
 40
2.4500
 50
225.0000
 51
238.5444
  0
ARC
  8
0_00
  6
CONTINUOUS
 62
2
 10
674.4618
 20
185.8475
 40
2.4500
 50
301.3667
 51
315.0000
  0
ARC
  8
0_00
  6
CONTINUOUS
 62
2
 10
674.4618
 20
185.8475
 40
2.4500
 50
31.4556
 51
45.0000
  0
ARC
  8
0_00
  6
CONTINUOUS
 62
2
 10
674.4618
 20
185.8475
 40
2.4500
 50
315.0000
 51
328.6334
  0
ARC
  8
0_00
  6
CONTINUOUS
 62
2
 10
674.4618
 20
185.8475
 40
2.4500
 50
211.4556
 51
225.0000
  0
ARC
  8
0_00
  6
CONTINUOUS
 62
2
 10
674.4618
 20
185.8475
 40
2.4500
 50
135.0000
 51
148.6333
  0
ARC
  8
0_00
  6
CONTINUOUS
 62
2
 10
674.4618
 20
185.8475
 40
2.4500
 50
45.0000
 51
58.5444
  0
ARC
  8
0_00
  6
CONTINUOUS
 62
2
 10
674.4618
 20
185.8475
 40
2.4500
 50
121.3667
 51
135.0000
  0
CIRCLE
  8
0_00
  6
CONTINUOUS
 62
2
 10
674.4618
 20
185.8475
 40
5.9000
  0
ARC
  8
0_00
  6
CONTINUOUS
 62
2
 10
655.7117
 20
-452.8191
 40
614.1667
 50
81.4606
 51
87.2002
  0
ARC
  8
0_00
  6
CONTINUOUS
 62
2
 10
655.7117
 20
-452.8191
 40
614.1667
 50
92.7998
 51
98.5546
  0
ARC
  8
0_00
  6
CONTINUOUS
 62
2
 10
655.7117
 20
-452.8191
 40
719.1667
 50
82.7147
 51
87.6092
  0
ARC
  8
0_00
  6
CONTINUOUS
 62
2
 10
655.7117
 20
-452.8191
 40
719.1667
 50
92.3908
 51
97.2982
  0
ARC
  8
0_00
  6
CONTINUOUS
 62
4
 10
628.7117
 20
262.8475
 40
3.0000
 50
90.0000
 51
180.0000
  0
ARC
  8
0_00
  6
CONTINUOUS
 62
4
 10
682.7117
 20
262.8475
 40
3.0000
 50
0.0000
 51
90.0000
  0
ARC
  8
0_00
  6
CONTINUOUS
 62
4
 10
643.2117
 20
234.8475
 40
1.0000
 50
180.0000
 51
270.0000
  0
ARC
  8
0_00
  6
CONTINUOUS
 62
4
 10
640.2117
 20
249.3475
 40
2.0000
 50
0.0000
 51
90.0000
  0
ARC
  8
0_00
  6
CONTINUOUS
 62
4
 10
628.7117
 20
248.3475
 40
3.0000
 50
90.0000
 51
180.0000
  0
ARC
  8
0_00
  6
CONTINUOUS
 62
4
 10
668.2117
 20
234.8475
 40
1.0000
 50
270.0000
 51
360.0000
  0
ARC
  8
0_00
  6
CONTINUOUS
 62
4
 10
671.2117
 20
249.3475
 40
2.0000
 50
90.0000
 51
180.0000
  0
ARC
  8
0_00
  6
CONTINUOUS
 62
4
 10
682.7117
 20
248.3475
 40
3.0000
 50
0.0000
 51
90.0000
  0
ARC
  8
0_00
  6
CONTINUOUS
 62
4
 10
668.7117
 20
231.3475
 40
3.0000
 50
83.2308
 51
90.0000
  0
ARC
  8
0_00
  6
CONTINUOUS
 62
4
 10
642.7117
 20
231.3475
 40
3.0000
 50
90.0000
 51
96.7692
  0
CIRCLE
  8
0_00
  6
CONTINUOUS
 62
4
 10
677.7117
 20
228.8475
 40
2.7500
  0
ARC
  8
0_00
  6
CONTINUOUS
 62
4
 10
633.9618
 20
241.8475
 40
3.2500
 50
141.4370
 51
218.5630
  0
ARC
  8
0_00
  6
CONTINUOUS
 62
4
 10
641.2118
 20
246.0975
 40
1.0000
 50
303.8965
 51
360.0000
  0
ARC
  8
0_00
  6
CONTINUOUS
 62
4
 10
641.2118
 20
237.5975
 40
1.0000
 50
0.0000
 51
56.1035
  0
ARC
  8
0_00
  6
CONTINUOUS
 62
4
 10
639.7118
 20
241.8475
 40
3.5000
 50
321.1774
 51
398.8226
  0
ARC
  8
0_00
  6
CONTINUOUS
 62
4
 10
677.4618
 20
241.8475
 40
3.2500
 50
270.0000
 51
450.0000
  0
ARC
  8
0_00
  6
CONTINUOUS
 62
4
 10
670.2117
 20
246.0975
 40
1.0000
 50
180.0000
 51
270.0000
  0
ARC
  8
0_00
  6
CONTINUOUS
 62
4
 10
670.2117
 20
237.5975
 40
1.0000
 50
90.0000
 51
180.0000
  0
ARC
  8
0_00
  6
CONTINUOUS
 62
4
 10
671.7117
 20
241.8475
 40
3.5000
 50
111.7868
 51
248.2132
  0
ARC
  8
0_00
  6
CONTINUOUS
 62
4
 10
643.2117
 20
192.8475
 40
1.0000
 50
90.0000
 51
180.0000
  0
ARC
  8
0_00
  6
CONTINUOUS
 62
4
 10
640.2117
 20
178.3475
 40
2.0000
 50
270.0000
 51
360.0000
  0
ARC
  8
0_00
  6
CONTINUOUS
 62
4
 10
628.7117
 20
179.3475
 40
3.0000
 50
180.0000
 51
270.0000
  0
ARC
  8
0_00
  6
CONTINUOUS
 62
4
 10
642.7117
 20
196.3475
 40
3.0000
 50
263.2308
 51
270.0000
  0
ARC
  8
0_00
  6
CONTINUOUS
 62
4
 10
633.9618
 20
185.8475
 40
3.2500
 50
90.0000
 51
270.0000
  0
ARC
  8
0_00
  6
CONTINUOUS
 62
4
 10
641.2118
 20
181.5975
 40
1.0000
 50
0.0000
 51
90.0000
  0
ARC
  8
0_00
  6
CONTINUOUS
 62
4
 10
641.2118
 20
190.0975
 40
1.0000
 50
270.0000
 51
360.0000
  0
ARC
  8
0_00
  6
CONTINUOUS
 62
4
 10
639.7118
 20
185.8475
 40
3.5000
 50
291.7868
 51
428.2132
  0
ARC
  8
0_00
  6
CONTINUOUS
 62
4
 10
668.2117
 20
192.8475
 40
1.0000
 50
0.0000
 51
90.0000
  0
ARC
  8
0_00
  6
CONTINUOUS
 62
4
 10
668.7117
 20
196.3475
 40
3.0000
 50
270.0000
 51
276.7692
  0
ARC
  8
0_00
  6
CONTINUOUS
 62
4
 10
671.2117
 20
178.3475
 40
2.0000
 50
180.0000
 51
270.0000
  0
ARC
  8
0_00
  6
CONTINUOUS
 62
4
 10
682.7117
 20
179.3475
 40
3.0000
 50
270.0000
 51
360.0000
  0
ARC
  8
0_00
  6
CONTINUOUS
 62
4
 10
677.4618
 20
185.8475
 40
3.2500
 50
321.4370
 51
398.5630
  0
ARC
  8
0_00
  6
CONTINUOUS
 62
4
 10
670.2117
 20
181.5975
 40
1.0000
 50
123.8965
 51
180.0000
  0
ARC
  8
0_00
  6
CONTINUOUS
 62
4
 10
670.2117
 20
190.0975
 40
1.0000
 50
180.0000
 51
236.1035
  0
ARC
  8
0_00
  6
CONTINUOUS
 62
4
 10
671.7117
 20
185.8475
 40
3.5000
 50
141.1774
 51
218.8226
  0
ARC
  8
0_00
  6
CONTINUOUS
 62
3
 10
605.4862
 20
728.8150
 40
44.1391
 50
68.0487
 51
111.9513
  0
ARC
  8
0_00
  6
CENTER1
 62
6
 10
655.7117
 20
-452.8191
 40
666.6667
 50
81.2295
 51
83.7344
  0
ARC
  8
0_00
  6
CENTER1
 62
6
 10
655.7117
 20
-452.8191
 40
666.6667
 50
85.1373
 51
98.7705
  0
ARC
  8
0_00
  6
CONTINUOUS
 62
3
 10
794.3608
 20
728.8150
 40
44.1391
 50
68.0487
 51
111.9513
  0
ARC
  8
0_00
  6
CONTINUOUS
 62
3
 10
772.8341
 20
706.2553
 40
44.1391
 50
68.0487
 51
111.9513
  0
ARC
  8
16_10
  6
CONTINUOUS
 62
4
 10
913.3901
 20
254.2631
 40
0.1500
 50
0.0000
 51
85.7515
  0
ARC
  8
16_10
  6
CONTINUOUS
 62
4
 10
908.4399
 20
254.2631
 40
0.1500
 50
94.2484
 51
180.0000
  0
ARC
  8
16_10
  6
CONTINUOUS
 62
4
 10
913.3901
 20
233.8706
 40
0.1500
 50
274.2485
 51
360.0000
  0
ARC
  8
16_10
  6
CONTINUOUS
 62
4
 10
908.4399
 20
233.8706
 40
0.1500
 50
180.0000
 51
265.7516
  0
ARC
  8
16_10
  6
CONTINUOUS
 62
4
 10
996.5209
 20
323.0450
 40
0.1500
 50
61.3520
 51
147.1035
  0
ARC
  8
16_10
  6
CONTINUOUS
 62
4
 10
994.1477
 20
318.7008
 40
0.1500
 50
155.6004
 51
241.3520
  0
ARC
  8
16_10
  6
CONTINUOUS
 62
4
 10
1014.4171
 20
313.2682
 40
0.1500
 50
335.6005
 51
421.3520
  0
ARC
  8
16_10
  6
CONTINUOUS
 62
4
 10
1012.0438
 20
308.9240
 40
0.1500
 50
241.3520
 51
327.1035
  0
ARC
  8
16_10
  6
CONTINUOUS
 62
4
 10
1135.9263
 20
244.0668
 40
160.1330
 50
81.0553
 51
150.4127
  0
ARC
  8
16_10
  6
CONTINUOUS
 62
4
 10
1135.9263
 20
244.0668
 40
160.1330
 50
152.2913
 51
176.3747
  0
ARC
  8
16_10
  6
CONTINUOUS
 62
4
 10
1135.9263
 20
244.0668
 40
139.8820
 50
81.0553
 51
150.2767
  0
ARC
  8
16_10
  6
CONTINUOUS
 62
4
 10
1135.9263
 20
244.0668
 40
139.8820
 50
152.4273
 51
184.1510
  0
ARC
  8
16_10
  6
CONTINUOUS
 62
4
 10
1135.9263
 20
244.0668
 40
154.5075
 50
81.0553
 51
178.3310
  0
ARC
  8
16_10
  6
CONTINUOUS
 62
4
 10
1135.9263
 20
244.0668
 40
145.5075
 50
81.0553
 51
181.7722
  0
ARC
  8
0_00
  6
CONTINUOUS
 62
4
 10
680.8895
 20
481.3203
 40
0.5000
 50
90.0000
 51
180.0000
  0
ARC
  8
0_00
  6
CONTINUOUS
 62
4
 10
711.8896
 20
481.3203
 40
0.5000
 50
0.0000
 51
90.0000
  0
ARC
  8
0_00
  6
CONTINUOUS
 62
6
 10
353.6845
 20
455.2203
 40
7.7000
 50
39.9831
 51
140.0169
  0
ARC
  8
11_0B
  6
DASHED
 62
6
 10
350.3756
 20
443.4630
 40
0.3000
 50
175.0000
 51
255.0000
  0
ARC
  8
11_0B
  6
DASHED
 62
6
 10
350.0488
 20
439.7274
 40
0.3000
 50
175.0000
 51
255.0000
  0
ARC
  8
11_0B
  6
DASHED
 62
6
 10
349.7219
 20
435.9917
 40
0.3000
 50
175.0000
 51
255.0000
  0
ARC
  8
11_0B
  6
DASHED
 62
6
 10
349.3951
 20
432.2559
 40
0.3000
 50
175.0000
 51
255.0000
  0
ARC
  8
11_0B
  6
DASHED
 62
6
 10
349.2313
 20
428.6625
 40
0.4500
 50
175.0000
 51
205.0000
  0
ARC
  8
11_0B
  6
DASHED
 62
6
 10
356.9933
 20
443.4630
 40
0.3000
 50
285.0000
 51
365.0000
  0
ARC
  8
11_0B
  6
DASHED
 62
6
 10
357.3201
 20
439.7274
 40
0.3000
 50
285.0000
 51
365.0000
  0
ARC
  8
11_0B
  6
DASHED
 62
6
 10
357.6469
 20
435.9917
 40
0.3000
 50
285.0000
 51
365.0000
  0
ARC
  8
11_0B
  6
DASHED
 62
6
 10
357.9738
 20
432.2559
 40
0.3000
 50
285.0000
 51
365.0000
  0
ARC
  8
11_0B
  6
DASHED
 62
6
 10
358.1376
 20
428.6625
 40
0.4500
 50
335.0000
 51
365.0000
  0
ARC
  8
11_0B
  6
DASHED
 62
6
 10
350.5601
 20
430.0815
 40
0.1500
 50
265.0000
 51
355.0000
  0
ARC
  8
11_0B
  6
DASHED
 62
6
 10
356.8088
 20
430.0815
 40
0.1500
 50
185.0000
 51
275.0000
  0
ARC
  8
11_0B
  6
DASHED
 62
6
 10
350.8869
 20
433.8172
 40
0.1500
 50
265.0000
 51
355.0000
  0
ARC
  8
11_0B
  6
DASHED
 62
6
 10
356.4820
 20
433.8172
 40
0.1500
 50
185.0000
 51
275.0000
  0
ARC
  8
11_0B
  6
DASHED
 62
6
 10
351.2137
 20
437.5529
 40
0.1500
 50
265.0000
 51
355.0000
  0
ARC
  8
11_0B
  6
DASHED
 62
6
 10
356.1552
 20
437.5529
 40
0.1500
 50
185.0000
 51
275.0000
  0
ARC
  8
11_0B
  6
DASHED
 62
6
 10
351.5406
 20
441.2887
 40
0.1500
 50
265.0000
 51
355.0000
  0
ARC
  8
11_0B
  6
DASHED
 62
6
 10
355.8284
 20
441.2887
 40
0.1500
 50
185.0000
 51
275.0000
  0
ARC
  8
11_0B
  6
DASHED
 62
6
 10
351.4191
 20
445.0637
 40
0.1500
 50
265.0000
 51
355.0000
  0
ARC
  8
11_0B
  6
DASHED
 62
6
 10
355.9498
 20
445.0637
 40
0.1500
 50
185.0000
 51
275.0000
  0
ARC
  8
11_0B
  6
DASHED
 62
6
 10
356.8499
 20
431.3336
 40
0.3000
 50
105.0000
 51
185.0000
  0
ARC
  8
11_0B
  6
DASHED
 62
6
 10
350.6794
 20
431.4459
 40
0.1500
 50
355.0000
 51
435.0000
  0
ARC
  8
11_0B
  6
DASHED
 62
6
 10
356.5231
 20
435.0693
 40
0.3000
 50
105.0000
 51
185.0000
  0
ARC
  8
11_0B
  6
DASHED
 62
6
 10
350.8459
 20
435.0693
 40
0.3000
 50
355.0000
 51
435.0000
  0
ARC
  8
11_0B
  6
DASHED
 62
6
 10
356.1962
 20
438.8050
 40
0.3000
 50
105.0000
 51
185.0000
  0
ARC
  8
11_0B
  6
DASHED
 62
6
 10
351.1727
 20
438.8050
 40
0.3000
 50
355.0000
 51
435.0000
  0
ARC
  8
11_0B
  6
DASHED
 62
6
 10
355.8694
 20
442.5407
 40
0.3000
 50
105.0000
 51
185.0000
  0
ARC
  8
11_0B
  6
DASHED
 62
6
 10
351.4995
 20
442.5407
 40
0.3000
 50
355.0000
 51
435.0000
  0
ARC
  8
11_0B
  6
DASHED
 62
6
 10
351.4322
 20
446.9341
 40
0.3000
 50
355.0000
 51
440.0000
  0
ARC
  8
11_0B
  6
DASHED
 62
6
 10
355.9367
 20
446.9341
 40
0.3000
 50
100.0000
 51
185.0000
  0
ARC
  8
11_0B
  6
DASHED
 62
6
 10
359.3052
 20
445.8961
 40
0.3000
 50
335.0000
 51
425.0000
  0
ARC
  8
11_0B
  6
DASHED
 62
6
 10
359.1693
 20
445.9595
 40
0.3000
 50
65.0000
 51
155.0000
  0
ARC
  8
11_0B
  6
DASHED
 62
6
 10
348.0637
 20
445.8961
 40
0.3000
 50
115.0000
 51
205.0000
  0
ARC
  8
11_0B
  6
DASHED
 62
6
 10
348.1996
 20
445.9595
 40
0.3000
 50
25.0000
 51
115.0000
  0
ARC
  8
16_10
  6
CONTINUOUS
 62
6
 10
1135.9263
 20
244.0668
 40
260.3998
 50
165.6760
 51
180.0000
  0
ARC
  8
16_10
  6
CONTINUOUS
 62
6
 10
987.6976
 20
262.6926
 40
134.4301
 50
149.0159
 51
196.6601
  0
ARC
  8
16_10
  6
CONTINUOUS
 62
6
 10
1135.9263
 20
244.0668
 40
260.3998
 50
90.0000
 51
165.6760
  0
ARC
  8
16_10
  6
CONTINUOUS
 62
6
 10
1022.1985
 20
390.4830
 40
94.2225
 50
105.2445
 51
150.4315
  0
ARC
  8
16_10
  6
CONTINUOUS
 62
6
 10
1135.9263
 20
244.0668
 40
94.7513
 50
151.3520
 51
180.0000
  0
ARC
  8
16_10
  6
CONTINUOUS
 62
6
 10
1067.9571
 20
261.4223
 40
38.1982
 50
149.0120
 51
182.3400
  0
ARC
  8
0_00
  6
CONTINUOUS
 62
3
 10
1089.6760
 20
72.2363
 40
0.5362
 50
270.0000
 51
450.0000
  0
ARC
  8
0_00
  6
CONTINUOUS
 62
3
 10
1088.1842
 20
77.0626
 40
0.6532
 50
0.0000
 51
180.0000
  0
ARC
  8
0_00
  6
CONTINUOUS
 62
3
 10
1089.1886
 20
83.4001
 40
1.9500
 50
333.9999
 51
450.0000
  0
CIRCLE
  8
0_00
  6
CONTINUOUS
 62
3
 10
1090.0660
 20
87.3000
 40
1.5600
  0
ARC
  8
0_00
  6
CONTINUOUS
 62
3
 10
1088.2811
 20
77.0626
 40
0.4500
 50
0.0000
 51
180.0000
  0
ARC
  8
0_00
  6
CONTINUOUS
 62
3
 10
1088.2811
 20
77.0626
 40
0.1500
 50
0.0000
 51
180.0000
  0
ARC
  8
0_00
  6
CONTINUOUS
 62
3
 10
1089.6760
 20
72.1725
 40
0.3000
 50
270.0000
 51
450.0000
  0
CIRCLE
  8
0_00
  6
CONTINUOUS
 62
3
 10
1090.0660
 20
87.3000
 40
1.3244
  0
CIRCLE
  8
0_00
  6
CONTINUOUS
 62
3
 10
1090.0660
 20
87.3000
 40
1.0256
  0
CIRCLE
  8
0_00
  6
CONTINUOUS
 62
3
 10
1090.0660
 20
87.3000
 40
0.7027
  0
CIRCLE
  8
0_00
  6
CONTINUOUS
 62
3
 10
1090.0660
 20
87.3000
 40
0.3440
  0
CIRCLE
  8
0_00
  6
CONTINUOUS
 62
3
 10
1090.0660
 20
87.3000
 40
0.1699
  0
CIRCLE
  8
0_00
  6
CONTINUOUS
 62
4
 10
881.0410
 20
82.2001
 40
3.7500
  0
CIRCLE
  8
0_00
  6
CONTINUOUS
 62
4
 10
881.0410
 20
82.2001
 40
6.0000
  0
ARC
  8
0_00
  6
CONTINUOUS
 62
4
 10
292.9344
 20
414.1842
 40
0.7500
 50
273.0000
 51
453.0000
  0
ARC
  8
0_00
  6
CONTINUOUS
 62
4
 10
289.1844
 20
415.2394
 40
0.5000
 50
180.0000
 51
273.0000
  0
ARC
  8
0_00
  6
CONTINUOUS
 62
4
 10
289.1844
 20
416.2408
 40
3.0000
 50
180.0000
 51
273.0000
  0
ARC
  8
0_00
  6
CONTINUOUS
 62
4
 10
418.1845
 20
416.4619
 40
3.0000
 50
267.0000
 51
360.0000
  0
ARC
  8
0_00
  6
CONTINUOUS
 62
4
 10
414.4344
 20
414.4054
 40
0.7500
 50
86.9995
 51
267.0000
  0
ARC
  8
0_00
  6
CONTINUOUS
 62
4
 10
289.1844
 20
475.5709
 40
3.0000
 50
88.0000
 51
180.0000
  0
ARC
  8
0_00
  6
CONTINUOUS
 62
4
 10
418.1845
 20
471.0661
 40
3.0000
 50
0.0000
 51
88.0000
  0
ARC
  8
0_00
  6
CONTINUOUS
 62
4
 10
329.6844
 20
668.8424
 40
6.0000
 50
97.0479
 51
180.0000
  0
ARC
  8
0_00
  6
CONTINUOUS
 62
4
 10
327.1845
 20
640.3203
 40
0.5000
 50
90.0000
 51
180.0000
  0
ARC
  8
0_00
  6
CONTINUOUS
 62
4
 10
327.1845
 20
644.8203
 40
0.5000
 50
180.0000
 51
270.0000
  0
ARC
  8
0_00
  6
CONTINUOUS
 62
4
 10
377.6845
 20
668.8424
 40
6.0000
 50
0.0000
 51
82.9521
  0
ARC
  8
0_00
  6
CONTINUOUS
 62
4
 10
380.1844
 20
640.3203
 40
0.5000
 50
0.0000
 51
90.0000
  0
ARC
  8
0_00
  6
CONTINUOUS
 62
4
 10
380.1844
 20
644.8203
 40
0.5000
 50
270.0000
 51
360.0000
  0
ARC
  8
0_00
  6
CONTINUOUS
 62
4
 10
325.1844
 20
630.8203
 40
1.5000
 50
180.0000
 51
360.0000
  0
ARC
  8
0_00
  6
CONTINUOUS
 62
4
 10
382.1844
 20
630.8203
 40
1.5000
 50
180.0000
 51
360.0000
  0
ARC
  8
0_00
  6
CONTINUOUS
 62
4
 10
353.6845
 20
474.7203
 40
201.6000
 50
82.9521
 51
97.0479
  0
ARC
  8
0_00
  6
CONTINUOUS
 62
4
 10
329.6844
 20
668.8424
 40
3.0000
 50
97.0479
 51
180.0000
  0
ARC
  8
0_00
  6
CONTINUOUS
 62
4
 10
353.6845
 20
474.7203
 40
198.6000
 50
82.9521
 51
97.0479
  0
ARC
  8
0_00
  6
CONTINUOUS
 62
4
 10
377.6845
 20
668.8424
 40
3.0000
 50
0.0000
 51
82.9521
  0
ARC
  8
0_00
  6
CONTINUOUS
 62
4
 10
328.1844
 20
639.8203
 40
1.0000
 50
90.0000
 51
180.0000
  0
ARC
  8
0_00
  6
CONTINUOUS
 62
4
 10
327.6844
 20
631.3203
 40
0.5000
 50
180.0000
 51
270.0000
  0
ARC
  8
0_00
  6
CONTINUOUS
 62
4
 10
330.6845
 20
634.3203
 40
0.5000
 50
180.0000
 51
270.0000
  0
ARC
  8
0_00
  6
CONTINUOUS
 62
4
 10
329.6844
 20
640.3203
 40
0.5000
 50
0.0000
 51
90.0000
  0
ARC
  8
0_00
  6
CONTINUOUS
 62
4
 10
379.1845
 20
639.8203
 40
1.0000
 50
0.0000
 51
90.0000
  0
ARC
  8
0_00
  6
CONTINUOUS
 62
4
 10
379.6845
 20
631.3203
 40
0.5000
 50
270.0000
 51
360.0000
  0
ARC
  8
0_00
  6
CONTINUOUS
 62
4
 10
376.6844
 20
634.3203
 40
0.5000
 50
270.0000
 51
360.0000
  0
ARC
  8
0_00
  6
CONTINUOUS
 62
4
 10
377.6845
 20
640.3203
 40
0.5000
 50
90.0000
 51
180.0000
  0
ARC
  8
0_00
  6
CONTINUOUS
 62
2
 10
335.6844
 20
638.7267
 40
10.4063
 50
247.3871
 51
292.6129
  0
ARC
  8
0_00
  6
CONTINUOUS
 62
2
 10
371.6844
 20
638.7267
 40
10.4063
 50
247.3871
 51
292.6129
  0
ARC
  8
12_0C
  6
DASHED
 62
6
 10
683.6982
 20
634.7903
 40
1.3000
 50
96.4542
 51
180.0000
  0
ARC
  8
12_0C
  6
DASHED
 62
6
 10
688.0878
 20
634.7903
 40
1.3000
 50
0.0000
 51
73.3778
  0
ARC
  8
12_0C
  6
DASHED
 62
6
 10
685.8878
 20
627.4204
 40
9.0000
 50
73.3790
 51
106.8242
  0
ARC
  8
12_0C
  6
DASHED
 62
6
 10
704.6982
 20
634.7903
 40
1.3000
 50
96.4542
 51
180.0000
  0
ARC
  8
12_0C
  6
DASHED
 62
6
 10
709.0878
 20
634.7903
 40
1.3000
 50
0.0000
 51
73.3778
  0
ARC
  8
12_0C
  6
DASHED
 62
6
 10
706.8878
 20
627.4204
 40
9.0000
 50
73.3790
 51
106.8242
  0
ARC
  8
0_00
  6
CONTINUOUS
 62
2
 10
849.2786
 20
638.7267
 40
10.4063
 50
247.3871
 51
292.6129
  0
ARC
  8
0_00
  6
CONTINUOUS
 62
4
 10
920.2233
 20
668.8424
 40
6.0000
 50
97.0479
 51
180.0000
  0
ARC
  8
0_00
  6
CONTINUOUS
 62
4
 10
917.7233
 20
640.3203
 40
0.5000
 50
90.0000
 51
180.0000
  0
ARC
  8
0_00
  6
CONTINUOUS
 62
4
 10
917.7233
 20
644.8203
 40
0.5000
 50
180.0000
 51
270.0000
  0
ARC
  8
0_00
  6
CONTINUOUS
 62
4
 10
968.2233
 20
668.8424
 40
6.0000
 50
0.0000
 51
82.9521
  0
ARC
  8
0_00
  6
CONTINUOUS
 62
4
 10
970.7233
 20
640.3203
 40
0.5000
 50
0.0000
 51
90.0000
  0
ARC
  8
0_00
  6
CONTINUOUS
 62
4
 10
970.7233
 20
644.8203
 40
0.5000
 50
270.0000
 51
360.0000
  0
ARC
  8
0_00
  6
CONTINUOUS
 62
4
 10
915.7234
 20
630.8203
 40
1.5000
 50
180.0000
 51
360.0000
  0
ARC
  8
0_00
  6
CONTINUOUS
 62
4
 10
972.7234
 20
630.8203
 40
1.5000
 50
180.0000
 51
360.0000
  0
ARC
  8
0_00
  6
CONTINUOUS
 62
4
 10
944.2233
 20
474.7203
 40
201.6000
 50
82.9521
 51
97.0479
  0
ARC
  8
0_00
  6
CONTINUOUS
 62
4
 10
920.2233
 20
668.8424
 40
3.0000
 50
97.0479
 51
180.0000
  0
ARC
  8
0_00
  6
CONTINUOUS
 62
4
 10
944.2233
 20
474.7203
 40
198.6000
 50
82.9521
 51
97.0479
  0
ARC
  8
0_00
  6
CONTINUOUS
 62
4
 10
968.2233
 20
668.8424
 40
3.0000
 50
0.0000
 51
82.9521
  0
ARC
  8
0_00
  6
CONTINUOUS
 62
2
 10
962.2234
 20
638.7267
 40
10.4063
 50
247.3871
 51
292.6129
  0
ARC
  8
0_00
  6
CONTINUOUS
 62
2
 10
926.2234
 20
638.7267
 40
10.4063
 50
247.3871
 51
292.6129
  0
ARC
  8
0_00
  6
CONTINUOUS
 62
4
 10
918.7233
 20
639.8203
 40
1.0000
 50
90.0000
 51
180.0000
  0
ARC
  8
0_00
  6
CONTINUOUS
 62
4
 10
918.2233
 20
631.3203
 40
0.5000
 50
180.0000
 51
270.0000
  0
ARC
  8
0_00
  6
CONTINUOUS
 62
4
 10
921.2234
 20
634.3203
 40
0.5000
 50
180.0000
 51
270.0000
  0
ARC
  8
0_00
  6
CONTINUOUS
 62
4
 10
920.2233
 20
640.3203
 40
0.5000
 50
0.0000
 51
90.0000
  0
ARC
  8
0_00
  6
CONTINUOUS
 62
4
 10
969.7234
 20
639.8203
 40
1.0000
 50
0.0000
 51
90.0000
  0
ARC
  8
0_00
  6
CONTINUOUS
 62
4
 10
970.2233
 20
631.3203
 40
0.5000
 50
270.0000
 51
360.0000
  0
ARC
  8
0_00
  6
CONTINUOUS
 62
4
 10
967.2233
 20
634.3203
 40
0.5000
 50
270.0000
 51
360.0000
  0
ARC
  8
0_00
  6
CONTINUOUS
 62
4
 10
968.2233
 20
640.3203
 40
0.5000
 50
90.0000
 51
180.0000
  0
TEXT
  8
14_0E
 62
7
 10
484.0529
 20
128.9030
 40
7.50
 41
1.00
 50
0.0000
  1
Ｂ－Ｂ断面図
  0
TEXT
  8
16_10
 62
7
 10
926.1552
 20
151.1097
 40
7.50
 41
1.00
 50
0.0000
  1
平面図（１：２０）
  0
TEXT
  8
15_0F
 62
7
 10
94.5986
 20
482.7203
 40
7.50
 41
1.00
 50
90.0000
  1
Ｈ（手すり高さ寸法）＝１５０、２００、２５０、３００
  0
TEXT
  8
16_10
 62
7
 10
1084.8008
 20
191.5095
 40
6.75
 41
0.75
 50
0.0000
  1
X
  0
TEXT
  8
16_10
 62
7
 10
1125.4264
 20
259.1756
 40
7.50
 41
1.00
 50
0.3765
  1
（θ＝１８０゜）
  0
TEXT
  8
16_10
 62
7
 10
1038.9785
 20
150.1617
 40
7.50
 41
1.00
 50
0.0000
  1
３０°＜θ（Ｒコーナー角度）≦１８０°
  0
TEXT
  8
16_10
 62
7
 10
1038.9785
 20
135.1834
 40
7.50
 41
1.00
 50
0.0000
  1
５００≦Ｒ（Ｒコーナー半径）≦１００００
  0
TEXT
  8
14_0E
 62
7
 10
551.7682
 20
381.5910
 40
7.50
 41
1.00
 50
0.0000
  1
Ｒコーナー柱部詳細（内観）図
  0
TEXT
  8
14_0E
 62
7
 10
196.6531
 20
381.5910
 40
7.50
 41
1.00
 50
0.0000
  1
Ａ－Ａ断面図
  0
TEXT
  8
16_10
 62
7
 10
954.1608
 20
220.0777
 40
7.50
 41
1.00
 50
0.0000
  1
Ａ
  0
TEXT
  8
15_0F
 62
7
 10
502.6407
 20
485.0834
 40
6.00
 41
1.00
 50
90.0000
  1
Ｈ－５０（Ｋ型ＲコーナートップレールＫ柱寸法）
  0
TEXT
  8
15_0F
 62
7
 10
503.1407
 20
643.2703
 40
6.75
 41
0.75
 50
90.0000
  1
47
  0
TEXT
  8
16_10
 62
7
 10
954.1608
 20
261.5555
 40
7.50
 41
1.00
 50
0.0000
  1
Ａ
  0
TEXT
  8
15_0F
 62
7
 10
95.0986
 20
459.1203
 40
6.75
 41
0.75
 50
90.0000
  1
20
  0
TEXT
  8
15_0F
 62
7
 10
115.5986
 20
645.6203
 40
6.75
 41
0.75
 50
90.0000
  1
47
  0
TEXT
  8
0_00
 62
7
 10
637.8540
 20
486.8092
 40
6.75
 41
0.75
 50
0.0000
  1
B
  0
TEXT
  8
0_00
 62
7
 10
747.8540
 20
486.8092
 40
6.75
 41
0.75
 50
0.0000
  1
B
  0
TEXT
  8
15_0F
 62
7
 10
310.4844
 20
366.0197
 40
7.50
 41
1.00
 50
0.0000
  1
推奨躯体寸法（Ａ－３０）
  0
TEXT
  8
15_0F
 62
7
 10
310.4844
 20
345.0197
 40
7.50
 41
1.00
 50
0.0000
  1
有効躯体寸法（Ａ－２０）
  0
TEXT
  8
15_0F
 62
7
 10
335.6844
 20
324.0197
 40
7.50
 41
1.00
 50
0.0000
  1
笠木幅：Ａ
  0
TEXT
  8
0_00
 62
7
 10
222.3675
 20
498.1799
 40
7.50
 41
1.00
 50
0.0000
  1
入隅コーナーブラケット
  0
TEXT
  8
0_00
 62
7
 10
390.8510
 20
521.8260
 40
7.50
 41
1.00
 50
0.0000
  1
タッピンねじ・トラス
  0
TEXT
  8
0_00
 62
7
 10
390.8510
 20
509.8260
 40
7.50
 41
1.00
 50
0.0000
  1
φ５×５０（１種）
  0
TEXT
  8
0_00
 62
7
 10
377.1990
 20
498.1799
 40
7.50
 41
1.00
 50
0.0000
  1
　ナイロンンカー
  0
TEXT
  8
0_00
 62
7
 10
377.1990
 20
486.1800
 40
7.50
 41
1.00
 50
0.0000
  1
　φ６
  0
TEXT
  8
0_00
 62
7
 10
732.4636
 20
514.9916
 40
7.50
 41
1.00
 50
0.0000
  1
Ｒコ－ナ－用Ｋ柱基礎ピース
  0
TEXT
  8
0_00
 62
7
 10
460.8289
 20
290.2039
 40
7.50
 41
1.00
 50
0.0000
  1
Ｋ型Ｒコ－ナ－トップレールベース（組立品）
  0
TEXT
  8
0_00
 62
7
 10
689.5593
 20
294.8056
 40
7.50
 41
1.00
 50
0.0000
  1
ブラケット
  0
TEXT
  8
15_0F
 62
7
 10
641.3117
 20
311.9244
 40
6.75
 41
0.75
 50
0.0000
  1
37.5
  0
TEXT
  8
15_0F
 62
7
 10
648.5117
 20
332.9244
 40
6.75
 41
0.75
 50
0.0000
  1
60
  0
TEXT
  8
15_0F
 62
7
 10
724.8194
 20
206.6475
 40
6.75
 41
0.75
 50
90.0000
  1
56
  0
TEXT
  8
15_0F
 62
7
 10
506.7239
 20
758.8203
 40
7.50
 41
1.00
 50
0.0000
  1
２２０≦ＬＣ（Ｒコーナー端部柱スパン寸法）≦３１０
  0
TEXT
  8
15_0F
 62
7
 10
709.2258
 20
758.3203
 40
7.50
 41
1.00
 50
0.0000
  1
２２５≦Ｌ（Ｒｺ-ﾅ-柱ｽﾊﾟﾝ寸法）≦１３６５
  0
TEXT
  8
0_00
 62
7
 10
389.3454
 20
674.7221
 40
7.50
 41
1.00
 50
0.0000
  1
テクス
  0
TEXT
  8
0_00
 62
7
 10
389.3454
 20
662.7222
 40
7.50
 41
1.00
 50
0.0000
  1
φ４×２５
  0
TEXT
  8
0_00
 62
7
 10
389.3454
 20
707.9177
 40
7.50
 41
1.00
 50
0.0000
  1
Ｋ型溶接Ｒコ－ナ－笠木カバ－、笠木底板
  0
TEXT
  8
0_00
 62
7
 10
548.7875
 20
703.8015
 40
7.50
 41
1.00
 50
0.0000
  1
Ｋ型Ｒコ－ナ－笠木カバ－
  0
TEXT
  8
0_00
 62
7
 10
515.5910
 20
724.4672
 40
7.50
 41
1.00
 50
0.0000
  1
Ｋ型Ｒコ－ナ－トップレ－ル支持金具
  0
TEXT
  8
0_00
 62
7
 10
776.1541
 20
701.8783
 40
7.50
 41
1.00
 50
0.0000
  1
φ４×２５
  0
TEXT
  8
15_0F
 62
7
 10
826.9817
 20
70.2000
 40
7.50
 41
1.00
 50
0.0000
  1
１
  0
TEXT
  8
15_0F
 62
7
 10
855.4816
 20
70.2000
 40
7.50
 41
1.00
 50
0.0000
  1
３
  0
TEXT
  8
15_0F
 62
7
 10
707.1316
 20
74.7000
 40
7.50
 41
1.00
 50
0.0000
  1
納まり図
  0
TEXT
  8
15_0F
 62
7
 10
510.9316
 20
41.7000
 40
7.50
 41
1.00
 50
0.0000
  1
ＲＣ造
  0
TEXT
  8
15_0F
 62
7
 10
500.1316
 20
71.7000
 40
7.50
 41
1.00
 50
0.0000
  1
低・中・高層
  0
TEXT
  8
15_0F
 62
7
 10
576.0610
 20
71.7000
 40
7.50
 41
1.00
 50
0.0000
  1
手すり付笠木
  0
TEXT
  8
15_0F
 62
7
 10
583.2610
 20
41.7000
 40
7.50
 41
1.00
 50
0.0000
  1
ＫＯＡ型
  0
TEXT
  8
15_0F
 62
7
 10
650.6710
 20
45.1501
 40
7.50
 41
1.00
 50
0.0000
  1
トップレール手すり［Ｒ部］（Ｋ柱）納まり図
  0
TEXT
  8
15_0F
 62
7
 10
207.5110
 20
85.2001
 40
7.50
 41
1.00
 50
0.0000
  1
　　（躯体寸法発注の場合、Ｌは標準割付寸法とする。）
  0
TEXT
  8
15_0F
 62
7
 10
207.5110
 20
100.2001
 40
7.50
 41
1.00
 50
0.0000
  1
１）Ｈ、Ｌ、Ｘ、Ｙ、Ｒ、θは発注寸法とする。
  0
TEXT
  8
0_00
 62
7
 10
432.9644
 20
453.6707
 40
7.50
 41
1.00
 50
0.0000
  1
Ｒ笠木
  0
TEXT
  8
0_00
 62
2
 10
245.9604
 20
579.7402
 40
12.00
 41
1.00
 50
0.0000
  1
屋外側
  0
TEXT
  8
0_00
 62
2
 10
419.4180
 20
573.0024
 40
12.00
 41
1.00
 50
0.0000
  1
建物側
  0
TEXT
  8
0_00
 62
2
 10
1170.3231
 20
445.1100
 40
12.00
 41
1.00
 50
0.0000
  1
屋外側
  0
TEXT
  8
0_00
 62
2
 10
1170.3231
 20
178.1298
 40
12.00
 41
1.00
 50
0.0000
  1
建物側
  0
TEXT
  8
16_10
 62
7
 10
922.6932
 20
347.6932
 40
7.50
 41
1.00
 50
0.0000
  1
ジョイントカバ－
  0
TEXT
  8
0_00
 62
7
 10
775.4513
 20
713.7500
 40
7.50
 41
1.00
 50
0.0000
  1
ドリルねじ
  0
TEXT
  8
0_00
 62
7
 10
729.8615
 20
551.0590
 40
7.50
 41
1.00
 50
0.0000
  1
トップレールＫ柱
  0
TEXT
  8
0_00
 62
7
 10
570.1758
 20
600.6534
 40
7.50
 41
1.00
 50
0.0000
  1
Ｒコ－ナ－笠木底板
  0
TEXT
  8
16_10
 62
7
 10
832.3502
 20
192.0095
 40
7.50
 41
1.00
 50
0.0000
  1
２２０≦ＬＣ［250］≦３１０
  0
TEXT
  8
15_0F
 62
7
 10
762.0341
 20
737.8203
 40
6.75
 41
0.75
 50
0.0000
  1
L/2
  0
TEXT
  8
16_10
 62
7
 10
1185.9129
 20
315.4706
 40
6.75
 41
0.75
 50
90.0000
  1
Y
  0
TEXT
  8
16_10
 62
7
 10
1063.8716
 20
301.8596
 40
7.50
 41
1.00
 50
-37.8014
  1
（R）
  0
TEXT
  8
16_10
 62
7
 10
869.3373
 20
223.1406
 40
6.75
 41
0.75
 50
82.8380
  1
220≦LC［250］≦310
  0
TEXT
  8
16_10
 62
7
 10
946.8377
 20
428.8183
 40
7.50
 41
1.00
 50
37.8380
  1
２２５≦Ｌ≦１３６５
  0
TEXT
  8
16_10
 62
7
 10
937.6168
 20
171.0084
 40
6.75
 41
0.75
 50
0.0000
  1
500
  0
TEXT
  8
16_10
 62
7
 10
1039.9951
 20
257.4156
 40
6.75
 41
0.75
 50
75.6759
  1
500
  0
TEXT
  8
0_00
 62
7
 10
70.2905
 20
40.2001
 40
7.50
 41
1.00
 50
0.0000
  1
適用製品
  0
TEXT
  8
0_00
 62
7
 10
130.2905
 20
40.2001
 40
7.50
 41
1.00
 50
0.0000
  1
適用日付
  0
TEXT
  8
0_00
 62
7
 10
178.5905
 20
100.2001
 40
7.50
 41
1.00
 50
0.0000
  1
記事
  0
TEXT
  8
0_00
 62
7
 10
472.5611
 20
85.2001
 40
7.50
 41
1.00
 50
0.0000
  1
階層仕様
  0
TEXT
  8
0_00
 62
7
 10
472.5611
 20
55.2000
 40
7.50
 41
1.00
 50
0.0000
  1
適用躯体
  0
TEXT
  8
0_00
 62
7
 10
630.0610
 20
85.2001
 40
7.50
 41
1.00
 50
0.0000
  1
名　称
  0
TEXT
  8
0_00
 62
7
 10
630.0610
 20
55.2000
 40
7.50
 41
1.00
 50
0.0000
  1
図　名
  0
TEXT
  8
0_00
 62
7
 10
814.9368
 20
100.2458
 40
7.50
 41
1.00
 50
0.0000
  1
Ｎｏ．
  0
TEXT
  8
0_00
 62
7
 10
1123.5610
 20
100.2001
 40
7.50
 41
1.00
 50
0.0000
  1
適　　　　　　　　用
  0
TEXT
  8
0_00
 62
7
 10
1078.4111
 20
100.2001
 40
7.50
 41
1.00
 50
0.0000
  1
個数
  0
TEXT
  8
0_00
 62
7
 10
1023.2110
 20
100.2001
 40
7.50
 41
1.00
 50
0.0000
  1
材　　質
  0
TEXT
  8
0_00
 62
7
 10
926.1610
 20
100.2001
 40
7.50
 41
1.00
 50
0.0000
  1
部　　　品　　　名
  0
TEXT
  8
0_00
 62
7
 10
895.9360
 20
100.2001
 40
7.50
 41
1.00
 50
0.0000
  1
品番
  0
TEXT
  8
0_00
 62
7
 10
850.8611
 20
100.2001
 40
7.50
 41
1.00
 50
0.0000
  1
図　　番
  0
TEXT
  8
0_00
 62
7
 10
816.6610
 20
85.2001
 40
7.50
 41
1.00
 50
0.0000
  1
尺度
  0
TEXT
  8
0_00
 62
7
 10
816.6610
 20
55.2000
 40
7.50
 41
1.00
 50
0.0000
  1
日付
  0
TEXT
  8
0_00
 62
7
 10
928.3942
 20
85.2001
 40
7.50
 41
1.00
 50
0.0000
  1
承認
  0
TEXT
  8
0_00
 62
7
 10
970.5611
 20
85.2001
 40
7.50
 41
1.00
 50
0.0000
  1
検図
  0
TEXT
  8
0_00
 62
7
 10
1006.8610
 20
85.2001
 40
7.50
 41
1.00
 50
0.0000
  1
設計
  0
TEXT
  8
0_00
 62
7
 10
1044.2110
 20
85.2001
 40
7.50
 41
1.00
 50
0.0000
  1
製図
  0
TEXT
  8
0_00
 62
7
 10
1074.5110
 20
55.2000
 40
7.50
 41
1.00
 50
0.0000
  1
図番
  0
TEXT
  8
0_00
 62
2
 10
1103.9219
 20
74.2350
 40
12.00
 41
1.00
 50
0.0000
  1
文化シヤッター株式会社
  0
TEXT
  8
0_00
 62
7
 10
200.7905
 20
862.9501
 40
7.50
 41
1.00
 50
180.0000
  1
図番
  0
TEXT
  8
0_00
 62
7
 10
799.0510
 20
854.0169
 40
6.00
 41
1.00
 50
0.0000
  1
ＮＯ
  0
TEXT
  8
0_00
 62
7
 10
825.2111
 20
853.9501
 40
7.50
 41
1.00
 50
0.0000
  1
個　数
  0
TEXT
  8
0_00
 62
7
 10
870.3611
 20
853.9501
 40
7.50
 41
1.00
 50
0.0000
  1
日　　付
  0
TEXT
  8
0_00
 62
7
 10
984.2111
 20
853.9501
 40
7.50
 41
1.00
 50
0.0000
  1
訂　　　正　　　記　　　事
  0
TEXT
  8
0_00
 62
7
 10
838.4111
 20
70.2000
 40
6.75
 41
0.75
 50
0.0000
  1
:
  0
TEXT
  8
0_00
 62
7
 10
1137.8712
 20
26.7000
 40
6.00
 41
1.00
 50
0.0000
  1
ＪＩＳ　Ａ－３
  0
TEXT
  8
0_00
 62
7
 10
1179.4986
 20
26.6983
 40
6.00
 41
1.00
 50
0.0000
  1
（２９７×４２０）
  0
TEXT
  8
0_00
 62
7
 10
1153.1111
 20
853.9501
 40
7.50
 41
1.00
 50
0.0000
  1
担　当
  0
TEXT
  8
0_00
 62
7
 10
1189.1111
 20
853.9501
 40
7.50
 41
1.00
 50
0.0000
  1
承　認
  0
TEXT
  8
0_00
 62
7
 10
551.3111
 20
85.2001
 40
7.50
 41
1.00
 50
0.0000
  1
機種名
  0
TEXT
  8
0_00
 62
7
 10
551.3111
 20
55.2000
 40
7.50
 41
1.00
 50
0.0000
  1
型　式
  0
TEXT
  8
0_00
 62
7
 10
255.6477
 20
431.4785
 40
6.75
 41
0.75
 50
90.0000
  1
(65)
  0
TEXT
  8
0_00
 62
7
 10
494.9787
 20
429.2319
 40
6.75
 41
0.75
 50
90.0000
  1
(60)
  0
POINT
  8
0_00
 62
2
 10
353.6845
 20
456.3203
  0
POINT
  8
0_00
 62
2
 10
353.6845
 20
456.3203
  0
POINT
  8
0_00
 62
5
 10
353.6845
 20
456.3203
  0
POINT
  8
0_00
 62
5
 10
353.6845
 20
456.3203
  0
POINT
  8
0_00
 62
5
 10
381.6844
 20
456.3203
  0
POINT
  8
0_00
 62
5
 10
325.6845
 20
456.3203
  0
POINT
  8
0_00
 62
4
 10
421.1845
 20
474.0704
  0
POINT
  8
0_00
 62
2
 10
655.7117
 20
213.8475
  0
POINT
  8
0_00
 62
2
 10
655.7117
 20
213.8475
  0
POINT
  8
0_00
 62
2
 10
655.7117
 20
213.8475
  0
POINT
  8
0_00
 62
2
 10
655.7117
 20
213.8475
  0
POINT
  8
0_00
 62
2
 10
655.7117
 20
213.8475
  0
POINT
  8
0_00
 62
5
 10
636.9618
 20
241.8475
  0
POINT
  8
0_00
 62
2
 10
636.9618
 20
241.8475
  0
POINT
  8
0_00
 62
2
 10
674.4618
 20
185.8475
  0
POINT
  8
0_00
 62
5
 10
984.9016
 20
39.8954
  0
POINT
  8
0_00
 62
5
 10
984.9016
 20
39.8954
  0
POINT
  8
0_00
 62
6
 10
353.6845
 20
459.8203
  0
POINT
  8
0_00
 62
6
 10
353.6845
 20
459.8203
  0
POINT
  8
0_00
 62
6
 10
353.6845
 20
459.8203
  0
POINT
  8
0_00
 62
6
 10
353.6845
 20
456.3203
  0
POINT
  8
0_00
 62
2
 10
24.0905
 20
14.9991
  0
POINT
  8
0_00
 62
2
 10
24.0905
 20
14.9991
  0
POINT
  8
0_00
 62
2
 10
84.6905
 20
59.7001
  0
POINT
  8
0_00
 62
2
 10
84.6905
 20
74.7001
  0
POINT
  8
0_00
 62
2
 10
84.6905
 20
89.7001
  0
POINT
  8
0_00
 62
2
 10
84.6905
 20
104.7001
  0
POINT
  8
0_00
 62
2
 10
518.9110
 20
76.2000
  0
POINT
  8
0_00
 62
2
 10
518.9110
 20
46.2000
  0
POINT
  8
0_00
 62
2
 10
718.7110
 20
79.2000
  0
POINT
  8
0_00
 62
2
 10
718.7110
 20
49.2000
  0
POINT
  8
0_00
 62
2
 10
1097.7610
 20
52.2000
  0
POINT
  8
0_00
 62
2
 10
1014.0610
 20
59.7001
  0
POINT
  8
0_00
 62
2
 10
144.6905
 20
59.7001
  0
POINT
  8
0_00
 62
2
 10
144.6905
 20
74.7001
  0
POINT
  8
0_00
 62
2
 10
144.6905
 20
89.7001
  0
POINT
  8
0_00
 62
2
 10
144.6905
 20
104.7001
  0
POINT
  8
0_00
 62
2
 10
856.2610
 20
74.7000
  0
POINT
  8
0_00
 62
2
 10
827.7610
 20
74.7000
  0
POINT
  8
0_00
 62
2
 10
204.6905
 20
104.7001
  0
POINT
  8
0_00
 62
2
 10
204.6905
 20
89.7001
  0
POINT
  8
0_00
 62
2
 10
204.6905
 20
74.7001
  0
POINT
  8
0_00
 62
2
 10
204.6905
 20
59.7001
  0
POINT
  8
0_00
 62
2
 10
204.6905
 20
44.7001
  0
POINT
  8
0_00
 62
2
 10
1051.4110
 20
59.7001
  0
POINT
  8
0_00
 62
2
 10
84.6905
 20
44.7001
  0
POINT
  8
0_00
 62
2
 10
144.6905
 20
44.7001
  0
POINT
  8
0_00
 62
2
 10
174.6905
 20
858.4501
  0
POINT
  8
0_00
 62
2
 10
862.6360
 20
49.2000
  0
POINT
  8
0_00
 62
2
 10
597.6610
 20
76.2000
  0
POINT
  8
0_00
 62
2
 10
597.6610
 20
46.2000
  0
POINT
  8
0_00
 62
2
 10
286.1845
 20
478.6775
  0
POINT
  8
0_00
 62
2
 10
421.1845
 20
473.9632
  0
POINT
  8
0_00
 62
2
 10
286.1845
 20
413.0795
  0
POINT
  8
0_00
 62
2
 10
421.1845
 20
413.3006
  0
ENDSEC
  0
EOF
