999
  
  0
SECTION
  2
HEADER
  9
$EXTMIN
 10
0
 20
0
  9
$EXTMAX
 10
840
 20
592
  9
$LTSCALE
 40
2.00
  9
$PDMODE
 70
33
  9
$PDSIZE
 40
1.20
  0
ENDSEC
  0
SECTION
  2
TABLES
  0
TABLE
  2
LTYPE
 70
9
  0
LTYPE
  2
CONTINUOUS
 70
64
  3
実線
 72
65
 73
0
 40
0.00
  0
LTYPE
  2
DASHED
 70
64
  3
__  __  __  __  __  __  __ 
 72
65
 73
2
 40
1.00
 49
0.50
 49
-0.50
  0
LTYPE
  2
HIDDEN1
 70
64
  3
____    ____    ____    ___
 72
65
 73
2
 40
2.20
 49
1.20
 49
-1.00
  0
LTYPE
  2
HIDDEN2
 70
64
  3
______  ______  ______  ___
 72
65
 73
2
 40
4.50
 49
3.50
 49
-1.00
  0
LTYPE
  2
CENTER1
 70
64
  3
_______ _ _______ _ _______
 72
65
 73
4
 40
20.00
 49
17.00
 49
-1.00
 49
1.00
 49
-1.00
  0
LTYPE
  2
CENTER2
 70
64
  3
___________  __  __________
 72
65
 73
4
 40
40.00
 49
34.00
 49
-2.00
 49
2.00
 49
-2.00
  0
LTYPE
  2
PHANTOM1
 70
64
  3
______ _ _ ______ _ _ _____
 72
65
 73
6
 40
20.00
 49
15.00
 49
-1.00
 49
1.00
 49
-1.00
 49
1.00
 49
-1.00
  0
LTYPE
  2
PHANTOM2
 70
64
  3
__________  _  _  _________
 72
65
 73
6
 40
40.00
 49
30.00
 49
-2.00
 49
2.00
 49
-2.00
 49
2.00
 49
-2.00
  0
LTYPE
  2
DOT
 70
64
  3
 .  .  .  .  .  .  .  .  . 
 72
65
 73
2
 40
1.00
 49
0.00
 49
-1.00
  0
ENDTAB
  0
TABLE
  2
STYLE
 70
1
  0
STYLE
  2
STANDARD
 70
64
 40
0.0
 41
1.0
 42
0.0
 50
0.0
 71
0
  3
ROMANS
  4
BIGFONT
  0
ENDTAB
  0
TABLE
  2
LAYER
 70
8
  0
LAYER
  2
0_00
 70
64
 62
7
  6
CONTINUOUS
  0
LAYER
  2
3_03
 70
64
 62
7
  6
CONTINUOUS
  0
LAYER
  2
5_05
 70
64
 62
7
  6
CONTINUOUS
  0
LAYER
  2
6_06
 70
64
 62
7
  6
CONTINUOUS
  0
LAYER
  2
11_0B
 70
64
 62
7
  6
CONTINUOUS
  0
LAYER
  2
13_0D
 70
64
 62
7
  6
CONTINUOUS
  0
LAYER
  2
14_0E
 70
64
 62
7
  6
CONTINUOUS
  0
LAYER
  2
15_0F
 70
64
 62
7
  6
CONTINUOUS
  0
ENDTAB
  0
ENDSEC
  0
SECTION
  2
ENTITIES
  0
LINE
  8
0_00
  6
CONTINUOUS
 62
7
 10
424.4005
 20
567.8000
 11
424.4005
 21
74.8000
  0
LINE
  8
0_00
  6
CONTINUOUS
 62
7
 10
36.4603
 20
321.3000
 11
812.3407
 21
321.3000
  0
LINE
  8
0_00
  6
CENTER1
 62
6
 10
230.4304
 20
490.8939
 11
230.4304
 21
377.4136
  0
LINE
  8
15_0F
  6
CONTINUOUS
 62
6
 10
142.9304
 20
382.7390
 11
142.9304
 21
342.2963
  0
LINE
  8
15_0F
  6
CONTINUOUS
 62
6
 10
132.9304
 20
345.2963
 11
142.9304
 21
345.2963
  0
LINE
  8
15_0F
  6
CONTINUOUS
 62
6
 10
111.3304
 20
345.2963
 11
132.9304
 21
345.2963
  0
LINE
  8
15_0F
  6
CONTINUOUS
 62
6
 10
132.9304
 20
345.2963
 11
128.0397
 21
346.3358
  0
LINE
  8
15_0F
  6
CONTINUOUS
 62
6
 10
132.9304
 20
345.2963
 11
128.0397
 21
344.2567
  0
LINE
  8
15_0F
  6
CONTINUOUS
 62
6
 10
147.9304
 20
382.7390
 11
147.9304
 21
342.2963
  0
LINE
  8
15_0F
  6
CONTINUOUS
 62
6
 10
142.9304
 20
345.2963
 11
147.9304
 21
345.2963
  0
LINE
  8
15_0F
  6
CONTINUOUS
 62
6
 10
312.9304
 20
382.7390
 11
312.9304
 21
342.2963
  0
LINE
  8
15_0F
  6
CONTINUOUS
 62
6
 10
147.9304
 20
345.2963
 11
312.9304
 21
345.2963
  0
LINE
  8
15_0F
  6
CONTINUOUS
 62
6
 10
147.9304
 20
345.2963
 11
152.8212
 21
344.2567
  0
LINE
  8
15_0F
  6
CONTINUOUS
 62
6
 10
147.9304
 20
345.2963
 11
152.8212
 21
346.3358
  0
LINE
  8
15_0F
  6
CONTINUOUS
 62
6
 10
312.9304
 20
345.2963
 11
308.0397
 21
346.3358
  0
LINE
  8
15_0F
  6
CONTINUOUS
 62
6
 10
312.9304
 20
345.2963
 11
308.0397
 21
344.2567
  0
LINE
  8
15_0F
  6
CONTINUOUS
 62
6
 10
317.9304
 20
382.7390
 11
317.9304
 21
342.2963
  0
LINE
  8
15_0F
  6
CONTINUOUS
 62
6
 10
312.9304
 20
345.2963
 11
317.9304
 21
345.2963
  0
LINE
  8
15_0F
  6
CONTINUOUS
 62
6
 10
317.9304
 20
345.2963
 11
327.9304
 21
345.2963
  0
LINE
  8
15_0F
  6
CONTINUOUS
 62
6
 10
349.5304
 20
345.2963
 11
327.9304
 21
345.2963
  0
LINE
  8
15_0F
  6
CONTINUOUS
 62
6
 10
327.9304
 20
345.2963
 11
332.8212
 21
344.2567
  0
LINE
  8
15_0F
  6
CONTINUOUS
 62
6
 10
327.9304
 20
345.2963
 11
332.8212
 21
346.3358
  0
LINE
  8
0_00
  6
CONTINUOUS
 62
6
 10
207.9304
 20
552.1725
 11
252.9304
 21
552.1725
  0
LINE
  8
0_00
  6
CONTINUOUS
 62
6
 10
207.9304
 20
552.1725
 11
252.9304
 21
550.6725
  0
LINE
  8
0_00
  6
CONTINUOUS
 62
6
 10
252.9304
 20
552.1725
 11
252.9304
 21
550.6725
  0
LINE
  8
0_00
  6
CONTINUOUS
 62
6
 10
317.5527
 20
472.1035
 11
339.0374
 21
493.5881
  0
LINE
  8
0_00
  6
CONTINUOUS
 62
6
 10
317.5527
 20
472.1035
 11
321.7460
 21
474.8266
  0
LINE
  8
0_00
  6
CONTINUOUS
 62
6
 10
317.5527
 20
472.1035
 11
320.2759
 21
476.2968
  0
LINE
  8
0_00
  6
CONTINUOUS
 62
6
 10
339.0374
 20
493.5881
 11
383.4373
 21
493.5881
  0
LINE
  8
0_00
  6
CONTINUOUS
 62
6
 10
251.0268
 20
484.0362
 11
270.6542
 21
503.6637
  0
LINE
  8
0_00
  6
CONTINUOUS
 62
6
 10
251.0268
 20
484.0362
 11
255.2201
 21
486.7594
  0
LINE
  8
0_00
  6
CONTINUOUS
 62
6
 10
251.0268
 20
484.0362
 11
253.7500
 21
488.2296
  0
LINE
  8
0_00
  6
CONTINUOUS
 62
6
 10
270.6542
 20
503.6637
 11
300.6542
 21
503.6637
  0
LINE
  8
15_0F
  6
CONTINUOUS
 62
6
 10
132.9304
 20
414.9366
 11
132.9304
 21
342.2963
  0
LINE
  8
0_00
  6
CONTINUOUS
 62
4
 10
304.9304
 20
464.2561
 11
155.9304
 21
464.2561
  0
LINE
  8
0_00
  6
CONTINUOUS
 62
4
 10
147.9304
 20
456.2561
 11
147.9304
 21
391.7561
  0
LINE
  8
0_00
  6
CONTINUOUS
 62
4
 10
312.9304
 20
391.7561
 11
312.9304
 21
456.2561
  0
LINE
  8
0_00
  6
CONTINUOUS
 62
4
 10
304.9304
 20
456.2561
 11
304.9304
 21
391.7561
  0
LINE
  8
0_00
  6
CONTINUOUS
 62
4
 10
304.9304
 20
456.2561
 11
147.9304
 21
456.2561
  0
LINE
  8
0_00
  6
CONTINUOUS
 62
4
 10
160.9304
 20
446.2561
 11
162.9304
 21
446.2561
  0
LINE
  8
0_00
  6
CONTINUOUS
 62
4
 10
160.9304
 20
436.2561
 11
162.9304
 21
436.2561
  0
LINE
  8
0_00
  6
CONTINUOUS
 62
4
 10
160.9304
 20
426.2561
 11
162.9304
 21
426.2561
  0
LINE
  8
0_00
  6
CONTINUOUS
 62
4
 10
160.9304
 20
416.2561
 11
162.9304
 21
416.2561
  0
LINE
  8
0_00
  6
CONTINUOUS
 62
4
 10
162.9304
 20
456.2561
 11
162.9304
 21
446.2561
  0
LINE
  8
0_00
  6
CONTINUOUS
 62
4
 10
162.9304
 20
436.2561
 11
162.9304
 21
426.2561
  0
LINE
  8
0_00
  6
CONTINUOUS
 62
4
 10
162.9304
 20
416.2561
 11
162.9304
 21
406.2561
  0
LINE
  8
0_00
  6
CONTINUOUS
 62
4
 10
160.9304
 20
446.2561
 11
160.9304
 21
436.2561
  0
LINE
  8
0_00
  6
CONTINUOUS
 62
4
 10
160.9304
 20
426.2561
 11
160.9304
 21
416.2561
  0
LINE
  8
0_00
  6
CONTINUOUS
 62
4
 10
169.9304
 20
456.2561
 11
169.9304
 21
391.7561
  0
LINE
  8
0_00
  6
CONTINUOUS
 62
2
 10
155.9304
 20
464.2561
 11
155.9304
 21
456.2561
  0
LINE
  8
0_00
  6
CONTINUOUS
 62
2
 10
153.4849
 20
463.8732
 11
155.9304
 21
461.4277
  0
LINE
  8
0_00
  6
CONTINUOUS
 62
2
 10
151.5678
 20
462.9619
 11
155.9304
 21
458.5992
  0
LINE
  8
0_00
  6
CONTINUOUS
 62
2
 10
150.0361
 20
461.6652
 11
155.4451
 21
456.2561
  0
LINE
  8
0_00
  6
CONTINUOUS
 62
2
 10
148.8648
 20
460.0081
 11
152.6167
 21
456.2561
  0
LINE
  8
0_00
  6
CONTINUOUS
 62
2
 10
148.1087
 20
457.9357
 11
149.7883
 21
456.2561
  0
LINE
  8
0_00
  6
CONTINUOUS
 62
2
 10
304.9971
 20
458.9228
 11
155.9304
 21
458.9228
  0
LINE
  8
0_00
  6
CONTINUOUS
 62
2
 10
304.5638
 20
461.5894
 11
155.9304
 21
461.5894
  0
LINE
  8
0_00
  6
CONTINUOUS
 62
2
 10
307.5971
 20
456.3228
 11
307.5971
 21
391.7561
  0
LINE
  8
0_00
  6
CONTINUOUS
 62
2
 10
310.2638
 20
455.8895
 11
310.2638
 21
391.7561
  0
LINE
  8
0_00
  6
CONTINUOUS
 62
2
 10
196.3716
 20
456.2561
 11
169.9304
 21
429.8150
  0
LINE
  8
0_00
  6
CONTINUOUS
 62
2
 10
193.5431
 20
456.2561
 11
169.9304
 21
432.6434
  0
LINE
  8
0_00
  6
CONTINUOUS
 62
2
 10
190.7147
 20
456.2561
 11
169.9304
 21
435.4719
  0
LINE
  8
0_00
  6
CONTINUOUS
 62
2
 10
258.5970
 20
456.2561
 11
194.0970
 21
391.7561
  0
LINE
  8
0_00
  6
CONTINUOUS
 62
2
 10
255.7685
 20
456.2561
 11
191.2685
 21
391.7561
  0
LINE
  8
0_00
  6
CONTINUOUS
 62
2
 10
252.9401
 20
456.2561
 11
188.4401
 21
391.7561
  0
LINE
  8
0_00
  6
CONTINUOUS
 62
2
 10
304.9304
 20
443.1926
 11
253.4939
 21
391.7561
  0
LINE
  8
0_00
  6
CONTINUOUS
 62
2
 10
304.9304
 20
440.3642
 11
256.3223
 21
391.7561
  0
LINE
  8
0_00
  6
CONTINUOUS
 62
2
 10
304.9304
 20
446.0211
 11
250.6655
 21
391.7561
  0
LINE
  8
0_00
  6
CONTINUOUS
 62
2
 10
153.5873
 20
456.2561
 11
147.9304
 21
450.5992
  0
LINE
  8
0_00
  6
CONTINUOUS
 62
2
 10
159.2441
 20
456.2561
 11
147.9304
 21
444.9424
  0
LINE
  8
0_00
  6
CONTINUOUS
 62
2
 10
162.9304
 20
454.2856
 11
147.9304
 21
439.2856
  0
LINE
  8
0_00
  6
CONTINUOUS
 62
2
 10
162.9304
 20
448.6287
 11
147.9304
 21
433.6287
  0
LINE
  8
0_00
  6
CONTINUOUS
 62
2
 10
160.9304
 20
440.9719
 11
147.9304
 21
427.9719
  0
LINE
  8
0_00
  6
CONTINUOUS
 62
2
 10
160.9304
 20
424.0013
 11
147.9304
 21
411.0013
  0
LINE
  8
0_00
  6
CONTINUOUS
 62
2
 10
162.9304
 20
431.6581
 11
147.9304
 21
416.6581
  0
LINE
  8
0_00
  6
CONTINUOUS
 62
2
 10
161.8716
 20
436.2561
 11
147.9304
 21
422.3150
  0
LINE
  8
0_00
  6
CONTINUOUS
 62
2
 10
162.9304
 20
409.0307
 11
147.9304
 21
394.0307
  0
LINE
  8
0_00
  6
CONTINUOUS
 62
2
 10
162.9304
 20
414.6876
 11
147.9304
 21
399.6876
  0
LINE
  8
0_00
  6
CONTINUOUS
 62
2
 10
160.9304
 20
418.3444
 11
147.9304
 21
405.3444
  0
LINE
  8
0_00
  6
PHANTOM1
 62
2
 10
317.9304
 20
460.0387
 11
317.9304
 21
391.7561
  0
LINE
  8
0_00
  6
PHANTOM1
 62
2
 10
142.9304
 20
456.3622
 11
142.9304
 21
391.7561
  0
LINE
  8
0_00
  6
CONTINUOUS
 62
4
 10
162.9304
 20
396.2561
 11
162.9304
 21
391.7561
  0
LINE
  8
0_00
  6
CONTINUOUS
 62
4
 10
160.9304
 20
396.2561
 11
162.9304
 21
396.2561
  0
LINE
  8
0_00
  6
CONTINUOUS
 62
4
 10
160.9304
 20
406.2561
 11
160.9304
 21
396.2561
  0
LINE
  8
0_00
  6
CONTINUOUS
 62
4
 10
160.9304
 20
406.2561
 11
162.9304
 21
406.2561
  0
LINE
  8
0_00
  6
CONTINUOUS
 62
2
 10
162.9304
 20
392.0602
 11
162.6264
 21
391.7561
  0
LINE
  8
0_00
  6
CONTINUOUS
 62
2
 10
161.4695
 20
396.2561
 11
156.9695
 21
391.7561
  0
LINE
  8
0_00
  6
CONTINUOUS
 62
2
 10
160.9304
 20
401.3739
 11
151.3127
 21
391.7561
  0
LINE
  8
13_0D
  6
CONTINUOUS
 62
2
 10
230.4304
 20
467.7561
 11
237.4304
 21
467.7561
  0
LINE
  8
13_0D
  6
CONTINUOUS
 62
2
 10
237.4304
 20
467.7561
 11
237.4304
 21
468.1708
  0
LINE
  8
13_0D
  6
CONTINUOUS
 62
2
 10
237.4304
 20
468.1708
 11
230.4304
 21
468.1708
  0
LINE
  8
13_0D
  6
DASHED
 62
2
 10
233.4304
 20
467.7561
 11
233.4304
 21
422.9522
  0
LINE
  8
13_0D
  6
DASHED
 62
2
 10
232.8889
 20
467.7561
 11
232.8889
 21
422.0143
  0
LINE
  8
13_0D
  6
CONTINUOUS
 62
2
 10
230.4304
 20
467.7561
 11
223.4304
 21
467.7561
  0
LINE
  8
13_0D
  6
CONTINUOUS
 62
2
 10
223.4304
 20
467.7561
 11
223.4304
 21
468.1708
  0
LINE
  8
13_0D
  6
CONTINUOUS
 62
2
 10
223.4304
 20
468.1708
 11
230.4304
 21
468.1708
  0
LINE
  8
13_0D
  6
DASHED
 62
2
 10
227.4304
 20
467.7561
 11
227.4304
 21
422.9522
  0
LINE
  8
13_0D
  6
DASHED
 62
2
 10
227.9719
 20
467.7561
 11
227.9719
 21
422.0143
  0
LINE
  8
13_0D
  6
DASHED
 62
2
 10
230.4304
 20
417.7561
 11
227.4304
 21
422.9522
  0
LINE
  8
13_0D
  6
DASHED
 62
2
 10
230.4304
 20
417.7561
 11
233.4304
 21
422.9522
  0
LINE
  8
11_0B
  6
DASHED
 62
2
 10
226.4304
 20
467.7561
 11
226.4304
 21
455.8231
  0
LINE
  8
11_0B
  6
DASHED
 62
2
 10
225.7986
 20
452.6874
 11
225.6202
 21
450.6480
  0
LINE
  8
11_0B
  6
DASHED
 62
2
 10
225.3628
 20
447.7064
 11
225.1844
 21
445.6670
  0
LINE
  8
11_0B
  6
DASHED
 62
2
 10
224.9270
 20
442.7255
 11
224.7486
 21
440.6860
  0
LINE
  8
11_0B
  6
DASHED
 62
2
 10
224.4913
 20
437.7445
 11
224.3129
 21
435.7051
  0
LINE
  8
11_0B
  6
DASHED
 62
2
 10
224.0555
 20
432.7635
 11
223.8952
 21
430.9313
  0
LINE
  8
11_0B
  6
DASHED
 62
2
 10
234.4304
 20
467.7561
 11
234.4304
 21
455.8231
  0
LINE
  8
11_0B
  6
DASHED
 62
2
 10
235.0622
 20
452.6874
 11
235.2407
 21
450.6480
  0
LINE
  8
11_0B
  6
DASHED
 62
2
 10
235.4980
 20
447.7064
 11
235.6764
 21
445.6670
  0
LINE
  8
11_0B
  6
DASHED
 62
2
 10
235.9338
 20
442.7255
 11
236.1122
 21
440.6860
  0
LINE
  8
11_0B
  6
DASHED
 62
2
 10
236.3696
 20
437.7445
 11
236.5480
 21
435.7051
  0
LINE
  8
11_0B
  6
DASHED
 62
2
 10
236.8054
 20
432.7635
 11
236.9656
 21
430.9313
  0
LINE
  8
11_0B
  6
DASHED
 62
2
 10
229.9304
 20
459.7561
 11
230.9304
 21
459.7561
  0
LINE
  8
11_0B
  6
DASHED
 62
2
 10
230.9304
 20
459.7561
 11
233.7194
 21
427.8779
  0
LINE
  8
11_0B
  6
DASHED
 62
2
 10
227.1414
 20
427.8779
 11
229.9304
 21
459.7561
  0
LINE
  8
11_0B
  6
DASHED
 62
2
 10
225.1491
 20
428.0522
 11
227.1414
 21
427.8779
  0
LINE
  8
11_0B
  6
DASHED
 62
2
 10
233.7194
 20
427.8779
 11
235.7118
 21
428.0522
  0
LINE
  8
11_0B
  6
DASHED
 62
2
 10
235.7118
 20
428.0522
 11
236.9117
 21
430.6254
  0
LINE
  8
11_0B
  6
DASHED
 62
2
 10
225.1491
 20
428.0522
 11
223.9491
 21
430.6254
  0
LINE
  8
11_0B
  6
DASHED
 62
2
 10
223.8812
 20
430.7711
 11
227.3679
 21
430.4661
  0
LINE
  8
11_0B
  6
DASHED
 62
2
 10
233.4930
 20
430.4661
 11
236.9796
 21
430.7711
  0
LINE
  8
11_0B
  6
DASHED
 62
2
 10
224.0555
 20
432.7635
 11
226.2471
 21
432.5718
  0
LINE
  8
11_0B
  6
DASHED
 62
2
 10
234.6137
 20
432.5718
 11
236.8054
 21
432.7635
  0
LINE
  8
11_0B
  6
DASHED
 62
2
 10
224.4913
 20
437.7445
 11
226.6829
 21
437.5527
  0
LINE
  8
11_0B
  6
DASHED
 62
2
 10
234.1779
 20
437.5527
 11
236.3696
 21
437.7445
  0
LINE
  8
11_0B
  6
DASHED
 62
2
 10
224.9270
 20
442.7255
 11
227.1187
 21
442.5337
  0
LINE
  8
11_0B
  6
DASHED
 62
2
 10
233.7421
 20
442.5337
 11
235.9338
 21
442.7255
  0
LINE
  8
11_0B
  6
DASHED
 62
2
 10
225.3628
 20
447.7064
 11
227.5545
 21
447.5147
  0
LINE
  8
11_0B
  6
DASHED
 62
2
 10
233.3064
 20
447.5147
 11
235.4980
 21
447.7064
  0
LINE
  8
11_0B
  6
DASHED
 62
2
 10
225.7986
 20
452.6874
 11
227.3925
 21
452.5480
  0
LINE
  8
11_0B
  6
DASHED
 62
2
 10
233.4683
 20
452.5480
 11
235.0622
 21
452.6874
  0
LINE
  8
11_0B
  6
DASHED
 62
2
 10
227.3564
 20
449.8406
 11
227.1560
 21
447.5496
  0
LINE
  8
11_0B
  6
DASHED
 62
2
 10
226.9207
 20
444.8596
 11
226.7202
 21
442.5686
  0
LINE
  8
11_0B
  6
DASHED
 62
2
 10
226.4849
 20
439.8786
 11
226.2844
 21
437.5876
  0
LINE
  8
11_0B
  6
DASHED
 62
2
 10
226.0491
 20
434.8976
 11
225.8487
 21
432.6066
  0
LINE
  8
11_0B
  6
DASHED
 62
2
 10
235.0122
 20
432.6066
 11
234.8118
 21
434.8976
  0
LINE
  8
11_0B
  6
DASHED
 62
2
 10
234.5764
 20
437.5876
 11
234.3760
 21
439.8786
  0
LINE
  8
11_0B
  6
DASHED
 62
2
 10
234.1406
 20
442.5686
 11
233.9402
 21
444.8596
  0
LINE
  8
11_0B
  6
DASHED
 62
2
 10
233.7048
 20
447.5496
 11
233.5044
 21
449.8406
  0
LINE
  8
11_0B
  6
DASHED
 62
2
 10
234.5475
 20
434.8268
 11
236.2530
 21
435.2838
  0
LINE
  8
11_0B
  6
DASHED
 62
2
 10
226.4755
 20
434.7834
 11
224.6078
 21
435.2838
  0
LINE
  8
11_0B
  6
DASHED
 62
2
 10
234.1117
 20
439.8078
 11
235.8172
 21
440.2648
  0
LINE
  8
11_0B
  6
DASHED
 62
2
 10
226.7492
 20
439.8078
 11
225.0436
 21
440.2648
  0
LINE
  8
11_0B
  6
DASHED
 62
2
 10
233.6759
 20
444.7888
 11
235.3815
 21
445.2458
  0
LINE
  8
11_0B
  6
DASHED
 62
2
 10
227.1849
 20
444.7888
 11
225.4794
 21
445.2458
  0
LINE
  8
11_0B
  6
DASHED
 62
2
 10
233.2401
 20
449.7697
 11
234.9457
 21
450.2267
  0
LINE
  8
11_0B
  6
DASHED
 62
2
 10
227.6207
 20
449.7697
 11
225.9152
 21
450.2267
  0
LINE
  8
11_0B
  6
DASHED
 62
2
 10
227.1933
 20
452.5654
 11
227.4624
 21
455.6411
  0
LINE
  8
11_0B
  6
DASHED
 62
2
 10
233.6676
 20
452.5654
 11
233.3985
 21
455.6411
  0
LINE
  8
11_0B
  6
DASHED
 62
2
 10
227.9157
 20
449.3485
 11
227.7711
 21
447.6965
  0
LINE
  8
11_0B
  6
DASHED
 62
2
 10
227.4799
 20
444.3676
 11
227.3354
 21
442.7155
  0
LINE
  8
11_0B
  6
DASHED
 62
2
 10
227.0441
 20
439.3866
 11
226.8996
 21
437.7346
  0
LINE
  8
11_0B
  6
DASHED
 62
2
 10
226.6230
 20
434.5728
 11
226.4638
 21
432.7536
  0
LINE
  8
11_0B
  6
DASHED
 62
2
 10
234.3970
 20
432.7536
 11
234.2525
 21
434.4056
  0
LINE
  8
11_0B
  6
DASHED
 62
2
 10
233.9613
 20
437.7346
 11
233.8167
 21
439.3866
  0
LINE
  8
11_0B
  6
DASHED
 62
2
 10
233.5255
 20
442.7155
 11
233.3810
 21
444.3676
  0
LINE
  8
11_0B
  6
DASHED
 62
2
 10
233.0897
 20
447.6965
 11
232.9452
 21
449.3485
  0
LINE
  8
11_0B
  6
DASHED
 62
2
 10
227.4969
 20
455.6351
 11
226.4304
 21
455.8231
  0
LINE
  8
11_0B
  6
DASHED
 62
2
 10
233.3640
 20
455.6351
 11
234.4304
 21
455.8231
  0
LINE
  8
11_0B
  6
DASHED
 62
2
 10
235.4980
 20
447.7064
 11
238.2873
 21
453.6880
  0
LINE
  8
11_0B
  6
DASHED
 62
2
 10
237.3810
 20
454.1107
 11
234.3477
 21
447.6058
  0
LINE
  8
11_0B
  6
DASHED
 62
2
 10
225.3628
 20
447.7064
 11
222.5735
 21
453.6880
  0
LINE
  8
11_0B
  6
DASHED
 62
2
 10
223.4799
 20
454.1107
 11
226.5131
 21
447.6058
  0
LINE
  8
11_0B
  6
DASHED
 62
2
 10
238.0938
 20
454.2196
 11
237.9126
 21
454.3042
  0
LINE
  8
11_0B
  6
DASHED
 62
2
 10
222.7671
 20
454.2196
 11
222.9483
 21
454.3042
  0
LINE
  8
11_0B
  6
DASHED
 62
2
 10
227.8259
 20
455.2063
 11
227.6092
 21
452.7298
  0
LINE
  8
11_0B
  6
DASHED
 62
2
 10
233.0350
 20
455.2063
 11
233.5044
 21
449.8406
  0
LINE
  8
0_00
  6
CONTINUOUS
 62
6
 10
234.5883
 20
428.0258
 11
295.9692
 21
366.6448
  0
LINE
  8
0_00
  6
CONTINUOUS
 62
6
 10
234.5883
 20
428.0258
 11
237.3115
 21
423.8324
  0
LINE
  8
0_00
  6
CONTINUOUS
 62
6
 10
234.5883
 20
428.0258
 11
238.7816
 21
425.3025
  0
LINE
  8
0_00
  6
CONTINUOUS
 62
6
 10
261.9692
 20
400.6448
 11
371.4692
 21
400.6448
  0
LINE
  8
0_00
  6
CONTINUOUS
 62
6
 10
278.9692
 20
383.6448
 11
361.8693
 21
383.6448
  0
LINE
  8
0_00
  6
CONTINUOUS
 62
6
 10
295.9692
 20
366.6448
 11
371.4692
 21
366.6448
  0
LINE
  8
15_0F
  6
CONTINUOUS
 62
6
 10
327.9304
 20
419.4340
 11
327.9304
 21
410.3108
  0
LINE
  8
15_0F
  6
CONTINUOUS
 62
6
 10
327.9304
 20
355.9236
 11
327.9304
 21
342.2963
  0
LINE
  8
3_03
  6
CONTINUOUS
 62
4
 10
258.0304
 20
467.7561
 11
262.4304
 21
467.7561
  0
LINE
  8
3_03
  6
CONTINUOUS
 62
4
 10
263.0304
 20
467.7561
 11
267.4304
 21
467.7561
  0
LINE
  8
3_03
  6
CONTINUOUS
 62
4
 10
268.0304
 20
467.7561
 11
272.4304
 21
467.7561
  0
LINE
  8
3_03
  6
CONTINUOUS
 62
4
 10
178.1304
 20
470.2561
 11
178.1304
 21
467.7561
  0
LINE
  8
3_03
  6
CONTINUOUS
 62
4
 10
230.1304
 20
467.7561
 11
230.4304
 21
467.4561
  0
LINE
  8
3_03
  6
CONTINUOUS
 62
4
 10
230.4304
 20
467.4561
 11
230.7304
 21
467.7561
  0
LINE
  8
3_03
  6
CONTINUOUS
 62
4
 10
257.4304
 20
467.7561
 11
257.7304
 21
467.4561
  0
LINE
  8
3_03
  6
CONTINUOUS
 62
4
 10
257.7304
 20
467.4561
 11
258.0304
 21
467.7561
  0
LINE
  8
3_03
  6
CONTINUOUS
 62
4
 10
262.4304
 20
467.7561
 11
262.7304
 21
467.4561
  0
LINE
  8
3_03
  6
CONTINUOUS
 62
4
 10
262.7304
 20
467.4561
 11
263.0304
 21
467.7561
  0
LINE
  8
3_03
  6
CONTINUOUS
 62
4
 10
267.4304
 20
467.7561
 11
267.7304
 21
467.4561
  0
LINE
  8
3_03
  6
CONTINUOUS
 62
4
 10
267.7304
 20
467.4561
 11
268.0304
 21
467.7561
  0
LINE
  8
3_03
  6
CONTINUOUS
 62
4
 10
272.4304
 20
467.7561
 11
272.7304
 21
467.4561
  0
LINE
  8
3_03
  6
CONTINUOUS
 62
4
 10
272.7304
 20
467.4561
 11
273.0304
 21
467.7561
  0
LINE
  8
3_03
  6
CONTINUOUS
 62
4
 10
284.7304
 20
468.2561
 11
284.7304
 21
470.2561
  0
LINE
  8
3_03
  6
CONTINUOUS
 62
4
 10
176.1304
 20
470.2561
 11
176.1304
 21
468.2561
  0
LINE
  8
3_03
  6
CONTINUOUS
 62
4
 10
178.1304
 20
467.7561
 11
230.1304
 21
467.7561
  0
LINE
  8
3_03
  6
CONTINUOUS
 62
4
 10
273.0304
 20
467.7561
 11
282.7304
 21
467.7561
  0
LINE
  8
3_03
  6
CONTINUOUS
 62
4
 10
285.2304
 20
467.7561
 11
292.2304
 21
467.7561
  0
LINE
  8
3_03
  6
CONTINUOUS
 62
4
 10
272.4304
 20
467.7561
 11
272.7304
 21
467.4561
  0
LINE
  8
3_03
  6
CONTINUOUS
 62
4
 10
272.7304
 20
467.4561
 11
273.0304
 21
467.7561
  0
LINE
  8
3_03
  6
CONTINUOUS
 62
4
 10
145.9654
 20
481.6741
 11
148.1304
 21
481.6019
  0
LINE
  8
3_03
  6
CONTINUOUS
 62
4
 10
148.4404
 20
483.5927
 11
148.6304
 21
483.5864
  0
LINE
  8
3_03
  6
CONTINUOUS
 62
4
 10
148.1304
 20
481.6019
 11
148.1304
 21
483.2929
  0
LINE
  8
3_03
  6
CONTINUOUS
 62
4
 10
155.6304
 20
483.0629
 11
155.6304
 21
481.6688
  0
LINE
  8
3_03
  6
CONTINUOUS
 62
4
 10
148.6304
 20
483.3863
 11
148.6304
 21
483.5864
  0
LINE
  8
3_03
  6
CONTINUOUS
 62
4
 10
155.1304
 20
483.3697
 11
155.1304
 21
483.1696
  0
LINE
  8
3_03
  6
CONTINUOUS
 62
4
 10
146.8131
 20
479.4446
 11
150.3304
 21
479.3274
  0
LINE
  8
3_03
  6
CONTINUOUS
 62
4
 10
150.3304
 20
480.8115
 11
150.3304
 21
479.3274
  0
LINE
  8
3_03
  6
CONTINUOUS
 62
4
 10
155.1138
 20
481.1690
 11
150.8471
 21
481.3113
  0
LINE
  8
0_00
  6
CONTINUOUS
 62
4
 10
139.1304
 20
464.2561
 11
143.9848
 21
480.2555
  0
LINE
  8
0_00
  6
CONTINUOUS
 62
4
 10
145.8228
 20
478.7353
 11
142.4297
 21
467.5561
  0
LINE
  8
0_00
  6
CONTINUOUS
 62
4
 10
142.4297
 20
467.5561
 11
168.6304
 21
467.5561
  0
LINE
  8
0_00
  6
CONTINUOUS
 62
4
 10
142.8618
 20
464.2561
 11
317.9968
 21
464.2561
  0
LINE
  8
0_00
  6
CONTINUOUS
 62
4
 10
168.6304
 20
467.7561
 11
168.6304
 21
467.5561
  0
LINE
  8
0_00
  6
CONTINUOUS
 62
4
 10
168.6304
 20
467.7561
 11
175.6304
 21
467.7561
  0
LINE
  8
3_03
  6
CONTINUOUS
 62
4
 10
252.4304
 20
467.7561
 11
252.7304
 21
467.4561
  0
LINE
  8
3_03
  6
CONTINUOUS
 62
4
 10
252.7304
 20
467.4561
 11
253.0304
 21
467.7561
  0
LINE
  8
3_03
  6
CONTINUOUS
 62
4
 10
230.7304
 20
467.7561
 11
252.4304
 21
467.7561
  0
LINE
  8
3_03
  6
CONTINUOUS
 62
4
 10
253.0304
 20
467.7561
 11
257.4304
 21
467.7561
  0
LINE
  8
0_00
  6
CONTINUOUS
 62
4
 10
230.7304
 20
467.7561
 11
252.4304
 21
467.7561
  0
LINE
  8
0_00
  6
CONTINUOUS
 62
4
 10
253.0304
 20
467.7561
 11
257.4304
 21
467.7561
  0
LINE
  8
0_00
  6
CONTINUOUS
 62
4
 10
282.7304
 20
467.7561
 11
282.7304
 21
470.2561
  0
LINE
  8
0_00
  6
CONTINUOUS
 62
4
 10
292.2304
 20
467.5561
 11
317.3721
 21
467.5561
  0
LINE
  8
0_00
  6
CONTINUOUS
 62
4
 10
305.2304
 20
478.0562
 11
305.2304
 21
476.6488
  0
LINE
  8
3_03
  6
CONTINUOUS
 62
4
 10
148.6304
 20
483.3863
 11
155.1304
 21
483.1696
  0
LINE
  8
0_00
  6
CONTINUOUS
 62
4
 10
305.7304
 20
478.1496
 11
305.7304
 21
478.3497
  0
LINE
  8
0_00
  6
CONTINUOUS
 62
4
 10
312.2304
 20
477.9329
 11
312.2304
 21
478.1331
  0
LINE
  8
0_00
  6
CONTINUOUS
 62
4
 10
321.7304
 20
464.2561
 11
316.9066
 21
476.7575
  0
LINE
  8
0_00
  6
CONTINUOUS
 62
4
 10
314.2398
 20
475.8648
 11
305.7138
 21
476.1490
  0
LINE
  8
3_03
  6
CONTINUOUS
 62
4
 10
155.3404
 20
483.3628
 11
155.1304
 21
483.3697
  0
LINE
  8
0_00
  6
CONTINUOUS
 62
4
 10
312.2304
 20
477.9329
 11
305.7304
 21
478.1496
  0
LINE
  8
3_03
  6
CONTINUOUS
 62
4
 10
315.1071
 20
478.0371
 11
312.2304
 21
478.1331
  0
LINE
  8
3_03
  6
CONTINUOUS
 62
4
 10
305.7304
 20
478.3497
 11
305.5404
 21
478.3560
  0
LINE
  8
0_00
  6
CONTINUOUS
 62
4
 10
315.1396
 20
475.2250
 11
317.8386
 21
468.2360
  0
LINE
  8
15_0F
  6
CONTINUOUS
 62
4
 10
292.2304
 20
467.7561
 11
292.2304
 21
467.5561
  0
LINE
  8
0_00
  6
CONTINUOUS
 62
4
 10
136.5304
 20
424.4561
 11
142.3672
 21
463.8295
  0
LINE
  8
0_00
  6
CONTINUOUS
 62
4
 10
139.1304
 20
464.2561
 11
134.5404
 21
426.0230
  0
LINE
  8
0_00
  6
CONTINUOUS
 62
4
 10
135.9304
 20
424.4561
 11
136.5304
 21
424.4561
  0
LINE
  8
0_00
  6
CONTINUOUS
 62
4
 10
318.4918
 20
463.8268
 11
324.3304
 21
422.9561
  0
LINE
  8
0_00
  6
CONTINUOUS
 62
4
 10
321.7304
 20
464.2561
 11
326.3212
 21
424.5168
  0
LINE
  8
0_00
  6
CONTINUOUS
 62
4
 10
324.3304
 20
422.9561
 11
324.9304
 21
422.9561
  0
LINE
  8
6_06
  6
CONTINUOUS
 62
2
 10
306.2304
 20
478.1329
 11
306.2304
 21
480.1286
  0
LINE
  8
6_06
  6
CONTINUOUS
 62
2
 10
311.2304
 20
477.9662
 11
311.2304
 21
479.9619
  0
LINE
  8
6_06
  6
CONTINUOUS
 62
2
 10
154.6304
 20
483.1863
 11
154.6304
 21
485.1819
  0
LINE
  8
6_06
  6
CONTINUOUS
 62
2
 10
149.6304
 20
483.3530
 11
149.6304
 21
485.3485
  0
LINE
  8
0_00
  6
CONTINUOUS
 62
4
 10
138.6304
 20
424.3540
 11
138.4304
 21
424.1451
  0
LINE
  8
0_00
  6
CONTINUOUS
 62
4
 10
138.4304
 20
424.1451
 11
138.2304
 21
424.3366
  0
LINE
  8
0_00
  6
CONTINUOUS
 62
4
 10
134.5304
 20
484.4044
 11
134.5304
 21
425.6375
  0
LINE
  8
0_00
  6
CONTINUOUS
 62
4
 10
324.8694
 20
422.7390
 11
321.2653
 21
422.8964
  0
LINE
  8
0_00
  6
CONTINUOUS
 62
4
 10
276.0304
 20
481.1352
 11
275.7304
 21
480.8451
  0
LINE
  8
0_00
  6
CONTINUOUS
 62
4
 10
275.7304
 20
480.8451
 11
275.4304
 21
481.1552
  0
LINE
  8
0_00
  6
CONTINUOUS
 62
4
 10
275.4304
 20
481.1552
 11
275.1304
 21
480.8651
  0
LINE
  8
0_00
  6
CONTINUOUS
 62
4
 10
275.1304
 20
480.8651
 11
274.8304
 21
481.1752
  0
LINE
  8
0_00
  6
CONTINUOUS
 62
4
 10
276.0304
 20
481.1352
 11
324.9771
 21
479.5037
  0
LINE
  8
0_00
  6
CONTINUOUS
 62
4
 10
244.5304
 20
482.1852
 11
244.2304
 21
481.8951
  0
LINE
  8
0_00
  6
CONTINUOUS
 62
4
 10
244.2304
 20
481.8951
 11
243.9304
 21
482.2052
  0
LINE
  8
0_00
  6
CONTINUOUS
 62
4
 10
243.9304
 20
482.2052
 11
243.6304
 21
481.9151
  0
LINE
  8
0_00
  6
CONTINUOUS
 62
4
 10
243.6304
 20
481.9151
 11
243.3304
 21
482.2252
  0
LINE
  8
0_00
  6
CONTINUOUS
 62
4
 10
217.5304
 20
483.0852
 11
217.2304
 21
482.7950
  0
LINE
  8
0_00
  6
CONTINUOUS
 62
4
 10
217.2304
 20
482.7950
 11
216.9304
 21
483.1052
  0
LINE
  8
0_00
  6
CONTINUOUS
 62
4
 10
216.9304
 20
483.1052
 11
216.6304
 21
482.8151
  0
LINE
  8
0_00
  6
CONTINUOUS
 62
4
 10
216.6304
 20
482.8151
 11
216.3304
 21
483.1253
  0
LINE
  8
0_00
  6
CONTINUOUS
 62
4
 10
186.0304
 20
484.1352
 11
185.7304
 21
483.8451
  0
LINE
  8
0_00
  6
CONTINUOUS
 62
4
 10
185.7304
 20
483.8451
 11
185.4304
 21
484.1552
  0
LINE
  8
0_00
  6
CONTINUOUS
 62
4
 10
185.4304
 20
484.1552
 11
185.1304
 21
483.8651
  0
LINE
  8
0_00
  6
CONTINUOUS
 62
4
 10
185.1304
 20
483.8651
 11
184.8304
 21
484.1752
  0
LINE
  8
0_00
  6
CONTINUOUS
 62
4
 10
135.9771
 20
485.8037
 11
184.8304
 21
484.1752
  0
LINE
  8
0_00
  6
CONTINUOUS
 62
4
 10
186.0304
 20
484.1352
 11
216.3304
 21
483.1253
  0
LINE
  8
0_00
  6
CONTINUOUS
 62
4
 10
244.5304
 20
482.1852
 11
274.8304
 21
481.1752
  0
LINE
  8
0_00
  6
CONTINUOUS
 62
4
 10
231.0304
 20
482.6352
 11
230.7304
 21
482.3451
  0
LINE
  8
0_00
  6
CONTINUOUS
 62
4
 10
230.7304
 20
482.3451
 11
230.4304
 21
482.6552
  0
LINE
  8
0_00
  6
CONTINUOUS
 62
4
 10
230.4304
 20
482.6552
 11
230.1304
 21
482.3651
  0
LINE
  8
0_00
  6
CONTINUOUS
 62
4
 10
230.1304
 20
482.3651
 11
229.8304
 21
482.6752
  0
LINE
  8
0_00
  6
CONTINUOUS
 62
4
 10
217.5304
 20
483.0852
 11
229.8304
 21
482.6752
  0
LINE
  8
0_00
  6
CONTINUOUS
 62
4
 10
231.0304
 20
482.6352
 11
243.3304
 21
482.2252
  0
LINE
  8
0_00
  6
CONTINUOUS
 62
4
 10
135.9915
 20
424.2388
 11
138.2304
 21
424.3366
  0
LINE
  8
0_00
  6
CONTINUOUS
 62
4
 10
138.6304
 20
424.3540
 11
139.5955
 21
424.3961
  0
LINE
  8
0_00
  6
CONTINUOUS
 62
4
 10
325.0304
 20
481.1028
 11
136.0304
 21
487.4027
  0
LINE
  8
0_00
  6
CONTINUOUS
 62
4
 10
324.7996
 20
421.1405
 11
321.1955
 21
421.2979
  0
LINE
  8
0_00
  6
CONTINUOUS
 62
4
 10
327.9304
 20
478.1044
 11
327.9304
 21
424.1377
  0
LINE
  8
0_00
  6
CONTINUOUS
 62
4
 10
136.0613
 20
422.6403
 11
139.6653
 21
422.7977
  0
LINE
  8
0_00
  6
CONTINUOUS
 62
4
 10
132.9304
 20
484.4044
 11
132.9304
 21
425.6375
  0
LINE
  8
15_0F
  6
CONTINUOUS
 62
4
 10
326.3304
 20
463.2061
 11
326.0304
 21
463.5061
  0
LINE
  8
15_0F
  6
CONTINUOUS
 62
4
 10
326.0304
 20
463.5061
 11
326.3304
 21
463.8061
  0
LINE
  8
0_00
  6
CONTINUOUS
 62
4
 10
326.3304
 20
478.1044
 11
326.3304
 21
463.8061
  0
LINE
  8
15_0F
  6
CONTINUOUS
 62
4
 10
326.3304
 20
458.2061
 11
326.0304
 21
458.5061
  0
LINE
  8
15_0F
  6
CONTINUOUS
 62
4
 10
326.0304
 20
458.5061
 11
326.3304
 21
458.8061
  0
LINE
  8
15_0F
  6
CONTINUOUS
 62
4
 10
326.3304
 20
453.2061
 11
326.0304
 21
453.5061
  0
LINE
  8
15_0F
  6
CONTINUOUS
 62
4
 10
326.0304
 20
453.5061
 11
326.3304
 21
453.8061
  0
LINE
  8
15_0F
  6
CONTINUOUS
 62
4
 10
326.3304
 20
448.2061
 11
326.0304
 21
448.5061
  0
LINE
  8
15_0F
  6
CONTINUOUS
 62
4
 10
326.0304
 20
448.5061
 11
326.3304
 21
448.8061
  0
LINE
  8
15_0F
  6
CONTINUOUS
 62
4
 10
326.3304
 20
443.2061
 11
326.0304
 21
443.5061
  0
LINE
  8
15_0F
  6
CONTINUOUS
 62
4
 10
326.0304
 20
443.5061
 11
326.3304
 21
443.8061
  0
LINE
  8
0_00
  6
CONTINUOUS
 62
4
 10
326.3304
 20
443.2061
 11
326.3304
 21
424.1377
  0
LINE
  8
0_00
  6
CONTINUOUS
 62
4
 10
326.3304
 20
448.2061
 11
326.3304
 21
443.8061
  0
LINE
  8
0_00
  6
CONTINUOUS
 62
4
 10
326.3304
 20
453.2061
 11
326.3304
 21
448.8061
  0
LINE
  8
0_00
  6
CONTINUOUS
 62
4
 10
326.3304
 20
463.2061
 11
326.3304
 21
458.8061
  0
LINE
  8
0_00
  6
CONTINUOUS
 62
4
 10
326.3304
 20
458.2061
 11
326.3304
 21
453.8061
  0
LINE
  8
6_06
  6
CONTINUOUS
 62
2
 10
306.2304
 20
479.3683
 11
306.9662
 21
480.1040
  0
LINE
  8
6_06
  6
CONTINUOUS
 62
2
 10
306.2304
 20
478.6612
 11
307.6505
 21
480.0813
  0
LINE
  8
6_06
  6
CONTINUOUS
 62
2
 10
306.4035
 20
478.1272
 11
308.3348
 21
480.0584
  0
LINE
  8
6_06
  6
CONTINUOUS
 62
2
 10
307.0878
 20
478.1044
 11
309.0191
 21
480.0356
  0
LINE
  8
6_06
  6
CONTINUOUS
 62
2
 10
307.7721
 20
478.0815
 11
309.7034
 21
480.0128
  0
LINE
  8
6_06
  6
CONTINUOUS
 62
2
 10
308.4564
 20
478.0587
 11
310.3877
 21
479.9900
  0
LINE
  8
6_06
  6
CONTINUOUS
 62
2
 10
309.1407
 20
478.0359
 11
311.0720
 21
479.9672
  0
LINE
  8
6_06
  6
CONTINUOUS
 62
2
 10
309.8250
 20
478.0131
 11
311.2304
 21
479.4185
  0
LINE
  8
6_06
  6
CONTINUOUS
 62
2
 10
310.5093
 20
477.9903
 11
311.2304
 21
478.7114
  0
LINE
  8
6_06
  6
CONTINUOUS
 62
2
 10
311.1936
 20
477.9675
 11
311.2304
 21
478.0043
  0
LINE
  8
6_06
  6
CONTINUOUS
 62
2
 10
149.6304
 20
484.5883
 11
150.3662
 21
485.3241
  0
LINE
  8
6_06
  6
CONTINUOUS
 62
2
 10
149.6304
 20
483.8812
 11
151.0505
 21
485.3012
  0
LINE
  8
6_06
  6
CONTINUOUS
 62
2
 10
149.8035
 20
483.3472
 11
151.7348
 21
485.2784
  0
LINE
  8
6_06
  6
CONTINUOUS
 62
2
 10
150.4878
 20
483.3243
 11
152.4191
 21
485.2556
  0
LINE
  8
6_06
  6
CONTINUOUS
 62
2
 10
151.1721
 20
483.3015
 11
153.1034
 21
485.2328
  0
LINE
  8
6_06
  6
CONTINUOUS
 62
2
 10
151.8564
 20
483.2788
 11
153.7877
 21
485.2100
  0
LINE
  8
6_06
  6
CONTINUOUS
 62
2
 10
152.5407
 20
483.2559
 11
154.4720
 21
485.1872
  0
LINE
  8
6_06
  6
CONTINUOUS
 62
2
 10
153.2250
 20
483.2331
 11
154.6304
 21
484.6385
  0
LINE
  8
6_06
  6
CONTINUOUS
 62
2
 10
153.9093
 20
483.2103
 11
154.6304
 21
483.9314
  0
LINE
  8
6_06
  6
CONTINUOUS
 62
2
 10
154.5936
 20
483.1875
 11
154.6304
 21
483.2243
  0
LINE
  8
0_00
  6
CENTER1
 62
6
 10
618.9410
 20
490.8939
 11
618.9410
 21
380.6980
  0
LINE
  8
15_0F
  6
CONTINUOUS
 62
6
 10
523.9410
 20
382.1079
 11
523.9410
 21
342.2963
  0
LINE
  8
15_0F
  6
CONTINUOUS
 62
6
 10
513.9410
 20
345.2963
 11
523.9410
 21
345.2963
  0
LINE
  8
15_0F
  6
CONTINUOUS
 62
6
 10
492.3411
 20
345.2963
 11
513.9410
 21
345.2963
  0
LINE
  8
15_0F
  6
CONTINUOUS
 62
6
 10
513.9410
 20
345.2963
 11
509.0503
 21
346.3358
  0
LINE
  8
15_0F
  6
CONTINUOUS
 62
6
 10
513.9410
 20
345.2963
 11
509.0503
 21
344.2567
  0
LINE
  8
15_0F
  6
CONTINUOUS
 62
6
 10
528.9410
 20
382.1079
 11
528.9410
 21
342.2963
  0
LINE
  8
15_0F
  6
CONTINUOUS
 62
6
 10
523.9410
 20
345.2963
 11
528.9410
 21
345.2963
  0
LINE
  8
15_0F
  6
CONTINUOUS
 62
6
 10
528.9410
 20
345.2963
 11
708.9410
 21
345.2963
  0
LINE
  8
15_0F
  6
CONTINUOUS
 62
6
 10
528.9410
 20
345.2963
 11
533.8318
 21
344.2567
  0
LINE
  8
15_0F
  6
CONTINUOUS
 62
6
 10
528.9410
 20
345.2963
 11
533.8318
 21
346.3358
  0
LINE
  8
15_0F
  6
CONTINUOUS
 62
6
 10
708.9410
 20
345.2963
 11
704.0503
 21
346.3358
  0
LINE
  8
15_0F
  6
CONTINUOUS
 62
6
 10
708.9410
 20
345.2963
 11
704.0503
 21
344.2567
  0
LINE
  8
15_0F
  6
CONTINUOUS
 62
6
 10
708.9410
 20
345.2963
 11
713.9410
 21
345.2963
  0
LINE
  8
15_0F
  6
CONTINUOUS
 62
6
 10
713.9410
 20
345.2963
 11
723.9410
 21
345.2963
  0
LINE
  8
15_0F
  6
CONTINUOUS
 62
6
 10
745.5410
 20
345.2963
 11
723.9410
 21
345.2963
  0
LINE
  8
15_0F
  6
CONTINUOUS
 62
6
 10
723.9410
 20
345.2963
 11
728.8318
 21
344.2567
  0
LINE
  8
15_0F
  6
CONTINUOUS
 62
6
 10
723.9410
 20
345.2963
 11
728.8318
 21
346.3358
  0
LINE
  8
0_00
  6
CONTINUOUS
 62
6
 10
596.4410
 20
552.1725
 11
641.4410
 21
552.1725
  0
LINE
  8
0_00
  6
CONTINUOUS
 62
6
 10
596.4410
 20
552.1725
 11
641.4410
 21
550.6725
  0
LINE
  8
0_00
  6
CONTINUOUS
 62
6
 10
641.4410
 20
552.1725
 11
641.4410
 21
550.6725
  0
LINE
  8
0_00
  6
CONTINUOUS
 62
6
 10
713.5634
 20
472.1035
 11
735.0480
 21
493.5881
  0
LINE
  8
0_00
  6
CONTINUOUS
 62
6
 10
713.5634
 20
472.1035
 11
717.7567
 21
474.8266
  0
LINE
  8
0_00
  6
CONTINUOUS
 62
6
 10
713.5634
 20
472.1035
 11
716.2865
 21
476.2968
  0
LINE
  8
0_00
  6
CONTINUOUS
 62
6
 10
735.0480
 20
493.5881
 11
779.4480
 21
493.5881
  0
LINE
  8
0_00
  6
CONTINUOUS
 62
6
 10
639.5374
 20
484.0362
 11
659.1648
 21
503.6637
  0
LINE
  8
0_00
  6
CONTINUOUS
 62
6
 10
639.5374
 20
484.0362
 11
643.7307
 21
486.7594
  0
LINE
  8
0_00
  6
CONTINUOUS
 62
6
 10
639.5374
 20
484.0362
 11
642.2606
 21
488.2296
  0
LINE
  8
0_00
  6
CONTINUOUS
 62
6
 10
659.1648
 20
503.6637
 11
689.1648
 21
503.6637
  0
LINE
  8
15_0F
  6
CONTINUOUS
 62
6
 10
513.9410
 20
416.5513
 11
513.9410
 21
342.2963
  0
LINE
  8
6_06
  6
CONTINUOUS
 62
4
 10
513.9410
 20
425.7561
 11
513.9410
 21
484.6544
  0
LINE
  8
6_06
  6
CONTINUOUS
 62
4
 10
516.9411
 20
487.6561
 11
721.0410
 21
480.8528
  0
LINE
  8
6_06
  6
CONTINUOUS
 62
4
 10
723.9410
 20
477.8544
 11
723.9410
 21
423.7561
  0
LINE
  8
6_06
  6
CONTINUOUS
 62
4
 10
520.5881
 20
422.9473
 11
516.9410
 21
422.7561
  0
LINE
  8
6_06
  6
CONTINUOUS
 62
4
 10
720.9410
 20
420.7561
 11
717.3409
 21
420.9448
  0
LINE
  8
6_06
  6
CONTINUOUS
 62
4
 10
520.5410
 20
424.7473
 11
516.9045
 21
424.5566
  0
LINE
  8
6_06
  6
CONTINUOUS
 62
4
 10
515.7410
 20
425.7561
 11
515.7410
 21
484.6544
  0
LINE
  8
6_06
  6
CONTINUOUS
 62
4
 10
516.9810
 20
485.8538
 11
720.9810
 21
479.0538
  0
LINE
  8
6_06
  6
CONTINUOUS
 62
4
 10
722.1411
 20
477.8544
 11
722.1411
 21
423.7561
  0
LINE
  8
6_06
  6
CONTINUOUS
 62
4
 10
720.7793
 20
422.5671
 11
717.3411
 21
422.7473
  0
LINE
  8
6_06
  6
CONTINUOUS
 62
2
 10
535.6411
 20
483.2893
 11
535.6411
 21
485.2318
  0
LINE
  8
6_06
  6
CONTINUOUS
 62
2
 10
530.6411
 20
483.4560
 11
530.6411
 21
485.3984
  0
LINE
  8
6_06
  6
CONTINUOUS
 62
2
 10
702.2411
 20
477.7360
 11
702.2411
 21
479.6785
  0
LINE
  8
6_06
  6
CONTINUOUS
 62
2
 10
707.2411
 20
477.5693
 11
707.2411
 21
479.5118
  0
LINE
  8
3_03
  6
CONTINUOUS
 62
4
 10
516.9410
 20
424.6561
 11
517.6411
 21
424.6561
  0
LINE
  8
3_03
  6
CONTINUOUS
 62
4
 10
720.2411
 20
422.6561
 11
720.9410
 21
422.6561
  0
LINE
  8
3_03
  6
CONTINUOUS
 62
4
 10
517.6411
 20
424.6561
 11
523.3784
 21
463.8286
  0
LINE
  8
3_03
  6
CONTINUOUS
 62
4
 10
520.1411
 20
464.2561
 11
515.6411
 21
425.9561
  0
LINE
  8
3_03
  6
CONTINUOUS
 62
4
 10
722.2411
 20
423.9561
 11
717.7411
 21
464.2561
  0
LINE
  8
3_03
  6
CONTINUOUS
 62
4
 10
714.5011
 20
463.8252
 11
720.2411
 21
422.6561
  0
LINE
  8
3_03
  6
CONTINUOUS
 62
4
 10
523.8732
 20
464.2561
 11
714.0059
 21
464.2561
  0
LINE
  8
3_03
  6
CONTINUOUS
 62
4
 10
566.6411
 20
467.7561
 11
618.6411
 21
467.7561
  0
LINE
  8
3_03
  6
CONTINUOUS
 62
4
 10
619.2410
 20
467.7561
 11
660.9410
 21
467.7561
  0
LINE
  8
3_03
  6
CONTINUOUS
 62
4
 10
661.5410
 20
467.7561
 11
671.2410
 21
467.7561
  0
LINE
  8
3_03
  6
CONTINUOUS
 62
4
 10
673.7410
 20
467.7561
 11
688.2411
 21
467.7561
  0
LINE
  8
3_03
  6
CONTINUOUS
 62
4
 10
566.6411
 20
480.7561
 11
566.6411
 21
467.7561
  0
LINE
  8
3_03
  6
CONTINUOUS
 62
4
 10
671.2410
 20
477.2561
 11
671.2410
 21
467.7561
  0
LINE
  8
3_03
  6
CONTINUOUS
 62
4
 10
618.6411
 20
467.7561
 11
618.9410
 21
467.4561
  0
LINE
  8
3_03
  6
CONTINUOUS
 62
4
 10
618.9410
 20
467.4561
 11
619.2410
 21
467.7561
  0
LINE
  8
3_03
  6
CONTINUOUS
 62
4
 10
660.9410
 20
467.7561
 11
661.2410
 21
467.4561
  0
LINE
  8
3_03
  6
CONTINUOUS
 62
4
 10
661.2410
 20
467.4561
 11
661.5410
 21
467.7561
  0
LINE
  8
3_03
  6
CONTINUOUS
 62
4
 10
520.1411
 20
464.2561
 11
524.9969
 21
480.3558
  0
LINE
  8
3_03
  6
CONTINUOUS
 62
4
 10
712.9245
 20
476.3793
 11
717.7411
 21
464.2561
  0
LINE
  8
3_03
  6
CONTINUOUS
 62
4
 10
524.1073
 20
467.5561
 11
549.6411
 21
467.5561
  0
LINE
  8
3_03
  6
CONTINUOUS
 62
4
 10
529.1411
 20
483.3960
 11
529.1411
 21
481.7050
  0
LINE
  8
14_0E
  6
CONTINUOUS
 62
4
 10
536.6411
 20
483.1659
 11
536.6411
 21
481.7719
  0
LINE
  8
3_03
  6
CONTINUOUS
 62
4
 10
564.6411
 20
480.7561
 11
564.6411
 21
468.2561
  0
LINE
  8
3_03
  6
CONTINUOUS
 62
4
 10
688.2411
 20
467.5561
 11
713.3260
 21
467.5561
  0
LINE
  8
3_03
  6
CONTINUOUS
 62
4
 10
549.6411
 20
467.7561
 11
549.6411
 21
467.5561
  0
LINE
  8
3_03
  6
CONTINUOUS
 62
4
 10
688.2411
 20
467.7561
 11
688.2411
 21
467.5561
  0
LINE
  8
3_03
  6
CONTINUOUS
 62
4
 10
673.2410
 20
477.2561
 11
673.2410
 21
468.2561
  0
LINE
  8
14_0E
  6
CONTINUOUS
 62
4
 10
529.6411
 20
483.6895
 11
529.6411
 21
483.4893
  0
LINE
  8
14_0E
  6
CONTINUOUS
 62
4
 10
536.1411
 20
483.4728
 11
536.1411
 21
483.2727
  0
LINE
  8
3_03
  6
CONTINUOUS
 62
4
 10
701.2411
 20
476.2518
 11
701.2411
 21
477.6593
  0
LINE
  8
3_03
  6
CONTINUOUS
 62
4
 10
701.7411
 20
477.7527
 11
701.7411
 21
477.9528
  0
LINE
  8
3_03
  6
CONTINUOUS
 62
4
 10
708.2411
 20
477.5360
 11
708.2411
 21
477.7361
  0
LINE
  8
3_03
  6
CONTINUOUS
 62
4
 10
529.6411
 20
483.4893
 11
536.1411
 21
483.2727
  0
LINE
  8
3_03
  6
CONTINUOUS
 62
4
 10
526.9783
 20
481.7771
 11
529.1411
 21
481.7050
  0
LINE
  8
3_03
  6
CONTINUOUS
 62
4
 10
529.4510
 20
483.6958
 11
529.6411
 21
483.6895
  0
LINE
  8
3_03
  6
CONTINUOUS
 62
4
 10
536.3511
 20
483.4658
 11
536.1411
 21
483.4728
  0
LINE
  8
3_03
  6
CONTINUOUS
 62
4
 10
711.1324
 20
477.6397
 11
708.2411
 21
477.7361
  0
LINE
  8
3_03
  6
CONTINUOUS
 62
4
 10
701.7411
 20
477.9528
 11
701.5510
 21
477.9591
  0
LINE
  8
3_03
  6
CONTINUOUS
 62
4
 10
708.2411
 20
477.5360
 11
701.7411
 21
477.7527
  0
LINE
  8
3_03
  6
CONTINUOUS
 62
4
 10
564.1411
 20
467.7561
 11
549.6411
 21
467.7561
  0
LINE
  8
3_03
  6
CONTINUOUS
 62
4
 10
523.6286
 20
468.2005
 11
526.8367
 21
478.8369
  0
LINE
  8
3_03
  6
CONTINUOUS
 62
4
 10
531.3411
 20
480.9146
 11
531.3411
 21
479.4305
  0
LINE
  8
3_03
  6
CONTINUOUS
 62
4
 10
536.1244
 20
481.2721
 11
531.8577
 21
481.4143
  0
LINE
  8
3_03
  6
CONTINUOUS
 62
4
 10
527.8274
 20
479.5476
 11
531.3411
 21
479.4305
  0
LINE
  8
3_03
  6
CONTINUOUS
 62
4
 10
701.7244
 20
475.7521
 11
710.2740
 21
475.4671
  0
LINE
  8
3_03
  6
CONTINUOUS
 62
4
 10
711.1700
 20
474.8369
 11
713.7906
 21
468.2407
  0
LINE
  8
6_06
  6
CONTINUOUS
 62
2
 10
530.6411
 20
484.6913
 11
531.3253
 21
485.3756
  0
LINE
  8
6_06
  6
CONTINUOUS
 62
2
 10
530.6411
 20
483.9843
 11
532.0096
 21
485.3529
  0
LINE
  8
6_06
  6
CONTINUOUS
 62
2
 10
530.8141
 20
483.4503
 11
532.6940
 21
485.3300
  0
LINE
  8
6_06
  6
CONTINUOUS
 62
2
 10
531.4985
 20
483.4274
 11
533.3782
 21
485.3072
  0
LINE
  8
6_06
  6
CONTINUOUS
 62
2
 10
532.1827
 20
483.4046
 11
534.0625
 21
485.2844
  0
LINE
  8
6_06
  6
CONTINUOUS
 62
2
 10
532.8671
 20
483.3818
 11
534.7468
 21
485.2616
  0
LINE
  8
6_06
  6
CONTINUOUS
 62
2
 10
533.5513
 20
483.3590
 11
535.4312
 21
485.2388
  0
LINE
  8
6_06
  6
CONTINUOUS
 62
2
 10
534.2357
 20
483.3362
 11
535.6411
 21
484.7416
  0
LINE
  8
6_06
  6
CONTINUOUS
 62
2
 10
534.9199
 20
483.3134
 11
535.6411
 21
484.0345
  0
LINE
  8
6_06
  6
CONTINUOUS
 62
2
 10
535.6042
 20
483.2906
 11
535.6411
 21
483.3274
  0
LINE
  8
6_06
  6
CONTINUOUS
 62
2
 10
702.2411
 20
478.9713
 11
702.9254
 21
479.6557
  0
LINE
  8
6_06
  6
CONTINUOUS
 62
2
 10
702.2411
 20
478.2642
 11
703.6096
 21
479.6328
  0
LINE
  8
6_06
  6
CONTINUOUS
 62
2
 10
702.4142
 20
477.7302
 11
704.2939
 21
479.6100
  0
LINE
  8
6_06
  6
CONTINUOUS
 62
2
 10
703.0984
 20
477.7074
 11
704.9783
 21
479.5872
  0
LINE
  8
6_06
  6
CONTINUOUS
 62
2
 10
703.7827
 20
477.6847
 11
705.6625
 21
479.5644
  0
LINE
  8
6_06
  6
CONTINUOUS
 62
2
 10
704.4670
 20
477.6618
 11
706.3468
 21
479.5416
  0
LINE
  8
6_06
  6
CONTINUOUS
 62
2
 10
705.1514
 20
477.6390
 11
707.0311
 21
479.5188
  0
LINE
  8
6_06
  6
CONTINUOUS
 62
2
 10
705.8356
 20
477.6161
 11
707.2411
 21
479.0216
  0
LINE
  8
6_06
  6
CONTINUOUS
 62
2
 10
706.5199
 20
477.5934
 11
707.2411
 21
478.3145
  0
LINE
  8
6_06
  6
CONTINUOUS
 62
2
 10
707.2042
 20
477.5705
 11
707.2411
 21
477.6074
  0
LINE
  8
0_00
  6
PHANTOM1
 62
2
 10
713.9410
 20
460.0387
 11
713.9410
 21
409.3755
  0
LINE
  8
0_00
  6
PHANTOM1
 62
2
 10
523.9410
 20
456.3622
 11
523.9410
 21
391.7561
  0
LINE
  8
0_00
  6
CONTINUOUS
 62
6
 10
650.4799
 20
400.6448
 11
707.4799
 21
400.6448
  0
LINE
  8
0_00
  6
CONTINUOUS
 62
6
 10
667.4799
 20
383.6448
 11
713.8799
 21
383.6448
  0
LINE
  8
0_00
  6
CONTINUOUS
 62
6
 10
684.4799
 20
366.6448
 11
737.4799
 21
366.6448
  0
LINE
  8
0_00
  6
CONTINUOUS
 62
4
 10
700.9410
 20
464.2561
 11
528.9410
 21
464.2561
  0
LINE
  8
0_00
  6
CONTINUOUS
 62
4
 10
708.9410
 20
411.0430
 11
708.9410
 21
456.2561
  0
LINE
  8
0_00
  6
CONTINUOUS
 62
4
 10
700.9410
 20
456.2561
 11
700.9410
 21
411.0430
  0
LINE
  8
0_00
  6
CONTINUOUS
 62
4
 10
700.9410
 20
456.2561
 11
528.9410
 21
456.2561
  0
LINE
  8
0_00
  6
CONTINUOUS
 62
2
 10
536.9410
 20
464.2561
 11
536.9410
 21
456.2561
  0
LINE
  8
0_00
  6
CONTINUOUS
 62
2
 10
534.4955
 20
463.8732
 11
536.9410
 21
461.4277
  0
LINE
  8
0_00
  6
CONTINUOUS
 62
2
 10
532.5784
 20
462.9619
 11
536.9410
 21
458.5992
  0
LINE
  8
0_00
  6
CONTINUOUS
 62
2
 10
531.0468
 20
461.6652
 11
536.4557
 21
456.2561
  0
LINE
  8
0_00
  6
CONTINUOUS
 62
2
 10
529.8754
 20
460.0081
 11
533.6273
 21
456.2561
  0
LINE
  8
0_00
  6
CONTINUOUS
 62
2
 10
529.1193
 20
457.9357
 11
530.7989
 21
456.2561
  0
LINE
  8
0_00
  6
CONTINUOUS
 62
2
 10
701.0077
 20
458.9228
 11
536.9410
 21
458.9228
  0
LINE
  8
0_00
  6
CONTINUOUS
 62
2
 10
700.5743
 20
461.5894
 11
536.9410
 21
461.5894
  0
LINE
  8
0_00
  6
CONTINUOUS
 62
2
 10
703.6077
 20
456.3228
 11
703.6077
 21
411.0430
  0
LINE
  8
0_00
  6
CONTINUOUS
 62
2
 10
706.2744
 20
455.8895
 11
706.2744
 21
411.0430
  0
LINE
  8
0_00
  6
CONTINUOUS
 62
2
 10
584.8822
 20
456.2561
 11
528.9410
 21
400.3150
  0
LINE
  8
0_00
  6
CONTINUOUS
 62
2
 10
582.0537
 20
456.2561
 11
528.9410
 21
403.1434
  0
LINE
  8
0_00
  6
CONTINUOUS
 62
2
 10
579.2253
 20
456.2561
 11
528.9410
 21
405.9719
  0
LINE
  8
0_00
  6
CONTINUOUS
 62
2
 10
647.1075
 20
456.2561
 11
582.6075
 21
391.7561
  0
LINE
  8
0_00
  6
CONTINUOUS
 62
2
 10
644.2792
 20
456.2561
 11
579.7792
 21
391.7561
  0
LINE
  8
0_00
  6
CONTINUOUS
 62
2
 10
641.4507
 20
456.2561
 11
576.9507
 21
391.7561
  0
LINE
  8
0_00
  6
CONTINUOUS
 62
2
 10
700.9410
 20
450.6926
 11
642.0045
 21
391.7561
  0
LINE
  8
0_00
  6
CONTINUOUS
 62
2
 10
700.9410
 20
447.8642
 11
644.8329
 21
391.7561
  0
LINE
  8
0_00
  6
CONTINUOUS
 62
2
 10
700.9410
 20
453.5211
 11
639.1761
 21
391.7561
  0
LINE
  8
13_0D
  6
DASHED
 62
2
 10
618.9410
 20
417.7561
 11
615.9410
 21
422.9522
  0
LINE
  8
13_0D
  6
DASHED
 62
2
 10
618.9410
 20
417.7561
 11
621.9410
 21
422.9522
  0
LINE
  8
11_0B
  6
DASHED
 62
2
 10
614.9410
 20
467.7561
 11
614.9410
 21
455.8231
  0
LINE
  8
11_0B
  6
DASHED
 62
2
 10
614.3093
 20
452.6874
 11
614.1308
 21
450.6480
  0
LINE
  8
11_0B
  6
DASHED
 62
2
 10
613.8735
 20
447.7064
 11
613.6951
 21
445.6670
  0
LINE
  8
11_0B
  6
DASHED
 62
2
 10
613.4377
 20
442.7255
 11
613.2593
 21
440.6860
  0
LINE
  8
11_0B
  6
DASHED
 62
2
 10
613.0019
 20
437.7445
 11
612.8235
 21
435.7051
  0
LINE
  8
11_0B
  6
DASHED
 62
2
 10
612.5662
 20
432.7635
 11
612.4058
 21
430.9313
  0
LINE
  8
11_0B
  6
DASHED
 62
2
 10
622.9410
 20
467.7561
 11
622.9410
 21
455.8231
  0
LINE
  8
11_0B
  6
DASHED
 62
2
 10
623.5729
 20
452.6874
 11
623.7513
 21
450.6480
  0
LINE
  8
11_0B
  6
DASHED
 62
2
 10
624.0086
 20
447.7064
 11
624.1871
 21
445.6670
  0
LINE
  8
11_0B
  6
DASHED
 62
2
 10
624.4444
 20
442.7255
 11
624.6228
 21
440.6860
  0
LINE
  8
11_0B
  6
DASHED
 62
2
 10
624.8802
 20
437.7445
 11
625.0586
 21
435.7051
  0
LINE
  8
11_0B
  6
DASHED
 62
2
 10
625.3160
 20
432.7635
 11
625.4763
 21
430.9313
  0
LINE
  8
11_0B
  6
DASHED
 62
2
 10
618.4410
 20
459.7561
 11
619.4410
 21
459.7561
  0
LINE
  8
11_0B
  6
DASHED
 62
2
 10
619.4410
 20
459.7561
 11
622.2300
 21
427.8779
  0
LINE
  8
11_0B
  6
DASHED
 62
2
 10
615.6521
 20
427.8779
 11
618.4410
 21
459.7561
  0
LINE
  8
11_0B
  6
DASHED
 62
2
 10
613.6597
 20
428.0522
 11
615.6521
 21
427.8779
  0
LINE
  8
11_0B
  6
DASHED
 62
2
 10
622.2300
 20
427.8779
 11
624.2224
 21
428.0522
  0
LINE
  8
11_0B
  6
DASHED
 62
2
 10
624.2224
 20
428.0522
 11
625.4224
 21
430.6254
  0
LINE
  8
11_0B
  6
DASHED
 62
2
 10
613.6597
 20
428.0522
 11
612.4598
 21
430.6254
  0
LINE
  8
11_0B
  6
DASHED
 62
2
 10
612.3918
 20
430.7711
 11
615.8785
 21
430.4661
  0
LINE
  8
11_0B
  6
DASHED
 62
2
 10
622.0036
 20
430.4661
 11
625.4903
 21
430.7711
  0
LINE
  8
11_0B
  6
DASHED
 62
2
 10
612.5662
 20
432.7635
 11
614.7578
 21
432.5718
  0
LINE
  8
11_0B
  6
DASHED
 62
2
 10
623.1243
 20
432.5718
 11
625.3160
 21
432.7635
  0
LINE
  8
11_0B
  6
DASHED
 62
2
 10
613.0019
 20
437.7445
 11
615.1935
 21
437.5527
  0
LINE
  8
11_0B
  6
DASHED
 62
2
 10
622.6885
 20
437.5527
 11
624.8802
 21
437.7445
  0
LINE
  8
11_0B
  6
DASHED
 62
2
 10
613.4377
 20
442.7255
 11
615.6293
 21
442.5337
  0
LINE
  8
11_0B
  6
DASHED
 62
2
 10
622.2528
 20
442.5337
 11
624.4444
 21
442.7255
  0
LINE
  8
11_0B
  6
DASHED
 62
2
 10
613.8735
 20
447.7064
 11
616.0651
 21
447.5147
  0
LINE
  8
11_0B
  6
DASHED
 62
2
 10
621.8170
 20
447.5147
 11
624.0086
 21
447.7064
  0
LINE
  8
11_0B
  6
DASHED
 62
2
 10
614.3093
 20
452.6874
 11
615.9031
 21
452.5480
  0
LINE
  8
11_0B
  6
DASHED
 62
2
 10
621.9789
 20
452.5480
 11
623.5729
 21
452.6874
  0
LINE
  8
11_0B
  6
DASHED
 62
2
 10
615.8671
 20
449.8406
 11
615.6666
 21
447.5496
  0
LINE
  8
11_0B
  6
DASHED
 62
2
 10
615.4313
 20
444.8596
 11
615.2308
 21
442.5686
  0
LINE
  8
11_0B
  6
DASHED
 62
2
 10
614.9955
 20
439.8786
 11
614.7950
 21
437.5876
  0
LINE
  8
11_0B
  6
DASHED
 62
2
 10
614.5597
 20
434.8976
 11
614.3593
 21
432.6066
  0
LINE
  8
11_0B
  6
DASHED
 62
2
 10
623.5228
 20
432.6066
 11
623.3224
 21
434.8976
  0
LINE
  8
11_0B
  6
DASHED
 62
2
 10
623.0870
 20
437.5876
 11
622.8866
 21
439.8786
  0
LINE
  8
11_0B
  6
DASHED
 62
2
 10
622.6512
 20
442.5686
 11
622.4508
 21
444.8596
  0
LINE
  8
11_0B
  6
DASHED
 62
2
 10
622.2155
 20
447.5496
 11
622.0150
 21
449.8406
  0
LINE
  8
11_0B
  6
DASHED
 62
2
 10
623.0581
 20
434.8268
 11
624.7637
 21
435.2838
  0
LINE
  8
11_0B
  6
DASHED
 62
2
 10
614.9861
 20
434.7834
 11
613.1184
 21
435.2838
  0
LINE
  8
11_0B
  6
DASHED
 62
2
 10
622.6223
 20
439.8078
 11
624.3279
 21
440.2648
  0
LINE
  8
11_0B
  6
DASHED
 62
2
 10
615.2598
 20
439.8078
 11
613.5542
 21
440.2648
  0
LINE
  8
11_0B
  6
DASHED
 62
2
 10
622.1865
 20
444.7888
 11
623.8921
 21
445.2458
  0
LINE
  8
11_0B
  6
DASHED
 62
2
 10
615.6956
 20
444.7888
 11
613.9900
 21
445.2458
  0
LINE
  8
11_0B
  6
DASHED
 62
2
 10
621.7507
 20
449.7697
 11
623.4563
 21
450.2267
  0
LINE
  8
11_0B
  6
DASHED
 62
2
 10
616.1313
 20
449.7697
 11
614.4258
 21
450.2267
  0
LINE
  8
11_0B
  6
DASHED
 62
2
 10
615.7039
 20
452.5654
 11
615.9730
 21
455.6411
  0
LINE
  8
11_0B
  6
DASHED
 62
2
 10
622.1782
 20
452.5654
 11
621.9091
 21
455.6411
  0
LINE
  8
11_0B
  6
DASHED
 62
2
 10
616.4263
 20
449.3485
 11
616.2817
 21
447.6965
  0
LINE
  8
11_0B
  6
DASHED
 62
2
 10
615.9905
 20
444.3676
 11
615.8459
 21
442.7155
  0
LINE
  8
11_0B
  6
DASHED
 62
2
 10
615.5547
 20
439.3866
 11
615.4102
 21
437.7346
  0
LINE
  8
11_0B
  6
DASHED
 62
2
 10
615.1336
 20
434.5728
 11
614.9744
 21
432.7536
  0
LINE
  8
11_0B
  6
DASHED
 62
2
 10
622.9077
 20
432.7536
 11
622.7631
 21
434.4056
  0
LINE
  8
11_0B
  6
DASHED
 62
2
 10
622.4719
 20
437.7346
 11
622.3273
 21
439.3866
  0
LINE
  8
11_0B
  6
DASHED
 62
2
 10
622.0361
 20
442.7155
 11
621.8916
 21
444.3676
  0
LINE
  8
11_0B
  6
DASHED
 62
2
 10
621.6003
 20
447.6965
 11
621.4558
 21
449.3485
  0
LINE
  8
11_0B
  6
DASHED
 62
2
 10
616.0074
 20
455.6351
 11
614.9410
 21
455.8231
  0
LINE
  8
11_0B
  6
DASHED
 62
2
 10
621.8746
 20
455.6351
 11
622.9410
 21
455.8231
  0
LINE
  8
11_0B
  6
DASHED
 62
2
 10
624.0086
 20
447.7064
 11
626.7979
 21
453.6880
  0
LINE
  8
11_0B
  6
DASHED
 62
2
 10
625.8916
 20
454.1107
 11
622.8583
 21
447.6058
  0
LINE
  8
11_0B
  6
DASHED
 62
2
 10
613.8735
 20
447.7064
 11
611.0842
 21
453.6880
  0
LINE
  8
11_0B
  6
DASHED
 62
2
 10
611.9905
 20
454.1107
 11
615.0238
 21
447.6058
  0
LINE
  8
11_0B
  6
DASHED
 62
2
 10
626.6044
 20
454.2196
 11
626.4232
 21
454.3042
  0
LINE
  8
11_0B
  6
DASHED
 62
2
 10
611.2776
 20
454.2196
 11
611.4589
 21
454.3042
  0
LINE
  8
11_0B
  6
DASHED
 62
2
 10
616.3365
 20
455.2063
 11
616.1198
 21
452.7298
  0
LINE
  8
11_0B
  6
DASHED
 62
2
 10
621.5456
 20
455.2063
 11
622.0150
 21
449.8406
  0
LINE
  8
0_00
  6
CONTINUOUS
 62
6
 10
623.0989
 20
428.0258
 11
684.4799
 21
366.6448
  0
LINE
  8
0_00
  6
CONTINUOUS
 62
6
 10
623.0989
 20
428.0258
 11
625.8221
 21
423.8324
  0
LINE
  8
0_00
  6
CONTINUOUS
 62
6
 10
623.0989
 20
428.0258
 11
627.2923
 21
425.3025
  0
LINE
  8
13_0D
  6
CONTINUOUS
 62
2
 10
618.9410
 20
467.7561
 11
625.9410
 21
467.7561
  0
LINE
  8
13_0D
  6
CONTINUOUS
 62
2
 10
625.9410
 20
467.7561
 11
625.9410
 21
468.1708
  0
LINE
  8
13_0D
  6
CONTINUOUS
 62
2
 10
625.9410
 20
468.1708
 11
618.9410
 21
468.1708
  0
LINE
  8
13_0D
  6
DASHED
 62
2
 10
621.9410
 20
467.7561
 11
621.9410
 21
422.9522
  0
LINE
  8
13_0D
  6
DASHED
 62
2
 10
621.3995
 20
467.7561
 11
621.3995
 21
422.0143
  0
LINE
  8
13_0D
  6
CONTINUOUS
 62
2
 10
618.9410
 20
467.7561
 11
611.9410
 21
467.7561
  0
LINE
  8
13_0D
  6
CONTINUOUS
 62
2
 10
611.9410
 20
467.7561
 11
611.9410
 21
468.1708
  0
LINE
  8
13_0D
  6
CONTINUOUS
 62
2
 10
611.9410
 20
468.1708
 11
618.9410
 21
468.1708
  0
LINE
  8
13_0D
  6
DASHED
 62
2
 10
615.9410
 20
467.7561
 11
615.9410
 21
422.9522
  0
LINE
  8
13_0D
  6
DASHED
 62
2
 10
616.4825
 20
467.7561
 11
616.4825
 21
422.0143
  0
LINE
  8
0_00
  6
CONTINUOUS
 62
4
 10
528.9410
 20
456.2561
 11
528.9410
 21
391.7561
  0
LINE
  8
15_0F
  6
CONTINUOUS
 62
6
 10
723.9410
 20
416.5513
 11
723.9410
 21
377.5496
  0
LINE
  8
15_0F
  6
CONTINUOUS
 62
6
 10
723.9410
 20
356.2042
 11
723.9410
 21
342.2963
  0
LINE
  8
15_0F
  6
CONTINUOUS
 62
6
 10
713.9410
 20
401.3400
 11
713.9410
 21
390.5369
  0
LINE
  8
15_0F
  6
CONTINUOUS
 62
6
 10
713.9410
 20
356.2042
 11
713.9410
 21
342.2963
  0
LINE
  8
15_0F
  6
CONTINUOUS
 62
6
 10
708.9410
 20
401.3400
 11
708.9410
 21
390.5369
  0
LINE
  8
15_0F
  6
CONTINUOUS
 62
6
 10
708.9410
 20
356.2042
 11
708.9410
 21
342.2963
  0
LINE
  8
0_00
  6
CENTER1
 62
6
 10
232.9433
 20
238.8939
 11
232.9433
 21
126.1168
  0
LINE
  8
15_0F
  6
CONTINUOUS
 62
6
 10
122.9433
 20
121.2561
 11
122.9433
 21
90.2963
  0
LINE
  8
15_0F
  6
CONTINUOUS
 62
6
 10
112.9433
 20
93.2963
 11
122.9433
 21
93.2963
  0
LINE
  8
15_0F
  6
CONTINUOUS
 62
6
 10
91.3433
 20
93.2963
 11
112.9433
 21
93.2963
  0
LINE
  8
15_0F
  6
CONTINUOUS
 62
6
 10
112.9433
 20
93.2963
 11
108.0526
 21
94.3358
  0
LINE
  8
15_0F
  6
CONTINUOUS
 62
6
 10
112.9433
 20
93.2963
 11
108.0526
 21
92.2567
  0
LINE
  8
15_0F
  6
CONTINUOUS
 62
6
 10
127.9433
 20
121.2561
 11
127.9433
 21
90.2963
  0
LINE
  8
15_0F
  6
CONTINUOUS
 62
6
 10
122.9433
 20
93.2963
 11
127.9433
 21
93.2963
  0
LINE
  8
15_0F
  6
CONTINUOUS
 62
6
 10
337.9433
 20
133.0625
 11
337.9433
 21
90.2963
  0
LINE
  8
15_0F
  6
CONTINUOUS
 62
6
 10
127.9433
 20
93.2963
 11
337.9433
 21
93.2963
  0
LINE
  8
15_0F
  6
CONTINUOUS
 62
6
 10
127.9433
 20
93.2963
 11
132.8340
 21
92.2567
  0
LINE
  8
15_0F
  6
CONTINUOUS
 62
6
 10
127.9433
 20
93.2963
 11
132.8340
 21
94.3358
  0
LINE
  8
15_0F
  6
CONTINUOUS
 62
6
 10
337.9433
 20
93.2963
 11
333.0526
 21
94.3358
  0
LINE
  8
15_0F
  6
CONTINUOUS
 62
6
 10
337.9433
 20
93.2963
 11
333.0526
 21
92.2567
  0
LINE
  8
15_0F
  6
CONTINUOUS
 62
6
 10
342.9433
 20
133.0625
 11
342.9433
 21
90.2963
  0
LINE
  8
15_0F
  6
CONTINUOUS
 62
6
 10
337.9433
 20
93.2963
 11
342.9433
 21
93.2963
  0
LINE
  8
15_0F
  6
CONTINUOUS
 62
6
 10
342.9433
 20
93.2963
 11
352.9433
 21
93.2963
  0
LINE
  8
15_0F
  6
CONTINUOUS
 62
6
 10
374.5433
 20
93.2963
 11
352.9433
 21
93.2963
  0
LINE
  8
15_0F
  6
CONTINUOUS
 62
6
 10
352.9433
 20
93.2963
 11
357.8340
 21
92.2567
  0
LINE
  8
15_0F
  6
CONTINUOUS
 62
6
 10
352.9433
 20
93.2963
 11
357.8340
 21
94.3358
  0
LINE
  8
0_00
  6
CONTINUOUS
 62
6
 10
210.4433
 20
300.1725
 11
255.4433
 21
300.1725
  0
LINE
  8
0_00
  6
CONTINUOUS
 62
6
 10
210.4433
 20
300.1725
 11
255.4433
 21
298.6725
  0
LINE
  8
0_00
  6
CONTINUOUS
 62
6
 10
255.4433
 20
300.1725
 11
255.4433
 21
298.6725
  0
LINE
  8
0_00
  6
CONTINUOUS
 62
6
 10
341.8263
 20
221.9276
 11
363.3109
 21
243.4123
  0
LINE
  8
0_00
  6
CONTINUOUS
 62
6
 10
341.8263
 20
221.9276
 11
346.0196
 21
224.6508
  0
LINE
  8
0_00
  6
CONTINUOUS
 62
6
 10
341.8263
 20
221.9276
 11
344.5494
 21
226.1210
  0
LINE
  8
0_00
  6
CONTINUOUS
 62
6
 10
363.3109
 20
243.4123
 11
407.7109
 21
243.4123
  0
LINE
  8
0_00
  6
CONTINUOUS
 62
6
 10
253.5396
 20
232.0362
 11
273.1671
 21
251.6637
  0
LINE
  8
0_00
  6
CONTINUOUS
 62
6
 10
253.5396
 20
232.0362
 11
257.7330
 21
234.7594
  0
LINE
  8
0_00
  6
CONTINUOUS
 62
6
 10
253.5396
 20
232.0362
 11
256.2628
 21
236.2296
  0
LINE
  8
0_00
  6
CONTINUOUS
 62
6
 10
273.1671
 20
251.6637
 11
303.1671
 21
251.6637
  0
LINE
  8
15_0F
  6
CONTINUOUS
 62
6
 10
112.9433
 20
163.0768
 11
112.9433
 21
90.2963
  0
LINE
  8
15_0F
  6
CONTINUOUS
 62
6
 10
352.9433
 20
158.1994
 11
352.9433
 21
90.2963
  0
LINE
  8
6_06
  6
CONTINUOUS
 62
4
 10
116.0432
 20
236.1528
 11
350.0432
 21
228.3528
  0
LINE
  8
6_06
  6
CONTINUOUS
 62
4
 10
112.9433
 20
174.2561
 11
112.9433
 21
233.1544
  0
LINE
  8
6_06
  6
CONTINUOUS
 62
4
 10
352.9433
 20
171.2561
 11
352.9433
 21
225.3545
  0
LINE
  8
6_06
  6
CONTINUOUS
 62
4
 10
119.4009
 20
171.4373
 11
115.9433
 21
171.2561
  0
LINE
  8
6_06
  6
CONTINUOUS
 62
4
 10
349.9433
 20
168.2561
 11
346.5432
 21
168.4343
  0
LINE
  8
6_06
  6
CONTINUOUS
 62
4
 10
119.3432
 20
173.6373
 11
115.9041
 21
173.4571
  0
LINE
  8
6_06
  6
CONTINUOUS
 62
4
 10
115.1433
 20
174.2561
 11
115.1433
 21
233.1544
  0
LINE
  8
6_06
  6
CONTINUOUS
 62
4
 10
115.9699
 20
233.9540
 11
349.9699
 21
226.1540
  0
LINE
  8
6_06
  6
CONTINUOUS
 62
4
 10
350.7433
 20
225.3545
 11
350.7433
 21
171.2561
  0
LINE
  8
6_06
  6
CONTINUOUS
 62
4
 10
349.9825
 20
170.4571
 11
346.5434
 21
170.6373
  0
LINE
  8
0_00
  6
CONTINUOUS
 62
4
 10
127.9433
 20
212.2561
 11
337.9433
 21
212.2561
  0
LINE
  8
0_00
  6
CONTINUOUS
 62
4
 10
127.9433
 20
212.2561
 11
127.9433
 21
139.7561
  0
LINE
  8
0_00
  6
CONTINUOUS
 62
4
 10
150.9433
 20
202.2561
 11
314.9433
 21
202.2561
  0
LINE
  8
0_00
  6
CONTINUOUS
 62
4
 10
337.9433
 20
139.7561
 11
337.9433
 21
212.2561
  0
LINE
  8
0_00
  6
CONTINUOUS
 62
4
 10
322.9433
 20
139.7561
 11
322.9433
 21
194.2561
  0
LINE
  8
6_06
  6
CONTINUOUS
 62
2
 10
134.6433
 20
231.4027
 11
134.6433
 21
233.3316
  0
LINE
  8
6_06
  6
CONTINUOUS
 62
2
 10
129.6433
 20
231.5693
 11
129.6433
 21
233.4982
  0
LINE
  8
6_06
  6
CONTINUOUS
 62
2
 10
331.2433
 20
224.8493
 11
331.2433
 21
226.7782
  0
LINE
  8
6_06
  6
CONTINUOUS
 62
2
 10
336.2433
 20
224.6827
 11
336.2433
 21
226.6116
  0
LINE
  8
5_05
  6
CONTINUOUS
 62
4
 10
116.6082
 20
173.5561
 11
115.9433
 21
173.5561
  0
LINE
  8
3_03
  6
CONTINUOUS
 62
4
 10
349.2827
 20
170.5561
 11
349.9433
 21
170.5561
  0
LINE
  8
3_03
  6
CONTINUOUS
 62
4
 10
122.3832
 20
211.8252
 11
117.1034
 21
173.9870
  0
LINE
  8
3_03
  6
CONTINUOUS
 62
4
 10
343.4997
 20
211.8203
 11
348.7869
 21
170.9919
  0
LINE
  8
3_03
  6
CONTINUOUS
 62
4
 10
122.8784
 20
212.2561
 11
343.0039
 21
212.2561
  0
LINE
  8
3_03
  6
CONTINUOUS
 62
4
 10
148.6433
 20
215.7561
 11
178.1433
 21
215.7561
  0
LINE
  8
3_03
  6
CONTINUOUS
 62
4
 10
180.6433
 20
215.7561
 11
232.6433
 21
215.7561
  0
LINE
  8
3_03
  6
CONTINUOUS
 62
4
 10
233.2433
 20
215.7561
 11
269.9433
 21
215.7561
  0
LINE
  8
3_03
  6
CONTINUOUS
 62
4
 10
270.5433
 20
215.7561
 11
274.9433
 21
215.7561
  0
LINE
  8
3_03
  6
CONTINUOUS
 62
4
 10
275.5433
 20
215.7561
 11
285.2433
 21
215.7561
  0
LINE
  8
3_03
  6
CONTINUOUS
 62
4
 10
287.7433
 20
215.7561
 11
317.2433
 21
215.7561
  0
LINE
  8
3_03
  6
CONTINUOUS
 62
4
 10
180.6433
 20
228.2561
 11
180.6433
 21
215.7561
  0
LINE
  8
3_03
  6
CONTINUOUS
 62
4
 10
285.2433
 20
224.7561
 11
285.2433
 21
215.7561
  0
LINE
  8
3_03
  6
CONTINUOUS
 62
4
 10
269.9433
 20
215.7561
 11
270.2433
 21
215.4561
  0
LINE
  8
3_03
  6
CONTINUOUS
 62
4
 10
270.2433
 20
215.4561
 11
270.5433
 21
215.7561
  0
LINE
  8
3_03
  6
CONTINUOUS
 62
4
 10
274.9433
 20
215.7561
 11
275.2433
 21
215.4561
  0
LINE
  8
3_03
  6
CONTINUOUS
 62
4
 10
275.2433
 20
215.4561
 11
275.5433
 21
215.7561
  0
LINE
  8
3_03
  6
CONTINUOUS
 62
4
 10
232.6433
 20
215.7561
 11
232.9433
 21
215.4561
  0
LINE
  8
3_03
  6
CONTINUOUS
 62
4
 10
232.9433
 20
215.4561
 11
233.2433
 21
215.7561
  0
LINE
  8
3_03
  6
CONTINUOUS
 62
4
 10
119.1433
 20
212.2561
 11
124.0009
 21
228.4656
  0
LINE
  8
3_03
  6
CONTINUOUS
 62
4
 10
346.7433
 20
212.2561
 11
341.9426
 21
223.5362
  0
LINE
  8
3_03
  6
CONTINUOUS
 62
4
 10
123.1007
 20
215.5561
 11
148.6433
 21
215.5561
  0
LINE
  8
3_03
  6
CONTINUOUS
 62
4
 10
148.6433
 20
215.5561
 11
148.6433
 21
215.7561
  0
LINE
  8
3_03
  6
CONTINUOUS
 62
4
 10
342.1917
 20
215.5561
 11
317.2433
 21
215.5561
  0
LINE
  8
3_03
  6
CONTINUOUS
 62
4
 10
330.2433
 20
224.7726
 11
330.2433
 21
223.3652
  0
LINE
  8
3_03
  6
CONTINUOUS
 62
4
 10
317.2433
 20
215.5561
 11
317.2433
 21
215.7561
  0
LINE
  8
3_03
  6
CONTINUOUS
 62
4
 10
287.2433
 20
224.7561
 11
287.2433
 21
216.2561
  0
LINE
  8
3_03
  6
CONTINUOUS
 62
4
 10
178.6433
 20
228.2561
 11
178.6433
 21
216.2561
  0
LINE
  8
3_03
  6
CONTINUOUS
 62
4
 10
128.1433
 20
231.5093
 11
128.1433
 21
229.8183
  0
LINE
  8
3_03
  6
CONTINUOUS
 62
4
 10
135.6433
 20
231.2793
 11
135.6433
 21
229.8852
  0
LINE
  8
3_03
  6
CONTINUOUS
 62
4
 10
330.7433
 20
225.0661
 11
330.7433
 21
224.8660
  0
LINE
  8
3_03
  6
CONTINUOUS
 62
4
 10
337.2433
 20
224.8495
 11
337.2433
 21
224.6493
  0
LINE
  8
3_03
  6
CONTINUOUS
 62
4
 10
128.4533
 20
231.8091
 11
128.6433
 21
231.8028
  0
LINE
  8
3_03
  6
CONTINUOUS
 62
4
 10
135.1433
 20
231.5861
 11
135.3533
 21
231.5791
  0
LINE
  8
3_03
  6
CONTINUOUS
 62
4
 10
128.1433
 20
229.8183
 11
125.9834
 21
229.8903
  0
LINE
  8
3_03
  6
CONTINUOUS
 62
4
 10
128.6433
 20
231.6027
 11
135.1433
 21
231.3860
  0
LINE
  8
3_03
  6
CONTINUOUS
 62
4
 10
135.1433
 20
231.5861
 11
135.1433
 21
231.3860
  0
LINE
  8
3_03
  6
CONTINUOUS
 62
4
 10
128.6433
 20
231.8028
 11
128.6433
 21
231.6027
  0
LINE
  8
3_03
  6
CONTINUOUS
 62
4
 10
330.5533
 20
225.0724
 11
330.7433
 21
225.0661
  0
LINE
  8
3_03
  6
CONTINUOUS
 62
4
 10
337.2433
 20
224.8495
 11
340.1689
 21
224.7519
  0
LINE
  8
3_03
  6
CONTINUOUS
 62
4
 10
330.7433
 20
224.8660
 11
337.2433
 21
224.6493
  0
LINE
  8
3_03
  6
CONTINUOUS
 62
4
 10
119.1433
 20
212.2561
 11
115.0486
 21
174.5533
  0
LINE
  8
3_03
  6
CONTINUOUS
 62
4
 10
346.7433
 20
212.2561
 11
350.8388
 21
171.5462
  0
LINE
  8
3_03
  6
CONTINUOUS
 62
4
 10
122.6218
 20
216.1996
 11
125.8429
 21
226.9484
  0
LINE
  8
3_03
  6
CONTINUOUS
 62
4
 10
126.8341
 20
227.6608
 11
130.3433
 21
227.5438
  0
LINE
  8
3_03
  6
CONTINUOUS
 62
4
 10
130.3433
 20
229.0280
 11
130.3433
 21
227.5438
  0
LINE
  8
3_03
  6
CONTINUOUS
 62
4
 10
130.8600
 20
229.5277
 11
135.1266
 21
229.3855
  0
LINE
  8
3_03
  6
CONTINUOUS
 62
4
 10
342.6518
 20
216.2519
 11
340.2179
 21
221.9708
  0
LINE
  8
3_03
  6
CONTINUOUS
 62
4
 10
339.3311
 20
222.5786
 11
330.7266
 21
222.8655
  0
LINE
  8
6_06
  6
CONTINUOUS
 62
2
 10
129.6433
 20
232.7911
 11
130.3276
 21
233.4754
  0
LINE
  8
6_06
  6
CONTINUOUS
 62
2
 10
129.6433
 20
232.0840
 11
131.0119
 21
233.4526
  0
LINE
  8
6_06
  6
CONTINUOUS
 62
2
 10
129.8295
 20
231.5631
 11
131.6962
 21
233.4298
  0
LINE
  8
6_06
  6
CONTINUOUS
 62
2
 10
130.5138
 20
231.5403
 11
132.3805
 21
233.4070
  0
LINE
  8
6_06
  6
CONTINUOUS
 62
2
 10
131.1981
 20
231.5175
 11
133.0648
 21
233.3842
  0
LINE
  8
6_06
  6
CONTINUOUS
 62
2
 10
131.8824
 20
231.4947
 11
133.7491
 21
233.3614
  0
LINE
  8
6_06
  6
CONTINUOUS
 62
2
 10
132.5667
 20
231.4719
 11
134.4334
 21
233.3386
  0
LINE
  8
6_06
  6
CONTINUOUS
 62
2
 10
133.2510
 20
231.4491
 11
134.6433
 21
232.8414
  0
LINE
  8
6_06
  6
CONTINUOUS
 62
2
 10
133.9353
 20
231.4263
 11
134.6433
 21
232.1343
  0
LINE
  8
6_06
  6
CONTINUOUS
 62
2
 10
134.6196
 20
231.4035
 11
134.6433
 21
231.4272
  0
LINE
  8
6_06
  6
CONTINUOUS
 62
2
 10
331.2433
 20
226.0711
 11
331.9276
 21
226.7554
  0
LINE
  8
6_06
  6
CONTINUOUS
 62
2
 10
331.2433
 20
225.3640
 11
332.6119
 21
226.7326
  0
LINE
  8
6_06
  6
CONTINUOUS
 62
2
 10
331.4295
 20
224.8431
 11
333.2962
 21
226.7098
  0
LINE
  8
6_06
  6
CONTINUOUS
 62
2
 10
332.1138
 20
224.8203
 11
333.9805
 21
226.6870
  0
LINE
  8
6_06
  6
CONTINUOUS
 62
2
 10
332.7981
 20
224.7975
 11
334.6648
 21
226.6642
  0
LINE
  8
6_06
  6
CONTINUOUS
 62
2
 10
333.4824
 20
224.7747
 11
335.3491
 21
226.6414
  0
LINE
  8
6_06
  6
CONTINUOUS
 62
2
 10
334.1667
 20
224.7519
 11
336.0334
 21
226.6185
  0
LINE
  8
6_06
  6
CONTINUOUS
 62
2
 10
334.8510
 20
224.7291
 11
336.2433
 21
226.1214
  0
LINE
  8
6_06
  6
CONTINUOUS
 62
2
 10
335.5353
 20
224.7063
 11
336.2433
 21
225.4143
  0
LINE
  8
6_06
  6
CONTINUOUS
 62
2
 10
336.2196
 20
224.6835
 11
336.2433
 21
224.7072
  0
LINE
  8
0_00
  6
PHANTOM1
 62
2
 10
342.9433
 20
208.0387
 11
342.9433
 21
139.7561
  0
LINE
  8
0_00
  6
PHANTOM1
 62
2
 10
122.9433
 20
208.0387
 11
122.9433
 21
139.7561
  0
LINE
  8
0_00
  6
CONTINUOUS
 62
4
 10
142.9433
 20
194.2561
 11
142.9433
 21
139.7561
  0
LINE
  8
0_00
  6
CONTINUOUS
 62
4
 10
314.9433
 20
139.7561
 11
314.9433
 21
194.2561
  0
LINE
  8
0_00
  6
CONTINUOUS
 62
4
 10
314.9433
 20
194.2561
 11
142.9433
 21
194.2561
  0
LINE
  8
0_00
  6
CONTINUOUS
 62
2
 10
150.9433
 20
202.2561
 11
150.9433
 21
194.2561
  0
LINE
  8
0_00
  6
CONTINUOUS
 62
2
 10
148.4978
 20
201.8732
 11
150.9433
 21
199.4277
  0
LINE
  8
0_00
  6
CONTINUOUS
 62
2
 10
146.5807
 20
200.9619
 11
150.9433
 21
196.5993
  0
LINE
  8
0_00
  6
CONTINUOUS
 62
2
 10
145.0490
 20
199.6651
 11
150.4580
 21
194.2561
  0
LINE
  8
0_00
  6
CONTINUOUS
 62
2
 10
143.8777
 20
198.0080
 11
147.6296
 21
194.2561
  0
LINE
  8
0_00
  6
CONTINUOUS
 62
2
 10
143.1216
 20
195.9357
 11
144.8011
 21
194.2561
  0
LINE
  8
0_00
  6
CONTINUOUS
 62
2
 10
315.0099
 20
196.9228
 11
150.9433
 21
196.9228
  0
LINE
  8
0_00
  6
CONTINUOUS
 62
2
 10
314.9766
 20
199.5894
 11
150.9433
 21
199.5894
  0
LINE
  8
0_00
  6
CONTINUOUS
 62
2
 10
317.6100
 20
194.3228
 11
317.6100
 21
139.7561
  0
LINE
  8
0_00
  6
CONTINUOUS
 62
2
 10
320.2766
 20
194.2895
 11
320.2766
 21
139.7561
  0
LINE
  8
0_00
  6
CONTINUOUS
 62
2
 10
176.8844
 20
194.2561
 11
142.9433
 21
160.3150
  0
LINE
  8
0_00
  6
CONTINUOUS
 62
2
 10
174.0560
 20
194.2561
 11
142.9433
 21
163.1434
  0
LINE
  8
0_00
  6
CONTINUOUS
 62
2
 10
171.2276
 20
194.2561
 11
142.9433
 21
165.9718
  0
LINE
  8
0_00
  6
CONTINUOUS
 62
2
 10
233.4530
 20
194.2561
 11
178.9530
 21
139.7561
  0
LINE
  8
0_00
  6
CONTINUOUS
 62
2
 10
236.2814
 20
194.2561
 11
181.7814
 21
139.7561
  0
LINE
  8
0_00
  6
CONTINUOUS
 62
2
 10
239.1098
 20
194.2561
 11
184.6098
 21
139.7561
  0
LINE
  8
0_00
  6
CONTINUOUS
 62
2
 10
295.6783
 20
194.2561
 11
241.1784
 21
139.7561
  0
LINE
  8
0_00
  6
CONTINUOUS
 62
2
 10
298.5068
 20
194.2561
 11
244.0068
 21
139.7561
  0
LINE
  8
0_00
  6
CONTINUOUS
 62
2
 10
301.3352
 20
194.2561
 11
246.8352
 21
139.7561
  0
LINE
  8
0_00
  6
CONTINUOUS
 62
2
 10
314.9433
 20
151.2957
 11
303.4037
 21
139.7561
  0
LINE
  8
0_00
  6
CONTINUOUS
 62
2
 10
314.9433
 20
148.4672
 11
306.2322
 21
139.7561
  0
LINE
  8
0_00
  6
CONTINUOUS
 62
2
 10
314.9433
 20
145.6388
 11
309.0606
 21
139.7561
  0
LINE
  8
13_0D
  6
CONTINUOUS
 62
2
 10
163.9433
 20
215.7561
 11
170.9433
 21
215.7561
  0
LINE
  8
13_0D
  6
CONTINUOUS
 62
2
 10
170.9433
 20
215.7561
 11
170.9433
 21
216.1707
  0
LINE
  8
13_0D
  6
CONTINUOUS
 62
2
 10
170.9433
 20
216.1707
 11
163.9433
 21
216.1707
  0
LINE
  8
13_0D
  6
DASHED
 62
2
 10
166.9433
 20
215.7561
 11
166.9433
 21
170.9523
  0
LINE
  8
13_0D
  6
DASHED
 62
2
 10
166.4018
 20
215.7561
 11
166.4018
 21
170.0144
  0
LINE
  8
13_0D
  6
CONTINUOUS
 62
2
 10
163.9433
 20
215.7561
 11
156.9433
 21
215.7561
  0
LINE
  8
13_0D
  6
CONTINUOUS
 62
2
 10
156.9433
 20
215.7561
 11
156.9433
 21
216.1707
  0
LINE
  8
13_0D
  6
CONTINUOUS
 62
2
 10
156.9433
 20
216.1707
 11
163.9433
 21
216.1707
  0
LINE
  8
13_0D
  6
DASHED
 62
2
 10
160.9433
 20
215.7561
 11
160.9433
 21
170.9523
  0
LINE
  8
13_0D
  6
DASHED
 62
2
 10
161.4848
 20
215.7561
 11
161.4848
 21
170.0144
  0
LINE
  8
13_0D
  6
DASHED
 62
2
 10
163.9433
 20
165.7561
 11
160.9433
 21
170.9523
  0
LINE
  8
13_0D
  6
DASHED
 62
2
 10
163.9433
 20
165.7561
 11
166.9433
 21
170.9523
  0
LINE
  8
11_0B
  6
DASHED
 62
2
 10
159.9433
 20
212.2561
 11
159.9433
 21
200.3231
  0
LINE
  8
11_0B
  6
DASHED
 62
2
 10
159.3115
 20
197.1874
 11
159.1331
 21
195.1480
  0
LINE
  8
11_0B
  6
DASHED
 62
2
 10
158.8757
 20
192.2064
 11
158.6973
 21
190.1670
  0
LINE
  8
11_0B
  6
DASHED
 62
2
 10
158.4399
 20
187.2255
 11
158.2615
 21
185.1860
  0
LINE
  8
11_0B
  6
DASHED
 62
2
 10
158.0042
 20
182.2445
 11
157.8257
 21
180.2051
  0
LINE
  8
11_0B
  6
DASHED
 62
2
 10
157.5684
 20
177.2635
 11
157.4081
 21
175.4313
  0
LINE
  8
11_0B
  6
DASHED
 62
2
 10
167.9433
 20
212.2561
 11
167.9433
 21
200.3231
  0
LINE
  8
11_0B
  6
DASHED
 62
2
 10
168.5751
 20
197.1874
 11
168.7535
 21
195.1480
  0
LINE
  8
11_0B
  6
DASHED
 62
2
 10
169.0109
 20
192.2064
 11
169.1893
 21
190.1670
  0
LINE
  8
11_0B
  6
DASHED
 62
2
 10
169.4467
 20
187.2255
 11
169.6251
 21
185.1860
  0
LINE
  8
11_0B
  6
DASHED
 62
2
 10
169.8824
 20
182.2445
 11
170.0609
 21
180.2051
  0
LINE
  8
11_0B
  6
DASHED
 62
2
 10
170.3182
 20
177.2635
 11
170.4785
 21
175.4313
  0
LINE
  8
11_0B
  6
DASHED
 62
2
 10
163.4433
 20
204.2561
 11
164.4433
 21
204.2561
  0
LINE
  8
11_0B
  6
DASHED
 62
2
 10
164.4433
 20
204.2561
 11
167.2323
 21
172.3779
  0
LINE
  8
11_0B
  6
DASHED
 62
2
 10
160.6543
 20
172.3779
 11
163.4433
 21
204.2561
  0
LINE
  8
11_0B
  6
DASHED
 62
2
 10
158.6619
 20
172.5522
 11
160.6543
 21
172.3779
  0
LINE
  8
11_0B
  6
DASHED
 62
2
 10
167.2323
 20
172.3779
 11
169.2247
 21
172.5522
  0
LINE
  8
11_0B
  6
DASHED
 62
2
 10
169.2247
 20
172.5522
 11
170.4246
 21
175.1254
  0
LINE
  8
11_0B
  6
DASHED
 62
2
 10
158.6619
 20
172.5522
 11
157.4620
 21
175.1254
  0
LINE
  8
11_0B
  6
DASHED
 62
2
 10
157.3941
 20
175.2711
 11
160.8807
 21
174.9661
  0
LINE
  8
11_0B
  6
DASHED
 62
2
 10
167.0058
 20
174.9661
 11
170.4925
 21
175.2711
  0
LINE
  8
11_0B
  6
DASHED
 62
2
 10
157.5684
 20
177.2635
 11
159.7600
 21
177.0718
  0
LINE
  8
11_0B
  6
DASHED
 62
2
 10
168.1266
 20
177.0718
 11
170.3182
 21
177.2635
  0
LINE
  8
11_0B
  6
DASHED
 62
2
 10
158.0042
 20
182.2445
 11
160.1958
 21
182.0527
  0
LINE
  8
11_0B
  6
DASHED
 62
2
 10
167.6908
 20
182.0527
 11
169.8824
 21
182.2445
  0
LINE
  8
11_0B
  6
DASHED
 62
2
 10
158.4399
 20
187.2255
 11
160.6316
 21
187.0337
  0
LINE
  8
11_0B
  6
DASHED
 62
2
 10
167.2550
 20
187.0337
 11
169.4467
 21
187.2255
  0
LINE
  8
11_0B
  6
DASHED
 62
2
 10
158.8757
 20
192.2064
 11
161.0674
 21
192.0147
  0
LINE
  8
11_0B
  6
DASHED
 62
2
 10
166.8192
 20
192.0147
 11
169.0109
 21
192.2064
  0
LINE
  8
11_0B
  6
DASHED
 62
2
 10
159.3115
 20
197.1874
 11
160.9054
 21
197.0480
  0
LINE
  8
11_0B
  6
DASHED
 62
2
 10
166.9812
 20
197.0480
 11
168.5751
 21
197.1874
  0
LINE
  8
11_0B
  6
DASHED
 62
2
 10
160.8693
 20
194.3406
 11
160.6689
 21
192.0496
  0
LINE
  8
11_0B
  6
DASHED
 62
2
 10
160.4335
 20
189.3596
 11
160.2331
 21
187.0686
  0
LINE
  8
11_0B
  6
DASHED
 62
2
 10
159.9977
 20
184.3786
 11
159.7973
 21
182.0876
  0
LINE
  8
11_0B
  6
DASHED
 62
2
 10
159.5620
 20
179.3976
 11
159.3615
 21
177.1066
  0
LINE
  8
11_0B
  6
DASHED
 62
2
 10
168.5251
 20
177.1066
 11
168.3246
 21
179.3976
  0
LINE
  8
11_0B
  6
DASHED
 62
2
 10
168.0893
 20
182.0876
 11
167.8888
 21
184.3786
  0
LINE
  8
11_0B
  6
DASHED
 62
2
 10
167.6535
 20
187.0686
 11
167.4531
 21
189.3596
  0
LINE
  8
11_0B
  6
DASHED
 62
2
 10
167.2177
 20
192.0496
 11
167.0173
 21
194.3406
  0
LINE
  8
11_0B
  6
DASHED
 62
2
 10
168.0603
 20
179.3268
 11
169.7659
 21
179.7838
  0
LINE
  8
11_0B
  6
DASHED
 62
2
 10
159.9883
 20
179.2834
 11
158.1207
 21
179.7838
  0
LINE
  8
11_0B
  6
DASHED
 62
2
 10
167.6245
 20
184.3078
 11
169.3301
 21
184.7648
  0
LINE
  8
11_0B
  6
DASHED
 62
2
 10
160.2620
 20
184.3078
 11
158.5565
 21
184.7648
  0
LINE
  8
11_0B
  6
DASHED
 62
2
 10
167.1888
 20
189.2888
 11
168.8943
 21
189.7458
  0
LINE
  8
11_0B
  6
DASHED
 62
2
 10
160.6978
 20
189.2888
 11
158.9922
 21
189.7458
  0
LINE
  8
11_0B
  6
DASHED
 62
2
 10
166.7530
 20
194.2697
 11
168.4586
 21
194.7267
  0
LINE
  8
11_0B
  6
DASHED
 62
2
 10
161.1336
 20
194.2697
 11
159.4280
 21
194.7267
  0
LINE
  8
11_0B
  6
DASHED
 62
2
 10
160.7062
 20
197.0654
 11
160.9753
 21
200.1411
  0
LINE
  8
11_0B
  6
DASHED
 62
2
 10
167.1804
 20
197.0654
 11
166.9113
 21
200.1411
  0
LINE
  8
11_0B
  6
DASHED
 62
2
 10
161.4285
 20
193.8485
 11
161.2840
 21
192.1965
  0
LINE
  8
11_0B
  6
DASHED
 62
2
 10
160.9928
 20
188.8675
 11
160.8482
 21
187.2155
  0
LINE
  8
11_0B
  6
DASHED
 62
2
 10
160.5570
 20
183.8866
 11
160.4124
 21
182.2346
  0
LINE
  8
11_0B
  6
DASHED
 62
2
 10
160.1358
 20
179.0728
 11
159.9767
 21
177.2536
  0
LINE
  8
11_0B
  6
DASHED
 62
2
 10
167.9099
 20
177.2536
 11
167.7654
 21
178.9056
  0
LINE
  8
11_0B
  6
DASHED
 62
2
 10
167.4741
 20
182.2346
 11
167.3296
 21
183.8866
  0
LINE
  8
11_0B
  6
DASHED
 62
2
 10
167.0383
 20
187.2155
 11
166.8938
 21
188.8675
  0
LINE
  8
11_0B
  6
DASHED
 62
2
 10
166.6026
 20
192.1965
 11
166.4580
 21
193.8485
  0
LINE
  8
11_0B
  6
DASHED
 62
2
 10
161.0097
 20
200.1351
 11
159.9433
 21
200.3231
  0
LINE
  8
11_0B
  6
DASHED
 62
2
 10
166.8769
 20
200.1351
 11
167.9433
 21
200.3231
  0
LINE
  8
11_0B
  6
DASHED
 62
2
 10
169.0109
 20
192.2064
 11
171.8002
 21
198.1881
  0
LINE
  8
11_0B
  6
DASHED
 62
2
 10
170.8938
 20
198.6107
 11
167.8606
 21
192.1058
  0
LINE
  8
11_0B
  6
DASHED
 62
2
 10
158.8757
 20
192.2064
 11
156.0864
 21
198.1881
  0
LINE
  8
11_0B
  6
DASHED
 62
2
 10
156.9927
 20
198.6107
 11
160.0260
 21
192.1058
  0
LINE
  8
11_0B
  6
DASHED
 62
2
 10
171.6067
 20
198.7196
 11
171.4254
 21
198.8042
  0
LINE
  8
11_0B
  6
DASHED
 62
2
 10
156.2799
 20
198.7196
 11
156.4612
 21
198.8042
  0
LINE
  8
11_0B
  6
DASHED
 62
2
 10
161.3387
 20
199.7063
 11
161.1221
 21
197.2298
  0
LINE
  8
11_0B
  6
DASHED
 62
2
 10
166.5479
 20
199.7063
 11
167.0173
 21
194.3406
  0
LINE
  8
13_0D
  6
CONTINUOUS
 62
2
 10
302.0455
 20
215.7561
 11
309.0455
 21
215.7561
  0
LINE
  8
13_0D
  6
CONTINUOUS
 62
2
 10
309.0455
 20
215.7561
 11
309.0455
 21
216.1707
  0
LINE
  8
13_0D
  6
CONTINUOUS
 62
2
 10
309.0455
 20
216.1707
 11
302.0455
 21
216.1707
  0
LINE
  8
13_0D
  6
CONTINUOUS
 62
2
 10
302.0455
 20
215.7561
 11
295.0455
 21
215.7561
  0
LINE
  8
13_0D
  6
CONTINUOUS
 62
2
 10
295.0455
 20
215.7561
 11
295.0455
 21
216.1707
  0
LINE
  8
13_0D
  6
CONTINUOUS
 62
2
 10
295.0455
 20
216.1707
 11
302.0455
 21
216.1707
  0
LINE
  8
0_00
  6
CENTER1
 62
6
 10
301.9433
 20
223.4006
 11
301.9433
 21
157.9099
  0
LINE
  8
0_00
  6
CENTER1
 62
6
 10
163.9433
 20
157.9099
 11
163.9433
 21
223.4006
  0
LINE
  8
13_0D
  6
DASHED
 62
2
 10
304.9433
 20
215.7561
 11
304.9433
 21
170.9523
  0
LINE
  8
13_0D
  6
DASHED
 62
2
 10
304.4018
 20
215.7561
 11
304.4018
 21
170.0144
  0
LINE
  8
13_0D
  6
DASHED
 62
2
 10
298.9433
 20
215.7561
 11
298.9433
 21
170.9523
  0
LINE
  8
13_0D
  6
DASHED
 62
2
 10
299.4848
 20
215.7561
 11
299.4848
 21
170.0144
  0
LINE
  8
13_0D
  6
DASHED
 62
2
 10
301.9433
 20
165.7561
 11
298.9433
 21
170.9523
  0
LINE
  8
13_0D
  6
DASHED
 62
2
 10
301.9433
 20
165.7561
 11
304.9433
 21
170.9523
  0
LINE
  8
11_0B
  6
DASHED
 62
2
 10
297.9433
 20
212.2561
 11
297.9433
 21
200.3231
  0
LINE
  8
11_0B
  6
DASHED
 62
2
 10
297.3115
 20
197.1874
 11
297.1331
 21
195.1480
  0
LINE
  8
11_0B
  6
DASHED
 62
2
 10
296.8757
 20
192.2064
 11
296.6973
 21
190.1670
  0
LINE
  8
11_0B
  6
DASHED
 62
2
 10
296.4399
 20
187.2255
 11
296.2615
 21
185.1860
  0
LINE
  8
11_0B
  6
DASHED
 62
2
 10
296.0042
 20
182.2445
 11
295.8257
 21
180.2051
  0
LINE
  8
11_0B
  6
DASHED
 62
2
 10
295.5684
 20
177.2635
 11
295.4081
 21
175.4313
  0
LINE
  8
11_0B
  6
DASHED
 62
2
 10
305.9433
 20
212.2561
 11
305.9433
 21
200.3231
  0
LINE
  8
11_0B
  6
DASHED
 62
2
 10
306.5751
 20
197.1874
 11
306.7535
 21
195.1480
  0
LINE
  8
11_0B
  6
DASHED
 62
2
 10
307.0109
 20
192.2064
 11
307.1893
 21
190.1670
  0
LINE
  8
11_0B
  6
DASHED
 62
2
 10
307.4467
 20
187.2255
 11
307.6251
 21
185.1860
  0
LINE
  8
11_0B
  6
DASHED
 62
2
 10
307.8824
 20
182.2445
 11
308.0609
 21
180.2051
  0
LINE
  8
11_0B
  6
DASHED
 62
2
 10
308.3182
 20
177.2635
 11
308.4785
 21
175.4313
  0
LINE
  8
11_0B
  6
DASHED
 62
2
 10
301.4433
 20
204.2561
 11
302.4433
 21
204.2561
  0
LINE
  8
11_0B
  6
DASHED
 62
2
 10
302.4433
 20
204.2561
 11
305.2323
 21
172.3779
  0
LINE
  8
11_0B
  6
DASHED
 62
2
 10
298.6543
 20
172.3779
 11
301.4433
 21
204.2561
  0
LINE
  8
11_0B
  6
DASHED
 62
2
 10
296.6619
 20
172.5522
 11
298.6543
 21
172.3779
  0
LINE
  8
11_0B
  6
DASHED
 62
2
 10
305.2323
 20
172.3779
 11
307.2247
 21
172.5522
  0
LINE
  8
11_0B
  6
DASHED
 62
2
 10
307.2247
 20
172.5522
 11
308.4246
 21
175.1254
  0
LINE
  8
11_0B
  6
DASHED
 62
2
 10
296.6619
 20
172.5522
 11
295.4620
 21
175.1254
  0
LINE
  8
11_0B
  6
DASHED
 62
2
 10
295.3941
 20
175.2711
 11
298.8807
 21
174.9661
  0
LINE
  8
11_0B
  6
DASHED
 62
2
 10
305.0058
 20
174.9661
 11
308.4925
 21
175.2711
  0
LINE
  8
11_0B
  6
DASHED
 62
2
 10
295.5684
 20
177.2635
 11
297.7600
 21
177.0718
  0
LINE
  8
11_0B
  6
DASHED
 62
2
 10
306.1266
 20
177.0718
 11
308.3182
 21
177.2635
  0
LINE
  8
11_0B
  6
DASHED
 62
2
 10
296.0042
 20
182.2445
 11
298.1958
 21
182.0527
  0
LINE
  8
11_0B
  6
DASHED
 62
2
 10
305.6908
 20
182.0527
 11
307.8824
 21
182.2445
  0
LINE
  8
11_0B
  6
DASHED
 62
2
 10
296.4399
 20
187.2255
 11
298.6316
 21
187.0337
  0
LINE
  8
11_0B
  6
DASHED
 62
2
 10
305.2550
 20
187.0337
 11
307.4467
 21
187.2255
  0
LINE
  8
11_0B
  6
DASHED
 62
2
 10
296.8757
 20
192.2064
 11
299.0673
 21
192.0147
  0
LINE
  8
11_0B
  6
DASHED
 62
2
 10
304.8192
 20
192.0147
 11
307.0109
 21
192.2064
  0
LINE
  8
11_0B
  6
DASHED
 62
2
 10
297.3115
 20
197.1874
 11
298.9054
 21
197.0480
  0
LINE
  8
11_0B
  6
DASHED
 62
2
 10
304.9812
 20
197.0480
 11
306.5751
 21
197.1874
  0
LINE
  8
11_0B
  6
DASHED
 62
2
 10
298.8693
 20
194.3406
 11
298.6689
 21
192.0496
  0
LINE
  8
11_0B
  6
DASHED
 62
2
 10
298.4335
 20
189.3596
 11
298.2331
 21
187.0686
  0
LINE
  8
11_0B
  6
DASHED
 62
2
 10
297.9977
 20
184.3786
 11
297.7973
 21
182.0876
  0
LINE
  8
11_0B
  6
DASHED
 62
2
 10
297.5620
 20
179.3976
 11
297.3615
 21
177.1066
  0
LINE
  8
11_0B
  6
DASHED
 62
2
 10
306.5251
 20
177.1066
 11
306.3246
 21
179.3976
  0
LINE
  8
11_0B
  6
DASHED
 62
2
 10
306.0893
 20
182.0876
 11
305.8889
 21
184.3786
  0
LINE
  8
11_0B
  6
DASHED
 62
2
 10
305.6535
 20
187.0686
 11
305.4531
 21
189.3596
  0
LINE
  8
11_0B
  6
DASHED
 62
2
 10
305.2177
 20
192.0496
 11
305.0173
 21
194.3406
  0
LINE
  8
11_0B
  6
DASHED
 62
2
 10
306.0603
 20
179.3268
 11
307.7659
 21
179.7838
  0
LINE
  8
11_0B
  6
DASHED
 62
2
 10
297.9883
 20
179.2834
 11
296.1207
 21
179.7838
  0
LINE
  8
11_0B
  6
DASHED
 62
2
 10
305.6245
 20
184.3078
 11
307.3301
 21
184.7648
  0
LINE
  8
11_0B
  6
DASHED
 62
2
 10
298.2620
 20
184.3078
 11
296.5565
 21
184.7648
  0
LINE
  8
11_0B
  6
DASHED
 62
2
 10
305.1888
 20
189.2888
 11
306.8943
 21
189.7458
  0
LINE
  8
11_0B
  6
DASHED
 62
2
 10
298.6978
 20
189.2888
 11
296.9922
 21
189.7458
  0
LINE
  8
11_0B
  6
DASHED
 62
2
 10
304.7530
 20
194.2697
 11
306.4586
 21
194.7267
  0
LINE
  8
11_0B
  6
DASHED
 62
2
 10
299.1336
 20
194.2697
 11
297.4280
 21
194.7267
  0
LINE
  8
11_0B
  6
DASHED
 62
2
 10
298.7062
 20
197.0654
 11
298.9753
 21
200.1411
  0
LINE
  8
11_0B
  6
DASHED
 62
2
 10
305.1804
 20
197.0654
 11
304.9113
 21
200.1411
  0
LINE
  8
11_0B
  6
DASHED
 62
2
 10
299.4285
 20
193.8485
 11
299.2840
 21
192.1965
  0
LINE
  8
11_0B
  6
DASHED
 62
2
 10
298.9928
 20
188.8675
 11
298.8482
 21
187.2155
  0
LINE
  8
11_0B
  6
DASHED
 62
2
 10
298.5570
 20
183.8866
 11
298.4124
 21
182.2346
  0
LINE
  8
11_0B
  6
DASHED
 62
2
 10
298.1358
 20
179.0728
 11
297.9767
 21
177.2536
  0
LINE
  8
11_0B
  6
DASHED
 62
2
 10
305.9099
 20
177.2536
 11
305.7654
 21
178.9056
  0
LINE
  8
11_0B
  6
DASHED
 62
2
 10
305.4741
 20
182.2346
 11
305.3296
 21
183.8866
  0
LINE
  8
11_0B
  6
DASHED
 62
2
 10
305.0384
 20
187.2155
 11
304.8938
 21
188.8675
  0
LINE
  8
11_0B
  6
DASHED
 62
2
 10
304.6026
 20
192.1965
 11
304.4580
 21
193.8485
  0
LINE
  8
11_0B
  6
DASHED
 62
2
 10
299.0097
 20
200.1351
 11
297.9433
 21
200.3231
  0
LINE
  8
11_0B
  6
DASHED
 62
2
 10
304.8769
 20
200.1351
 11
305.9433
 21
200.3231
  0
LINE
  8
11_0B
  6
DASHED
 62
2
 10
307.0109
 20
192.2064
 11
309.8002
 21
198.1881
  0
LINE
  8
11_0B
  6
DASHED
 62
2
 10
308.8939
 20
198.6107
 11
305.8606
 21
192.1058
  0
LINE
  8
11_0B
  6
DASHED
 62
2
 10
296.8757
 20
192.2064
 11
294.0864
 21
198.1881
  0
LINE
  8
11_0B
  6
DASHED
 62
2
 10
294.9927
 20
198.6107
 11
298.0260
 21
192.1058
  0
LINE
  8
11_0B
  6
DASHED
 62
2
 10
309.6067
 20
198.7196
 11
309.4254
 21
198.8042
  0
LINE
  8
11_0B
  6
DASHED
 62
2
 10
294.2799
 20
198.7196
 11
294.4612
 21
198.8042
  0
LINE
  8
11_0B
  6
DASHED
 62
2
 10
299.3387
 20
199.7063
 11
299.1221
 21
197.2298
  0
LINE
  8
11_0B
  6
DASHED
 62
2
 10
304.5479
 20
199.7063
 11
305.0173
 21
194.3406
  0
LINE
  8
0_00
  6
CONTINUOUS
 62
6
 10
157.7617
 20
164.4828
 11
111.2435
 21
117.9647
  0
LINE
  8
0_00
  6
CONTINUOUS
 62
6
 10
157.7617
 20
164.4828
 11
153.5683
 21
161.7596
  0
LINE
  8
0_00
  6
CONTINUOUS
 62
6
 10
157.7617
 20
164.4828
 11
155.0385
 21
160.2895
  0
LINE
  8
0_00
  6
CONTINUOUS
 62
6
 10
145.2435
 20
151.9647
 11
60.2435
 21
151.9647
  0
LINE
  8
0_00
  6
CONTINUOUS
 62
6
 10
128.2435
 20
134.9647
 11
69.8435
 21
134.9647
  0
LINE
  8
0_00
  6
CONTINUOUS
 62
6
 10
111.2435
 20
117.9647
 11
60.2435
 21
117.9647
  0
LINE
  8
0_00
  6
CENTER1
 62
6
 10
618.3706
 20
238.8939
 11
618.3706
 21
126.1168
  0
LINE
  8
15_0F
  6
CONTINUOUS
 62
6
 10
493.3706
 20
121.2561
 11
493.3706
 21
90.2963
  0
LINE
  8
15_0F
  6
CONTINUOUS
 62
6
 10
483.3706
 20
93.2963
 11
493.3706
 21
93.2963
  0
LINE
  8
15_0F
  6
CONTINUOUS
 62
6
 10
461.7706
 20
93.2963
 11
483.3706
 21
93.2963
  0
LINE
  8
15_0F
  6
CONTINUOUS
 62
6
 10
483.3706
 20
93.2963
 11
478.4799
 21
94.3358
  0
LINE
  8
15_0F
  6
CONTINUOUS
 62
6
 10
483.3706
 20
93.2963
 11
478.4799
 21
92.2567
  0
LINE
  8
15_0F
  6
CONTINUOUS
 62
6
 10
498.3706
 20
121.2561
 11
498.3706
 21
90.2963
  0
LINE
  8
15_0F
  6
CONTINUOUS
 62
6
 10
493.3706
 20
93.2963
 11
498.3706
 21
93.2963
  0
LINE
  8
15_0F
  6
CONTINUOUS
 62
6
 10
738.3706
 20
133.0625
 11
738.3706
 21
90.2963
  0
LINE
  8
15_0F
  6
CONTINUOUS
 62
6
 10
498.3706
 20
93.2963
 11
738.3706
 21
93.2963
  0
LINE
  8
15_0F
  6
CONTINUOUS
 62
6
 10
498.3706
 20
93.2963
 11
503.2614
 21
92.2567
  0
LINE
  8
15_0F
  6
CONTINUOUS
 62
6
 10
498.3706
 20
93.2963
 11
503.2614
 21
94.3358
  0
LINE
  8
15_0F
  6
CONTINUOUS
 62
6
 10
738.3706
 20
93.2963
 11
733.4799
 21
94.3358
  0
LINE
  8
15_0F
  6
CONTINUOUS
 62
6
 10
738.3706
 20
93.2963
 11
733.4799
 21
92.2567
  0
LINE
  8
15_0F
  6
CONTINUOUS
 62
6
 10
743.3706
 20
133.0625
 11
743.3706
 21
90.2963
  0
LINE
  8
15_0F
  6
CONTINUOUS
 62
6
 10
738.3706
 20
93.2963
 11
743.3706
 21
93.2963
  0
LINE
  8
15_0F
  6
CONTINUOUS
 62
6
 10
743.3706
 20
93.2963
 11
753.3706
 21
93.2963
  0
LINE
  8
15_0F
  6
CONTINUOUS
 62
6
 10
774.9706
 20
93.2963
 11
753.3706
 21
93.2963
  0
LINE
  8
15_0F
  6
CONTINUOUS
 62
6
 10
753.3706
 20
93.2963
 11
758.2614
 21
92.2567
  0
LINE
  8
15_0F
  6
CONTINUOUS
 62
6
 10
753.3706
 20
93.2963
 11
758.2614
 21
94.3358
  0
LINE
  8
0_00
  6
CONTINUOUS
 62
6
 10
595.8706
 20
296.1725
 11
640.8706
 21
296.1725
  0
LINE
  8
0_00
  6
CONTINUOUS
 62
6
 10
595.8706
 20
296.1725
 11
640.8706
 21
294.6725
  0
LINE
  8
0_00
  6
CONTINUOUS
 62
6
 10
640.8706
 20
296.1725
 11
640.8706
 21
294.6725
  0
LINE
  8
0_00
  6
CONTINUOUS
 62
6
 10
741.0848
 20
222.7581
 11
758.4297
 21
240.1031
  0
LINE
  8
0_00
  6
CONTINUOUS
 62
6
 10
741.0848
 20
222.7581
 11
745.2782
 21
225.4813
  0
LINE
  8
0_00
  6
CONTINUOUS
 62
6
 10
741.0848
 20
222.7581
 11
743.8080
 21
226.9515
  0
LINE
  8
0_00
  6
CONTINUOUS
 62
6
 10
638.9669
 20
232.0362
 11
658.5944
 21
251.6637
  0
LINE
  8
0_00
  6
CONTINUOUS
 62
6
 10
638.9669
 20
232.0362
 11
643.1603
 21
234.7594
  0
LINE
  8
0_00
  6
CONTINUOUS
 62
6
 10
638.9669
 20
232.0362
 11
641.6901
 21
236.2296
  0
LINE
  8
0_00
  6
CONTINUOUS
 62
6
 10
658.5944
 20
251.6637
 11
688.5944
 21
251.6637
  0
LINE
  8
15_0F
  6
CONTINUOUS
 62
6
 10
483.3706
 20
158.1994
 11
483.3706
 21
90.2963
  0
LINE
  8
15_0F
  6
CONTINUOUS
 62
6
 10
753.3706
 20
158.1994
 11
753.3706
 21
90.2963
  0
LINE
  8
0_00
  6
CENTER1
 62
6
 10
687.3706
 20
223.4006
 11
687.3706
 21
157.9099
  0
LINE
  8
0_00
  6
CENTER1
 62
6
 10
549.3706
 20
157.9099
 11
549.3706
 21
223.4006
  0
LINE
  8
0_00
  6
CONTINUOUS
 62
6
 10
758.4297
 20
240.1031
 11
802.8297
 21
240.1031
  0
LINE
  8
6_06
  6
CONTINUOUS
 62
4
 10
486.3707
 20
236.6561
 11
750.4706
 21
227.8528
  0
LINE
  8
6_06
  6
CONTINUOUS
 62
4
 10
483.3706
 20
174.7561
 11
483.3706
 21
233.6544
  0
LINE
  8
6_06
  6
CONTINUOUS
 62
4
 10
753.3706
 20
170.7561
 11
753.3706
 21
224.8545
  0
LINE
  8
6_06
  6
CONTINUOUS
 62
4
 10
486.3706
 20
171.7561
 11
489.6707
 21
171.9291
  0
LINE
  8
6_06
  6
CONTINUOUS
 62
4
 10
750.3706
 20
167.7561
 11
747.0706
 21
167.9291
  0
LINE
  8
6_06
  6
CONTINUOUS
 62
4
 10
489.6705
 20
174.3324
 11
486.3318
 21
174.1574
  0
LINE
  8
6_06
  6
CONTINUOUS
 62
4
 10
485.7706
 20
174.7561
 11
485.7706
 21
233.6544
  0
LINE
  8
6_06
  6
CONTINUOUS
 62
4
 10
486.3906
 20
234.2541
 11
750.3906
 21
225.4541
  0
LINE
  8
6_06
  6
CONTINUOUS
 62
4
 10
750.9706
 20
224.8545
 11
750.9706
 21
170.7561
  0
LINE
  8
6_06
  6
CONTINUOUS
 62
4
 10
750.2694
 20
170.1647
 11
747.0707
 21
170.3324
  0
LINE
  8
0_00
  6
CONTINUOUS
 62
4
 10
498.3706
 20
212.2561
 11
715.3706
 21
212.2561
  0
LINE
  8
6_06
  6
CONTINUOUS
 62
2
 10
505.0706
 20
231.7094
 11
505.0706
 21
233.6315
  0
LINE
  8
6_06
  6
CONTINUOUS
 62
2
 10
500.0706
 20
231.8760
 11
500.0706
 21
233.7981
  0
LINE
  8
6_06
  6
CONTINUOUS
 62
2
 10
731.6707
 20
224.1560
 11
731.6707
 21
226.0781
  0
LINE
  8
6_06
  6
CONTINUOUS
 62
2
 10
736.6707
 20
223.9893
 11
736.6707
 21
225.9114
  0
LINE
  8
3_03
  6
CONTINUOUS
 62
4
 10
487.2344
 20
174.2561
 11
486.3706
 21
174.2561
  0
LINE
  8
3_03
  6
CONTINUOUS
 62
4
 10
749.5125
 20
170.2561
 11
750.3706
 21
170.2561
  0
LINE
  8
3_03
  6
CONTINUOUS
 62
4
 10
487.7298
 20
174.6883
 11
492.8114
 21
211.8239
  0
LINE
  8
3_03
  6
CONTINUOUS
 62
4
 10
743.9249
 20
211.8176
 11
749.0164
 21
170.6947
  0
LINE
  8
3_03
  6
CONTINUOUS
 62
4
 10
493.3069
 20
212.2561
 11
743.4287
 21
212.2561
  0
LINE
  8
3_03
  6
CONTINUOUS
 62
4
 10
519.0706
 20
215.7561
 11
563.5706
 21
215.7561
  0
LINE
  8
3_03
  6
CONTINUOUS
 62
4
 10
566.0706
 20
215.7561
 11
618.0706
 21
215.7561
  0
LINE
  8
3_03
  6
CONTINUOUS
 62
4
 10
618.6706
 20
215.7561
 11
650.3706
 21
215.7561
  0
LINE
  8
3_03
  6
CONTINUOUS
 62
4
 10
650.9706
 20
215.7561
 11
655.3706
 21
215.7561
  0
LINE
  8
3_03
  6
CONTINUOUS
 62
4
 10
655.9706
 20
215.7561
 11
660.3706
 21
215.7561
  0
LINE
  8
3_03
  6
CONTINUOUS
 62
4
 10
660.9706
 20
215.7561
 11
670.6706
 21
215.7561
  0
LINE
  8
3_03
  6
CONTINUOUS
 62
4
 10
673.1706
 20
215.7561
 11
717.6707
 21
215.7561
  0
LINE
  8
3_03
  6
CONTINUOUS
 62
4
 10
566.0706
 20
228.2561
 11
566.0706
 21
215.7561
  0
LINE
  8
3_03
  6
CONTINUOUS
 62
4
 10
670.6706
 20
224.7561
 11
670.6706
 21
215.7561
  0
LINE
  8
3_03
  6
CONTINUOUS
 62
4
 10
618.0706
 20
215.7561
 11
618.3706
 21
215.4561
  0
LINE
  8
3_03
  6
CONTINUOUS
 62
4
 10
618.6706
 20
215.7561
 11
618.3706
 21
215.4561
  0
LINE
  8
3_03
  6
CONTINUOUS
 62
4
 10
650.3706
 20
215.7561
 11
650.6706
 21
215.4561
  0
LINE
  8
3_03
  6
CONTINUOUS
 62
4
 10
650.6706
 20
215.4561
 11
650.9706
 21
215.7561
  0
LINE
  8
3_03
  6
CONTINUOUS
 62
4
 10
655.3706
 20
215.7561
 11
655.6706
 21
215.4561
  0
LINE
  8
3_03
  6
CONTINUOUS
 62
4
 10
655.6706
 20
215.4561
 11
655.9706
 21
215.7561
  0
LINE
  8
3_03
  6
CONTINUOUS
 62
4
 10
660.3706
 20
215.7561
 11
660.6706
 21
215.4561
  0
LINE
  8
3_03
  6
CONTINUOUS
 62
4
 10
660.6706
 20
215.4561
 11
660.9706
 21
215.7561
  0
LINE
  8
3_03
  6
CONTINUOUS
 62
4
 10
489.5706
 20
212.2561
 11
494.4331
 21
228.7630
  0
LINE
  8
3_03
  6
CONTINUOUS
 62
4
 10
747.1707
 20
212.2561
 11
742.3824
 21
222.8805
  0
LINE
  8
3_03
  6
CONTINUOUS
 62
4
 10
493.5047
 20
215.5561
 11
519.0706
 21
215.5561
  0
LINE
  8
3_03
  6
CONTINUOUS
 62
4
 10
519.0706
 20
215.7561
 11
519.0706
 21
215.5561
  0
LINE
  8
3_03
  6
CONTINUOUS
 62
4
 10
672.6706
 20
216.2561
 11
672.6706
 21
224.7561
  0
LINE
  8
3_03
  6
CONTINUOUS
 62
4
 10
564.0706
 20
228.2561
 11
564.0706
 21
216.2561
  0
LINE
  8
3_03
  6
CONTINUOUS
 62
4
 10
717.6707
 20
215.5561
 11
742.4965
 21
215.5561
  0
LINE
  8
3_03
  6
CONTINUOUS
 62
4
 10
717.6707
 20
215.7561
 11
717.6707
 21
215.5561
  0
LINE
  8
3_03
  6
CONTINUOUS
 62
4
 10
498.5706
 20
230.1250
 11
498.5706
 21
231.8159
  0
LINE
  8
3_03
  6
CONTINUOUS
 62
4
 10
506.0706
 20
231.5860
 11
506.0706
 21
230.1918
  0
LINE
  8
3_03
  6
CONTINUOUS
 62
4
 10
499.0706
 20
231.9093
 11
499.0706
 21
232.1094
  0
LINE
  8
3_03
  6
CONTINUOUS
 62
4
 10
505.5706
 20
231.6927
 11
505.5706
 21
231.8928
  0
LINE
  8
3_03
  6
CONTINUOUS
 62
4
 10
730.6707
 20
224.0793
 11
730.6707
 21
222.6718
  0
LINE
  8
3_03
  6
CONTINUOUS
 62
4
 10
731.1707
 20
224.3728
 11
731.1707
 21
224.1727
  0
LINE
  8
3_03
  6
CONTINUOUS
 62
4
 10
737.6707
 20
224.1561
 11
737.6707
 21
223.9560
  0
LINE
  8
3_03
  6
CONTINUOUS
 62
4
 10
489.5706
 20
212.2561
 11
485.6744
 21
175.0290
  0
LINE
  8
3_03
  6
CONTINUOUS
 62
4
 10
498.8806
 20
232.1158
 11
499.0706
 21
232.1094
  0
LINE
  8
3_03
  6
CONTINUOUS
 62
4
 10
505.5706
 20
231.8928
 11
505.7806
 21
231.8858
  0
LINE
  8
3_03
  6
CONTINUOUS
 62
4
 10
499.0706
 20
231.9093
 11
505.5706
 21
231.6927
  0
LINE
  8
3_03
  6
CONTINUOUS
 62
4
 10
496.4182
 20
230.1967
 11
498.5706
 21
230.1250
  0
LINE
  8
3_03
  6
CONTINUOUS
 62
4
 10
730.9806
 20
224.3791
 11
731.1707
 21
224.3728
  0
LINE
  8
3_03
  6
CONTINUOUS
 62
4
 10
737.6707
 20
224.1561
 11
740.6257
 21
224.0576
  0
LINE
  8
3_03
  6
CONTINUOUS
 62
4
 10
737.6707
 20
223.9560
 11
731.1707
 21
224.1727
  0
LINE
  8
3_03
  6
CONTINUOUS
 62
4
 10
747.1707
 20
212.2561
 11
751.0675
 21
171.0220
  0
LINE
  8
3_03
  6
CONTINUOUS
 62
4
 10
493.0251
 20
216.1974
 11
496.2809
 21
227.2501
  0
LINE
  8
3_03
  6
CONTINUOUS
 62
4
 10
497.2734
 20
227.9670
 11
500.7706
 21
227.8504
  0
LINE
  8
3_03
  6
CONTINUOUS
 62
4
 10
500.7706
 20
227.8504
 11
500.7706
 21
229.3346
  0
LINE
  8
3_03
  6
CONTINUOUS
 62
4
 10
501.2872
 20
229.8344
 11
505.5540
 21
229.6921
  0
LINE
  8
3_03
  6
CONTINUOUS
 62
4
 10
742.9523
 20
216.2616
 11
740.6838
 21
221.2952
  0
LINE
  8
3_03
  6
CONTINUOUS
 62
4
 10
739.8054
 20
221.8837
 11
731.1539
 21
222.1721
  0
LINE
  8
6_06
  6
CONTINUOUS
 62
2
 10
731.6707
 20
225.3710
 11
732.3549
 21
226.0553
  0
LINE
  8
6_06
  6
CONTINUOUS
 62
2
 10
731.6707
 20
224.6639
 11
733.0392
 21
226.0325
  0
LINE
  8
6_06
  6
CONTINUOUS
 62
2
 10
731.8634
 20
224.1496
 11
733.7235
 21
226.0097
  0
LINE
  8
6_06
  6
CONTINUOUS
 62
2
 10
732.5477
 20
224.1268
 11
734.4078
 21
225.9869
  0
LINE
  8
6_06
  6
CONTINUOUS
 62
2
 10
733.2320
 20
224.1040
 11
735.0921
 21
225.9641
  0
LINE
  8
6_06
  6
CONTINUOUS
 62
2
 10
733.9163
 20
224.0812
 11
735.7764
 21
225.9413
  0
LINE
  8
6_06
  6
CONTINUOUS
 62
2
 10
734.6006
 20
224.0583
 11
736.4607
 21
225.9184
  0
LINE
  8
6_06
  6
CONTINUOUS
 62
2
 10
735.2849
 20
224.0355
 11
736.6707
 21
225.4213
  0
LINE
  8
6_06
  6
CONTINUOUS
 62
2
 10
735.9692
 20
224.0127
 11
736.6707
 21
224.7142
  0
LINE
  8
6_06
  6
CONTINUOUS
 62
2
 10
736.6534
 20
223.9899
 11
736.6707
 21
224.0070
  0
LINE
  8
6_06
  6
CONTINUOUS
 62
2
 10
500.0706
 20
233.0910
 11
500.7549
 21
233.7753
  0
LINE
  8
6_06
  6
CONTINUOUS
 62
2
 10
500.0706
 20
232.3839
 11
501.4392
 21
233.7525
  0
LINE
  8
6_06
  6
CONTINUOUS
 62
2
 10
500.2634
 20
231.8696
 11
502.1235
 21
233.7297
  0
LINE
  8
6_06
  6
CONTINUOUS
 62
2
 10
500.9477
 20
231.8468
 11
502.8078
 21
233.7069
  0
LINE
  8
6_06
  6
CONTINUOUS
 62
2
 10
501.6320
 20
231.8240
 11
503.4921
 21
233.6841
  0
LINE
  8
6_06
  6
CONTINUOUS
 62
2
 10
502.3163
 20
231.8011
 11
504.1764
 21
233.6613
  0
LINE
  8
6_06
  6
CONTINUOUS
 62
2
 10
503.0006
 20
231.7783
 11
504.8607
 21
233.6385
  0
LINE
  8
6_06
  6
CONTINUOUS
 62
2
 10
503.6849
 20
231.7555
 11
505.0706
 21
233.1413
  0
LINE
  8
6_06
  6
CONTINUOUS
 62
2
 10
504.3692
 20
231.7327
 11
505.0706
 21
232.4342
  0
LINE
  8
6_06
  6
CONTINUOUS
 62
2
 10
505.0535
 20
231.7099
 11
505.0706
 21
231.7271
  0
LINE
  8
0_00
  6
CONTINUOUS
 62
4
 10
738.3706
 20
189.2561
 11
738.3706
 21
139.7561
  0
LINE
  8
0_00
  6
CONTINUOUS
 62
4
 10
498.3706
 20
189.2561
 11
498.3706
 21
139.7561
  0
LINE
  8
0_00
  6
CONTINUOUS
 62
4
 10
730.3706
 20
139.7561
 11
730.3706
 21
189.2561
  0
LINE
  8
0_00
  6
CONTINUOUS
 62
4
 10
715.3706
 20
204.2561
 11
513.3706
 21
204.2561
  0
LINE
  8
0_00
  6
CONTINUOUS
 62
2
 10
521.3706
 20
212.2561
 11
521.3706
 21
204.2561
  0
LINE
  8
0_00
  6
CONTINUOUS
 62
2
 10
518.9251
 20
211.8732
 11
521.3706
 21
209.4277
  0
LINE
  8
0_00
  6
CONTINUOUS
 62
2
 10
517.0080
 20
210.9619
 11
521.3706
 21
206.5993
  0
LINE
  8
0_00
  6
CONTINUOUS
 62
2
 10
515.4763
 20
209.6651
 11
520.8853
 21
204.2561
  0
LINE
  8
0_00
  6
CONTINUOUS
 62
2
 10
514.3050
 20
208.0080
 11
518.0569
 21
204.2561
  0
LINE
  8
0_00
  6
CONTINUOUS
 62
2
 10
513.5489
 20
205.9357
 11
515.2285
 21
204.2561
  0
LINE
  8
0_00
  6
CONTINUOUS
 62
2
 10
715.3982
 20
206.9228
 11
521.3706
 21
206.9228
  0
LINE
  8
0_00
  6
CONTINUOUS
 62
2
 10
715.3844
 20
209.5894
 11
521.3706
 21
209.5894
  0
LINE
  8
0_00
  6
CONTINUOUS
 62
2
 10
733.0373
 20
189.2837
 11
733.0373
 21
139.7561
  0
LINE
  8
0_00
  6
CONTINUOUS
 62
2
 10
735.7040
 20
189.2699
 11
735.7040
 21
139.7561
  0
LINE
  8
0_00
  6
CONTINUOUS
 62
4
 10
730.3706
 20
189.2561
 11
715.3706
 21
204.2561
  0
LINE
  8
0_00
  6
CONTINUOUS
 62
4
 10
498.3706
 20
189.2561
 11
513.3706
 21
204.2561
  0
LINE
  8
0_00
  6
CONTINUOUS
 62
2
 10
717.2367
 20
206.1613
 11
732.2758
 21
191.1222
  0
LINE
  8
0_00
  6
CONTINUOUS
 62
2
 10
719.1321
 20
208.0371
 11
734.1516
 21
193.0176
  0
LINE
  8
0_00
  6
CONTINUOUS
 62
4
 10
721.0275
 20
209.9130
 11
736.0275
 21
194.9130
  0
LINE
  8
0_00
  6
CONTINUOUS
 62
2
 10
724.6793
 20
194.9475
 11
669.4879
 21
139.7561
  0
LINE
  8
0_00
  6
CONTINUOUS
 62
2
 10
723.2650
 20
196.3617
 11
666.6595
 21
139.7561
  0
LINE
  8
0_00
  6
CONTINUOUS
 62
2
 10
721.8508
 20
197.7759
 11
663.8311
 21
139.7561
  0
LINE
  8
0_00
  6
CONTINUOUS
 62
2
 10
671.7625
 20
204.2561
 11
607.2625
 21
139.7561
  0
LINE
  8
0_00
  6
CONTINUOUS
 62
2
 10
668.9341
 20
204.2561
 11
604.4341
 21
139.7561
  0
LINE
  8
0_00
  6
CONTINUOUS
 62
2
 10
666.1057
 20
204.2561
 11
601.6057
 21
139.7561
  0
LINE
  8
0_00
  6
CONTINUOUS
 62
2
 10
609.5371
 20
204.2561
 11
545.0371
 21
139.7561
  0
LINE
  8
0_00
  6
CONTINUOUS
 62
2
 10
606.7087
 20
204.2561
 11
542.2087
 21
139.7561
  0
LINE
  8
0_00
  6
CONTINUOUS
 62
2
 10
603.8802
 20
204.2561
 11
539.3802
 21
139.7561
  0
LINE
  8
0_00
  6
CONTINUOUS
 62
2
 10
547.3118
 20
204.2561
 11
498.3706
 21
155.3150
  0
LINE
  8
0_00
  6
CONTINUOUS
 62
2
 10
544.4833
 20
204.2561
 11
498.3706
 21
158.1434
  0
LINE
  8
0_00
  6
CONTINUOUS
 62
2
 10
541.6549
 20
204.2561
 11
498.3706
 21
160.9718
  0
LINE
  8
13_0D
  6
DASHED
 62
2
 10
552.3706
 20
215.7561
 11
552.3706
 21
170.9523
  0
LINE
  8
13_0D
  6
DASHED
 62
2
 10
551.8291
 20
215.7561
 11
551.8291
 21
170.0144
  0
LINE
  8
13_0D
  6
DASHED
 62
2
 10
546.3706
 20
215.7561
 11
546.3706
 21
170.9523
  0
LINE
  8
13_0D
  6
DASHED
 62
2
 10
546.9121
 20
215.7561
 11
546.9121
 21
170.0144
  0
LINE
  8
13_0D
  6
DASHED
 62
2
 10
549.3706
 20
165.7561
 11
546.3706
 21
170.9523
  0
LINE
  8
13_0D
  6
DASHED
 62
2
 10
549.3706
 20
165.7561
 11
552.3706
 21
170.9523
  0
LINE
  8
11_0B
  6
DASHED
 62
2
 10
545.3706
 20
212.2561
 11
545.3706
 21
200.3231
  0
LINE
  8
11_0B
  6
DASHED
 62
2
 10
544.7388
 20
197.1874
 11
544.5604
 21
195.1480
  0
LINE
  8
11_0B
  6
DASHED
 62
2
 10
544.3030
 20
192.2064
 11
544.1246
 21
190.1670
  0
LINE
  8
11_0B
  6
DASHED
 62
2
 10
543.8672
 20
187.2255
 11
543.6888
 21
185.1860
  0
LINE
  8
11_0B
  6
DASHED
 62
2
 10
543.4315
 20
182.2445
 11
543.2531
 21
180.2051
  0
LINE
  8
11_0B
  6
DASHED
 62
2
 10
542.9957
 20
177.2635
 11
542.8354
 21
175.4313
  0
LINE
  8
11_0B
  6
DASHED
 62
2
 10
553.3706
 20
212.2561
 11
553.3706
 21
200.3231
  0
LINE
  8
11_0B
  6
DASHED
 62
2
 10
554.0024
 20
197.1874
 11
554.1808
 21
195.1480
  0
LINE
  8
11_0B
  6
DASHED
 62
2
 10
554.4382
 20
192.2064
 11
554.6166
 21
190.1670
  0
LINE
  8
11_0B
  6
DASHED
 62
2
 10
554.8740
 20
187.2255
 11
555.0524
 21
185.1860
  0
LINE
  8
11_0B
  6
DASHED
 62
2
 10
555.3098
 20
182.2445
 11
555.4882
 21
180.2051
  0
LINE
  8
11_0B
  6
DASHED
 62
2
 10
555.7455
 20
177.2635
 11
555.9058
 21
175.4313
  0
LINE
  8
11_0B
  6
DASHED
 62
2
 10
548.8706
 20
204.2561
 11
549.8706
 21
204.2561
  0
LINE
  8
11_0B
  6
DASHED
 62
2
 10
549.8706
 20
204.2561
 11
552.6596
 21
172.3779
  0
LINE
  8
11_0B
  6
DASHED
 62
2
 10
546.0816
 20
172.3779
 11
548.8706
 21
204.2561
  0
LINE
  8
11_0B
  6
DASHED
 62
2
 10
544.0892
 20
172.5522
 11
546.0816
 21
172.3779
  0
LINE
  8
11_0B
  6
DASHED
 62
2
 10
552.6596
 20
172.3779
 11
554.6520
 21
172.5522
  0
LINE
  8
11_0B
  6
DASHED
 62
2
 10
554.6520
 20
172.5522
 11
555.8519
 21
175.1254
  0
LINE
  8
11_0B
  6
DASHED
 62
2
 10
544.0892
 20
172.5522
 11
542.8893
 21
175.1254
  0
LINE
  8
11_0B
  6
DASHED
 62
2
 10
542.8214
 20
175.2711
 11
546.3080
 21
174.9661
  0
LINE
  8
11_0B
  6
DASHED
 62
2
 10
552.4332
 20
174.9661
 11
555.9199
 21
175.2711
  0
LINE
  8
11_0B
  6
DASHED
 62
2
 10
542.9957
 20
177.2635
 11
545.1873
 21
177.0718
  0
LINE
  8
11_0B
  6
DASHED
 62
2
 10
553.5539
 20
177.0718
 11
555.7455
 21
177.2635
  0
LINE
  8
11_0B
  6
DASHED
 62
2
 10
543.4315
 20
182.2445
 11
545.6231
 21
182.0527
  0
LINE
  8
11_0B
  6
DASHED
 62
2
 10
553.1181
 20
182.0527
 11
555.3098
 21
182.2445
  0
LINE
  8
11_0B
  6
DASHED
 62
2
 10
543.8672
 20
187.2255
 11
546.0589
 21
187.0337
  0
LINE
  8
11_0B
  6
DASHED
 62
2
 10
552.6824
 20
187.0337
 11
554.8740
 21
187.2255
  0
LINE
  8
11_0B
  6
DASHED
 62
2
 10
544.3030
 20
192.2064
 11
546.4946
 21
192.0147
  0
LINE
  8
11_0B
  6
DASHED
 62
2
 10
552.2466
 20
192.0147
 11
554.4382
 21
192.2064
  0
LINE
  8
11_0B
  6
DASHED
 62
2
 10
544.7388
 20
197.1874
 11
546.3327
 21
197.0480
  0
LINE
  8
11_0B
  6
DASHED
 62
2
 10
552.4085
 20
197.0480
 11
554.0024
 21
197.1874
  0
LINE
  8
11_0B
  6
DASHED
 62
2
 10
546.2966
 20
194.3406
 11
546.0962
 21
192.0496
  0
LINE
  8
11_0B
  6
DASHED
 62
2
 10
545.8608
 20
189.3596
 11
545.6604
 21
187.0686
  0
LINE
  8
11_0B
  6
DASHED
 62
2
 10
545.4250
 20
184.3786
 11
545.2246
 21
182.0876
  0
LINE
  8
11_0B
  6
DASHED
 62
2
 10
544.9893
 20
179.3976
 11
544.7888
 21
177.1066
  0
LINE
  8
11_0B
  6
DASHED
 62
2
 10
553.9524
 20
177.1066
 11
553.7520
 21
179.3976
  0
LINE
  8
11_0B
  6
DASHED
 62
2
 10
553.5166
 20
182.0876
 11
553.3162
 21
184.3786
  0
LINE
  8
11_0B
  6
DASHED
 62
2
 10
553.0808
 20
187.0686
 11
552.8804
 21
189.3596
  0
LINE
  8
11_0B
  6
DASHED
 62
2
 10
552.6450
 20
192.0496
 11
552.4446
 21
194.3406
  0
LINE
  8
11_0B
  6
DASHED
 62
2
 10
553.4877
 20
179.3268
 11
555.1932
 21
179.7838
  0
LINE
  8
11_0B
  6
DASHED
 62
2
 10
545.4156
 20
179.2834
 11
543.5480
 21
179.7838
  0
LINE
  8
11_0B
  6
DASHED
 62
2
 10
553.0519
 20
184.3078
 11
554.7574
 21
184.7648
  0
LINE
  8
11_0B
  6
DASHED
 62
2
 10
545.6893
 20
184.3078
 11
543.9838
 21
184.7648
  0
LINE
  8
11_0B
  6
DASHED
 62
2
 10
552.6161
 20
189.2888
 11
554.3217
 21
189.7458
  0
LINE
  8
11_0B
  6
DASHED
 62
2
 10
546.1251
 20
189.2888
 11
544.4196
 21
189.7458
  0
LINE
  8
11_0B
  6
DASHED
 62
2
 10
552.1803
 20
194.2697
 11
553.8859
 21
194.7267
  0
LINE
  8
11_0B
  6
DASHED
 62
2
 10
546.5609
 20
194.2697
 11
544.8553
 21
194.7267
  0
LINE
  8
11_0B
  6
DASHED
 62
2
 10
546.1335
 20
197.0654
 11
546.4026
 21
200.1411
  0
LINE
  8
11_0B
  6
DASHED
 62
2
 10
552.6077
 20
197.0654
 11
552.3386
 21
200.1411
  0
LINE
  8
11_0B
  6
DASHED
 62
2
 10
546.8558
 20
193.8485
 11
546.7113
 21
192.1965
  0
LINE
  8
11_0B
  6
DASHED
 62
2
 10
546.4201
 20
188.8675
 11
546.2756
 21
187.2155
  0
LINE
  8
11_0B
  6
DASHED
 62
2
 10
545.9843
 20
183.8866
 11
545.8398
 21
182.2346
  0
LINE
  8
11_0B
  6
DASHED
 62
2
 10
545.5632
 20
179.0728
 11
545.4040
 21
177.2536
  0
LINE
  8
11_0B
  6
DASHED
 62
2
 10
553.3372
 20
177.2536
 11
553.1927
 21
178.9056
  0
LINE
  8
11_0B
  6
DASHED
 62
2
 10
552.9014
 20
182.2346
 11
552.7569
 21
183.8866
  0
LINE
  8
11_0B
  6
DASHED
 62
2
 10
552.4657
 20
187.2155
 11
552.3212
 21
188.8675
  0
LINE
  8
11_0B
  6
DASHED
 62
2
 10
552.0299
 20
192.1965
 11
551.8854
 21
193.8485
  0
LINE
  8
11_0B
  6
DASHED
 62
2
 10
546.4370
 20
200.1351
 11
545.3706
 21
200.3231
  0
LINE
  8
11_0B
  6
DASHED
 62
2
 10
552.3042
 20
200.1351
 11
553.3706
 21
200.3231
  0
LINE
  8
11_0B
  6
DASHED
 62
2
 10
554.4382
 20
192.2064
 11
557.2275
 21
198.1881
  0
LINE
  8
11_0B
  6
DASHED
 62
2
 10
556.3212
 20
198.6107
 11
553.2879
 21
192.1058
  0
LINE
  8
11_0B
  6
DASHED
 62
2
 10
544.3030
 20
192.2064
 11
541.5137
 21
198.1881
  0
LINE
  8
11_0B
  6
DASHED
 62
2
 10
542.4200
 20
198.6107
 11
545.4534
 21
192.1058
  0
LINE
  8
11_0B
  6
DASHED
 62
2
 10
557.0340
 20
198.7196
 11
556.8527
 21
198.8042
  0
LINE
  8
11_0B
  6
DASHED
 62
2
 10
541.7072
 20
198.7196
 11
541.8885
 21
198.8042
  0
LINE
  8
11_0B
  6
DASHED
 62
2
 10
546.7661
 20
199.7063
 11
546.5494
 21
197.2298
  0
LINE
  8
11_0B
  6
DASHED
 62
2
 10
551.9752
 20
199.7063
 11
552.4446
 21
194.3406
  0
LINE
  8
13_0D
  6
CONTINUOUS
 62
2
 10
549.3706
 20
215.7561
 11
556.3706
 21
215.7561
  0
LINE
  8
13_0D
  6
CONTINUOUS
 62
2
 10
556.3706
 20
215.7561
 11
556.3706
 21
216.1707
  0
LINE
  8
13_0D
  6
CONTINUOUS
 62
2
 10
556.3706
 20
216.1707
 11
549.3706
 21
216.1707
  0
LINE
  8
13_0D
  6
CONTINUOUS
 62
2
 10
549.3706
 20
215.7561
 11
542.3706
 21
215.7561
  0
LINE
  8
13_0D
  6
CONTINUOUS
 62
2
 10
542.3706
 20
215.7561
 11
542.3706
 21
216.1707
  0
LINE
  8
13_0D
  6
CONTINUOUS
 62
2
 10
542.3706
 20
216.1707
 11
549.3706
 21
216.1707
  0
LINE
  8
13_0D
  6
DASHED
 62
2
 10
690.3706
 20
215.7561
 11
690.3706
 21
170.9523
  0
LINE
  8
13_0D
  6
DASHED
 62
2
 10
689.8291
 20
215.7561
 11
689.8291
 21
170.0144
  0
LINE
  8
13_0D
  6
DASHED
 62
2
 10
684.3706
 20
215.7561
 11
684.3706
 21
170.9523
  0
LINE
  8
13_0D
  6
DASHED
 62
2
 10
684.9121
 20
215.7561
 11
684.9121
 21
170.0144
  0
LINE
  8
13_0D
  6
DASHED
 62
2
 10
687.3706
 20
165.7561
 11
684.3706
 21
170.9523
  0
LINE
  8
13_0D
  6
DASHED
 62
2
 10
687.3706
 20
165.7561
 11
690.3706
 21
170.9523
  0
LINE
  8
11_0B
  6
DASHED
 62
2
 10
683.3706
 20
212.2561
 11
683.3706
 21
200.3231
  0
LINE
  8
11_0B
  6
DASHED
 62
2
 10
682.7388
 20
197.1874
 11
682.5604
 21
195.1480
  0
LINE
  8
11_0B
  6
DASHED
 62
2
 10
682.3030
 20
192.2064
 11
682.1246
 21
190.1670
  0
LINE
  8
11_0B
  6
DASHED
 62
2
 10
681.8672
 20
187.2255
 11
681.6888
 21
185.1860
  0
LINE
  8
11_0B
  6
DASHED
 62
2
 10
681.4315
 20
182.2445
 11
681.2531
 21
180.2051
  0
LINE
  8
11_0B
  6
DASHED
 62
2
 10
680.9957
 20
177.2635
 11
680.8354
 21
175.4313
  0
LINE
  8
11_0B
  6
DASHED
 62
2
 10
691.3706
 20
212.2561
 11
691.3706
 21
200.3231
  0
LINE
  8
11_0B
  6
DASHED
 62
2
 10
692.0024
 20
197.1874
 11
692.1808
 21
195.1480
  0
LINE
  8
11_0B
  6
DASHED
 62
2
 10
692.4382
 20
192.2064
 11
692.6166
 21
190.1670
  0
LINE
  8
11_0B
  6
DASHED
 62
2
 10
692.8740
 20
187.2255
 11
693.0524
 21
185.1860
  0
LINE
  8
11_0B
  6
DASHED
 62
2
 10
693.3098
 20
182.2445
 11
693.4882
 21
180.2051
  0
LINE
  8
11_0B
  6
DASHED
 62
2
 10
693.7455
 20
177.2635
 11
693.9058
 21
175.4313
  0
LINE
  8
11_0B
  6
DASHED
 62
2
 10
686.8706
 20
204.2561
 11
687.8706
 21
204.2561
  0
LINE
  8
11_0B
  6
DASHED
 62
2
 10
687.8706
 20
204.2561
 11
690.6596
 21
172.3779
  0
LINE
  8
11_0B
  6
DASHED
 62
2
 10
684.0817
 20
172.3779
 11
686.8706
 21
204.2561
  0
LINE
  8
11_0B
  6
DASHED
 62
2
 10
682.0892
 20
172.5522
 11
684.0817
 21
172.3779
  0
LINE
  8
11_0B
  6
DASHED
 62
2
 10
690.6596
 20
172.3779
 11
692.6520
 21
172.5522
  0
LINE
  8
11_0B
  6
DASHED
 62
2
 10
692.6520
 20
172.5522
 11
693.8519
 21
175.1254
  0
LINE
  8
11_0B
  6
DASHED
 62
2
 10
682.0892
 20
172.5522
 11
680.8893
 21
175.1254
  0
LINE
  8
11_0B
  6
DASHED
 62
2
 10
680.8214
 20
175.2711
 11
684.3081
 21
174.9661
  0
LINE
  8
11_0B
  6
DASHED
 62
2
 10
690.4332
 20
174.9661
 11
693.9198
 21
175.2711
  0
LINE
  8
11_0B
  6
DASHED
 62
2
 10
680.9957
 20
177.2635
 11
683.1873
 21
177.0718
  0
LINE
  8
11_0B
  6
DASHED
 62
2
 10
691.5539
 20
177.0718
 11
693.7455
 21
177.2635
  0
LINE
  8
11_0B
  6
DASHED
 62
2
 10
681.4315
 20
182.2445
 11
683.6231
 21
182.0527
  0
LINE
  8
11_0B
  6
DASHED
 62
2
 10
691.1182
 20
182.0527
 11
693.3098
 21
182.2445
  0
LINE
  8
11_0B
  6
DASHED
 62
2
 10
681.8672
 20
187.2255
 11
684.0588
 21
187.0337
  0
LINE
  8
11_0B
  6
DASHED
 62
2
 10
690.6824
 20
187.0337
 11
692.8740
 21
187.2255
  0
LINE
  8
11_0B
  6
DASHED
 62
2
 10
682.3030
 20
192.2064
 11
684.4946
 21
192.0147
  0
LINE
  8
11_0B
  6
DASHED
 62
2
 10
690.2466
 20
192.0147
 11
692.4382
 21
192.2064
  0
LINE
  8
11_0B
  6
DASHED
 62
2
 10
682.7388
 20
197.1874
 11
684.3328
 21
197.0480
  0
LINE
  8
11_0B
  6
DASHED
 62
2
 10
690.4085
 20
197.0480
 11
692.0024
 21
197.1874
  0
LINE
  8
11_0B
  6
DASHED
 62
2
 10
684.2966
 20
194.3406
 11
684.0962
 21
192.0496
  0
LINE
  8
11_0B
  6
DASHED
 62
2
 10
683.8608
 20
189.3596
 11
683.6604
 21
187.0686
  0
LINE
  8
11_0B
  6
DASHED
 62
2
 10
683.4250
 20
184.3786
 11
683.2246
 21
182.0876
  0
LINE
  8
11_0B
  6
DASHED
 62
2
 10
682.9893
 20
179.3976
 11
682.7888
 21
177.1066
  0
LINE
  8
11_0B
  6
DASHED
 62
2
 10
691.9524
 20
177.1066
 11
691.7520
 21
179.3976
  0
LINE
  8
11_0B
  6
DASHED
 62
2
 10
691.5166
 20
182.0876
 11
691.3162
 21
184.3786
  0
LINE
  8
11_0B
  6
DASHED
 62
2
 10
691.0808
 20
187.0686
 11
690.8804
 21
189.3596
  0
LINE
  8
11_0B
  6
DASHED
 62
2
 10
690.6450
 20
192.0496
 11
690.4446
 21
194.3406
  0
LINE
  8
11_0B
  6
DASHED
 62
2
 10
691.4877
 20
179.3268
 11
693.1932
 21
179.7838
  0
LINE
  8
11_0B
  6
DASHED
 62
2
 10
683.4156
 20
179.2834
 11
681.5480
 21
179.7838
  0
LINE
  8
11_0B
  6
DASHED
 62
2
 10
691.0519
 20
184.3078
 11
692.7574
 21
184.7648
  0
LINE
  8
11_0B
  6
DASHED
 62
2
 10
683.6893
 20
184.3078
 11
681.9838
 21
184.7648
  0
LINE
  8
11_0B
  6
DASHED
 62
2
 10
690.6161
 20
189.2888
 11
692.3217
 21
189.7458
  0
LINE
  8
11_0B
  6
DASHED
 62
2
 10
684.1251
 20
189.2888
 11
682.4196
 21
189.7458
  0
LINE
  8
11_0B
  6
DASHED
 62
2
 10
690.1803
 20
194.2697
 11
691.8859
 21
194.7267
  0
LINE
  8
11_0B
  6
DASHED
 62
2
 10
684.5609
 20
194.2697
 11
682.8553
 21
194.7267
  0
LINE
  8
11_0B
  6
DASHED
 62
2
 10
684.1335
 20
197.0654
 11
684.4026
 21
200.1411
  0
LINE
  8
11_0B
  6
DASHED
 62
2
 10
690.6077
 20
197.0654
 11
690.3386
 21
200.1411
  0
LINE
  8
11_0B
  6
DASHED
 62
2
 10
684.8558
 20
193.8485
 11
684.7113
 21
192.1965
  0
LINE
  8
11_0B
  6
DASHED
 62
2
 10
684.4200
 20
188.8675
 11
684.2755
 21
187.2155
  0
LINE
  8
11_0B
  6
DASHED
 62
2
 10
683.9843
 20
183.8866
 11
683.8398
 21
182.2346
  0
LINE
  8
11_0B
  6
DASHED
 62
2
 10
683.5631
 20
179.0728
 11
683.4040
 21
177.2536
  0
LINE
  8
11_0B
  6
DASHED
 62
2
 10
691.3372
 20
177.2536
 11
691.1927
 21
178.9056
  0
LINE
  8
11_0B
  6
DASHED
 62
2
 10
690.9015
 20
182.2346
 11
690.7570
 21
183.8866
  0
LINE
  8
11_0B
  6
DASHED
 62
2
 10
690.4657
 20
187.2155
 11
690.3212
 21
188.8675
  0
LINE
  8
11_0B
  6
DASHED
 62
2
 10
690.0299
 20
192.1965
 11
689.8854
 21
193.8485
  0
LINE
  8
11_0B
  6
DASHED
 62
2
 10
684.4370
 20
200.1351
 11
683.3706
 21
200.3231
  0
LINE
  8
11_0B
  6
DASHED
 62
2
 10
690.3042
 20
200.1351
 11
691.3706
 21
200.3231
  0
LINE
  8
11_0B
  6
DASHED
 62
2
 10
692.4382
 20
192.2064
 11
695.2275
 21
198.1881
  0
LINE
  8
11_0B
  6
DASHED
 62
2
 10
694.3212
 20
198.6107
 11
691.2878
 21
192.1058
  0
LINE
  8
11_0B
  6
DASHED
 62
2
 10
682.3030
 20
192.2064
 11
679.5138
 21
198.1881
  0
LINE
  8
11_0B
  6
DASHED
 62
2
 10
680.4200
 20
198.6107
 11
683.4534
 21
192.1058
  0
LINE
  8
11_0B
  6
DASHED
 62
2
 10
695.0340
 20
198.7196
 11
694.8527
 21
198.8042
  0
LINE
  8
11_0B
  6
DASHED
 62
2
 10
679.7072
 20
198.7196
 11
679.8885
 21
198.8042
  0
LINE
  8
11_0B
  6
DASHED
 62
2
 10
684.7661
 20
199.7063
 11
684.5494
 21
197.2298
  0
LINE
  8
11_0B
  6
DASHED
 62
2
 10
689.9752
 20
199.7063
 11
690.4446
 21
194.3406
  0
LINE
  8
13_0D
  6
CONTINUOUS
 62
2
 10
687.3706
 20
215.7561
 11
694.3706
 21
215.7561
  0
LINE
  8
13_0D
  6
CONTINUOUS
 62
2
 10
694.3706
 20
215.7561
 11
694.3706
 21
216.1707
  0
LINE
  8
13_0D
  6
CONTINUOUS
 62
2
 10
694.3706
 20
216.1707
 11
687.3706
 21
216.1707
  0
LINE
  8
13_0D
  6
CONTINUOUS
 62
2
 10
687.3706
 20
215.7561
 11
680.3706
 21
215.7561
  0
LINE
  8
13_0D
  6
CONTINUOUS
 62
2
 10
680.3706
 20
215.7561
 11
680.3706
 21
216.1707
  0
LINE
  8
13_0D
  6
CONTINUOUS
 62
2
 10
680.3706
 20
216.1707
 11
687.3706
 21
216.1707
  0
LINE
  8
0_00
  6
CONTINUOUS
 62
6
 10
513.9894
 20
145.9634
 11
428.9894
 21
145.9634
  0
LINE
  8
0_00
  6
CONTINUOUS
 62
6
 10
496.9895
 20
128.9634
 11
438.5894
 21
128.9634
  0
LINE
  8
0_00
  6
CONTINUOUS
 62
6
 10
479.9894
 20
111.9634
 11
428.9894
 21
111.9634
  0
LINE
  8
0_00
  6
CONTINUOUS
 62
6
 10
543.4191
 20
175.3930
 11
479.9894
 21
111.9634
  0
LINE
  8
0_00
  6
CONTINUOUS
 62
6
 10
543.4191
 20
175.3930
 11
539.2257
 21
172.6698
  0
LINE
  8
0_00
  6
CONTINUOUS
 62
6
 10
543.4191
 20
175.3930
 11
540.6959
 21
171.1997
  0
LINE
  8
0_00
  6
PHANTOM1
 62
2
 10
743.3706
 20
208.0387
 11
743.3706
 21
139.7561
  0
LINE
  8
0_00
  6
PHANTOM1
 62
2
 10
493.3706
 20
208.0387
 11
493.3706
 21
139.7561
  0
LINE
  8
0_00
  6
CONTINUOUS
 62
4
 10
350.4304
 20
527.2963
 11
371.2304
 21
527.2963
  0
LINE
  8
0_00
  6
CONTINUOUS
 62
4
 10
371.2304
 20
527.2963
 11
371.2304
 21
536.8962
  0
LINE
  8
0_00
  6
CONTINUOUS
 62
4
 10
350.4304
 20
536.8962
 11
371.2304
 21
536.8962
  0
LINE
  8
0_00
  6
CONTINUOUS
 62
4
 10
350.4304
 20
527.2963
 11
350.4304
 21
536.8962
  0
LINE
  8
0_00
  6
CONTINUOUS
 62
4
 10
89.6304
 20
527.2963
 11
110.4304
 21
527.2963
  0
LINE
  8
0_00
  6
CONTINUOUS
 62
4
 10
110.4304
 20
527.2963
 11
110.4304
 21
536.8962
  0
LINE
  8
0_00
  6
CONTINUOUS
 62
4
 10
89.6304
 20
536.8962
 11
110.4304
 21
536.8962
  0
LINE
  8
0_00
  6
CONTINUOUS
 62
4
 10
89.6304
 20
527.2963
 11
89.6304
 21
536.8962
  0
LINE
  8
0_00
  6
CONTINUOUS
 62
4
 10
738.9410
 20
527.2963
 11
759.7411
 21
527.2963
  0
LINE
  8
0_00
  6
CONTINUOUS
 62
4
 10
759.7411
 20
527.2963
 11
759.7411
 21
536.8962
  0
LINE
  8
0_00
  6
CONTINUOUS
 62
4
 10
738.9410
 20
536.8962
 11
759.7411
 21
536.8962
  0
LINE
  8
0_00
  6
CONTINUOUS
 62
4
 10
738.9410
 20
527.2963
 11
738.9410
 21
536.8962
  0
LINE
  8
0_00
  6
CONTINUOUS
 62
4
 10
478.1410
 20
527.2963
 11
498.9410
 21
527.2963
  0
LINE
  8
0_00
  6
CONTINUOUS
 62
4
 10
498.9410
 20
527.2963
 11
498.9410
 21
536.8962
  0
LINE
  8
0_00
  6
CONTINUOUS
 62
4
 10
478.1410
 20
536.8962
 11
498.9410
 21
536.8962
  0
LINE
  8
0_00
  6
CONTINUOUS
 62
4
 10
478.1410
 20
527.2963
 11
478.1410
 21
536.8962
  0
LINE
  8
0_00
  6
CONTINUOUS
 62
4
 10
372.9433
 20
275.2963
 11
393.7433
 21
275.2963
  0
LINE
  8
0_00
  6
CONTINUOUS
 62
4
 10
393.7433
 20
275.2963
 11
393.7433
 21
284.8963
  0
LINE
  8
0_00
  6
CONTINUOUS
 62
4
 10
372.9433
 20
284.8963
 11
393.7433
 21
284.8963
  0
LINE
  8
0_00
  6
CONTINUOUS
 62
4
 10
372.9433
 20
275.2963
 11
372.9433
 21
284.8963
  0
LINE
  8
0_00
  6
CONTINUOUS
 62
4
 10
72.1433
 20
275.2963
 11
92.9433
 21
275.2963
  0
LINE
  8
0_00
  6
CONTINUOUS
 62
4
 10
92.9433
 20
275.2963
 11
92.9433
 21
284.8963
  0
LINE
  8
0_00
  6
CONTINUOUS
 62
4
 10
72.1433
 20
284.8963
 11
92.9433
 21
284.8963
  0
LINE
  8
0_00
  6
CONTINUOUS
 62
4
 10
72.1433
 20
275.2963
 11
72.1433
 21
284.8963
  0
LINE
  8
0_00
  6
CONTINUOUS
 62
4
 10
447.5706
 20
275.2963
 11
468.3706
 21
275.2963
  0
LINE
  8
0_00
  6
CONTINUOUS
 62
4
 10
468.3706
 20
275.2963
 11
468.3706
 21
284.8963
  0
LINE
  8
0_00
  6
CONTINUOUS
 62
4
 10
447.5706
 20
284.8963
 11
468.3706
 21
284.8963
  0
LINE
  8
0_00
  6
CONTINUOUS
 62
4
 10
447.5706
 20
275.2963
 11
447.5706
 21
284.8963
  0
LINE
  8
0_00
  6
CONTINUOUS
 62
4
 10
768.3706
 20
275.2963
 11
789.1707
 21
275.2963
  0
LINE
  8
0_00
  6
CONTINUOUS
 62
4
 10
789.1707
 20
275.2963
 11
789.1707
 21
284.8963
  0
LINE
  8
0_00
  6
CONTINUOUS
 62
4
 10
768.3706
 20
284.8963
 11
789.1707
 21
284.8963
  0
LINE
  8
0_00
  6
CONTINUOUS
 62
4
 10
768.3706
 20
275.2963
 11
768.3706
 21
284.8963
  0
LINE
  8
0_00
  6
CONTINUOUS
 62
3
 10
364.9407
 20
64.8000
 11
364.9407
 21
24.8000
  0
LINE
  8
0_00
  6
CONTINUOUS
 62
7
 10
36.4603
 20
74.8000
 11
812.3407
 21
74.8000
  0
LINE
  8
0_00
  6
CONTINUOUS
 62
3
 10
812.3407
 20
567.8000
 11
812.3407
 21
576.8000
  0
LINE
  8
0_00
  6
CONTINUOUS
 62
7
 10
812.3407
 20
24.8000
 11
812.3407
 21
567.8000
  0
LINE
  8
0_00
  6
CONTINUOUS
 62
3
 10
36.4603
 20
567.8000
 11
36.4603
 21
576.8000
  0
LINE
  8
0_00
  6
CONTINUOUS
 62
7
 10
36.4603
 20
24.8000
 11
36.4603
 21
567.8000
  0
LINE
  8
0_00
  6
CONTINUOUS
 62
7
 10
36.4603
 20
567.8000
 11
812.3407
 21
567.8000
  0
LINE
  8
0_00
  6
CONTINUOUS
 62
7
 10
36.4603
 20
24.8000
 11
812.3407
 21
24.8000
  0
LINE
  8
0_00
  6
CONTINUOUS
 62
3
 10
26.4603
 20
14.8000
 11
26.4603
 21
576.8000
  0
LINE
  8
0_00
  6
CONTINUOUS
 62
3
 10
822.3407
 20
14.8000
 11
822.3407
 21
576.8000
  0
LINE
  8
0_00
  6
CONTINUOUS
 62
3
 10
26.4603
 20
576.8000
 11
822.3407
 21
576.8000
  0
LINE
  8
0_00
  6
CONTINUOUS
 62
3
 10
713.7407
 20
24.8000
 11
713.7407
 21
74.8000
  0
LINE
  8
0_00
  6
CONTINUOUS
 62
3
 10
36.4603
 20
64.8000
 11
541.8407
 21
64.8000
  0
LINE
  8
0_00
  6
CONTINUOUS
 62
7
 10
541.8407
 20
64.8000
 11
812.3407
 21
64.8000
  0
LINE
  8
0_00
  6
CONTINUOUS
 62
3
 10
713.7407
 20
44.8000
 11
812.3407
 21
44.8000
  0
LINE
  8
0_00
  6
CONTINUOUS
 62
3
 10
733.7407
 20
74.8000
 11
733.7407
 21
64.8000
  0
LINE
  8
0_00
  6
CONTINUOUS
 62
3
 10
541.8407
 20
24.8000
 11
541.8407
 21
64.8000
  0
LINE
  8
0_00
  6
CONTINUOUS
 62
7
 10
541.8407
 20
64.8000
 11
541.8407
 21
74.8000
  0
LINE
  8
0_00
  6
CONTINUOUS
 62
3
 10
557.8407
 20
64.8000
 11
557.8407
 21
74.8000
  0
LINE
  8
0_00
  6
CONTINUOUS
 62
3
 10
608.3407
 20
24.8000
 11
608.3407
 21
74.8000
  0
LINE
  8
0_00
  6
CONTINUOUS
 62
3
 10
669.7407
 20
64.8000
 11
669.7407
 21
74.8000
  0
LINE
  8
0_00
  6
CONTINUOUS
 62
3
 10
688.1407
 20
24.8000
 11
688.1407
 21
64.8000
  0
LINE
  8
0_00
  6
CONTINUOUS
 62
3
 10
663.9407
 20
24.8000
 11
663.9407
 21
64.8000
  0
LINE
  8
0_00
  6
CONTINUOUS
 62
3
 10
639.7407
 20
24.8000
 11
639.7407
 21
64.8000
  0
LINE
  8
0_00
  6
CONTINUOUS
 62
3
 10
312.4407
 20
24.8000
 11
312.4407
 21
74.8000
  0
LINE
  8
0_00
  6
CONTINUOUS
 62
3
 10
417.4407
 20
24.8000
 11
417.4407
 21
64.8000
  0
LINE
  8
0_00
  6
CONTINUOUS
 62
3
 10
36.4603
 20
54.8001
 11
312.4407
 21
54.8001
  0
LINE
  8
0_00
  6
CONTINUOUS
 62
3
 10
36.4603
 20
44.8000
 11
608.3407
 21
44.8000
  0
LINE
  8
0_00
  6
CONTINUOUS
 62
3
 10
116.4603
 20
34.8000
 11
312.4407
 21
34.8000
  0
LINE
  8
0_00
  6
CONTINUOUS
 62
7
 10
36.4603
 20
34.8000
 11
116.4603
 21
34.8000
  0
LINE
  8
0_00
  6
CONTINUOUS
 62
3
 10
545.3407
 20
567.8000
 11
545.3407
 21
576.8000
  0
LINE
  8
0_00
  6
CONTINUOUS
 62
3
 10
525.3407
 20
567.8000
 11
525.3407
 21
576.8000
  0
LINE
  8
0_00
  6
CONTINUOUS
 62
3
 10
136.4603
 20
567.8000
 11
136.4603
 21
576.8000
  0
LINE
  8
0_00
  6
CONTINUOUS
 62
3
 10
569.3407
 20
567.8000
 11
569.3407
 21
576.8000
  0
LINE
  8
0_00
  6
CONTINUOUS
 62
3
 10
610.3407
 20
567.8000
 11
610.3407
 21
576.8000
  0
LINE
  8
0_00
  6
CONTINUOUS
 62
3
 10
764.3407
 20
567.8000
 11
764.3407
 21
576.8000
  0
LINE
  8
0_00
  6
CONTINUOUS
 62
3
 10
76.4603
 20
74.8000
 11
76.4603
 21
24.8000
  0
LINE
  8
0_00
  6
CONTINUOUS
 62
7
 10
116.4603
 20
74.8000
 11
116.4603
 21
24.8000
  0
LINE
  8
0_00
  6
CONTINUOUS
 62
3
 10
579.8407
 20
44.8000
 11
579.8407
 21
64.8000
  0
LINE
  8
0_00
  6
CONTINUOUS
 62
3
 10
595.8407
 20
74.8000
 11
595.8407
 21
64.8000
  0
LINE
  8
0_00
  6
CONTINUOUS
 62
3
 10
608.3407
 20
54.8001
 11
713.7407
 21
54.8001
  0
LINE
  8
0_00
  6
CONTINUOUS
 62
3
 10
717.7407
 20
47.8000
 11
719.0406
 21
47.8000
  0
LINE
  8
0_00
  6
CONTINUOUS
 62
3
 10
719.0406
 20
47.8000
 11
719.0406
 21
60.8000
  0
LINE
  8
0_00
  6
CONTINUOUS
 62
3
 10
719.0406
 20
60.8000
 11
717.7407
 21
60.8000
  0
LINE
  8
0_00
  6
CONTINUOUS
 62
3
 10
717.7407
 20
47.8000
 11
717.7407
 21
60.8000
  0
LINE
  8
0_00
  6
CONTINUOUS
 62
3
 10
719.5607
 20
47.8000
 11
720.8607
 21
47.8000
  0
LINE
  8
0_00
  6
CONTINUOUS
 62
3
 10
720.8607
 20
47.8000
 11
720.8607
 21
60.8000
  0
LINE
  8
0_00
  6
CONTINUOUS
 62
3
 10
720.8607
 20
60.8000
 11
719.5607
 21
60.8000
  0
LINE
  8
0_00
  6
CONTINUOUS
 62
3
 10
719.5607
 20
47.8000
 11
719.5607
 21
60.8000
  0
LINE
  8
0_00
  6
CONTINUOUS
 62
3
 10
721.3807
 20
47.8000
 11
722.6807
 21
47.8000
  0
LINE
  8
0_00
  6
CONTINUOUS
 62
3
 10
722.6807
 20
47.8000
 11
722.6807
 21
60.8000
  0
LINE
  8
0_00
  6
CONTINUOUS
 62
3
 10
722.6807
 20
60.8000
 11
721.3807
 21
60.8000
  0
LINE
  8
0_00
  6
CONTINUOUS
 62
3
 10
721.3807
 20
47.8000
 11
721.3807
 21
60.8000
  0
LINE
  8
0_00
  6
CONTINUOUS
 62
3
 10
723.2007
 20
47.8000
 11
724.5007
 21
47.8000
  0
LINE
  8
0_00
  6
CONTINUOUS
 62
3
 10
724.5007
 20
60.8000
 11
723.2007
 21
60.8000
  0
LINE
  8
0_00
  6
CONTINUOUS
 62
3
 10
723.2007
 20
47.8000
 11
723.2007
 21
60.8000
  0
LINE
  8
0_00
  6
CONTINUOUS
 62
3
 10
728.2708
 20
47.8000
 11
733.3407
 21
47.8000
  0
LINE
  8
0_00
  6
CONTINUOUS
 62
3
 10
733.3407
 20
47.8000
 11
733.3407
 21
48.9700
  0
LINE
  8
0_00
  6
CONTINUOUS
 62
3
 10
733.3407
 20
48.9700
 11
728.2708
 21
48.9700
  0
LINE
  8
0_00
  6
CONTINUOUS
 62
3
 10
728.2708
 20
48.9700
 11
728.2708
 21
47.8000
  0
LINE
  8
0_00
  6
CONTINUOUS
 62
3
 10
728.2708
 20
49.4900
 11
733.3407
 21
49.4900
  0
LINE
  8
0_00
  6
CONTINUOUS
 62
3
 10
733.3407
 20
49.4900
 11
733.3407
 21
50.6600
  0
LINE
  8
0_00
  6
CONTINUOUS
 62
3
 10
733.3407
 20
50.6600
 11
728.2708
 21
50.6600
  0
LINE
  8
0_00
  6
CONTINUOUS
 62
3
 10
728.2708
 20
50.6600
 11
728.2708
 21
49.4900
  0
LINE
  8
0_00
  6
CONTINUOUS
 62
3
 10
728.2708
 20
51.1800
 11
733.3407
 21
51.1800
  0
LINE
  8
0_00
  6
CONTINUOUS
 62
3
 10
733.3407
 20
51.1800
 11
733.3407
 21
52.3500
  0
LINE
  8
0_00
  6
CONTINUOUS
 62
3
 10
733.3407
 20
52.3500
 11
728.2708
 21
52.3500
  0
LINE
  8
0_00
  6
CONTINUOUS
 62
3
 10
728.2708
 20
52.3500
 11
728.2708
 21
51.1800
  0
LINE
  8
0_00
  6
CONTINUOUS
 62
3
 10
728.2708
 20
52.8700
 11
733.3407
 21
52.8700
  0
LINE
  8
0_00
  6
CONTINUOUS
 62
3
 10
733.3407
 20
52.8700
 11
733.3407
 21
54.0400
  0
LINE
  8
0_00
  6
CONTINUOUS
 62
3
 10
733.3407
 20
54.0400
 11
728.2708
 21
54.0400
  0
LINE
  8
0_00
  6
CONTINUOUS
 62
3
 10
728.2708
 20
54.0400
 11
728.2708
 21
52.8700
  0
LINE
  8
0_00
  6
CONTINUOUS
 62
3
 10
728.2708
 20
54.5600
 11
733.3407
 21
54.5600
  0
LINE
  8
0_00
  6
CONTINUOUS
 62
3
 10
733.3407
 20
54.5600
 11
733.3407
 21
55.7300
  0
LINE
  8
0_00
  6
CONTINUOUS
 62
3
 10
733.3407
 20
55.7300
 11
728.2708
 21
55.7300
  0
LINE
  8
0_00
  6
CONTINUOUS
 62
3
 10
728.2708
 20
55.7300
 11
728.2708
 21
54.5600
  0
LINE
  8
0_00
  6
CONTINUOUS
 62
3
 10
728.2708
 20
56.2500
 11
733.3407
 21
56.2500
  0
LINE
  8
0_00
  6
CONTINUOUS
 62
3
 10
733.3407
 20
56.2500
 11
733.3407
 21
57.4200
  0
LINE
  8
0_00
  6
CONTINUOUS
 62
3
 10
733.3407
 20
57.4200
 11
728.2708
 21
57.4200
  0
LINE
  8
0_00
  6
CONTINUOUS
 62
3
 10
728.2708
 20
57.4200
 11
728.2708
 21
56.2500
  0
LINE
  8
0_00
  6
CONTINUOUS
 62
3
 10
728.2708
 20
57.9401
 11
733.3407
 21
57.9401
  0
LINE
  8
0_00
  6
CONTINUOUS
 62
3
 10
733.3407
 20
57.9401
 11
733.3407
 21
59.1100
  0
LINE
  8
0_00
  6
CONTINUOUS
 62
3
 10
733.3407
 20
59.1100
 11
728.2708
 21
59.1100
  0
LINE
  8
0_00
  6
CONTINUOUS
 62
3
 10
728.2708
 20
59.1100
 11
728.2708
 21
57.9401
  0
LINE
  8
0_00
  6
CONTINUOUS
 62
3
 10
728.2708
 20
59.6301
 11
733.3407
 21
59.6301
  0
LINE
  8
0_00
  6
CONTINUOUS
 62
3
 10
733.3407
 20
59.6301
 11
733.3407
 21
60.8000
  0
LINE
  8
0_00
  6
CONTINUOUS
 62
3
 10
733.3407
 20
60.8000
 11
728.2708
 21
60.8000
  0
LINE
  8
0_00
  6
CONTINUOUS
 62
3
 10
728.2708
 20
60.8000
 11
728.2708
 21
59.6301
  0
LINE
  8
0_00
  6
CONTINUOUS
 62
3
 10
725.0208
 20
47.8000
 11
725.0208
 21
51.3750
  0
LINE
  8
0_00
  6
CONTINUOUS
 62
3
 10
725.8917
 20
48.5150
 11
725.8917
 21
51.3750
  0
LINE
  8
0_00
  6
CONTINUOUS
 62
3
 10
725.0208
 20
47.8000
 11
726.4507
 21
47.8000
  0
LINE
  8
0_00
  6
CONTINUOUS
 62
3
 10
725.8917
 20
48.5150
 11
726.4507
 21
48.5150
  0
LINE
  8
0_00
  6
CONTINUOUS
 62
3
 10
726.4033
 20
53.2037
 11
726.9707
 21
52.0900
  0
LINE
  8
0_00
  6
CONTINUOUS
 62
3
 10
727.2941
 20
55.0302
 11
726.4032
 21
53.2037
  0
LINE
  8
0_00
  6
CONTINUOUS
 62
3
 10
724.5007
 20
56.9001
 11
724.5007
 21
60.8000
  0
LINE
  8
0_00
  6
CONTINUOUS
 62
3
 10
724.5007
 20
56.9001
 11
726.1257
 21
56.9001
  0
LINE
  8
0_00
  6
CONTINUOUS
 62
3
 10
724.5007
 20
56.1200
 11
725.2222
 21
56.1200
  0
LINE
  8
0_00
  6
CONTINUOUS
 62
3
 10
724.5007
 20
52.0900
 11
726.9707
 21
52.0900
  0
LINE
  8
0_00
  6
CONTINUOUS
 62
3
 10
724.5007
 20
54.6407
 11
725.2223
 21
56.1201
  0
LINE
  8
0_00
  6
CONTINUOUS
 62
3
 10
724.5007
 20
54.6409
 11
724.5007
 21
56.1200
  0
LINE
  8
0_00
  6
CONTINUOUS
 62
3
 10
724.5007
 20
52.0900
 11
724.5007
 21
47.8000
  0
LINE
  8
0_00
  6
CONTINUOUS
 62
3
 10
717.9407
 20
60.8000
 11
717.9407
 21
47.8000
  0
LINE
  8
0_00
  6
CONTINUOUS
 62
3
 10
718.1407
 20
60.8000
 11
718.1407
 21
47.8000
  0
LINE
  8
0_00
  6
CONTINUOUS
 62
3
 10
718.3407
 20
60.8000
 11
718.3407
 21
47.8000
  0
LINE
  8
0_00
  6
CONTINUOUS
 62
3
 10
718.5406
 20
60.8000
 11
718.5406
 21
47.8000
  0
LINE
  8
0_00
  6
CONTINUOUS
 62
3
 10
718.7407
 20
60.8000
 11
718.7407
 21
47.8000
  0
LINE
  8
0_00
  6
CONTINUOUS
 62
3
 10
719.7607
 20
60.8000
 11
719.7607
 21
47.8000
  0
LINE
  8
0_00
  6
CONTINUOUS
 62
3
 10
719.9607
 20
60.8000
 11
719.9607
 21
47.8000
  0
LINE
  8
0_00
  6
CONTINUOUS
 62
3
 10
720.1606
 20
60.8000
 11
720.1606
 21
47.8000
  0
LINE
  8
0_00
  6
CONTINUOUS
 62
3
 10
720.3607
 20
60.8000
 11
720.3607
 21
47.8000
  0
LINE
  8
0_00
  6
CONTINUOUS
 62
3
 10
720.5607
 20
60.8000
 11
720.5607
 21
47.8000
  0
LINE
  8
0_00
  6
CONTINUOUS
 62
3
 10
720.7607
 20
60.8000
 11
720.7607
 21
47.8000
  0
LINE
  8
0_00
  6
CONTINUOUS
 62
3
 10
721.5807
 20
60.8000
 11
721.5807
 21
47.8000
  0
LINE
  8
0_00
  6
CONTINUOUS
 62
3
 10
721.7808
 20
60.8000
 11
721.7808
 21
47.8000
  0
LINE
  8
0_00
  6
CONTINUOUS
 62
3
 10
721.9807
 20
60.8000
 11
721.9807
 21
47.8000
  0
LINE
  8
0_00
  6
CONTINUOUS
 62
3
 10
722.1807
 20
60.8000
 11
722.1807
 21
47.8000
  0
LINE
  8
0_00
  6
CONTINUOUS
 62
3
 10
722.3807
 20
60.8000
 11
722.3807
 21
47.8000
  0
LINE
  8
0_00
  6
CONTINUOUS
 62
3
 10
722.5807
 20
60.8000
 11
722.5807
 21
47.8000
  0
LINE
  8
0_00
  6
CONTINUOUS
 62
3
 10
728.2708
 20
48.0000
 11
733.3407
 21
48.0000
  0
LINE
  8
0_00
  6
CONTINUOUS
 62
3
 10
728.2708
 20
48.2001
 11
733.3407
 21
48.2001
  0
LINE
  8
0_00
  6
CONTINUOUS
 62
3
 10
728.2708
 20
48.4000
 11
733.3407
 21
48.4000
  0
LINE
  8
0_00
  6
CONTINUOUS
 62
3
 10
728.2708
 20
48.6000
 11
733.3407
 21
48.6000
  0
LINE
  8
0_00
  6
CONTINUOUS
 62
3
 10
728.2708
 20
48.8000
 11
733.3407
 21
48.8000
  0
LINE
  8
0_00
  6
CONTINUOUS
 62
3
 10
728.2708
 20
49.6900
 11
733.3407
 21
49.6900
  0
LINE
  8
0_00
  6
CONTINUOUS
 62
3
 10
728.2708
 20
49.8901
 11
733.3407
 21
49.8901
  0
LINE
  8
0_00
  6
CONTINUOUS
 62
3
 10
728.2708
 20
50.0900
 11
733.3407
 21
50.0900
  0
LINE
  8
0_00
  6
CONTINUOUS
 62
3
 10
728.2708
 20
50.2900
 11
733.3407
 21
50.2900
  0
LINE
  8
0_00
  6
CONTINUOUS
 62
3
 10
728.2708
 20
50.4900
 11
733.3407
 21
50.4900
  0
LINE
  8
0_00
  6
CONTINUOUS
 62
3
 10
728.2708
 20
51.3801
 11
733.3407
 21
51.3801
  0
LINE
  8
0_00
  6
CONTINUOUS
 62
3
 10
728.2708
 20
51.5801
 11
733.3407
 21
51.5801
  0
LINE
  8
0_00
  6
CONTINUOUS
 62
3
 10
728.2708
 20
51.7800
 11
733.3407
 21
51.7800
  0
LINE
  8
0_00
  6
CONTINUOUS
 62
3
 10
728.2708
 20
51.9800
 11
733.3407
 21
51.9800
  0
LINE
  8
0_00
  6
CONTINUOUS
 62
3
 10
728.2708
 20
52.1800
 11
733.3407
 21
52.1800
  0
LINE
  8
0_00
  6
CONTINUOUS
 62
3
 10
728.2708
 20
53.0701
 11
733.3407
 21
53.0701
  0
LINE
  8
0_00
  6
CONTINUOUS
 62
3
 10
728.2708
 20
53.2701
 11
733.3407
 21
53.2701
  0
LINE
  8
0_00
  6
CONTINUOUS
 62
3
 10
728.2708
 20
53.4700
 11
733.3407
 21
53.4700
  0
LINE
  8
0_00
  6
CONTINUOUS
 62
3
 10
728.2708
 20
53.6700
 11
733.3407
 21
53.6700
  0
LINE
  8
0_00
  6
CONTINUOUS
 62
3
 10
728.2708
 20
53.8700
 11
733.3407
 21
53.8700
  0
LINE
  8
0_00
  6
CONTINUOUS
 62
3
 10
728.2708
 20
54.7601
 11
733.3407
 21
54.7601
  0
LINE
  8
0_00
  6
CONTINUOUS
 62
3
 10
728.2708
 20
54.9601
 11
733.3407
 21
54.9601
  0
LINE
  8
0_00
  6
CONTINUOUS
 62
3
 10
728.2708
 20
55.1600
 11
733.3407
 21
55.1600
  0
LINE
  8
0_00
  6
CONTINUOUS
 62
3
 10
728.2708
 20
55.3600
 11
733.3407
 21
55.3600
  0
LINE
  8
0_00
  6
CONTINUOUS
 62
3
 10
728.2708
 20
55.5600
 11
733.3407
 21
55.5600
  0
LINE
  8
0_00
  6
CONTINUOUS
 62
3
 10
733.3407
 20
56.4501
 11
728.2708
 21
56.4501
  0
LINE
  8
0_00
  6
CONTINUOUS
 62
3
 10
733.3407
 20
56.6501
 11
728.2708
 21
56.6501
  0
LINE
  8
0_00
  6
CONTINUOUS
 62
3
 10
733.3407
 20
56.8500
 11
728.2708
 21
56.8500
  0
LINE
  8
0_00
  6
CONTINUOUS
 62
3
 10
733.3407
 20
57.0500
 11
728.2708
 21
57.0500
  0
LINE
  8
0_00
  6
CONTINUOUS
 62
3
 10
733.3407
 20
57.2500
 11
728.2708
 21
57.2500
  0
LINE
  8
0_00
  6
CONTINUOUS
 62
3
 10
728.2708
 20
58.1401
 11
733.3407
 21
58.1401
  0
LINE
  8
0_00
  6
CONTINUOUS
 62
3
 10
728.2708
 20
58.3401
 11
733.3407
 21
58.3401
  0
LINE
  8
0_00
  6
CONTINUOUS
 62
3
 10
728.2708
 20
58.5400
 11
733.3407
 21
58.5400
  0
LINE
  8
0_00
  6
CONTINUOUS
 62
3
 10
728.2708
 20
58.7400
 11
733.3407
 21
58.7400
  0
LINE
  8
0_00
  6
CONTINUOUS
 62
3
 10
728.2708
 20
58.9400
 11
733.3407
 21
58.9400
  0
LINE
  8
0_00
  6
CONTINUOUS
 62
3
 10
728.2708
 20
59.8301
 11
733.3407
 21
59.8301
  0
LINE
  8
0_00
  6
CONTINUOUS
 62
3
 10
728.2708
 20
60.0301
 11
733.3407
 21
60.0301
  0
LINE
  8
0_00
  6
CONTINUOUS
 62
3
 10
728.2708
 20
60.2300
 11
733.3407
 21
60.2300
  0
LINE
  8
0_00
  6
CONTINUOUS
 62
3
 10
728.2708
 20
60.4300
 11
733.3407
 21
60.4300
  0
LINE
  8
0_00
  6
CONTINUOUS
 62
3
 10
728.2708
 20
60.6301
 11
733.3407
 21
60.6301
  0
LINE
  8
0_00
  6
CONTINUOUS
 62
3
 10
723.4006
 20
60.8000
 11
723.4006
 21
47.8000
  0
LINE
  8
0_00
  6
CONTINUOUS
 62
3
 10
723.6007
 20
60.8000
 11
723.6007
 21
47.8000
  0
LINE
  8
0_00
  6
CONTINUOUS
 62
3
 10
723.8007
 20
60.8000
 11
723.8007
 21
47.8000
  0
LINE
  8
0_00
  6
CONTINUOUS
 62
3
 10
724.0006
 20
60.8000
 11
724.0006
 21
47.8000
  0
LINE
  8
0_00
  6
CONTINUOUS
 62
3
 10
724.2007
 20
60.8000
 11
724.2007
 21
47.8000
  0
LINE
  8
0_00
  6
CONTINUOUS
 62
3
 10
724.4006
 20
60.8000
 11
724.4006
 21
47.8000
  0
LINE
  8
0_00
  6
CONTINUOUS
 62
3
 10
725.2207
 20
47.8000
 11
725.2207
 21
51.3750
  0
LINE
  8
0_00
  6
CONTINUOUS
 62
3
 10
725.4208
 20
47.8000
 11
725.4208
 21
51.3750
  0
LINE
  8
0_00
  6
CONTINUOUS
 62
3
 10
725.6207
 20
47.8000
 11
725.6207
 21
51.3750
  0
LINE
  8
0_00
  6
CONTINUOUS
 62
3
 10
725.8207
 20
47.8000
 11
725.8207
 21
51.3750
  0
LINE
  8
0_00
  6
CONTINUOUS
 62
3
 10
725.8917
 20
48.3150
 11
726.4507
 21
48.3150
  0
LINE
  8
0_00
  6
CONTINUOUS
 62
3
 10
725.8917
 20
48.1150
 11
726.4507
 21
48.1150
  0
LINE
  8
0_00
  6
CONTINUOUS
 62
3
 10
725.8917
 20
47.9150
 11
726.4507
 21
47.9150
  0
LINE
  8
0_00
  6
CONTINUOUS
 62
3
 10
726.8550
 20
52.3172
 11
724.5236
 21
52.3172
  0
LINE
  8
0_00
  6
CONTINUOUS
 62
3
 10
726.7355
 20
52.5518
 11
724.5236
 21
52.5518
  0
LINE
  8
0_00
  6
CONTINUOUS
 62
3
 10
726.5959
 20
52.8256
 11
724.5187
 21
52.8256
  0
LINE
  8
0_00
  6
CONTINUOUS
 62
3
 10
726.4803
 20
53.0524
 11
724.5162
 21
53.0524
  0
LINE
  8
0_00
  6
CONTINUOUS
 62
3
 10
727.3906
 20
55.6841
 11
726.1002
 21
53.0386
  0
LINE
  8
0_00
  6
CONTINUOUS
 62
3
 10
727.3264
 20
56.0089
 11
725.8738
 21
53.0306
  0
LINE
  8
0_00
  6
CONTINUOUS
 62
3
 10
727.2056
 20
56.2172
 11
725.6610
 21
53.0506
  0
LINE
  8
0_00
  6
CONTINUOUS
 62
3
 10
727.0686
 20
56.3929
 11
725.4303
 21
53.0339
  0
LINE
  8
0_00
  6
CONTINUOUS
 62
3
 10
726.9340
 20
56.5731
 11
725.2527
 21
53.1258
  0
LINE
  8
0_00
  6
CONTINUOUS
 62
3
 10
726.7581
 20
56.6684
 11
724.9939
 21
53.0516
  0
LINE
  8
0_00
  6
CONTINUOUS
 62
3
 10
726.5841
 20
56.7681
 11
724.7689
 21
53.0465
  0
LINE
  8
0_00
  6
CONTINUOUS
 62
3
 10
726.3777
 20
56.8012
 11
724.5591
 21
53.0725
  0
LINE
  8
0_00
  6
CONTINUOUS
 62
3
 10
726.1666
 20
56.8245
 11
724.4702
 21
53.3465
  0
LINE
  8
0_00
  6
CONTINUOUS
 62
3
 10
725.9583
 20
56.8535
 11
724.4886
 21
53.8405
  0
LINE
  8
0_00
  6
CONTINUOUS
 62
3
 10
725.7305
 20
56.8429
 11
724.4259
 21
54.1681
  0
LINE
  8
0_00
  6
CONTINUOUS
 62
3
 10
725.3284
 20
56.3201
 11
724.5007
 21
56.3201
  0
LINE
  8
0_00
  6
CONTINUOUS
 62
3
 10
725.4904
 20
56.5201
 11
724.5007
 21
56.5201
  0
LINE
  8
0_00
  6
CONTINUOUS
 62
3
 10
725.5664
 20
56.7200
 11
724.5007
 21
56.7200
  0
LINE
  8
0_00
  6
CONTINUOUS
 62
3
 10
530.8407
 20
568.3262
 11
539.8407
 21
568.3262
  0
LINE
  8
0_00
  6
CONTINUOUS
 62
3
 10
531.4457
 20
569.3739
 11
530.8407
 21
568.3262
  0
LINE
  8
0_00
  6
CONTINUOUS
 62
3
 10
533.9286
 20
573.6746
 11
535.3407
 21
576.1204
  0
LINE
  8
0_00
  6
CONTINUOUS
 62
3
 10
539.2358
 20
569.3739
 11
539.8407
 21
568.3262
  0
LINE
  8
0_00
  6
CONTINUOUS
 62
3
 10
536.7528
 20
573.6746
 11
535.3407
 21
576.1204
  0
LINE
  8
0_00
  6
CONTINUOUS
 62
6
 10
812.3407
 20
102.8000
 11
814.3407
 21
102.8000
  0
LINE
  8
0_00
  6
CONTINUOUS
 62
6
 10
812.3407
 20
116.8000
 11
814.3407
 21
116.8000
  0
LINE
  8
0_00
  6
CONTINUOUS
 62
6
 10
812.3407
 20
130.8000
 11
814.3407
 21
130.8000
  0
LINE
  8
0_00
  6
CONTINUOUS
 62
6
 10
812.3407
 20
144.8000
 11
814.3407
 21
144.8000
  0
LINE
  8
0_00
  6
CONTINUOUS
 62
6
 10
812.3407
 20
158.8000
 11
814.3407
 21
158.8000
  0
LINE
  8
0_00
  6
CONTINUOUS
 62
6
 10
812.3407
 20
172.8000
 11
814.3407
 21
172.8000
  0
LINE
  8
0_00
  6
CONTINUOUS
 62
6
 10
812.3407
 20
186.8000
 11
814.3407
 21
186.8000
  0
LINE
  8
0_00
  6
CONTINUOUS
 62
6
 10
812.3407
 20
200.8000
 11
814.3407
 21
200.8000
  0
LINE
  8
0_00
  6
CONTINUOUS
 62
6
 10
812.3407
 20
214.8001
 11
814.3407
 21
214.8001
  0
LINE
  8
0_00
  6
CONTINUOUS
 62
6
 10
812.3407
 20
228.8000
 11
814.3407
 21
228.8000
  0
LINE
  8
0_00
  6
CONTINUOUS
 62
6
 10
812.3407
 20
242.8000
 11
814.3407
 21
242.8000
  0
LINE
  8
0_00
  6
CONTINUOUS
 62
6
 10
812.3407
 20
256.8000
 11
814.3407
 21
256.8000
  0
LINE
  8
0_00
  6
CONTINUOUS
 62
6
 10
812.3407
 20
270.8000
 11
814.3407
 21
270.8000
  0
LINE
  8
0_00
  6
CONTINUOUS
 62
6
 10
812.3407
 20
284.8000
 11
814.3407
 21
284.8000
  0
LINE
  8
0_00
  6
CONTINUOUS
 62
6
 10
812.3407
 20
298.8000
 11
814.3407
 21
298.8000
  0
LINE
  8
0_00
  6
CONTINUOUS
 62
6
 10
812.3407
 20
312.8000
 11
814.3407
 21
312.8000
  0
LINE
  8
0_00
  6
CONTINUOUS
 62
6
 10
812.3407
 20
326.8000
 11
814.3407
 21
326.8000
  0
LINE
  8
0_00
  6
CONTINUOUS
 62
6
 10
812.3407
 20
555.8000
 11
814.3407
 21
555.8000
  0
LINE
  8
0_00
  6
CONTINUOUS
 62
6
 10
812.3407
 20
543.8000
 11
814.3407
 21
543.8000
  0
LINE
  8
0_00
  6
CONTINUOUS
 62
6
 10
812.3407
 20
531.8000
 11
814.3407
 21
531.8000
  0
LINE
  8
0_00
  6
CONTINUOUS
 62
6
 10
812.3407
 20
519.8000
 11
814.3407
 21
519.8000
  0
LINE
  8
0_00
  6
CONTINUOUS
 62
6
 10
812.3407
 20
507.8000
 11
814.3407
 21
507.8000
  0
LINE
  8
0_00
  6
CONTINUOUS
 62
6
 10
812.3407
 20
495.8001
 11
814.3407
 21
495.8001
  0
LINE
  8
0_00
  6
CONTINUOUS
 62
6
 10
812.3407
 20
340.8000
 11
814.3407
 21
340.8000
  0
LINE
  8
0_00
  6
CONTINUOUS
 62
6
 10
812.3407
 20
354.8000
 11
814.3407
 21
354.8000
  0
LINE
  8
0_00
  6
CONTINUOUS
 62
6
 10
812.3407
 20
368.8000
 11
814.3407
 21
368.8000
  0
LINE
  8
0_00
  6
CONTINUOUS
 62
6
 10
812.3407
 20
382.8000
 11
814.3407
 21
382.8000
  0
LINE
  8
0_00
  6
CONTINUOUS
 62
6
 10
812.3407
 20
396.8000
 11
814.3407
 21
396.8000
  0
LINE
  8
0_00
  6
CONTINUOUS
 62
6
 10
812.3407
 20
410.8000
 11
814.3407
 21
410.8000
  0
LINE
  8
0_00
  6
CONTINUOUS
 62
6
 10
812.3407
 20
424.8000
 11
814.3407
 21
424.8000
  0
LINE
  8
0_00
  6
CONTINUOUS
 62
6
 10
812.3407
 20
438.8000
 11
814.3407
 21
438.8000
  0
LINE
  8
0_00
  6
CONTINUOUS
 62
6
 10
812.3407
 20
452.8000
 11
814.3407
 21
452.8000
  0
LINE
  8
0_00
  6
CONTINUOUS
 62
6
 10
812.3407
 20
466.8001
 11
814.3407
 21
466.8001
  0
LINE
  8
0_00
  6
CONTINUOUS
 62
6
 10
812.3407
 20
480.8001
 11
814.3407
 21
480.8001
  0
LINE
  8
0_00
  6
CENTER1
 62
3
 10
587.3607
 20
48.8000
 11
587.3607
 21
60.8000
  0
LINE
  8
0_00
  6
CONTINUOUS
 62
4
 10
594.3607
 20
52.3000
 11
594.3607
 21
57.3000
  0
LINE
  8
0_00
  6
CONTINUOUS
 62
4
 10
603.3607
 20
50.8000
 11
603.3607
 21
58.8000
  0
LINE
  8
0_00
  6
CONTINUOUS
 62
4
 10
594.3607
 20
57.3000
 11
603.3607
 21
58.8000
  0
LINE
  8
0_00
  6
CONTINUOUS
 62
4
 10
594.3607
 20
52.3000
 11
603.3607
 21
50.8000
  0
LINE
  8
0_00
  6
CENTER1
 62
3
 10
581.3607
 20
54.8000
 11
604.9037
 21
54.8000
  0
LINE
  8
0_00
  6
CONTINUOUS
 62
3
 10
794.3407
 20
24.8000
 11
794.3407
 21
44.8000
  0
LINE
  8
0_00
  6
CONTINUOUS
 62
3
 10
26.4603
 20
14.8000
 11
822.3407
 21
14.8000
  0
LINE
  8
0_00
  6
CONTINUOUS
 62
3
 10
788.3407
 20
576.8000
 11
788.3407
 21
567.8000
  0
LINE
  8
0_00
  6
CONTINUOUS
 62
3
 10
0.0000
 20
295.8000
 11
26.4603
 21
295.8000
  0
LINE
  8
0_00
  6
CONTINUOUS
 62
3
 10
417.4407
 20
14.8000
 11
417.4407
 21
0.0000
  0
LINE
  8
0_00
  6
CONTINUOUS
 62
3
 10
417.4407
 20
576.8000
 11
417.4407
 21
594.0000
  0
LINE
  8
0_00
  6
CONTINUOUS
 62
3
 10
822.3407
 20
295.8000
 11
840.0000
 21
295.8000
  0
LINE
  8
15_0F
  6
CONTINUOUS
 62
6
 10
327.9304
 20
486.8535
 11
327.9304
 21
530.2963
  0
LINE
  8
15_0F
  6
CONTINUOUS
 62
6
 10
132.9304
 20
491.4061
 11
132.9304
 21
530.2963
  0
LINE
  8
15_0F
  6
CONTINUOUS
 62
6
 10
132.9304
 20
527.2963
 11
327.9304
 21
527.2963
  0
LINE
  8
15_0F
  6
CONTINUOUS
 62
6
 10
132.9304
 20
527.2963
 11
137.8212
 21
526.2567
  0
LINE
  8
15_0F
  6
CONTINUOUS
 62
6
 10
132.9304
 20
527.2963
 11
137.8212
 21
528.3358
  0
LINE
  8
15_0F
  6
CONTINUOUS
 62
6
 10
327.9304
 20
527.2963
 11
323.0397
 21
528.3358
  0
LINE
  8
15_0F
  6
CONTINUOUS
 62
6
 10
327.9304
 20
527.2963
 11
323.0397
 21
526.2567
  0
LINE
  8
15_0F
  6
CONTINUOUS
 62
6
 10
127.8545
 20
487.7561
 11
67.0000
 21
487.7561
  0
LINE
  8
15_0F
  6
CONTINUOUS
 62
6
 10
127.8545
 20
422.7561
 11
67.0000
 21
422.7561
  0
LINE
  8
15_0F
  6
CONTINUOUS
 62
6
 10
70.0000
 20
487.7561
 11
70.0000
 21
422.7561
  0
LINE
  8
15_0F
  6
CONTINUOUS
 62
6
 10
70.0000
 20
487.7561
 11
68.9604
 21
482.8654
  0
LINE
  8
15_0F
  6
CONTINUOUS
 62
6
 10
70.0000
 20
487.7561
 11
71.0396
 21
482.8654
  0
LINE
  8
15_0F
  6
CONTINUOUS
 62
6
 10
70.0000
 20
422.7561
 11
71.0396
 21
427.6468
  0
LINE
  8
15_0F
  6
CONTINUOUS
 62
6
 10
70.0000
 20
422.7561
 11
68.9604
 21
427.6468
  0
LINE
  8
15_0F
  6
CONTINUOUS
 62
6
 10
333.7217
 20
420.7561
 11
381.0000
 21
420.7561
  0
LINE
  8
15_0F
  6
CONTINUOUS
 62
6
 10
333.7217
 20
480.7561
 11
381.0000
 21
480.7561
  0
LINE
  8
15_0F
  6
CONTINUOUS
 62
6
 10
378.0000
 20
480.7561
 11
378.0000
 21
420.7561
  0
LINE
  8
15_0F
  6
CONTINUOUS
 62
6
 10
378.0000
 20
480.7561
 11
376.9604
 21
475.8654
  0
LINE
  8
15_0F
  6
CONTINUOUS
 62
6
 10
378.0000
 20
480.7561
 11
379.0396
 21
475.8654
  0
LINE
  8
15_0F
  6
CONTINUOUS
 62
6
 10
378.0000
 20
420.7561
 11
379.0396
 21
425.6469
  0
LINE
  8
15_0F
  6
CONTINUOUS
 62
6
 10
378.0000
 20
420.7561
 11
376.9604
 21
425.6469
  0
LINE
  8
15_0F
  6
CONTINUOUS
 62
6
 10
127.8545
 20
464.2561
 11
81.0000
 21
464.2561
  0
LINE
  8
15_0F
  6
CONTINUOUS
 62
6
 10
176.2899
 20
484.2561
 11
81.0000
 21
484.2561
  0
LINE
  8
15_0F
  6
CONTINUOUS
 62
6
 10
84.0000
 20
484.2561
 11
84.0000
 21
464.2561
  0
LINE
  8
15_0F
  6
CONTINUOUS
 62
6
 10
84.0000
 20
484.2561
 11
82.9604
 21
479.3654
  0
LINE
  8
15_0F
  6
CONTINUOUS
 62
6
 10
84.0000
 20
484.2561
 11
85.0396
 21
479.3654
  0
LINE
  8
15_0F
  6
CONTINUOUS
 62
6
 10
84.0000
 20
464.2561
 11
85.0396
 21
469.1469
  0
LINE
  8
15_0F
  6
CONTINUOUS
 62
6
 10
84.0000
 20
464.2561
 11
82.9604
 21
469.1469
  0
LINE
  8
0_00
  6
CONTINUOUS
 62
2
 10
155.9304
 20
464.2561
 11
147.9304
 21
456.2561
  0
LINE
  8
0_00
  6
CONTINUOUS
 62
2
 10
152.1552
 20
463.3093
 11
148.8772
 21
460.0313
  0
LINE
  8
0_00
  6
CONTINUOUS
 62
2
 10
155.9304
 20
461.4277
 11
150.7589
 21
456.2561
  0
LINE
  8
0_00
  6
CONTINUOUS
 62
2
 10
155.9304
 20
458.5992
 11
153.5873
 21
456.2561
  0
LINE
  8
0_00
  6
CONTINUOUS
 62
2
 10
155.9304
 20
464.2561
 11
147.9304
 21
456.2561
  0
LINE
  8
0_00
  6
CONTINUOUS
 62
2
 10
152.1552
 20
463.3093
 11
148.8772
 21
460.0313
  0
LINE
  8
0_00
  6
CONTINUOUS
 62
2
 10
155.9304
 20
461.4277
 11
150.7589
 21
456.2561
  0
LINE
  8
0_00
  6
CONTINUOUS
 62
2
 10
155.9304
 20
458.5992
 11
153.5873
 21
456.2561
  0
LINE
  8
15_0F
  6
CONTINUOUS
 62
6
 10
723.9410
 20
491.4061
 11
723.9410
 21
530.2963
  0
LINE
  8
15_0F
  6
CONTINUOUS
 62
6
 10
513.9410
 20
491.4061
 11
513.9410
 21
530.2963
  0
LINE
  8
15_0F
  6
CONTINUOUS
 62
6
 10
513.9410
 20
527.2963
 11
723.9410
 21
527.2963
  0
LINE
  8
15_0F
  6
CONTINUOUS
 62
6
 10
513.9410
 20
527.2963
 11
518.8318
 21
526.2567
  0
LINE
  8
15_0F
  6
CONTINUOUS
 62
6
 10
513.9410
 20
527.2963
 11
518.8318
 21
528.3358
  0
LINE
  8
15_0F
  6
CONTINUOUS
 62
6
 10
723.9410
 20
527.2963
 11
719.0503
 21
528.3358
  0
LINE
  8
15_0F
  6
CONTINUOUS
 62
6
 10
723.9410
 20
527.2963
 11
719.0503
 21
526.2567
  0
LINE
  8
15_0F
  6
CONTINUOUS
 62
6
 10
508.9410
 20
487.7561
 11
459.6207
 21
487.7561
  0
LINE
  8
15_0F
  6
CONTINUOUS
 62
6
 10
508.9410
 20
422.7561
 11
459.6207
 21
422.7561
  0
LINE
  8
15_0F
  6
CONTINUOUS
 62
6
 10
462.6207
 20
487.7561
 11
462.6207
 21
422.7561
  0
LINE
  8
15_0F
  6
CONTINUOUS
 62
6
 10
462.6207
 20
487.7561
 11
461.5812
 21
482.8654
  0
LINE
  8
15_0F
  6
CONTINUOUS
 62
6
 10
462.6207
 20
487.7561
 11
463.6602
 21
482.8654
  0
LINE
  8
15_0F
  6
CONTINUOUS
 62
6
 10
462.6207
 20
422.7561
 11
463.6602
 21
427.6468
  0
LINE
  8
15_0F
  6
CONTINUOUS
 62
6
 10
462.6207
 20
422.7561
 11
461.5812
 21
427.6468
  0
LINE
  8
15_0F
  6
CONTINUOUS
 62
6
 10
728.9410
 20
420.7561
 11
773.6207
 21
420.7561
  0
LINE
  8
15_0F
  6
CONTINUOUS
 62
6
 10
728.9410
 20
480.7561
 11
773.6207
 21
480.7561
  0
LINE
  8
15_0F
  6
CONTINUOUS
 62
6
 10
770.6207
 20
480.7561
 11
770.6207
 21
420.7561
  0
LINE
  8
15_0F
  6
CONTINUOUS
 62
6
 10
770.6207
 20
480.7561
 11
769.5812
 21
475.8654
  0
LINE
  8
15_0F
  6
CONTINUOUS
 62
6
 10
770.6207
 20
480.7561
 11
771.6603
 21
475.8654
  0
LINE
  8
15_0F
  6
CONTINUOUS
 62
6
 10
770.6207
 20
420.7561
 11
771.6603
 21
425.6469
  0
LINE
  8
15_0F
  6
CONTINUOUS
 62
6
 10
770.6207
 20
420.7561
 11
769.5812
 21
425.6469
  0
LINE
  8
15_0F
  6
CONTINUOUS
 62
6
 10
508.9410
 20
464.2561
 11
473.6207
 21
464.2561
  0
LINE
  8
15_0F
  6
CONTINUOUS
 62
6
 10
564.8005
 20
484.2561
 11
473.6207
 21
484.2561
  0
LINE
  8
15_0F
  6
CONTINUOUS
 62
6
 10
476.6207
 20
484.2561
 11
476.6207
 21
464.2561
  0
LINE
  8
15_0F
  6
CONTINUOUS
 62
6
 10
476.6207
 20
484.2561
 11
475.5812
 21
479.3654
  0
LINE
  8
15_0F
  6
CONTINUOUS
 62
6
 10
476.6207
 20
484.2561
 11
477.6602
 21
479.3654
  0
LINE
  8
15_0F
  6
CONTINUOUS
 62
6
 10
476.6207
 20
464.2561
 11
477.6602
 21
469.1469
  0
LINE
  8
15_0F
  6
CONTINUOUS
 62
6
 10
476.6207
 20
464.2561
 11
475.5812
 21
469.1469
  0
LINE
  8
0_00
  6
CONTINUOUS
 62
2
 10
536.9410
 20
464.2561
 11
528.9410
 21
456.2561
  0
LINE
  8
0_00
  6
CONTINUOUS
 62
2
 10
533.1658
 20
463.3093
 11
529.8878
 21
460.0313
  0
LINE
  8
0_00
  6
CONTINUOUS
 62
2
 10
536.9410
 20
461.4277
 11
531.7695
 21
456.2561
  0
LINE
  8
0_00
  6
CONTINUOUS
 62
2
 10
536.9410
 20
458.5992
 11
534.5979
 21
456.2561
  0
LINE
  8
0_00
  6
CONTINUOUS
 62
2
 10
536.9410
 20
464.2561
 11
528.9410
 21
456.2561
  0
LINE
  8
0_00
  6
CONTINUOUS
 62
2
 10
533.1658
 20
463.3093
 11
529.8878
 21
460.0313
  0
LINE
  8
0_00
  6
CONTINUOUS
 62
2
 10
536.9410
 20
461.4277
 11
531.7695
 21
456.2561
  0
LINE
  8
0_00
  6
CONTINUOUS
 62
2
 10
536.9410
 20
458.5992
 11
534.5979
 21
456.2561
  0
LINE
  8
15_0F
  6
CONTINUOUS
 62
6
 10
352.9433
 20
239.4061
 11
352.9433
 21
278.2963
  0
LINE
  8
15_0F
  6
CONTINUOUS
 62
6
 10
112.9433
 20
239.4061
 11
112.9433
 21
278.2963
  0
LINE
  8
15_0F
  6
CONTINUOUS
 62
6
 10
112.9433
 20
275.2963
 11
352.9433
 21
275.2963
  0
LINE
  8
15_0F
  6
CONTINUOUS
 62
6
 10
112.9433
 20
275.2963
 11
117.8340
 21
274.2567
  0
LINE
  8
15_0F
  6
CONTINUOUS
 62
6
 10
112.9433
 20
275.2963
 11
117.8340
 21
276.3358
  0
LINE
  8
15_0F
  6
CONTINUOUS
 62
6
 10
352.9433
 20
275.2963
 11
348.0526
 21
276.3358
  0
LINE
  8
15_0F
  6
CONTINUOUS
 62
6
 10
352.9433
 20
275.2963
 11
348.0526
 21
274.2567
  0
LINE
  8
15_0F
  6
CONTINUOUS
 62
6
 10
107.9433
 20
236.2561
 11
67.0000
 21
236.2561
  0
LINE
  8
15_0F
  6
CONTINUOUS
 62
6
 10
107.9433
 20
171.2561
 11
67.0000
 21
171.2561
  0
LINE
  8
15_0F
  6
CONTINUOUS
 62
6
 10
70.0000
 20
236.2561
 11
70.0000
 21
171.2561
  0
LINE
  8
15_0F
  6
CONTINUOUS
 62
6
 10
70.0000
 20
236.2561
 11
68.9604
 21
231.3654
  0
LINE
  8
15_0F
  6
CONTINUOUS
 62
6
 10
70.0000
 20
236.2561
 11
71.0396
 21
231.3654
  0
LINE
  8
15_0F
  6
CONTINUOUS
 62
6
 10
70.0000
 20
171.2561
 11
71.0396
 21
176.1469
  0
LINE
  8
15_0F
  6
CONTINUOUS
 62
6
 10
70.0000
 20
171.2561
 11
68.9604
 21
176.1469
  0
LINE
  8
15_0F
  6
CONTINUOUS
 62
6
 10
357.9433
 20
168.2561
 11
395.0000
 21
168.2561
  0
LINE
  8
15_0F
  6
CONTINUOUS
 62
6
 10
357.9433
 20
228.2561
 11
395.0000
 21
228.2561
  0
LINE
  8
15_0F
  6
CONTINUOUS
 62
6
 10
392.0000
 20
228.2561
 11
392.0000
 21
168.2561
  0
LINE
  8
15_0F
  6
CONTINUOUS
 62
6
 10
392.0000
 20
228.2561
 11
390.9604
 21
223.3654
  0
LINE
  8
15_0F
  6
CONTINUOUS
 62
6
 10
392.0000
 20
228.2561
 11
393.0396
 21
223.3654
  0
LINE
  8
15_0F
  6
CONTINUOUS
 62
6
 10
392.0000
 20
168.2561
 11
393.0396
 21
173.1469
  0
LINE
  8
15_0F
  6
CONTINUOUS
 62
6
 10
392.0000
 20
168.2561
 11
390.9604
 21
173.1469
  0
LINE
  8
15_0F
  6
CONTINUOUS
 62
6
 10
107.9433
 20
212.2561
 11
81.0000
 21
212.2561
  0
LINE
  8
15_0F
  6
CONTINUOUS
 62
6
 10
163.8027
 20
232.2561
 11
81.0000
 21
232.2561
  0
LINE
  8
15_0F
  6
CONTINUOUS
 62
6
 10
84.0000
 20
232.2561
 11
84.0000
 21
212.2561
  0
LINE
  8
15_0F
  6
CONTINUOUS
 62
6
 10
84.0000
 20
232.2561
 11
82.9604
 21
227.3654
  0
LINE
  8
15_0F
  6
CONTINUOUS
 62
6
 10
84.0000
 20
232.2561
 11
85.0396
 21
227.3654
  0
LINE
  8
15_0F
  6
CONTINUOUS
 62
6
 10
84.0000
 20
212.2561
 11
85.0396
 21
217.1469
  0
LINE
  8
15_0F
  6
CONTINUOUS
 62
6
 10
84.0000
 20
212.2561
 11
82.9604
 21
217.1469
  0
LINE
  8
0_00
  6
CONTINUOUS
 62
2
 10
150.9433
 20
202.2561
 11
142.9433
 21
194.2561
  0
LINE
  8
0_00
  6
CONTINUOUS
 62
2
 10
147.1681
 20
201.3093
 11
143.8901
 21
198.0313
  0
LINE
  8
0_00
  6
CONTINUOUS
 62
2
 10
150.9433
 20
199.4277
 11
145.7717
 21
194.2561
  0
LINE
  8
0_00
  6
CONTINUOUS
 62
2
 10
150.9433
 20
196.5993
 11
148.6002
 21
194.2561
  0
LINE
  8
0_00
  6
CONTINUOUS
 62
2
 10
150.9433
 20
202.2561
 11
142.9433
 21
194.2561
  0
LINE
  8
0_00
  6
CONTINUOUS
 62
2
 10
147.1681
 20
201.3093
 11
143.8901
 21
198.0313
  0
LINE
  8
0_00
  6
CONTINUOUS
 62
2
 10
150.9433
 20
199.4277
 11
145.7717
 21
194.2561
  0
LINE
  8
0_00
  6
CONTINUOUS
 62
2
 10
150.9433
 20
196.5993
 11
148.6002
 21
194.2561
  0
LINE
  8
15_0F
  6
CONTINUOUS
 62
6
 10
301.9433
 20
146.9540
 11
301.9433
 21
104.2963
  0
LINE
  8
15_0F
  6
CONTINUOUS
 62
6
 10
163.9433
 20
146.9540
 11
163.9433
 21
104.2963
  0
LINE
  8
15_0F
  6
CONTINUOUS
 62
6
 10
163.9433
 20
107.2963
 11
301.9433
 21
107.2963
  0
LINE
  8
15_0F
  6
CONTINUOUS
 62
6
 10
163.9433
 20
107.2963
 11
168.8340
 21
106.2567
  0
LINE
  8
15_0F
  6
CONTINUOUS
 62
6
 10
163.9433
 20
107.2963
 11
168.8340
 21
108.3358
  0
LINE
  8
15_0F
  6
CONTINUOUS
 62
6
 10
301.9433
 20
107.2963
 11
297.0526
 21
108.3358
  0
LINE
  8
15_0F
  6
CONTINUOUS
 62
6
 10
301.9433
 20
107.2963
 11
297.0526
 21
106.2567
  0
LINE
  8
15_0F
  6
CONTINUOUS
 62
6
 10
753.3706
 20
239.4061
 11
753.3706
 21
278.2963
  0
LINE
  8
15_0F
  6
CONTINUOUS
 62
6
 10
483.3706
 20
239.4061
 11
483.3706
 21
278.2963
  0
LINE
  8
15_0F
  6
CONTINUOUS
 62
6
 10
483.3706
 20
275.2963
 11
753.3706
 21
275.2963
  0
LINE
  8
15_0F
  6
CONTINUOUS
 62
6
 10
483.3706
 20
275.2963
 11
488.2614
 21
274.2567
  0
LINE
  8
15_0F
  6
CONTINUOUS
 62
6
 10
483.3706
 20
275.2963
 11
488.2614
 21
276.3358
  0
LINE
  8
15_0F
  6
CONTINUOUS
 62
6
 10
753.3706
 20
275.2963
 11
748.4799
 21
276.3358
  0
LINE
  8
15_0F
  6
CONTINUOUS
 62
6
 10
753.3706
 20
275.2963
 11
748.4799
 21
274.2567
  0
LINE
  8
15_0F
  6
CONTINUOUS
 62
6
 10
478.3706
 20
236.7561
 11
445.0000
 21
236.7561
  0
LINE
  8
15_0F
  6
CONTINUOUS
 62
6
 10
478.3706
 20
171.7561
 11
445.0000
 21
171.7561
  0
LINE
  8
15_0F
  6
CONTINUOUS
 62
6
 10
448.0000
 20
236.7561
 11
448.0000
 21
171.7561
  0
LINE
  8
15_0F
  6
CONTINUOUS
 62
6
 10
448.0000
 20
236.7561
 11
446.9604
 21
231.8654
  0
LINE
  8
15_0F
  6
CONTINUOUS
 62
6
 10
448.0000
 20
236.7561
 11
449.0395
 21
231.8654
  0
LINE
  8
15_0F
  6
CONTINUOUS
 62
6
 10
448.0000
 20
171.7561
 11
449.0395
 21
176.6469
  0
LINE
  8
15_0F
  6
CONTINUOUS
 62
6
 10
448.0000
 20
171.7561
 11
446.9604
 21
176.6469
  0
LINE
  8
15_0F
  6
CONTINUOUS
 62
6
 10
758.3706
 20
167.7561
 11
787.0000
 21
167.7561
  0
LINE
  8
15_0F
  6
CONTINUOUS
 62
6
 10
758.3706
 20
227.7561
 11
787.0000
 21
227.7561
  0
LINE
  8
15_0F
  6
CONTINUOUS
 62
6
 10
784.0000
 20
227.7561
 11
784.0000
 21
167.7561
  0
LINE
  8
15_0F
  6
CONTINUOUS
 62
6
 10
784.0000
 20
227.7561
 11
782.9604
 21
222.8654
  0
LINE
  8
15_0F
  6
CONTINUOUS
 62
6
 10
784.0000
 20
227.7561
 11
785.0396
 21
222.8654
  0
LINE
  8
15_0F
  6
CONTINUOUS
 62
6
 10
784.0000
 20
167.7561
 11
785.0396
 21
172.6469
  0
LINE
  8
15_0F
  6
CONTINUOUS
 62
6
 10
784.0000
 20
167.7561
 11
782.9604
 21
172.6469
  0
LINE
  8
15_0F
  6
CONTINUOUS
 62
6
 10
478.3706
 20
212.2561
 11
459.0000
 21
212.2561
  0
LINE
  8
15_0F
  6
CONTINUOUS
 62
6
 10
534.2300
 20
232.2561
 11
459.0000
 21
232.2561
  0
LINE
  8
15_0F
  6
CONTINUOUS
 62
6
 10
462.0000
 20
232.2561
 11
462.0000
 21
212.2561
  0
LINE
  8
15_0F
  6
CONTINUOUS
 62
6
 10
462.0000
 20
232.2561
 11
460.9604
 21
227.3654
  0
LINE
  8
15_0F
  6
CONTINUOUS
 62
6
 10
462.0000
 20
232.2561
 11
463.0395
 21
227.3654
  0
LINE
  8
15_0F
  6
CONTINUOUS
 62
6
 10
462.0000
 20
212.2561
 11
463.0395
 21
217.1469
  0
LINE
  8
15_0F
  6
CONTINUOUS
 62
6
 10
462.0000
 20
212.2561
 11
460.9604
 21
217.1469
  0
LINE
  8
15_0F
  6
CONTINUOUS
 62
6
 10
687.3706
 20
146.9540
 11
687.3706
 21
104.2963
  0
LINE
  8
15_0F
  6
CONTINUOUS
 62
6
 10
549.3706
 20
146.9540
 11
549.3706
 21
104.2963
  0
LINE
  8
15_0F
  6
CONTINUOUS
 62
6
 10
549.3706
 20
107.2963
 11
687.3706
 21
107.2963
  0
LINE
  8
15_0F
  6
CONTINUOUS
 62
6
 10
549.3706
 20
107.2963
 11
554.2614
 21
106.2567
  0
LINE
  8
15_0F
  6
CONTINUOUS
 62
6
 10
549.3706
 20
107.2963
 11
554.2614
 21
108.3358
  0
LINE
  8
15_0F
  6
CONTINUOUS
 62
6
 10
687.3706
 20
107.2963
 11
682.4799
 21
108.3358
  0
LINE
  8
15_0F
  6
CONTINUOUS
 62
6
 10
687.3706
 20
107.2963
 11
682.4799
 21
106.2567
  0
LINE
  8
0_00
  6
CONTINUOUS
 62
2
 10
521.3706
 20
212.2561
 11
513.3706
 21
204.2561
  0
LINE
  8
0_00
  6
CONTINUOUS
 62
2
 10
517.5954
 20
211.3093
 11
514.3174
 21
208.0313
  0
LINE
  8
0_00
  6
CONTINUOUS
 62
2
 10
521.3706
 20
209.4277
 11
516.1990
 21
204.2561
  0
LINE
  8
0_00
  6
CONTINUOUS
 62
2
 10
521.3706
 20
206.5993
 11
519.0275
 21
204.2561
  0
LINE
  8
0_00
  6
CONTINUOUS
 62
2
 10
521.3706
 20
212.2561
 11
513.3706
 21
204.2561
  0
LINE
  8
0_00
  6
CONTINUOUS
 62
2
 10
517.5954
 20
211.3093
 11
514.3174
 21
208.0313
  0
LINE
  8
0_00
  6
CONTINUOUS
 62
2
 10
521.3706
 20
209.4277
 11
516.1990
 21
204.2561
  0
LINE
  8
0_00
  6
CONTINUOUS
 62
2
 10
521.3706
 20
206.5993
 11
519.0275
 21
204.2561
  0
ARC
  8
0_00
  6
CONTINUOUS
 62
2
 10
155.9304
 20
456.2561
 40
8.0000
 50
90.0000
 51
180.0000
  0
ARC
  8
0_00
  6
CONTINUOUS
 62
2
 10
304.9971
 20
456.3228
 40
2.6000
 50
0.0000
 51
90.0000
  0
ARC
  8
0_00
  6
CONTINUOUS
 62
2
 10
304.5638
 20
455.8895
 40
5.7000
 50
0.0000
 51
90.0000
  0
ARC
  8
0_00
  6
CONTINUOUS
 62
4
 10
304.9304
 20
456.2561
 40
8.0000
 50
0.0000
 51
90.0000
  0
CIRCLE
  8
0_00
  6
CONTINUOUS
 62
2
 10
169.2085
 20
454.9945
 40
0.1000
  0
CIRCLE
  8
0_00
  6
CONTINUOUS
 62
2
 10
165.7989
 20
454.8429
 40
0.1000
  0
CIRCLE
  8
0_00
  6
CONTINUOUS
 62
2
 10
163.8290
 20
454.9187
 40
0.1000
  0
CIRCLE
  8
0_00
  6
CONTINUOUS
 62
2
 10
167.6931
 20
454.5777
 40
0.1000
  0
CIRCLE
  8
0_00
  6
CONTINUOUS
 62
2
 10
165.5716
 20
453.0245
 40
0.1000
  0
CIRCLE
  8
0_00
  6
CONTINUOUS
 62
2
 10
169.3221
 20
452.6835
 40
0.1000
  0
CIRCLE
  8
0_00
  6
CONTINUOUS
 62
2
 10
169.3600
 20
449.8801
 40
0.1000
  0
CIRCLE
  8
0_00
  6
CONTINUOUS
 62
2
 10
165.7610
 20
449.8423
 40
0.1000
  0
CIRCLE
  8
0_00
  6
CONTINUOUS
 62
2
 10
164.1699
 20
449.9180
 40
0.1000
  0
CIRCLE
  8
0_00
  6
CONTINUOUS
 62
2
 10
166.0641
 20
447.3041
 40
0.1000
  0
CIRCLE
  8
0_00
  6
CONTINUOUS
 62
2
 10
167.6552
 20
448.6679
 40
0.1000
  0
CIRCLE
  8
0_00
  6
CONTINUOUS
 62
2
 10
163.5638
 20
444.5765
 40
0.1000
  0
CIRCLE
  8
0_00
  6
CONTINUOUS
 62
2
 10
162.1242
 20
442.1519
 40
0.1000
  0
CIRCLE
  8
0_00
  6
CONTINUOUS
 62
2
 10
162.2758
 20
437.7195
 40
0.1000
  0
CIRCLE
  8
0_00
  6
CONTINUOUS
 62
2
 10
165.0791
 20
437.1512
 40
0.1000
  0
CIRCLE
  8
0_00
  6
CONTINUOUS
 62
2
 10
165.0034
 20
439.9546
 40
0.1000
  0
CIRCLE
  8
0_00
  6
CONTINUOUS
 62
2
 10
165.9505
 20
442.4171
 40
0.1000
  0
CIRCLE
  8
0_00
  6
CONTINUOUS
 62
2
 10
167.3522
 20
440.6365
 40
0.1000
  0
CIRCLE
  8
0_00
  6
CONTINUOUS
 62
2
 10
168.6023
 20
444.5765
 40
0.1000
  0
CIRCLE
  8
0_00
  6
CONTINUOUS
 62
2
 10
169.5494
 20
439.7652
 40
0.1000
  0
CIRCLE
  8
0_00
  6
CONTINUOUS
 62
2
 10
167.9583
 20
436.4314
 40
0.1000
  0
CIRCLE
  8
0_00
  6
CONTINUOUS
 62
2
 10
169.4736
 20
434.6510
 40
0.1000
  0
CIRCLE
  8
0_00
  6
CONTINUOUS
 62
2
 10
166.1399
 20
434.6889
 40
0.1000
  0
CIRCLE
  8
0_00
  6
CONTINUOUS
 62
2
 10
163.7153
 20
434.9540
 40
0.1000
  0
CIRCLE
  8
0_00
  6
CONTINUOUS
 62
2
 10
167.2006
 20
431.3930
 40
0.1000
  0
CIRCLE
  8
0_00
  6
CONTINUOUS
 62
2
 10
165.2909
 20
428.4519
 40
0.1000
  0
CIRCLE
  8
0_00
  6
CONTINUOUS
 62
2
 10
164.5335
 20
425.6390
 40
0.1000
  0
CIRCLE
  8
0_00
  6
CONTINUOUS
 62
2
 10
164.3172
 20
430.7238
 40
0.1000
  0
CIRCLE
  8
0_00
  6
CONTINUOUS
 62
2
 10
167.1301
 20
428.1273
 40
0.1000
  0
CIRCLE
  8
0_00
  6
CONTINUOUS
 62
2
 10
168.7529
 20
432.7794
 40
0.1000
  0
CIRCLE
  8
0_00
  6
CONTINUOUS
 62
2
 10
168.8611
 20
427.6945
 40
0.1000
  0
CIRCLE
  8
0_00
  6
CONTINUOUS
 62
2
 10
168.3201
 20
423.9079
 40
0.1000
  0
CIRCLE
  8
0_00
  6
CONTINUOUS
 62
2
 10
166.5891
 20
424.4489
 40
0.1000
  0
CIRCLE
  8
0_00
  6
CONTINUOUS
 62
2
 10
163.1271
 20
418.6067
 40
0.1000
  0
CIRCLE
  8
0_00
  6
CONTINUOUS
 62
2
 10
162.2616
 20
420.6622
 40
0.1000
  0
CIRCLE
  8
0_00
  6
CONTINUOUS
 62
2
 10
165.3990
 20
417.4166
 40
0.1000
  0
CIRCLE
  8
0_00
  6
CONTINUOUS
 62
2
 10
164.6417
 20
420.5541
 40
0.1000
  0
CIRCLE
  8
0_00
  6
CONTINUOUS
 62
2
 10
168.5365
 20
420.6622
 40
0.1000
  0
CIRCLE
  8
0_00
  6
CONTINUOUS
 62
2
 10
168.7529
 20
416.9838
 40
0.1000
  0
CIRCLE
  8
0_00
  6
CONTINUOUS
 62
2
 10
167.7792
 20
417.7412
 40
0.1000
  0
CIRCLE
  8
0_00
  6
CONTINUOUS
 62
2
 10
164.8581
 20
410.8171
 40
0.1000
  0
CIRCLE
  8
0_00
  6
CONTINUOUS
 62
2
 10
167.6710
 20
411.5744
 40
0.1000
  0
CIRCLE
  8
0_00
  6
CONTINUOUS
 62
2
 10
169.1857
 20
413.4136
 40
0.1000
  0
CIRCLE
  8
0_00
  6
CONTINUOUS
 62
2
 10
169.2939
 20
408.9778
 40
0.1000
  0
CIRCLE
  8
0_00
  6
CONTINUOUS
 62
2
 10
165.9400
 20
406.1649
 40
0.1000
  0
CIRCLE
  8
0_00
  6
CONTINUOUS
 62
2
 10
163.3434
 20
402.9193
 40
0.1000
  0
CIRCLE
  8
0_00
  6
CONTINUOUS
 62
2
 10
164.1008
 20
407.8960
 40
0.1000
  0
CIRCLE
  8
0_00
  6
CONTINUOUS
 62
2
 10
165.5072
 20
399.7818
 40
0.1000
  0
CIRCLE
  8
0_00
  6
CONTINUOUS
 62
2
 10
166.4809
 20
402.8111
 40
0.1000
  0
CIRCLE
  8
0_00
  6
CONTINUOUS
 62
2
 10
168.4283
 20
404.0012
 40
0.1000
  0
CIRCLE
  8
0_00
  6
CONTINUOUS
 62
2
 10
168.9693
 20
395.4542
 40
0.1000
  0
CIRCLE
  8
0_00
  6
CONTINUOUS
 62
2
 10
164.6417
 20
395.2379
 40
0.1000
  0
CIRCLE
  8
0_00
  6
CONTINUOUS
 62
2
 10
168.6447
 20
399.6736
 40
0.1000
  0
CIRCLE
  8
0_00
  6
CONTINUOUS
 62
2
 10
167.7792
 20
391.7758
 40
0.1000
  0
CIRCLE
  8
0_00
  6
CONTINUOUS
 62
2
 10
162.6022
 20
398.1069
 40
0.1000
  0
ARC
  8
13_0D
  6
CONTINUOUS
 62
2
 10
230.4304
 20
462.3561
 40
9.1000
 50
39.7151
 51
90.0000
  0
ARC
  8
13_0D
  6
CONTINUOUS
 62
2
 10
230.4304
 20
462.3561
 40
9.1000
 50
90.0000
 51
140.2849
  0
ARC
  8
11_0B
  6
DASHED
 62
2
 10
226.0187
 20
450.6132
 40
0.4000
 50
175.0000
 51
255.0000
  0
ARC
  8
11_0B
  6
DASHED
 62
2
 10
225.5829
 20
445.6321
 40
0.4000
 50
175.0000
 51
255.0000
  0
ARC
  8
11_0B
  6
DASHED
 62
2
 10
225.1471
 20
440.6512
 40
0.4000
 50
175.0000
 51
255.0000
  0
ARC
  8
11_0B
  6
DASHED
 62
2
 10
224.7113
 20
435.6702
 40
0.4000
 50
175.0000
 51
255.0000
  0
ARC
  8
11_0B
  6
DASHED
 62
2
 10
224.4929
 20
430.8790
 40
0.6000
 50
175.0000
 51
205.0000
  0
ARC
  8
11_0B
  6
DASHED
 62
2
 10
234.8422
 20
450.6132
 40
0.4000
 50
285.0000
 51
365.0000
  0
ARC
  8
11_0B
  6
DASHED
 62
2
 10
235.2780
 20
445.6321
 40
0.4000
 50
285.0000
 51
365.0000
  0
ARC
  8
11_0B
  6
DASHED
 62
2
 10
235.7137
 20
440.6512
 40
0.4000
 50
285.0000
 51
365.0000
  0
ARC
  8
11_0B
  6
DASHED
 62
2
 10
236.1495
 20
435.6702
 40
0.4000
 50
285.0000
 51
365.0000
  0
ARC
  8
11_0B
  6
DASHED
 62
2
 10
236.3679
 20
430.8790
 40
0.6000
 50
335.0000
 51
365.0000
  0
ARC
  8
11_0B
  6
DASHED
 62
2
 10
226.2646
 20
432.7710
 40
0.2000
 50
265.0000
 51
355.0000
  0
ARC
  8
11_0B
  6
DASHED
 62
2
 10
234.5963
 20
432.7710
 40
0.2000
 50
185.0000
 51
275.0000
  0
ARC
  8
11_0B
  6
DASHED
 62
2
 10
226.7003
 20
437.7520
 40
0.2000
 50
265.0000
 51
355.0000
  0
ARC
  8
11_0B
  6
DASHED
 62
2
 10
234.1605
 20
437.7520
 40
0.2000
 50
185.0000
 51
275.0000
  0
ARC
  8
11_0B
  6
DASHED
 62
2
 10
227.1361
 20
442.7330
 40
0.2000
 50
265.0000
 51
355.0000
  0
ARC
  8
11_0B
  6
DASHED
 62
2
 10
233.7247
 20
442.7330
 40
0.2000
 50
185.0000
 51
275.0000
  0
ARC
  8
11_0B
  6
DASHED
 62
2
 10
227.5719
 20
447.7140
 40
0.2000
 50
265.0000
 51
355.0000
  0
ARC
  8
11_0B
  6
DASHED
 62
2
 10
233.2889
 20
447.7140
 40
0.2000
 50
185.0000
 51
275.0000
  0
ARC
  8
11_0B
  6
DASHED
 62
2
 10
227.4100
 20
452.7472
 40
0.2000
 50
265.0000
 51
355.0000
  0
ARC
  8
11_0B
  6
DASHED
 62
2
 10
233.4509
 20
452.7472
 40
0.2000
 50
185.0000
 51
275.0000
  0
ARC
  8
11_0B
  6
DASHED
 62
2
 10
234.6510
 20
434.4404
 40
0.4000
 50
105.0000
 51
185.0000
  0
ARC
  8
11_0B
  6
DASHED
 62
2
 10
226.4237
 20
434.5902
 40
0.2000
 50
355.0000
 51
435.0000
  0
ARC
  8
11_0B
  6
DASHED
 62
2
 10
234.2152
 20
439.4214
 40
0.4000
 50
105.0000
 51
185.0000
  0
ARC
  8
11_0B
  6
DASHED
 62
2
 10
226.6456
 20
439.4214
 40
0.4000
 50
355.0000
 51
435.0000
  0
ARC
  8
11_0B
  6
DASHED
 62
2
 10
233.7794
 20
444.4024
 40
0.4000
 50
105.0000
 51
185.0000
  0
ARC
  8
11_0B
  6
DASHED
 62
2
 10
227.0814
 20
444.4024
 40
0.4000
 50
355.0000
 51
435.0000
  0
ARC
  8
11_0B
  6
DASHED
 62
2
 10
233.3437
 20
449.3834
 40
0.4000
 50
105.0000
 51
185.0000
  0
ARC
  8
11_0B
  6
DASHED
 62
2
 10
227.5172
 20
449.3834
 40
0.4000
 50
355.0000
 51
435.0000
  0
ARC
  8
11_0B
  6
DASHED
 62
2
 10
227.4274
 20
455.2412
 40
0.4000
 50
355.0000
 51
440.0000
  0
ARC
  8
11_0B
  6
DASHED
 62
2
 10
233.4335
 20
455.2412
 40
0.4000
 50
100.0000
 51
185.0000
  0
ARC
  8
11_0B
  6
DASHED
 62
2
 10
237.9248
 20
453.8571
 40
0.4000
 50
335.0000
 51
425.0000
  0
ARC
  8
11_0B
  6
DASHED
 62
2
 10
237.7435
 20
453.9417
 40
0.4000
 50
65.0000
 51
155.0000
  0
ARC
  8
11_0B
  6
DASHED
 62
2
 10
222.9361
 20
453.8571
 40
0.4000
 50
115.0000
 51
205.0000
  0
ARC
  8
11_0B
  6
DASHED
 62
2
 10
223.1174
 20
453.9417
 40
0.4000
 50
25.0000
 51
115.0000
  0
ARC
  8
15_0F
  6
CONTINUOUS
 62
4
 10
296.1731
 20
459.2561
 40
5.0000
 50
45.0000
 51
90.0000
  0
ARC
  8
3_03
  6
CONTINUOUS
 62
4
 10
177.1304
 20
470.2561
 40
1.0000
 50
0.0000
 51
180.0000
  0
ARC
  8
3_03
  6
CONTINUOUS
 62
4
 10
283.7304
 20
470.2561
 40
1.0000
 50
0.0000
 51
180.0000
  0
ARC
  8
3_03
  6
CONTINUOUS
 62
4
 10
175.6304
 20
468.2561
 40
0.5000
 50
270.0000
 51
360.0000
  0
ARC
  8
3_03
  6
CONTINUOUS
 62
4
 10
285.2304
 20
468.2561
 40
0.5000
 50
180.0001
 51
270.0000
  0
ARC
  8
3_03
  6
CONTINUOUS
 62
4
 10
148.4304
 20
483.2929
 40
0.3000
 50
88.0907
 51
180.0000
  0
ARC
  8
3_03
  6
CONTINUOUS
 62
4
 10
155.3304
 20
483.0629
 40
0.3000
 50
0.0000
 51
88.0912
  0
ARC
  8
3_03
  6
CONTINUOUS
 62
4
 10
155.1304
 20
481.6688
 40
0.5000
 50
268.0909
 51
360.0000
  0
ARC
  8
3_03
  6
CONTINUOUS
 62
4
 10
150.8304
 20
480.8115
 40
0.5000
 50
88.0908
 51
180.0000
  0
ARC
  8
0_00
  6
CONTINUOUS
 62
4
 10
145.8988
 20
479.6753
 40
2.0000
 50
88.0908
 51
163.1345
  0
ARC
  8
0_00
  6
CONTINUOUS
 62
4
 10
146.7798
 20
478.4452
 40
1.0000
 50
88.0908
 51
163.1345
  0
ARC
  8
0_00
  6
CONTINUOUS
 62
4
 10
305.5304
 20
478.0562
 40
0.3000
 50
88.0908
 51
180.0000
  0
ARC
  8
0_00
  6
CONTINUOUS
 62
4
 10
305.7304
 20
476.6488
 40
0.5000
 50
180.0000
 51
268.0908
  0
ARC
  8
0_00
  6
CONTINUOUS
 62
4
 10
315.0405
 20
476.0383
 40
2.0000
 50
21.0795
 51
88.0908
  0
ARC
  8
0_00
  6
CONTINUOUS
 62
4
 10
314.2065
 20
474.8654
 40
1.0000
 50
21.0795
 51
88.0908
  0
ARC
  8
0_00
  6
CONTINUOUS
 62
4
 10
317.3721
 20
468.0561
 40
0.5000
 50
270.0000
 51
381.0795
  0
ARC
  8
0_00
  6
CONTINUOUS
 62
4
 10
142.8618
 20
463.7561
 40
0.5000
 50
90.0000
 51
171.5678
  0
ARC
  8
0_00
  6
CONTINUOUS
 62
4
 10
135.9304
 20
425.8561
 40
1.4000
 50
173.1545
 51
270.0000
  0
ARC
  8
0_00
  6
CONTINUOUS
 62
4
 10
317.9968
 20
463.7561
 40
0.5000
 50
8.1301
 51
90.0000
  0
ARC
  8
0_00
  6
CONTINUOUS
 62
4
 10
324.9304
 20
424.3561
 40
1.4000
 50
270.0000
 51
366.5908
  0
ARC
  8
0_00
  6
CONTINUOUS
 62
4
 10
135.9304
 20
425.6375
 40
3.0000
 50
180.0000
 51
272.5000
  0
ARC
  8
0_00
  6
CONTINUOUS
 62
4
 10
324.9304
 20
424.1377
 40
3.0000
 50
267.5000
 51
360.0000
  0
ARC
  8
0_00
  6
CONTINUOUS
 62
4
 10
135.9304
 20
425.6375
 40
1.4000
 50
180.0000
 51
272.5000
  0
ARC
  8
0_00
  6
CONTINUOUS
 62
4
 10
324.9304
 20
424.1377
 40
1.4000
 50
267.5000
 51
360.0000
  0
ARC
  8
0_00
  6
CONTINUOUS
 62
4
 10
321.2304
 20
422.0971
 40
0.8000
 50
87.5000
 51
267.5000
  0
ARC
  8
0_00
  6
CONTINUOUS
 62
4
 10
139.6304
 20
423.5969
 40
0.8000
 50
272.5000
 51
452.4999
  0
ARC
  8
0_00
  6
CONTINUOUS
 62
4
 10
135.9304
 20
484.4044
 40
1.4000
 50
88.0908
 51
180.0000
  0
ARC
  8
0_00
  6
CONTINUOUS
 62
4
 10
135.9304
 20
484.4044
 40
3.0000
 50
88.0908
 51
180.0000
  0
ARC
  8
0_00
  6
CONTINUOUS
 62
4
 10
324.9304
 20
478.1044
 40
3.0000
 50
0.0000
 51
88.0908
  0
ARC
  8
0_00
  6
CONTINUOUS
 62
4
 10
324.9304
 20
478.1044
 40
1.4000
 50
0.0000
 51
88.0908
  0
ARC
  8
6_06
  6
CONTINUOUS
 62
4
 10
516.9410
 20
425.7561
 40
3.0000
 50
180.0000
 51
270.0000
  0
ARC
  8
6_06
  6
CONTINUOUS
 62
4
 10
516.9410
 20
484.6544
 40
3.0000
 50
88.0908
 51
180.0000
  0
ARC
  8
6_06
  6
CONTINUOUS
 62
4
 10
720.9410
 20
477.8544
 40
3.0000
 50
0.0000
 51
88.0908
  0
ARC
  8
6_06
  6
CONTINUOUS
 62
4
 10
720.9410
 20
423.7561
 40
3.0000
 50
270.0000
 51
360.0000
  0
ARC
  8
6_06
  6
CONTINUOUS
 62
4
 10
516.9410
 20
425.7561
 40
1.2000
 50
180.0000
 51
268.2558
  0
ARC
  8
6_06
  6
CONTINUOUS
 62
4
 10
516.9410
 20
484.6544
 40
1.2000
 50
88.0908
 51
180.0000
  0
ARC
  8
6_06
  6
CONTINUOUS
 62
4
 10
720.9410
 20
477.8544
 40
1.2000
 50
0.0000
 51
88.0908
  0
ARC
  8
6_06
  6
CONTINUOUS
 62
4
 10
720.9410
 20
423.7561
 40
1.2000
 50
262.2558
 51
360.0000
  0
ARC
  8
6_06
  6
CONTINUOUS
 62
4
 10
717.3411
 20
421.8460
 40
0.9000
 50
90.0000
 51
270.0000
  0
ARC
  8
6_06
  6
CONTINUOUS
 62
4
 10
520.5410
 20
423.8460
 40
0.9000
 50
270.0000
 51
450.0000
  0
ARC
  8
3_03
  6
CONTINUOUS
 62
4
 10
516.9410
 20
425.9561
 40
1.3000
 50
180.0000
 51
270.0000
  0
ARC
  8
3_03
  6
CONTINUOUS
 62
4
 10
720.9410
 20
423.9561
 40
1.3000
 50
270.0000
 51
360.0000
  0
ARC
  8
3_03
  6
CONTINUOUS
 62
4
 10
714.0059
 20
463.7561
 40
0.5000
 50
7.9372
 51
90.0000
  0
ARC
  8
3_03
  6
CONTINUOUS
 62
4
 10
523.8732
 20
463.7561
 40
0.5000
 50
90.0000
 51
171.6674
  0
ARC
  8
3_03
  6
CONTINUOUS
 62
4
 10
565.6411
 20
480.7561
 40
1.0000
 50
0.0000
 51
180.0000
  0
ARC
  8
3_03
  6
CONTINUOUS
 62
4
 10
564.1411
 20
468.2561
 40
0.5000
 50
270.0000
 51
360.0000
  0
ARC
  8
3_03
  6
CONTINUOUS
 62
4
 10
673.7410
 20
468.2561
 40
0.5000
 50
180.0000
 51
270.0000
  0
ARC
  8
3_03
  6
CONTINUOUS
 62
4
 10
672.2410
 20
477.2561
 40
1.0000
 50
0.0000
 51
180.0000
  0
ARC
  8
3_03
  6
CONTINUOUS
 62
4
 10
526.9117
 20
479.7782
 40
2.0000
 50
88.0908
 51
163.2160
  0
ARC
  8
3_03
  6
CONTINUOUS
 62
4
 10
529.4410
 20
483.3960
 40
0.3000
 50
88.0908
 51
180.0000
  0
ARC
  8
3_03
  6
CONTINUOUS
 62
4
 10
536.3411
 20
483.1659
 40
0.3000
 50
0.0000
 51
88.0908
  0
ARC
  8
3_03
  6
CONTINUOUS
 62
4
 10
711.0658
 20
475.6408
 40
2.0000
 50
21.6680
 51
88.0908
  0
ARC
  8
3_03
  6
CONTINUOUS
 62
4
 10
701.5410
 20
477.6593
 40
0.3000
 50
88.0908
 51
180.0000
  0
ARC
  8
3_03
  6
CONTINUOUS
 62
4
 10
524.1073
 20
468.0561
 40
0.5000
 50
163.2160
 51
270.0000
  0
ARC
  8
3_03
  6
CONTINUOUS
 62
4
 10
536.1411
 20
481.7719
 40
0.5000
 50
268.0909
 51
360.0000
  0
ARC
  8
3_03
  6
CONTINUOUS
 62
4
 10
531.8411
 20
480.9146
 40
0.5000
 50
88.0908
 51
180.0000
  0
ARC
  8
3_03
  6
CONTINUOUS
 62
4
 10
527.7941
 20
478.5481
 40
1.0000
 50
88.0908
 51
163.2160
  0
ARC
  8
3_03
  6
CONTINUOUS
 62
4
 10
701.7411
 20
476.2518
 40
0.5000
 50
180.0000
 51
268.0909
  0
ARC
  8
3_03
  6
CONTINUOUS
 62
4
 10
713.3260
 20
468.0561
 40
0.5000
 50
270.0000
 51
381.6680
  0
ARC
  8
3_03
  6
CONTINUOUS
 62
4
 10
710.2407
 20
474.4677
 40
1.0000
 50
21.6680
 51
88.0908
  0
ARC
  8
0_00
  6
CONTINUOUS
 62
2
 10
536.9410
 20
456.2561
 40
8.0000
 50
90.0000
 51
180.0000
  0
ARC
  8
0_00
  6
CONTINUOUS
 62
2
 10
701.0077
 20
456.3228
 40
2.6000
 50
0.0000
 51
90.0000
  0
ARC
  8
0_00
  6
CONTINUOUS
 62
2
 10
700.5743
 20
455.8895
 40
5.7000
 50
0.0000
 51
90.0000
  0
ARC
  8
0_00
  6
CONTINUOUS
 62
4
 10
700.9410
 20
456.2561
 40
8.0000
 50
0.0000
 51
90.0000
  0
ARC
  8
11_0B
  6
DASHED
 62
2
 10
614.5293
 20
450.6132
 40
0.4000
 50
175.0000
 51
255.0000
  0
ARC
  8
11_0B
  6
DASHED
 62
2
 10
614.0935
 20
445.6321
 40
0.4000
 50
175.0000
 51
255.0000
  0
ARC
  8
11_0B
  6
DASHED
 62
2
 10
613.6577
 20
440.6512
 40
0.4000
 50
175.0000
 51
255.0000
  0
ARC
  8
11_0B
  6
DASHED
 62
2
 10
613.2219
 20
435.6702
 40
0.4000
 50
175.0000
 51
255.0000
  0
ARC
  8
11_0B
  6
DASHED
 62
2
 10
613.0035
 20
430.8790
 40
0.6000
 50
175.0000
 51
205.0000
  0
ARC
  8
11_0B
  6
DASHED
 62
2
 10
623.3528
 20
450.6132
 40
0.4000
 50
285.0000
 51
365.0000
  0
ARC
  8
11_0B
  6
DASHED
 62
2
 10
623.7886
 20
445.6321
 40
0.4000
 50
285.0000
 51
365.0000
  0
ARC
  8
11_0B
  6
DASHED
 62
2
 10
624.2244
 20
440.6512
 40
0.4000
 50
285.0000
 51
365.0000
  0
ARC
  8
11_0B
  6
DASHED
 62
2
 10
624.6602
 20
435.6702
 40
0.4000
 50
285.0000
 51
365.0000
  0
ARC
  8
11_0B
  6
DASHED
 62
2
 10
624.8785
 20
430.8790
 40
0.6000
 50
335.0000
 51
365.0000
  0
ARC
  8
11_0B
  6
DASHED
 62
2
 10
614.7752
 20
432.7710
 40
0.2000
 50
265.0000
 51
355.0000
  0
ARC
  8
11_0B
  6
DASHED
 62
2
 10
623.1069
 20
432.7710
 40
0.2000
 50
185.0000
 51
275.0000
  0
ARC
  8
11_0B
  6
DASHED
 62
2
 10
615.2109
 20
437.7520
 40
0.2000
 50
265.0000
 51
355.0000
  0
ARC
  8
11_0B
  6
DASHED
 62
2
 10
622.6711
 20
437.7520
 40
0.2000
 50
185.0000
 51
275.0000
  0
ARC
  8
11_0B
  6
DASHED
 62
2
 10
615.6467
 20
442.7330
 40
0.2000
 50
265.0000
 51
355.0000
  0
ARC
  8
11_0B
  6
DASHED
 62
2
 10
622.2354
 20
442.7330
 40
0.2000
 50
185.0000
 51
275.0000
  0
ARC
  8
11_0B
  6
DASHED
 62
2
 10
616.0825
 20
447.7140
 40
0.2000
 50
265.0000
 51
355.0000
  0
ARC
  8
11_0B
  6
DASHED
 62
2
 10
621.7996
 20
447.7140
 40
0.2000
 50
185.0000
 51
275.0000
  0
ARC
  8
11_0B
  6
DASHED
 62
2
 10
615.9206
 20
452.7472
 40
0.2000
 50
265.0000
 51
355.0000
  0
ARC
  8
11_0B
  6
DASHED
 62
2
 10
621.9615
 20
452.7472
 40
0.2000
 50
185.0000
 51
275.0000
  0
ARC
  8
11_0B
  6
DASHED
 62
2
 10
623.1616
 20
434.4404
 40
0.4000
 50
105.0000
 51
185.0000
  0
ARC
  8
11_0B
  6
DASHED
 62
2
 10
614.9343
 20
434.5902
 40
0.2000
 50
355.0000
 51
435.0000
  0
ARC
  8
11_0B
  6
DASHED
 62
2
 10
622.7258
 20
439.4214
 40
0.4000
 50
105.0000
 51
185.0000
  0
ARC
  8
11_0B
  6
DASHED
 62
2
 10
615.1562
 20
439.4214
 40
0.4000
 50
355.0000
 51
435.0000
  0
ARC
  8
11_0B
  6
DASHED
 62
2
 10
622.2900
 20
444.4024
 40
0.4000
 50
105.0000
 51
185.0000
  0
ARC
  8
11_0B
  6
DASHED
 62
2
 10
615.5920
 20
444.4024
 40
0.4000
 50
355.0000
 51
435.0000
  0
ARC
  8
11_0B
  6
DASHED
 62
2
 10
621.8542
 20
449.3834
 40
0.4000
 50
105.0000
 51
185.0000
  0
ARC
  8
11_0B
  6
DASHED
 62
2
 10
616.0278
 20
449.3834
 40
0.4000
 50
355.0000
 51
435.0000
  0
ARC
  8
11_0B
  6
DASHED
 62
2
 10
615.9380
 20
455.2412
 40
0.4000
 50
355.0000
 51
440.0000
  0
ARC
  8
11_0B
  6
DASHED
 62
2
 10
621.9441
 20
455.2412
 40
0.4000
 50
100.0000
 51
185.0000
  0
ARC
  8
11_0B
  6
DASHED
 62
2
 10
626.4354
 20
453.8571
 40
0.4000
 50
335.0000
 51
425.0000
  0
ARC
  8
11_0B
  6
DASHED
 62
2
 10
626.2542
 20
453.9417
 40
0.4000
 50
65.0000
 51
155.0000
  0
ARC
  8
11_0B
  6
DASHED
 62
2
 10
611.4467
 20
453.8571
 40
0.4000
 50
115.0000
 51
205.0000
  0
ARC
  8
11_0B
  6
DASHED
 62
2
 10
611.6280
 20
453.9417
 40
0.4000
 50
25.0000
 51
115.0000
  0
ARC
  8
13_0D
  6
CONTINUOUS
 62
2
 10
618.9410
 20
462.3561
 40
9.1000
 50
39.7151
 51
90.0000
  0
ARC
  8
13_0D
  6
CONTINUOUS
 62
2
 10
618.9410
 20
462.3561
 40
9.1000
 50
90.0000
 51
140.2849
  0
ARC
  8
6_06
  6
CONTINUOUS
 62
4
 10
349.9433
 20
225.3545
 40
3.0000
 50
0.0000
 51
88.0908
  0
ARC
  8
6_06
  6
CONTINUOUS
 62
4
 10
115.9433
 20
233.1544
 40
3.0000
 50
88.0908
 51
180.0000
  0
ARC
  8
6_06
  6
CONTINUOUS
 62
4
 10
115.9433
 20
174.2561
 40
3.0000
 50
180.0000
 51
270.0000
  0
ARC
  8
6_06
  6
CONTINUOUS
 62
4
 10
115.9433
 20
174.2561
 40
0.8000
 50
180.0000
 51
267.1887
  0
ARC
  8
6_06
  6
CONTINUOUS
 62
4
 10
115.9433
 20
233.1544
 40
0.8000
 50
88.0908
 51
180.0000
  0
ARC
  8
6_06
  6
CONTINUOUS
 62
4
 10
349.9433
 20
225.3545
 40
0.8000
 50
0.0000
 51
88.0908
  0
ARC
  8
6_06
  6
CONTINUOUS
 62
4
 10
349.9433
 20
171.2561
 40
0.8000
 50
272.8113
 51
360.0000
  0
ARC
  8
6_06
  6
CONTINUOUS
 62
4
 10
119.3433
 20
172.5358
 40
1.1000
 50
273.0000
 51
453.0000
  0
ARC
  8
6_06
  6
CONTINUOUS
 62
4
 10
346.5433
 20
169.5358
 40
1.1000
 50
90.0000
 51
270.0000
  0
ARC
  8
6_06
  6
CONTINUOUS
 62
4
 10
349.9433
 20
171.2561
 40
3.0000
 50
270.0000
 51
360.0000
  0
ARC
  8
3_03
  6
CONTINUOUS
 62
4
 10
115.9433
 20
174.4561
 40
0.9000
 50
173.8017
 51
270.0000
  0
ARC
  8
3_03
  6
CONTINUOUS
 62
4
 10
116.6082
 20
174.0561
 40
0.5000
 50
270.0000
 51
352.0565
  0
ARC
  8
3_03
  6
CONTINUOUS
 62
4
 10
349.9433
 20
171.4561
 40
0.9000
 50
270.0000
 51
365.7447
  0
ARC
  8
3_03
  6
CONTINUOUS
 62
4
 10
349.2827
 20
171.0561
 40
0.5000
 50
187.3785
 51
270.0000
  0
ARC
  8
3_03
  6
CONTINUOUS
 62
4
 10
343.0039
 20
211.7561
 40
0.5000
 50
7.3785
 51
90.0000
  0
ARC
  8
3_03
  6
CONTINUOUS
 62
4
 10
122.8784
 20
211.7561
 40
0.5000
 50
90.0000
 51
172.0565
  0
ARC
  8
3_03
  6
CONTINUOUS
 62
4
 10
287.7433
 20
216.2561
 40
0.5000
 50
180.0000
 51
270.0000
  0
ARC
  8
3_03
  6
CONTINUOUS
 62
4
 10
178.1433
 20
216.2561
 40
0.5000
 50
270.0000
 51
360.0000
  0
ARC
  8
3_03
  6
CONTINUOUS
 62
4
 10
179.6433
 20
228.2561
 40
1.0000
 50
0.0000
 51
180.0000
  0
ARC
  8
3_03
  6
CONTINUOUS
 62
4
 10
286.2433
 20
224.7561
 40
1.0000
 50
0.0000
 51
180.0000
  0
ARC
  8
3_03
  6
CONTINUOUS
 62
4
 10
128.4433
 20
231.5093
 40
0.3000
 50
88.0908
 51
180.0000
  0
ARC
  8
3_03
  6
CONTINUOUS
 62
4
 10
135.3433
 20
231.2793
 40
0.3000
 50
0.0000
 51
88.0908
  0
ARC
  8
3_03
  6
CONTINUOUS
 62
4
 10
125.9167
 20
227.8914
 40
2.0000
 50
88.0908
 51
163.3176
  0
ARC
  8
3_03
  6
CONTINUOUS
 62
4
 10
330.5433
 20
224.7726
 40
0.3000
 50
88.0908
 51
180.0000
  0
ARC
  8
3_03
  6
CONTINUOUS
 62
4
 10
340.1023
 20
222.7531
 40
2.0000
 50
23.0541
 51
88.0908
  0
ARC
  8
3_03
  6
CONTINUOUS
 62
4
 10
123.1007
 20
216.0561
 40
0.5000
 50
163.3176
 51
270.0000
  0
ARC
  8
3_03
  6
CONTINUOUS
 62
4
 10
126.8008
 20
226.6613
 40
1.0000
 50
88.0908
 51
163.3176
  0
ARC
  8
3_03
  6
CONTINUOUS
 62
4
 10
135.1433
 20
229.8852
 40
0.5000
 50
268.0909
 51
360.0000
  0
ARC
  8
3_03
  6
CONTINUOUS
 62
4
 10
130.8433
 20
229.0280
 40
0.5000
 50
88.0908
 51
180.0000
  0
ARC
  8
3_03
  6
CONTINUOUS
 62
4
 10
342.1917
 20
216.0561
 40
0.5000
 50
270.0000
 51
383.0541
  0
ARC
  8
3_03
  6
CONTINUOUS
 62
4
 10
339.2977
 20
221.5792
 40
1.0000
 50
23.0541
 51
88.0908
  0
ARC
  8
3_03
  6
CONTINUOUS
 62
4
 10
330.7433
 20
223.3652
 40
0.5000
 50
180.0000
 51
268.0909
  0
ARC
  8
0_00
  6
CONTINUOUS
 62
2
 10
150.9433
 20
194.2561
 40
8.0000
 50
90.0000
 51
180.0000
  0
ARC
  8
0_00
  6
CONTINUOUS
 62
4
 10
314.9433
 20
194.2561
 40
8.0000
 50
0.0000
 51
90.0000
  0
ARC
  8
0_00
  6
CONTINUOUS
 62
2
 10
314.9766
 20
194.2895
 40
5.3000
 50
0.0000
 51
90.0000
  0
ARC
  8
0_00
  6
CONTINUOUS
 62
2
 10
315.0099
 20
194.3228
 40
2.6000
 50
0.0000
 51
90.0000
  0
CIRCLE
  8
0_00
  6
CONTINUOUS
 62
2
 10
129.7232
 20
210.0277
 40
0.1000
  0
CIRCLE
  8
0_00
  6
CONTINUOUS
 62
2
 10
135.6204
 20
208.6310
 40
0.1000
  0
CIRCLE
  8
0_00
  6
CONTINUOUS
 62
2
 10
130.6543
 20
205.6824
 40
0.1000
  0
CIRCLE
  8
0_00
  6
CONTINUOUS
 62
2
 10
133.1373
 20
208.3206
 40
0.1000
  0
CIRCLE
  8
0_00
  6
CONTINUOUS
 62
2
 10
134.2236
 20
202.1131
 40
0.1000
  0
CIRCLE
  8
0_00
  6
CONTINUOUS
 62
2
 10
136.8619
 20
204.4409
 40
0.1000
  0
CIRCLE
  8
0_00
  6
CONTINUOUS
 62
2
 10
139.8105
 20
202.2682
 40
0.1000
  0
CIRCLE
  8
0_00
  6
CONTINUOUS
 62
2
 10
138.2586
 20
197.7678
 40
0.1000
  0
CIRCLE
  8
0_00
  6
CONTINUOUS
 62
2
 10
132.8269
 20
197.4574
 40
0.1000
  0
CIRCLE
  8
0_00
  6
CONTINUOUS
 62
2
 10
131.1199
 20
200.7164
 40
0.1000
  0
CIRCLE
  8
0_00
  6
CONTINUOUS
 62
2
 10
130.8095
 20
191.8706
 40
0.1000
  0
CIRCLE
  8
0_00
  6
CONTINUOUS
 62
2
 10
137.1722
 20
191.7154
 40
0.1000
  0
CIRCLE
  8
0_00
  6
CONTINUOUS
 62
2
 10
136.0859
 20
193.8880
 40
0.1000
  0
CIRCLE
  8
0_00
  6
CONTINUOUS
 62
2
 10
139.8105
 20
193.5777
 40
0.1000
  0
CIRCLE
  8
0_00
  6
CONTINUOUS
 62
2
 10
140.5864
 20
188.7668
 40
0.1000
  0
CIRCLE
  8
0_00
  6
CONTINUOUS
 62
2
 10
134.6892
 20
186.5941
 40
0.1000
  0
CIRCLE
  8
0_00
  6
CONTINUOUS
 62
2
 10
136.0859
 20
188.9220
 40
0.1000
  0
CIRCLE
  8
0_00
  6
CONTINUOUS
 62
2
 10
130.8095
 20
185.9734
 40
0.1000
  0
CIRCLE
  8
0_00
  6
CONTINUOUS
 62
2
 10
132.9821
 20
191.7154
 40
0.1000
  0
CIRCLE
  8
0_00
  6
CONTINUOUS
 62
2
 10
129.8784
 20
181.3177
 40
0.1000
  0
CIRCLE
  8
0_00
  6
CONTINUOUS
 62
2
 10
133.4477
 20
181.4729
 40
0.1000
  0
CIRCLE
  8
0_00
  6
CONTINUOUS
 62
2
 10
137.3274
 20
181.3177
 40
0.1000
  0
CIRCLE
  8
0_00
  6
CONTINUOUS
 62
2
 10
139.5001
 20
183.9559
 40
0.1000
  0
CIRCLE
  8
0_00
  6
CONTINUOUS
 62
2
 10
141.6727
 20
177.5932
 40
0.1000
  0
CIRCLE
  8
0_00
  6
CONTINUOUS
 62
2
 10
139.5001
 20
174.3342
 40
0.1000
  0
CIRCLE
  8
0_00
  6
CONTINUOUS
 62
2
 10
134.6892
 20
174.9550
 40
0.1000
  0
CIRCLE
  8
0_00
  6
CONTINUOUS
 62
2
 10
138.2586
 20
177.4380
 40
0.1000
  0
CIRCLE
  8
0_00
  6
CONTINUOUS
 62
2
 10
131.1199
 20
176.8172
 40
0.1000
  0
CIRCLE
  8
0_00
  6
CONTINUOUS
 62
2
 10
130.4991
 20
169.5233
 40
0.1000
  0
CIRCLE
  8
0_00
  6
CONTINUOUS
 62
2
 10
134.2236
 20
169.3682
 40
0.1000
  0
CIRCLE
  8
0_00
  6
CONTINUOUS
 62
2
 10
130.8095
 20
164.5573
 40
0.1000
  0
CIRCLE
  8
0_00
  6
CONTINUOUS
 62
2
 10
130.8095
 20
162.0743
 40
0.1000
  0
CIRCLE
  8
0_00
  6
CONTINUOUS
 62
2
 10
135.3100
 20
159.7464
 40
0.1000
  0
CIRCLE
  8
0_00
  6
CONTINUOUS
 62
2
 10
135.7755
 20
163.9365
 40
0.1000
  0
CIRCLE
  8
0_00
  6
CONTINUOUS
 62
2
 10
138.1034
 20
166.8851
 40
0.1000
  0
CIRCLE
  8
0_00
  6
CONTINUOUS
 62
2
 10
140.4312
 20
160.2120
 40
0.1000
  0
CIRCLE
  8
0_00
  6
CONTINUOUS
 62
2
 10
140.7416
 20
164.2469
 40
0.1000
  0
CIRCLE
  8
0_00
  6
CONTINUOUS
 62
2
 10
140.8968
 20
170.1441
 40
0.1000
  0
CIRCLE
  8
0_00
  6
CONTINUOUS
 62
2
 10
137.9482
 20
154.1596
 40
0.1000
  0
CIRCLE
  8
0_00
  6
CONTINUOUS
 62
2
 10
131.1199
 20
153.2285
 40
0.1000
  0
CIRCLE
  8
0_00
  6
CONTINUOUS
 62
2
 10
130.9647
 20
158.9705
 40
0.1000
  0
CIRCLE
  8
0_00
  6
CONTINUOUS
 62
2
 10
135.7755
 20
154.0044
 40
0.1000
  0
CIRCLE
  8
0_00
  6
CONTINUOUS
 62
2
 10
131.4302
 20
147.4865
 40
0.1000
  0
CIRCLE
  8
0_00
  6
CONTINUOUS
 62
2
 10
134.5340
 20
145.6242
 40
0.1000
  0
CIRCLE
  8
0_00
  6
CONTINUOUS
 62
2
 10
137.1722
 20
149.3488
 40
0.1000
  0
CIRCLE
  8
0_00
  6
CONTINUOUS
 62
2
 10
138.1034
 20
144.5379
 40
0.1000
  0
CIRCLE
  8
0_00
  6
CONTINUOUS
 62
2
 10
140.1208
 20
151.8318
 40
0.1000
  0
CIRCLE
  8
0_00
  6
CONTINUOUS
 62
2
 10
140.8968
 20
155.4011
 40
0.1000
  0
CIRCLE
  8
0_00
  6
CONTINUOUS
 62
2
 10
141.2072
 20
144.8483
 40
0.1000
  0
CIRCLE
  8
0_00
  6
CONTINUOUS
 62
2
 10
137.1722
 20
140.9685
 40
0.1000
  0
CIRCLE
  8
0_00
  6
CONTINUOUS
 62
2
 10
132.3614
 20
141.7445
 40
0.1000
  0
CIRCLE
  8
0_00
  6
CONTINUOUS
 62
2
 10
140.7642
 20
209.6393
 40
0.1000
  0
CIRCLE
  8
0_00
  6
CONTINUOUS
 62
2
 10
139.6735
 20
206.5125
 40
0.1000
  0
CIRCLE
  8
0_00
  6
CONTINUOUS
 62
2
 10
137.4192
 20
210.2210
 40
0.1000
  0
CIRCLE
  8
0_00
  6
CONTINUOUS
 62
2
 10
144.9818
 20
206.3670
 40
0.1000
  0
CIRCLE
  8
0_00
  6
CONTINUOUS
 62
2
 10
143.5275
 20
202.8766
 40
0.1000
  0
CIRCLE
  8
0_00
  6
CONTINUOUS
 62
2
 10
149.7811
 20
203.1675
 40
0.1000
  0
CIRCLE
  8
0_00
  6
CONTINUOUS
 62
2
 10
149.6357
 20
207.8941
 40
0.1000
  0
CIRCLE
  8
0_00
  6
CONTINUOUS
 62
2
 10
147.5269
 20
210.1483
 40
0.1000
  0
CIRCLE
  8
0_00
  6
CONTINUOUS
 62
2
 10
152.5444
 20
209.0576
 40
0.1000
  0
CIRCLE
  8
0_00
  6
CONTINUOUS
 62
2
 10
153.4897
 20
205.4217
 40
0.1000
  0
CIRCLE
  8
0_00
  6
CONTINUOUS
 62
2
 10
152.6898
 20
204.3309
 40
0.1000
  0
CIRCLE
  8
0_00
  6
CONTINUOUS
 62
2
 10
156.9801
 20
204.4764
 40
0.1000
  0
CIRCLE
  8
0_00
  6
CONTINUOUS
 62
2
 10
157.2710
 20
207.8214
 40
0.1000
  0
CIRCLE
  8
0_00
  6
CONTINUOUS
 62
2
 10
161.1978
 20
205.5671
 40
0.1000
  0
CIRCLE
  8
0_00
  6
CONTINUOUS
 62
2
 10
161.9249
 20
209.5666
 40
0.1000
  0
CIRCLE
  8
0_00
  6
CONTINUOUS
 62
2
 10
157.3437
 20
210.2210
 40
0.1000
  0
CIRCLE
  8
0_00
  6
CONTINUOUS
 62
2
 10
160.5433
 20
207.0215
 40
0.1000
  0
CIRCLE
  8
0_00
  6
CONTINUOUS
 62
2
 10
162.5067
 20
204.5491
 40
0.1000
  0
CIRCLE
  8
0_00
  6
CONTINUOUS
 62
2
 10
160.3251
 20
203.4583
 40
0.1000
  0
CIRCLE
  8
0_00
  6
CONTINUOUS
 62
2
 10
164.6882
 20
203.1675
 40
0.1000
  0
CIRCLE
  8
0_00
  6
CONTINUOUS
 62
2
 10
164.4700
 20
207.0215
 40
0.1000
  0
CIRCLE
  8
0_00
  6
CONTINUOUS
 62
2
 10
167.2333
 20
208.3304
 40
0.1000
  0
CIRCLE
  8
0_00
  6
CONTINUOUS
 62
2
 10
167.2333
 20
211.2391
 40
0.1000
  0
CIRCLE
  8
0_00
  6
CONTINUOUS
 62
2
 10
167.6696
 20
206.0762
 40
0.1000
  0
CIRCLE
  8
0_00
  6
CONTINUOUS
 62
2
 10
169.5602
 20
204.1855
 40
0.1000
  0
CIRCLE
  8
0_00
  6
CONTINUOUS
 62
2
 10
171.0873
 20
206.4397
 40
0.1000
  0
CIRCLE
  8
0_00
  6
CONTINUOUS
 62
2
 10
170.8691
 20
209.3484
 40
0.1000
  0
CIRCLE
  8
0_00
  6
CONTINUOUS
 62
2
 10
173.4142
 20
206.8033
 40
0.1000
  0
CIRCLE
  8
0_00
  6
CONTINUOUS
 62
2
 10
172.2508
 20
203.6765
 40
0.1000
  0
CIRCLE
  8
0_00
  6
CONTINUOUS
 62
2
 10
178.2136
 20
205.5671
 40
0.1000
  0
CIRCLE
  8
0_00
  6
CONTINUOUS
 62
2
 10
176.0321
 20
209.4939
 40
0.1000
  0
CIRCLE
  8
0_00
  6
CONTINUOUS
 62
2
 10
172.8325
 20
210.2210
 40
0.1000
  0
CIRCLE
  8
0_00
  6
CONTINUOUS
 62
2
 10
176.5411
 20
206.4397
 40
0.1000
  0
CIRCLE
  8
0_00
  6
CONTINUOUS
 62
2
 10
175.3049
 20
203.5311
 40
0.1000
  0
CIRCLE
  8
0_00
  6
CONTINUOUS
 62
2
 10
180.3224
 20
203.6038
 40
0.1000
  0
CIRCLE
  8
0_00
  6
CONTINUOUS
 62
2
 10
180.6132
 20
206.5125
 40
0.1000
  0
CIRCLE
  8
0_00
  6
CONTINUOUS
 62
2
 10
179.6679
 20
208.0395
 40
0.1000
  0
CIRCLE
  8
0_00
  6
CONTINUOUS
 62
2
 10
180.3224
 20
210.2938
 40
0.1000
  0
CIRCLE
  8
0_00
  6
CONTINUOUS
 62
2
 10
178.6499
 20
210.6573
 40
0.1000
  0
CIRCLE
  8
0_00
  6
CONTINUOUS
 62
2
 10
182.0676
 20
208.5486
 40
0.1000
  0
CIRCLE
  8
0_00
  6
CONTINUOUS
 62
2
 10
185.7363
 20
210.5229
 40
0.1000
  0
CIRCLE
  8
0_00
  6
CONTINUOUS
 62
2
 10
185.5725
 20
207.4116
 40
0.1000
  0
CIRCLE
  8
0_00
  6
CONTINUOUS
 62
2
 10
183.1982
 20
206.2654
 40
0.1000
  0
CIRCLE
  8
0_00
  6
CONTINUOUS
 62
2
 10
187.4556
 20
203.8910
 40
0.1000
  0
CIRCLE
  8
0_00
  6
CONTINUOUS
 62
2
 10
189.5025
 20
205.6922
 40
0.1000
  0
CIRCLE
  8
0_00
  6
CONTINUOUS
 62
2
 10
191.7131
 20
207.5754
 40
0.1000
  0
CIRCLE
  8
0_00
  6
CONTINUOUS
 62
2
 10
190.2394
 20
209.2947
 40
0.1000
  0
CIRCLE
  8
0_00
  6
CONTINUOUS
 62
2
 10
192.2044
 20
211.5053
 40
0.1000
  0
CIRCLE
  8
0_00
  6
CONTINUOUS
 62
2
 10
195.6431
 20
208.1485
 40
0.1000
  0
CIRCLE
  8
0_00
  6
CONTINUOUS
 62
2
 10
197.3625
 20
211.5872
 40
0.1000
  0
CIRCLE
  8
0_00
  6
CONTINUOUS
 62
2
 10
198.6725
 20
208.6397
 40
0.1000
  0
CIRCLE
  8
0_00
  6
CONTINUOUS
 62
2
 10
194.9062
 20
209.6222
 40
0.1000
  0
CIRCLE
  8
0_00
  6
CONTINUOUS
 62
2
 10
194.4969
 20
205.6922
 40
0.1000
  0
CIRCLE
  8
0_00
  6
CONTINUOUS
 62
2
 10
192.2863
 20
204.7097
 40
0.1000
  0
CIRCLE
  8
0_00
  6
CONTINUOUS
 62
2
 10
182.8707
 20
203.8091
 40
0.1000
  0
CIRCLE
  8
0_00
  6
CONTINUOUS
 62
2
 10
199.6550
 20
203.5635
 40
0.1000
  0
CIRCLE
  8
0_00
  6
CONTINUOUS
 62
2
 10
201.4562
 20
205.5285
 40
0.1000
  0
CIRCLE
  8
0_00
  6
CONTINUOUS
 62
2
 10
197.6081
 20
204.4641
 40
0.1000
  0
CIRCLE
  8
0_00
  6
CONTINUOUS
 62
2
 10
203.5850
 20
207.5754
 40
0.1000
  0
CIRCLE
  8
0_00
  6
CONTINUOUS
 62
2
 10
200.1462
 20
210.0316
 40
0.1000
  0
CIRCLE
  8
0_00
  6
CONTINUOUS
 62
2
 10
203.5031
 20
210.6047
 40
0.1000
  0
CIRCLE
  8
0_00
  6
CONTINUOUS
 62
2
 10
207.7606
 20
209.6222
 40
0.1000
  0
CIRCLE
  8
0_00
  6
CONTINUOUS
 62
2
 10
206.6143
 20
206.8385
 40
0.1000
  0
CIRCLE
  8
0_00
  6
CONTINUOUS
 62
2
 10
206.7781
 20
210.7685
 40
0.1000
  0
CIRCLE
  8
0_00
  6
CONTINUOUS
 62
2
 10
210.5443
 20
210.6047
 40
0.1000
  0
CIRCLE
  8
0_00
  6
CONTINUOUS
 62
2
 10
211.6087
 20
207.4116
 40
0.1000
  0
CIRCLE
  8
0_00
  6
CONTINUOUS
 62
2
 10
210.4625
 20
205.9379
 40
0.1000
  0
CIRCLE
  8
0_00
  6
CONTINUOUS
 62
2
 10
207.4331
 20
204.4641
 40
0.1000
  0
CIRCLE
  8
0_00
  6
CONTINUOUS
 62
2
 10
203.8306
 20
204.2185
 40
0.1000
  0
CIRCLE
  8
0_00
  6
CONTINUOUS
 62
2
 10
210.5443
 20
203.6454
 40
0.1000
  0
CIRCLE
  8
0_00
  6
CONTINUOUS
 62
2
 10
214.8837
 20
203.8091
 40
0.1000
  0
CIRCLE
  8
0_00
  6
CONTINUOUS
 62
2
 10
215.7843
 20
205.8560
 40
0.1000
  0
CIRCLE
  8
0_00
  6
CONTINUOUS
 62
2
 10
216.3575
 20
209.7041
 40
0.1000
  0
CIRCLE
  8
0_00
  6
CONTINUOUS
 62
2
 10
212.5912
 20
209.7860
 40
0.1000
  0
CIRCLE
  8
0_00
  6
CONTINUOUS
 62
2
 10
213.8193
 20
207.0841
 40
0.1000
  0
CIRCLE
  8
0_00
  6
CONTINUOUS
 62
2
 10
218.5681
 20
207.4116
 40
0.1000
  0
CIRCLE
  8
0_00
  6
CONTINUOUS
 62
2
 10
219.4687
 20
210.0316
 40
0.1000
  0
CIRCLE
  8
0_00
  6
CONTINUOUS
 62
2
 10
221.3518
 20
211.0960
 40
0.1000
  0
CIRCLE
  8
0_00
  6
CONTINUOUS
 62
2
 10
224.0537
 20
208.5579
 40
0.1000
  0
CIRCLE
  8
0_00
  6
CONTINUOUS
 62
2
 10
222.5799
 20
206.7566
 40
0.1000
  0
CIRCLE
  8
0_00
  6
CONTINUOUS
 62
2
 10
218.8137
 20
203.9729
 40
0.1000
  0
CIRCLE
  8
0_00
  6
CONTINUOUS
 62
2
 10
224.0537
 20
204.0547
 40
0.1000
  0
CIRCLE
  8
0_00
  6
CONTINUOUS
 62
2
 10
227.3287
 20
206.0197
 40
0.1000
  0
CIRCLE
  8
0_00
  6
CONTINUOUS
 62
2
 10
226.9193
 20
208.8035
 40
0.1000
  0
CIRCLE
  8
0_00
  6
CONTINUOUS
 62
2
 10
225.3637
 20
210.1954
 40
0.1000
  0
CIRCLE
  8
0_00
  6
CONTINUOUS
 62
2
 10
230.6855
 20
209.9497
 40
0.1000
  0
CIRCLE
  8
0_00
  6
CONTINUOUS
 62
2
 10
231.0949
 20
205.9379
 40
0.1000
  0
CIRCLE
  8
0_00
  6
CONTINUOUS
 62
2
 10
228.8843
 20
203.2360
 40
0.1000
  0
CIRCLE
  8
0_00
  6
CONTINUOUS
 62
2
 10
235.4343
 20
203.7272
 40
0.1000
  0
CIRCLE
  8
0_00
  6
CONTINUOUS
 62
2
 10
235.7618
 20
207.2479
 40
0.1000
  0
CIRCLE
  8
0_00
  6
CONTINUOUS
 62
2
 10
234.5337
 20
209.7860
 40
0.1000
  0
CIRCLE
  8
0_00
  6
CONTINUOUS
 62
2
 10
233.7149
 20
206.2654
 40
0.1000
  0
CIRCLE
  8
0_00
  6
CONTINUOUS
 62
2
 10
239.5280
 20
206.3472
 40
0.1000
  0
CIRCLE
  8
0_00
  6
CONTINUOUS
 62
2
 10
236.5805
 20
209.6222
 40
0.1000
  0
CIRCLE
  8
0_00
  6
CONTINUOUS
 62
2
 10
238.6274
 20
211.2597
 40
0.1000
  0
CIRCLE
  8
0_00
  6
CONTINUOUS
 62
2
 10
239.6918
 20
208.4760
 40
0.1000
  0
CIRCLE
  8
0_00
  6
CONTINUOUS
 62
2
 10
243.4580
 20
209.8679
 40
0.1000
  0
CIRCLE
  8
0_00
  6
CONTINUOUS
 62
2
 10
242.2299
 20
206.3472
 40
0.1000
  0
CIRCLE
  8
0_00
  6
CONTINUOUS
 62
2
 10
241.9024
 20
207.8210
 40
0.1000
  0
CIRCLE
  8
0_00
  6
CONTINUOUS
 62
2
 10
240.2649
 20
203.5635
 40
0.1000
  0
CIRCLE
  8
0_00
  6
CONTINUOUS
 62
2
 10
243.6218
 20
204.1366
 40
0.1000
  0
CIRCLE
  8
0_00
  6
CONTINUOUS
 62
2
 10
245.9143
 20
205.7741
 40
0.1000
  0
CIRCLE
  8
0_00
  6
CONTINUOUS
 62
2
 10
246.4055
 20
208.0666
 40
0.1000
  0
CIRCLE
  8
0_00
  6
CONTINUOUS
 62
2
 10
246.4874
 20
210.6866
 40
0.1000
  0
CIRCLE
  8
0_00
  6
CONTINUOUS
 62
2
 10
250.4174
 20
209.2947
 40
0.1000
  0
CIRCLE
  8
0_00
  6
CONTINUOUS
 62
2
 10
249.1074
 20
206.9204
 40
0.1000
  0
CIRCLE
  8
0_00
  6
CONTINUOUS
 62
2
 10
247.3880
 20
203.8910
 40
0.1000
  0
CIRCLE
  8
0_00
  6
CONTINUOUS
 62
2
 10
252.4643
 20
203.8910
 40
0.1000
  0
CIRCLE
  8
0_00
  6
CONTINUOUS
 62
2
 10
252.3824
 20
206.2654
 40
0.1000
  0
CIRCLE
  8
0_00
  6
CONTINUOUS
 62
2
 10
255.4117
 20
209.0491
 40
0.1000
  0
CIRCLE
  8
0_00
  6
CONTINUOUS
 62
2
 10
253.0374
 20
210.2772
 40
0.1000
  0
CIRCLE
  8
0_00
  6
CONTINUOUS
 62
2
 10
255.9030
 20
205.4466
 40
0.1000
  0
CIRCLE
  8
0_00
  6
CONTINUOUS
 62
2
 10
258.8505
 20
204.7097
 40
0.1000
  0
CIRCLE
  8
0_00
  6
CONTINUOUS
 62
2
 10
260.1319
 20
209.5384
 40
0.1000
  0
CIRCLE
  8
0_00
  6
CONTINUOUS
 62
2
 10
259.5198
 20
207.2940
 40
0.1000
  0
CIRCLE
  8
0_00
  6
CONTINUOUS
 62
2
 10
263.6005
 20
205.4577
 40
0.1000
  0
CIRCLE
  8
0_00
  6
CONTINUOUS
 62
2
 10
265.5389
 20
208.6203
 40
0.1000
  0
CIRCLE
  8
0_00
  6
CONTINUOUS
 62
2
 10
263.8046
 20
209.6404
 40
0.1000
  0
CIRCLE
  8
0_00
  6
CONTINUOUS
 62
2
 10
269.4156
 20
208.5182
 40
0.1000
  0
CIRCLE
  8
0_00
  6
CONTINUOUS
 62
2
 10
268.8035
 20
206.2738
 40
0.1000
  0
CIRCLE
  8
0_00
  6
CONTINUOUS
 62
2
 10
267.5793
 20
204.5395
 40
0.1000
  0
CIRCLE
  8
0_00
  6
CONTINUOUS
 62
2
 10
272.7822
 20
203.4173
 40
0.1000
  0
CIRCLE
  8
0_00
  6
CONTINUOUS
 62
2
 10
273.2923
 20
206.1718
 40
0.1000
  0
CIRCLE
  8
0_00
  6
CONTINUOUS
 62
2
 10
273.7004
 20
209.9465
 40
0.1000
  0
CIRCLE
  8
0_00
  6
CONTINUOUS
 62
2
 10
270.8439
 20
210.1505
 40
0.1000
  0
CIRCLE
  8
0_00
  6
CONTINUOUS
 62
2
 10
276.8629
 20
209.9465
 40
0.1000
  0
CIRCLE
  8
0_00
  6
CONTINUOUS
 62
2
 10
277.1690
 20
207.4980
 40
0.1000
  0
CIRCLE
  8
0_00
  6
CONTINUOUS
 62
2
 10
281.1477
 20
205.7637
 40
0.1000
  0
CIRCLE
  8
0_00
  6
CONTINUOUS
 62
2
 10
278.5973
 20
204.8456
 40
0.1000
  0
CIRCLE
  8
0_00
  6
CONTINUOUS
 62
2
 10
282.4740
 20
210.2525
 40
0.1000
  0
CIRCLE
  8
0_00
  6
CONTINUOUS
 62
2
 10
283.1881
 20
208.0081
 40
0.1000
  0
CIRCLE
  8
0_00
  6
CONTINUOUS
 62
2
 10
288.5951
 20
205.8657
 40
0.1000
  0
CIRCLE
  8
0_00
  6
CONTINUOUS
 62
2
 10
280.8417
 20
208.9263
 40
0.1000
  0
CIRCLE
  8
0_00
  6
CONTINUOUS
 62
2
 10
284.7184
 20
205.1516
 40
0.1000
  0
CIRCLE
  8
0_00
  6
CONTINUOUS
 62
2
 10
287.6769
 20
208.1102
 40
0.1000
  0
CIRCLE
  8
0_00
  6
CONTINUOUS
 62
2
 10
285.7386
 20
210.2525
 40
0.1000
  0
CIRCLE
  8
0_00
  6
CONTINUOUS
 62
2
 10
291.1456
 20
209.4364
 40
0.1000
  0
CIRCLE
  8
0_00
  6
CONTINUOUS
 62
2
 10
292.0637
 20
205.5597
 40
0.1000
  0
CIRCLE
  8
0_00
  6
CONTINUOUS
 62
2
 10
290.2274
 20
203.6213
 40
0.1000
  0
CIRCLE
  8
0_00
  6
CONTINUOUS
 62
2
 10
296.0424
 20
203.4173
 40
0.1000
  0
CIRCLE
  8
0_00
  6
CONTINUOUS
 62
2
 10
296.9606
 20
205.6617
 40
0.1000
  0
CIRCLE
  8
0_00
  6
CONTINUOUS
 62
2
 10
294.6142
 20
207.8041
 40
0.1000
  0
CIRCLE
  8
0_00
  6
CONTINUOUS
 62
2
 10
295.7364
 20
209.9465
 40
0.1000
  0
CIRCLE
  8
0_00
  6
CONTINUOUS
 62
2
 10
298.7970
 20
209.9465
 40
0.1000
  0
CIRCLE
  8
0_00
  6
CONTINUOUS
 62
2
 10
299.4091
 20
206.9879
 40
0.1000
  0
CIRCLE
  8
0_00
  6
CONTINUOUS
 62
2
 10
302.5717
 20
208.0081
 40
0.1000
  0
CIRCLE
  8
0_00
  6
CONTINUOUS
 62
2
 10
302.4696
 20
210.1505
 40
0.1000
  0
CIRCLE
  8
0_00
  6
CONTINUOUS
 62
2
 10
306.5504
 20
205.6617
 40
0.1000
  0
CIRCLE
  8
0_00
  6
CONTINUOUS
 62
2
 10
302.6737
 20
204.0294
 40
0.1000
  0
CIRCLE
  8
0_00
  6
CONTINUOUS
 62
2
 10
311.4473
 20
204.1314
 40
0.1000
  0
CIRCLE
  8
0_00
  6
CONTINUOUS
 62
2
 10
308.9988
 20
209.1303
 40
0.1000
  0
CIRCLE
  8
0_00
  6
CONTINUOUS
 62
2
 10
309.4069
 20
206.4778
 40
0.1000
  0
CIRCLE
  8
0_00
  6
CONTINUOUS
 62
2
 10
305.9383
 20
209.4364
 40
0.1000
  0
CIRCLE
  8
0_00
  6
CONTINUOUS
 62
2
 10
314.4058
 20
209.5384
 40
0.1000
  0
CIRCLE
  8
0_00
  6
CONTINUOUS
 62
2
 10
316.1401
 20
205.9678
 40
0.1000
  0
CIRCLE
  8
0_00
  6
CONTINUOUS
 62
2
 10
315.3240
 20
203.7234
 40
0.1000
  0
CIRCLE
  8
0_00
  6
CONTINUOUS
 62
2
 10
324.9137
 20
203.7234
 40
0.1000
  0
CIRCLE
  8
0_00
  6
CONTINUOUS
 62
2
 10
323.6895
 20
208.8243
 40
0.1000
  0
CIRCLE
  8
0_00
  6
CONTINUOUS
 62
2
 10
320.0168
 20
204.6415
 40
0.1000
  0
CIRCLE
  8
0_00
  6
CONTINUOUS
 62
2
 10
322.4653
 20
201.9890
 40
0.1000
  0
CIRCLE
  8
0_00
  6
CONTINUOUS
 62
2
 10
320.2209
 20
208.8243
 40
0.1000
  0
CIRCLE
  8
0_00
  6
CONTINUOUS
 62
2
 10
328.3824
 20
207.7021
 40
0.1000
  0
CIRCLE
  8
0_00
  6
CONTINUOUS
 62
2
 10
329.6066
 20
210.4566
 40
0.1000
  0
CIRCLE
  8
0_00
  6
CONTINUOUS
 62
2
 10
334.9116
 20
208.2121
 40
0.1000
  0
CIRCLE
  8
0_00
  6
CONTINUOUS
 62
2
 10
335.9317
 20
210.4566
 40
0.1000
  0
CIRCLE
  8
0_00
  6
CONTINUOUS
 62
2
 10
330.8308
 20
205.5597
 40
0.1000
  0
CIRCLE
  8
0_00
  6
CONTINUOUS
 62
2
 10
329.0965
 20
201.1729
 40
0.1000
  0
CIRCLE
  8
0_00
  6
CONTINUOUS
 62
2
 10
325.4238
 20
198.7244
 40
0.1000
  0
CIRCLE
  8
0_00
  6
CONTINUOUS
 62
2
 10
329.5046
 20
194.2356
 40
0.1000
  0
CIRCLE
  8
0_00
  6
CONTINUOUS
 62
2
 10
333.1772
 20
199.2345
 40
0.1000
  0
CIRCLE
  8
0_00
  6
CONTINUOUS
 62
2
 10
334.7075
 20
204.4375
 40
0.1000
  0
CIRCLE
  8
0_00
  6
CONTINUOUS
 62
2
 10
335.2176
 20
197.8063
 40
0.1000
  0
CIRCLE
  8
0_00
  6
CONTINUOUS
 62
2
 10
333.9934
 20
190.7670
 40
0.1000
  0
CIRCLE
  8
0_00
  6
CONTINUOUS
 62
2
 10
330.1167
 20
188.7266
 40
0.1000
  0
CIRCLE
  8
0_00
  6
CONTINUOUS
 62
2
 10
326.5460
 20
187.8084
 40
0.1000
  0
CIRCLE
  8
0_00
  6
CONTINUOUS
 62
2
 10
325.9339
 20
191.3791
 40
0.1000
  0
CIRCLE
  8
0_00
  6
CONTINUOUS
 62
2
 10
326.4440
 20
195.6639
 40
0.1000
  0
CIRCLE
  8
0_00
  6
CONTINUOUS
 62
2
 10
334.0954
 20
195.2558
 40
0.1000
  0
CIRCLE
  8
0_00
  6
CONTINUOUS
 62
2
 10
332.7692
 20
184.2378
 40
0.1000
  0
CIRCLE
  8
0_00
  6
CONTINUOUS
 62
2
 10
336.1358
 20
183.3196
 40
0.1000
  0
CIRCLE
  8
0_00
  6
CONTINUOUS
 62
2
 10
331.5450
 20
177.9126
 40
0.1000
  0
CIRCLE
  8
0_00
  6
CONTINUOUS
 62
2
 10
327.2602
 20
178.3207
 40
0.1000
  0
CIRCLE
  8
0_00
  6
CONTINUOUS
 62
2
 10
326.9541
 20
181.5853
 40
0.1000
  0
CIRCLE
  8
0_00
  6
CONTINUOUS
 62
2
 10
324.8117
 20
181.5853
 40
0.1000
  0
CIRCLE
  8
0_00
  6
CONTINUOUS
 62
2
 10
329.0965
 20
184.8499
 40
0.1000
  0
CIRCLE
  8
0_00
  6
CONTINUOUS
 62
2
 10
335.1156
 20
185.9721
 40
0.1000
  0
CIRCLE
  8
0_00
  6
CONTINUOUS
 62
2
 10
332.0550
 20
180.8712
 40
0.1000
  0
CIRCLE
  8
0_00
  6
CONTINUOUS
 62
2
 10
334.4015
 20
175.4642
 40
0.1000
  0
CIRCLE
  8
0_00
  6
CONTINUOUS
 62
2
 10
335.3196
 20
179.1369
 40
0.1000
  0
CIRCLE
  8
0_00
  6
CONTINUOUS
 62
2
 10
336.6459
 20
174.0359
 40
0.1000
  0
CIRCLE
  8
0_00
  6
CONTINUOUS
 62
2
 10
332.8712
 20
169.6491
 40
0.1000
  0
CIRCLE
  8
0_00
  6
CONTINUOUS
 62
2
 10
330.4227
 20
172.1996
 40
0.1000
  0
CIRCLE
  8
0_00
  6
CONTINUOUS
 62
2
 10
331.0349
 20
175.4642
 40
0.1000
  0
CIRCLE
  8
0_00
  6
CONTINUOUS
 62
2
 10
326.9541
 20
174.0359
 40
0.1000
  0
CIRCLE
  8
0_00
  6
CONTINUOUS
 62
2
 10
325.4238
 20
169.7511
 40
0.1000
  0
CIRCLE
  8
0_00
  6
CONTINUOUS
 62
2
 10
327.1581
 20
165.6704
 40
0.1000
  0
CIRCLE
  8
0_00
  6
CONTINUOUS
 62
2
 10
329.4026
 20
168.3229
 40
0.1000
  0
CIRCLE
  8
0_00
  6
CONTINUOUS
 62
2
 10
330.1167
 20
163.7320
 40
0.1000
  0
CIRCLE
  8
0_00
  6
CONTINUOUS
 62
2
 10
326.2400
 20
162.6098
 40
0.1000
  0
CIRCLE
  8
0_00
  6
CONTINUOUS
 62
2
 10
325.2198
 20
158.6311
 40
0.1000
  0
CIRCLE
  8
0_00
  6
CONTINUOUS
 62
2
 10
330.8308
 20
157.7130
 40
0.1000
  0
CIRCLE
  8
0_00
  6
CONTINUOUS
 62
2
 10
328.3824
 20
161.0796
 40
0.1000
  0
CIRCLE
  8
0_00
  6
CONTINUOUS
 62
2
 10
328.6884
 20
159.1412
 40
0.1000
  0
CIRCLE
  8
0_00
  6
CONTINUOUS
 62
2
 10
333.6873
 20
162.2018
 40
0.1000
  0
CIRCLE
  8
0_00
  6
CONTINUOUS
 62
2
 10
333.7894
 20
167.2007
 40
0.1000
  0
CIRCLE
  8
0_00
  6
CONTINUOUS
 62
2
 10
335.9317
 20
170.3633
 40
0.1000
  0
CIRCLE
  8
0_00
  6
CONTINUOUS
 62
2
 10
335.9317
 20
164.7522
 40
0.1000
  0
CIRCLE
  8
0_00
  6
CONTINUOUS
 62
2
 10
336.5439
 20
160.7735
 40
0.1000
  0
CIRCLE
  8
0_00
  6
CONTINUOUS
 62
2
 10
335.4216
 20
155.0605
 40
0.1000
  0
CIRCLE
  8
0_00
  6
CONTINUOUS
 62
2
 10
323.7704
 20
148.5835
 40
0.1000
  0
CIRCLE
  8
0_00
  6
CONTINUOUS
 62
2
 10
326.0956
 20
153.0316
 40
0.1000
  0
CIRCLE
  8
0_00
  6
CONTINUOUS
 62
2
 10
325.2868
 20
155.8623
 40
0.1000
  0
CIRCLE
  8
0_00
  6
CONTINUOUS
 62
2
 10
327.9153
 20
155.3568
 40
0.1000
  0
CIRCLE
  8
0_00
  6
CONTINUOUS
 62
2
 10
328.7240
 20
151.6163
 40
0.1000
  0
CIRCLE
  8
0_00
  6
CONTINUOUS
 62
2
 10
326.9043
 20
148.5835
 40
0.1000
  0
CIRCLE
  8
0_00
  6
CONTINUOUS
 62
2
 10
330.7459
 20
147.4714
 40
0.1000
  0
CIRCLE
  8
0_00
  6
CONTINUOUS
 62
2
 10
333.1722
 20
151.2119
 40
0.1000
  0
CIRCLE
  8
0_00
  6
CONTINUOUS
 62
2
 10
330.9481
 20
153.8404
 40
0.1000
  0
CIRCLE
  8
0_00
  6
CONTINUOUS
 62
2
 10
333.1722
 20
147.3703
 40
0.1000
  0
CIRCLE
  8
0_00
  6
CONTINUOUS
 62
2
 10
335.6996
 20
143.4276
 40
0.1000
  0
CIRCLE
  8
0_00
  6
CONTINUOUS
 62
2
 10
335.8007
 20
147.5725
 40
0.1000
  0
CIRCLE
  8
0_00
  6
CONTINUOUS
 62
2
 10
335.8007
 20
152.6272
 40
0.1000
  0
CIRCLE
  8
0_00
  6
CONTINUOUS
 62
2
 10
334.0820
 20
157.8842
 40
0.1000
  0
CIRCLE
  8
0_00
  6
CONTINUOUS
 62
2
 10
332.7678
 20
143.4276
 40
0.1000
  0
CIRCLE
  8
0_00
  6
CONTINUOUS
 62
2
 10
329.6339
 20
143.4276
 40
0.1000
  0
CIRCLE
  8
0_00
  6
CONTINUOUS
 62
2
 10
327.1065
 20
143.2254
 40
0.1000
  0
CIRCLE
  8
0_00
  6
CONTINUOUS
 62
2
 10
325.2868
 20
141.6079
 40
0.1000
  0
CIRCLE
  8
0_00
  6
CONTINUOUS
 62
2
 10
336.5083
 20
140.4959
 40
0.1000
  0
ARC
  8
13_0D
  6
CONTINUOUS
 62
2
 10
163.9433
 20
210.3561
 40
9.1000
 50
39.7151
 51
90.0000
  0
ARC
  8
13_0D
  6
CONTINUOUS
 62
2
 10
163.9433
 20
210.3561
 40
9.1000
 50
90.0000
 51
140.2849
  0
ARC
  8
11_0B
  6
DASHED
 62
2
 10
159.5316
 20
195.1131
 40
0.4000
 50
175.0000
 51
255.0000
  0
ARC
  8
11_0B
  6
DASHED
 62
2
 10
159.0958
 20
190.1321
 40
0.4000
 50
175.0000
 51
255.0000
  0
ARC
  8
11_0B
  6
DASHED
 62
2
 10
158.6600
 20
185.1512
 40
0.4000
 50
175.0000
 51
255.0000
  0
ARC
  8
11_0B
  6
DASHED
 62
2
 10
158.2242
 20
180.1702
 40
0.4000
 50
175.0000
 51
255.0000
  0
ARC
  8
11_0B
  6
DASHED
 62
2
 10
158.0058
 20
175.3790
 40
0.6000
 50
175.0000
 51
205.0000
  0
ARC
  8
11_0B
  6
DASHED
 62
2
 10
168.3550
 20
195.1131
 40
0.4000
 50
285.0000
 51
365.0000
  0
ARC
  8
11_0B
  6
DASHED
 62
2
 10
168.7908
 20
190.1321
 40
0.4000
 50
285.0000
 51
365.0000
  0
ARC
  8
11_0B
  6
DASHED
 62
2
 10
169.2266
 20
185.1512
 40
0.4000
 50
285.0000
 51
365.0000
  0
ARC
  8
11_0B
  6
DASHED
 62
2
 10
169.6624
 20
180.1702
 40
0.4000
 50
285.0000
 51
365.0000
  0
ARC
  8
11_0B
  6
DASHED
 62
2
 10
169.8808
 20
175.3790
 40
0.6000
 50
335.0000
 51
365.0000
  0
ARC
  8
11_0B
  6
DASHED
 62
2
 10
159.7774
 20
177.2710
 40
0.2000
 50
265.0000
 51
355.0000
  0
ARC
  8
11_0B
  6
DASHED
 62
2
 10
168.1091
 20
177.2710
 40
0.2000
 50
185.0000
 51
275.0000
  0
ARC
  8
11_0B
  6
DASHED
 62
2
 10
160.2132
 20
182.2520
 40
0.2000
 50
265.0000
 51
355.0000
  0
ARC
  8
11_0B
  6
DASHED
 62
2
 10
167.6734
 20
182.2520
 40
0.2000
 50
185.0000
 51
275.0000
  0
ARC
  8
11_0B
  6
DASHED
 62
2
 10
160.6490
 20
187.2330
 40
0.2000
 50
265.0000
 51
355.0000
  0
ARC
  8
11_0B
  6
DASHED
 62
2
 10
167.2376
 20
187.2330
 40
0.2000
 50
185.0000
 51
275.0000
  0
ARC
  8
11_0B
  6
DASHED
 62
2
 10
161.0848
 20
192.2139
 40
0.2000
 50
265.0000
 51
355.0000
  0
ARC
  8
11_0B
  6
DASHED
 62
2
 10
166.8018
 20
192.2139
 40
0.2000
 50
185.0000
 51
275.0000
  0
ARC
  8
11_0B
  6
DASHED
 62
2
 10
160.9228
 20
197.2472
 40
0.2000
 50
265.0000
 51
355.0000
  0
ARC
  8
11_0B
  6
DASHED
 62
2
 10
166.9637
 20
197.2472
 40
0.2000
 50
185.0000
 51
275.0000
  0
ARC
  8
11_0B
  6
DASHED
 62
2
 10
168.1638
 20
178.9404
 40
0.4000
 50
105.0000
 51
185.0000
  0
ARC
  8
11_0B
  6
DASHED
 62
2
 10
159.9366
 20
179.0902
 40
0.2000
 50
355.0000
 51
435.0000
  0
ARC
  8
11_0B
  6
DASHED
 62
2
 10
167.7281
 20
183.9214
 40
0.4000
 50
105.0000
 51
185.0000
  0
ARC
  8
11_0B
  6
DASHED
 62
2
 10
160.1585
 20
183.9214
 40
0.4000
 50
355.0000
 51
435.0000
  0
ARC
  8
11_0B
  6
DASHED
 62
2
 10
167.2923
 20
188.9024
 40
0.4000
 50
105.0000
 51
185.0000
  0
ARC
  8
11_0B
  6
DASHED
 62
2
 10
160.5943
 20
188.9024
 40
0.4000
 50
355.0000
 51
435.0000
  0
ARC
  8
11_0B
  6
DASHED
 62
2
 10
166.8565
 20
193.8834
 40
0.4000
 50
105.0000
 51
185.0000
  0
ARC
  8
11_0B
  6
DASHED
 62
2
 10
161.0301
 20
193.8834
 40
0.4000
 50
355.0000
 51
435.0000
  0
ARC
  8
11_0B
  6
DASHED
 62
2
 10
160.9402
 20
199.7411
 40
0.4000
 50
355.0000
 51
440.0000
  0
ARC
  8
11_0B
  6
DASHED
 62
2
 10
166.9463
 20
199.7411
 40
0.4000
 50
100.0000
 51
185.0000
  0
ARC
  8
11_0B
  6
DASHED
 62
2
 10
171.4376
 20
198.3571
 40
0.4000
 50
335.0000
 51
425.0000
  0
ARC
  8
11_0B
  6
DASHED
 62
2
 10
171.2564
 20
198.4416
 40
0.4000
 50
65.0000
 51
155.0000
  0
ARC
  8
11_0B
  6
DASHED
 62
2
 10
156.4489
 20
198.3571
 40
0.4000
 50
115.0000
 51
205.0000
  0
ARC
  8
11_0B
  6
DASHED
 62
2
 10
156.6302
 20
198.4416
 40
0.4000
 50
25.0000
 51
115.0000
  0
ARC
  8
13_0D
  6
CONTINUOUS
 62
2
 10
302.0455
 20
210.3561
 40
9.1000
 50
39.7151
 51
90.0000
  0
ARC
  8
13_0D
  6
CONTINUOUS
 62
2
 10
302.0455
 20
210.3561
 40
9.1000
 50
90.0000
 51
140.2849
  0
ARC
  8
11_0B
  6
DASHED
 62
2
 10
297.5316
 20
195.1131
 40
0.4000
 50
175.0000
 51
255.0000
  0
ARC
  8
11_0B
  6
DASHED
 62
2
 10
297.0958
 20
190.1321
 40
0.4000
 50
175.0000
 51
255.0000
  0
ARC
  8
11_0B
  6
DASHED
 62
2
 10
296.6600
 20
185.1512
 40
0.4000
 50
175.0000
 51
255.0000
  0
ARC
  8
11_0B
  6
DASHED
 62
2
 10
296.2242
 20
180.1702
 40
0.4000
 50
175.0000
 51
255.0000
  0
ARC
  8
11_0B
  6
DASHED
 62
2
 10
296.0058
 20
175.3790
 40
0.6000
 50
175.0000
 51
205.0000
  0
ARC
  8
11_0B
  6
DASHED
 62
2
 10
306.3550
 20
195.1131
 40
0.4000
 50
285.0000
 51
365.0000
  0
ARC
  8
11_0B
  6
DASHED
 62
2
 10
306.7908
 20
190.1321
 40
0.4000
 50
285.0000
 51
365.0000
  0
ARC
  8
11_0B
  6
DASHED
 62
2
 10
307.2266
 20
185.1512
 40
0.4000
 50
285.0000
 51
365.0000
  0
ARC
  8
11_0B
  6
DASHED
 62
2
 10
307.6624
 20
180.1702
 40
0.4000
 50
285.0000
 51
365.0000
  0
ARC
  8
11_0B
  6
DASHED
 62
2
 10
307.8808
 20
175.3790
 40
0.6000
 50
335.0000
 51
365.0000
  0
ARC
  8
11_0B
  6
DASHED
 62
2
 10
297.7774
 20
177.2710
 40
0.2000
 50
265.0000
 51
355.0000
  0
ARC
  8
11_0B
  6
DASHED
 62
2
 10
306.1091
 20
177.2710
 40
0.2000
 50
185.0000
 51
275.0000
  0
ARC
  8
11_0B
  6
DASHED
 62
2
 10
298.2132
 20
182.2520
 40
0.2000
 50
265.0000
 51
355.0000
  0
ARC
  8
11_0B
  6
DASHED
 62
2
 10
305.6734
 20
182.2520
 40
0.2000
 50
185.0000
 51
275.0000
  0
ARC
  8
11_0B
  6
DASHED
 62
2
 10
298.6490
 20
187.2330
 40
0.2000
 50
265.0000
 51
355.0000
  0
ARC
  8
11_0B
  6
DASHED
 62
2
 10
305.2376
 20
187.2330
 40
0.2000
 50
185.0000
 51
275.0000
  0
ARC
  8
11_0B
  6
DASHED
 62
2
 10
299.0848
 20
192.2139
 40
0.2000
 50
265.0000
 51
355.0000
  0
ARC
  8
11_0B
  6
DASHED
 62
2
 10
304.8018
 20
192.2139
 40
0.2000
 50
185.0000
 51
275.0000
  0
ARC
  8
11_0B
  6
DASHED
 62
2
 10
298.9228
 20
197.2472
 40
0.2000
 50
265.0000
 51
355.0000
  0
ARC
  8
11_0B
  6
DASHED
 62
2
 10
304.9637
 20
197.2472
 40
0.2000
 50
185.0000
 51
275.0000
  0
ARC
  8
11_0B
  6
DASHED
 62
2
 10
306.1638
 20
178.9404
 40
0.4000
 50
105.0000
 51
185.0000
  0
ARC
  8
11_0B
  6
DASHED
 62
2
 10
297.9366
 20
179.0902
 40
0.2000
 50
355.0000
 51
435.0000
  0
ARC
  8
11_0B
  6
DASHED
 62
2
 10
305.7281
 20
183.9214
 40
0.4000
 50
105.0000
 51
185.0000
  0
ARC
  8
11_0B
  6
DASHED
 62
2
 10
298.1585
 20
183.9214
 40
0.4000
 50
355.0000
 51
435.0000
  0
ARC
  8
11_0B
  6
DASHED
 62
2
 10
305.2923
 20
188.9024
 40
0.4000
 50
105.0000
 51
185.0000
  0
ARC
  8
11_0B
  6
DASHED
 62
2
 10
298.5943
 20
188.9024
 40
0.4000
 50
355.0000
 51
435.0000
  0
ARC
  8
11_0B
  6
DASHED
 62
2
 10
304.8565
 20
193.8834
 40
0.4000
 50
105.0000
 51
185.0000
  0
ARC
  8
11_0B
  6
DASHED
 62
2
 10
299.0301
 20
193.8834
 40
0.4000
 50
355.0000
 51
435.0000
  0
ARC
  8
11_0B
  6
DASHED
 62
2
 10
298.9402
 20
199.7411
 40
0.4000
 50
355.0000
 51
440.0000
  0
ARC
  8
11_0B
  6
DASHED
 62
2
 10
304.9463
 20
199.7411
 40
0.4000
 50
100.0000
 51
185.0000
  0
ARC
  8
11_0B
  6
DASHED
 62
2
 10
309.4376
 20
198.3571
 40
0.4000
 50
335.0000
 51
425.0000
  0
ARC
  8
11_0B
  6
DASHED
 62
2
 10
309.2564
 20
198.4416
 40
0.4000
 50
65.0000
 51
155.0000
  0
ARC
  8
11_0B
  6
DASHED
 62
2
 10
294.4489
 20
198.3571
 40
0.4000
 50
115.0000
 51
205.0000
  0
ARC
  8
11_0B
  6
DASHED
 62
2
 10
294.6302
 20
198.4416
 40
0.4000
 50
25.0000
 51
115.0000
  0
ARC
  8
6_06
  6
CONTINUOUS
 62
4
 10
750.3706
 20
224.8545
 40
3.0000
 50
0.0000
 51
88.0908
  0
ARC
  8
6_06
  6
CONTINUOUS
 62
4
 10
486.3706
 20
233.6544
 40
3.0000
 50
88.0908
 51
180.0000
  0
ARC
  8
6_06
  6
CONTINUOUS
 62
4
 10
486.3706
 20
174.7561
 40
3.0000
 50
180.0000
 51
270.0000
  0
ARC
  8
6_06
  6
CONTINUOUS
 62
4
 10
750.3706
 20
170.7561
 40
3.0000
 50
270.0000
 51
360.0000
  0
ARC
  8
6_06
  6
CONTINUOUS
 62
4
 10
486.3706
 20
174.7561
 40
0.6000
 50
180.0000
 51
266.2887
  0
ARC
  8
6_06
  6
CONTINUOUS
 62
4
 10
486.3706
 20
233.6544
 40
0.6000
 50
88.0908
 51
180.0000
  0
ARC
  8
6_06
  6
CONTINUOUS
 62
4
 10
750.3706
 20
224.8545
 40
0.6000
 50
0.0000
 51
88.0908
  0
ARC
  8
6_06
  6
CONTINUOUS
 62
4
 10
750.3706
 20
170.7561
 40
0.6000
 50
260.2887
 51
360.0000
  0
ARC
  8
6_06
  6
CONTINUOUS
 62
4
 10
489.6706
 20
173.1307
 40
1.2000
 50
270.0041
 51
453.0000
  0
ARC
  8
6_06
  6
CONTINUOUS
 62
4
 10
747.0706
 20
169.1307
 40
1.2000
 50
89.9959
 51
269.9959
  0
ARC
  8
3_03
  6
CONTINUOUS
 62
4
 10
486.3706
 20
174.9561
 40
0.7000
 50
174.0252
 51
270.0000
  0
ARC
  8
3_03
  6
CONTINUOUS
 62
4
 10
487.2344
 20
174.7561
 40
0.5000
 50
270.0000
 51
352.2079
  0
ARC
  8
3_03
  6
CONTINUOUS
 62
4
 10
750.3706
 20
170.9561
 40
0.7000
 50
270.0000
 51
365.3988
  0
ARC
  8
3_03
  6
CONTINUOUS
 62
4
 10
749.5125
 20
170.7561
 40
0.5000
 50
187.0578
 51
270.0000
  0
ARC
  8
3_03
  6
CONTINUOUS
 62
4
 10
493.3069
 20
211.7561
 40
0.5000
 50
90.0000
 51
172.2079
  0
ARC
  8
3_03
  6
CONTINUOUS
 62
4
 10
743.4287
 20
211.7561
 40
0.5000
 50
7.0578
 51
90.0000
  0
ARC
  8
3_03
  6
CONTINUOUS
 62
4
 10
673.1706
 20
216.2561
 40
0.5000
 50
180.0000
 51
270.0000
  0
ARC
  8
3_03
  6
CONTINUOUS
 62
4
 10
563.5706
 20
216.2561
 40
0.5000
 50
270.0000
 51
360.0000
  0
ARC
  8
3_03
  6
CONTINUOUS
 62
4
 10
565.0706
 20
228.2561
 40
1.0000
 50
0.0000
 51
180.0000
  0
ARC
  8
3_03
  6
CONTINUOUS
 62
4
 10
671.6706
 20
224.7561
 40
1.0000
 50
0.0000
 51
180.0000
  0
ARC
  8
3_03
  6
CONTINUOUS
 62
4
 10
498.8706
 20
231.8159
 40
0.3000
 50
88.0908
 51
180.0000
  0
ARC
  8
3_03
  6
CONTINUOUS
 62
4
 10
505.7706
 20
231.5860
 40
0.3000
 50
0.0000
 51
88.0908
  0
ARC
  8
3_03
  6
CONTINUOUS
 62
4
 10
496.3516
 20
228.1979
 40
2.0000
 50
88.0908
 51
163.5865
  0
ARC
  8
3_03
  6
CONTINUOUS
 62
4
 10
730.9706
 20
224.0793
 40
0.3000
 50
88.0908
 51
180.0000
  0
ARC
  8
3_03
  6
CONTINUOUS
 62
4
 10
740.5591
 20
222.0587
 40
2.0000
 50
24.2601
 51
88.0908
  0
ARC
  8
3_03
  6
CONTINUOUS
 62
4
 10
493.5047
 20
216.0561
 40
0.5000
 50
163.5865
 51
270.0000
  0
ARC
  8
3_03
  6
CONTINUOUS
 62
4
 10
497.2401
 20
226.9676
 40
1.0000
 50
88.0908
 51
163.5865
  0
ARC
  8
3_03
  6
CONTINUOUS
 62
4
 10
505.5706
 20
230.1918
 40
0.5000
 50
268.0909
 51
360.0000
  0
ARC
  8
3_03
  6
CONTINUOUS
 62
4
 10
501.2706
 20
229.3346
 40
0.5000
 50
88.0908
 51
180.0000
  0
ARC
  8
3_03
  6
CONTINUOUS
 62
4
 10
742.4965
 20
216.0561
 40
0.5000
 50
270.0000
 51
384.2601
  0
ARC
  8
3_03
  6
CONTINUOUS
 62
4
 10
739.7721
 20
220.8843
 40
1.0000
 50
24.2601
 51
88.0908
  0
ARC
  8
3_03
  6
CONTINUOUS
 62
4
 10
731.1707
 20
222.6718
 40
0.5000
 50
180.0000
 51
268.0909
  0
ARC
  8
0_00
  6
CONTINUOUS
 62
2
 10
521.3706
 20
204.2561
 40
8.0000
 50
90.0000
 51
180.0000
  0
ARC
  8
0_00
  6
CONTINUOUS
 62
4
 10
730.3706
 20
189.2561
 40
8.0000
 50
0.0000
 51
45.0000
  0
ARC
  8
0_00
  6
CONTINUOUS
 62
4
 10
715.3706
 20
204.2561
 40
8.0000
 50
45.0000
 51
90.0000
  0
ARC
  8
0_00
  6
CONTINUOUS
 62
2
 10
715.3982
 20
204.3228
 40
2.6000
 50
45.0000
 51
90.0000
  0
ARC
  8
0_00
  6
CONTINUOUS
 62
2
 10
730.4373
 20
189.2837
 40
2.6000
 50
0.0000
 51
45.0000
  0
ARC
  8
0_00
  6
CONTINUOUS
 62
2
 10
715.3844
 20
204.2895
 40
5.3000
 50
45.0000
 51
90.0000
  0
ARC
  8
0_00
  6
CONTINUOUS
 62
2
 10
730.4039
 20
189.2699
 40
5.3000
 50
0.0000
 51
45.0000
  0
ARC
  8
11_0B
  6
DASHED
 62
2
 10
544.9589
 20
195.1131
 40
0.4000
 50
175.0000
 51
255.0000
  0
ARC
  8
11_0B
  6
DASHED
 62
2
 10
544.5231
 20
190.1321
 40
0.4000
 50
175.0000
 51
255.0000
  0
ARC
  8
11_0B
  6
DASHED
 62
2
 10
544.0873
 20
185.1512
 40
0.4000
 50
175.0000
 51
255.0000
  0
ARC
  8
11_0B
  6
DASHED
 62
2
 10
543.6516
 20
180.1702
 40
0.4000
 50
175.0000
 51
255.0000
  0
ARC
  8
11_0B
  6
DASHED
 62
2
 10
543.4331
 20
175.3790
 40
0.6000
 50
175.0000
 51
205.0000
  0
ARC
  8
11_0B
  6
DASHED
 62
2
 10
553.7823
 20
195.1131
 40
0.4000
 50
285.0000
 51
365.0000
  0
ARC
  8
11_0B
  6
DASHED
 62
2
 10
554.2181
 20
190.1321
 40
0.4000
 50
285.0000
 51
365.0000
  0
ARC
  8
11_0B
  6
DASHED
 62
2
 10
554.6539
 20
185.1512
 40
0.4000
 50
285.0000
 51
365.0000
  0
ARC
  8
11_0B
  6
DASHED
 62
2
 10
555.0897
 20
180.1702
 40
0.4000
 50
285.0000
 51
365.0000
  0
ARC
  8
11_0B
  6
DASHED
 62
2
 10
555.3081
 20
175.3790
 40
0.6000
 50
335.0000
 51
365.0000
  0
ARC
  8
11_0B
  6
DASHED
 62
2
 10
545.2048
 20
177.2710
 40
0.2000
 50
265.0000
 51
355.0000
  0
ARC
  8
11_0B
  6
DASHED
 62
2
 10
553.5365
 20
177.2710
 40
0.2000
 50
185.0000
 51
275.0000
  0
ARC
  8
11_0B
  6
DASHED
 62
2
 10
545.6405
 20
182.2520
 40
0.2000
 50
265.0000
 51
355.0000
  0
ARC
  8
11_0B
  6
DASHED
 62
2
 10
553.1007
 20
182.2520
 40
0.2000
 50
185.0000
 51
275.0000
  0
ARC
  8
11_0B
  6
DASHED
 62
2
 10
546.0763
 20
187.2330
 40
0.2000
 50
265.0000
 51
355.0000
  0
ARC
  8
11_0B
  6
DASHED
 62
2
 10
552.6649
 20
187.2330
 40
0.2000
 50
185.0000
 51
275.0000
  0
ARC
  8
11_0B
  6
DASHED
 62
2
 10
546.5121
 20
192.2139
 40
0.2000
 50
265.0000
 51
355.0000
  0
ARC
  8
11_0B
  6
DASHED
 62
2
 10
552.2291
 20
192.2139
 40
0.2000
 50
185.0000
 51
275.0000
  0
ARC
  8
11_0B
  6
DASHED
 62
2
 10
546.3502
 20
197.2472
 40
0.2000
 50
265.0000
 51
355.0000
  0
ARC
  8
11_0B
  6
DASHED
 62
2
 10
552.3911
 20
197.2472
 40
0.2000
 50
185.0000
 51
275.0000
  0
ARC
  8
11_0B
  6
DASHED
 62
2
 10
553.5912
 20
178.9404
 40
0.4000
 50
105.0000
 51
185.0000
  0
ARC
  8
11_0B
  6
DASHED
 62
2
 10
545.3639
 20
179.0902
 40
0.2000
 50
355.0000
 51
435.0000
  0
ARC
  8
11_0B
  6
DASHED
 62
2
 10
553.1554
 20
183.9214
 40
0.4000
 50
105.0000
 51
185.0000
  0
ARC
  8
11_0B
  6
DASHED
 62
2
 10
545.5858
 20
183.9214
 40
0.4000
 50
355.0000
 51
435.0000
  0
ARC
  8
11_0B
  6
DASHED
 62
2
 10
552.7196
 20
188.9024
 40
0.4000
 50
105.0000
 51
185.0000
  0
ARC
  8
11_0B
  6
DASHED
 62
2
 10
546.0216
 20
188.9024
 40
0.4000
 50
355.0000
 51
435.0000
  0
ARC
  8
11_0B
  6
DASHED
 62
2
 10
552.2838
 20
193.8834
 40
0.4000
 50
105.0000
 51
185.0000
  0
ARC
  8
11_0B
  6
DASHED
 62
2
 10
546.4574
 20
193.8834
 40
0.4000
 50
355.0000
 51
435.0000
  0
ARC
  8
11_0B
  6
DASHED
 62
2
 10
546.3676
 20
199.7411
 40
0.4000
 50
355.0000
 51
440.0000
  0
ARC
  8
11_0B
  6
DASHED
 62
2
 10
552.3737
 20
199.7411
 40
0.4000
 50
100.0000
 51
185.0000
  0
ARC
  8
11_0B
  6
DASHED
 62
2
 10
556.8649
 20
198.3571
 40
0.4000
 50
335.0000
 51
425.0000
  0
ARC
  8
11_0B
  6
DASHED
 62
2
 10
556.6837
 20
198.4416
 40
0.4000
 50
65.0000
 51
155.0000
  0
ARC
  8
11_0B
  6
DASHED
 62
2
 10
541.8763
 20
198.3571
 40
0.4000
 50
115.0000
 51
205.0000
  0
ARC
  8
11_0B
  6
DASHED
 62
2
 10
542.0576
 20
198.4416
 40
0.4000
 50
25.0000
 51
115.0000
  0
ARC
  8
13_0D
  6
CONTINUOUS
 62
2
 10
549.3706
 20
210.3561
 40
9.1000
 50
39.7151
 51
90.0000
  0
ARC
  8
13_0D
  6
CONTINUOUS
 62
2
 10
549.3706
 20
210.3561
 40
9.1000
 50
90.0000
 51
140.2849
  0
ARC
  8
11_0B
  6
DASHED
 62
2
 10
682.9589
 20
195.1131
 40
0.4000
 50
175.0000
 51
255.0000
  0
ARC
  8
11_0B
  6
DASHED
 62
2
 10
682.5231
 20
190.1321
 40
0.4000
 50
175.0000
 51
255.0000
  0
ARC
  8
11_0B
  6
DASHED
 62
2
 10
682.0873
 20
185.1512
 40
0.4000
 50
175.0000
 51
255.0000
  0
ARC
  8
11_0B
  6
DASHED
 62
2
 10
681.6515
 20
180.1702
 40
0.4000
 50
175.0000
 51
255.0000
  0
ARC
  8
11_0B
  6
DASHED
 62
2
 10
681.4331
 20
175.3790
 40
0.6000
 50
175.0000
 51
205.0000
  0
ARC
  8
11_0B
  6
DASHED
 62
2
 10
691.7823
 20
195.1131
 40
0.4000
 50
285.0000
 51
365.0000
  0
ARC
  8
11_0B
  6
DASHED
 62
2
 10
692.2181
 20
190.1321
 40
0.4000
 50
285.0000
 51
365.0000
  0
ARC
  8
11_0B
  6
DASHED
 62
2
 10
692.6539
 20
185.1512
 40
0.4000
 50
285.0000
 51
365.0000
  0
ARC
  8
11_0B
  6
DASHED
 62
2
 10
693.0897
 20
180.1702
 40
0.4000
 50
285.0000
 51
365.0000
  0
ARC
  8
11_0B
  6
DASHED
 62
2
 10
693.3081
 20
175.3790
 40
0.6000
 50
335.0000
 51
365.0000
  0
ARC
  8
11_0B
  6
DASHED
 62
2
 10
683.2047
 20
177.2710
 40
0.2000
 50
265.0000
 51
355.0000
  0
ARC
  8
11_0B
  6
DASHED
 62
2
 10
691.5365
 20
177.2710
 40
0.2000
 50
185.0000
 51
275.0000
  0
ARC
  8
11_0B
  6
DASHED
 62
2
 10
683.6405
 20
182.2520
 40
0.2000
 50
265.0000
 51
355.0000
  0
ARC
  8
11_0B
  6
DASHED
 62
2
 10
691.1007
 20
182.2520
 40
0.2000
 50
185.0000
 51
275.0000
  0
ARC
  8
11_0B
  6
DASHED
 62
2
 10
684.0763
 20
187.2330
 40
0.2000
 50
265.0000
 51
355.0000
  0
ARC
  8
11_0B
  6
DASHED
 62
2
 10
690.6649
 20
187.2330
 40
0.2000
 50
185.0000
 51
275.0000
  0
ARC
  8
11_0B
  6
DASHED
 62
2
 10
684.5121
 20
192.2139
 40
0.2000
 50
265.0000
 51
355.0000
  0
ARC
  8
11_0B
  6
DASHED
 62
2
 10
690.2291
 20
192.2139
 40
0.2000
 50
185.0000
 51
275.0000
  0
ARC
  8
11_0B
  6
DASHED
 62
2
 10
684.3502
 20
197.2472
 40
0.2000
 50
265.0000
 51
355.0000
  0
ARC
  8
11_0B
  6
DASHED
 62
2
 10
690.3911
 20
197.2472
 40
0.2000
 50
185.0000
 51
275.0000
  0
ARC
  8
11_0B
  6
DASHED
 62
2
 10
691.5912
 20
178.9404
 40
0.4000
 50
105.0000
 51
185.0000
  0
ARC
  8
11_0B
  6
DASHED
 62
2
 10
683.3639
 20
179.0902
 40
0.2000
 50
355.0000
 51
435.0000
  0
ARC
  8
11_0B
  6
DASHED
 62
2
 10
691.1554
 20
183.9214
 40
0.4000
 50
105.0000
 51
185.0000
  0
ARC
  8
11_0B
  6
DASHED
 62
2
 10
683.5858
 20
183.9214
 40
0.4000
 50
355.0000
 51
435.0000
  0
ARC
  8
11_0B
  6
DASHED
 62
2
 10
690.7196
 20
188.9024
 40
0.4000
 50
105.0000
 51
185.0000
  0
ARC
  8
11_0B
  6
DASHED
 62
2
 10
684.0216
 20
188.9024
 40
0.4000
 50
355.0000
 51
435.0000
  0
ARC
  8
11_0B
  6
DASHED
 62
2
 10
690.2838
 20
193.8834
 40
0.4000
 50
105.0000
 51
185.0000
  0
ARC
  8
11_0B
  6
DASHED
 62
2
 10
684.4574
 20
193.8834
 40
0.4000
 50
355.0000
 51
435.0000
  0
ARC
  8
11_0B
  6
DASHED
 62
2
 10
684.3676
 20
199.7411
 40
0.4000
 50
355.0000
 51
440.0000
  0
ARC
  8
11_0B
  6
DASHED
 62
2
 10
690.3737
 20
199.7411
 40
0.4000
 50
100.0000
 51
185.0000
  0
ARC
  8
11_0B
  6
DASHED
 62
2
 10
694.8650
 20
198.3571
 40
0.4000
 50
335.0000
 51
425.0000
  0
ARC
  8
11_0B
  6
DASHED
 62
2
 10
694.6837
 20
198.4416
 40
0.4000
 50
65.0000
 51
155.0000
  0
ARC
  8
11_0B
  6
DASHED
 62
2
 10
679.8763
 20
198.3571
 40
0.4000
 50
115.0000
 51
205.0000
  0
ARC
  8
11_0B
  6
DASHED
 62
2
 10
680.0575
 20
198.4416
 40
0.4000
 50
25.0000
 51
115.0000
  0
ARC
  8
13_0D
  6
CONTINUOUS
 62
2
 10
687.3706
 20
210.3561
 40
9.1000
 50
39.7151
 51
90.0000
  0
ARC
  8
13_0D
  6
CONTINUOUS
 62
2
 10
687.3706
 20
210.3561
 40
9.1000
 50
90.0000
 51
140.2849
  0
ARC
  8
0_00
  6
CONTINUOUS
 62
3
 10
726.4507
 20
48.1575
 40
0.3575
 50
270.0000
 51
450.0000
  0
ARC
  8
0_00
  6
CONTINUOUS
 62
3
 10
725.4562
 20
51.3750
 40
0.4355
 50
0.0000
 51
180.0000
  0
ARC
  8
0_00
  6
CONTINUOUS
 62
3
 10
726.1257
 20
55.6000
 40
1.3000
 50
333.9999
 51
450.0000
  0
CIRCLE
  8
0_00
  6
CONTINUOUS
 62
3
 10
726.7107
 20
58.2000
 40
1.0400
  0
ARC
  8
0_00
  6
CONTINUOUS
 62
3
 10
725.5208
 20
51.3750
 40
0.3000
 50
0.0000
 51
180.0000
  0
ARC
  8
0_00
  6
CONTINUOUS
 62
3
 10
725.5208
 20
51.3750
 40
0.1000
 50
0.0000
 51
180.0000
  0
ARC
  8
0_00
  6
CONTINUOUS
 62
3
 10
726.4507
 20
48.1150
 40
0.2000
 50
270.0000
 51
450.0000
  0
CIRCLE
  8
0_00
  6
CONTINUOUS
 62
3
 10
726.7107
 20
58.2000
 40
0.8830
  0
CIRCLE
  8
0_00
  6
CONTINUOUS
 62
3
 10
726.7107
 20
58.2000
 40
0.6837
  0
CIRCLE
  8
0_00
  6
CONTINUOUS
 62
3
 10
726.7107
 20
58.2000
 40
0.4684
  0
CIRCLE
  8
0_00
  6
CONTINUOUS
 62
3
 10
726.7107
 20
58.2000
 40
0.2293
  0
CIRCLE
  8
0_00
  6
CONTINUOUS
 62
3
 10
726.7107
 20
58.2000
 40
0.1133
  0
CIRCLE
  8
0_00
  6
CONTINUOUS
 62
4
 10
587.3607
 20
54.8000
 40
2.5000
  0
CIRCLE
  8
0_00
  6
CONTINUOUS
 62
4
 10
587.3607
 20
54.8000
 40
4.0000
  0
TEXT
  8
15_0F
 62
7
 10
549.4407
 20
46.8000
 40
5.00
 41
1.00
 50
0.0000
  1
１
  0
TEXT
  8
15_0F
 62
7
 10
568.4407
 20
46.8000
 40
5.00
 41
1.00
 50
0.0000
  1
２
  0
TEXT
  8
15_0F
 62
7
 10
469.5407
 20
49.8000
 40
5.00
 41
1.00
 50
0.0000
  1
納まり図
  0
TEXT
  8
15_0F
 62
7
 10
331.5407
 20
47.8000
 40
5.00
 41
1.00
 50
0.0000
  1
低・中・高層
  0
TEXT
  8
15_0F
 62
7
 10
386.4407
 20
47.8000
 40
5.00
 41
1.00
 50
0.0000
  1
アルミ笠木
  0
TEXT
  8
15_0F
 62
7
 10
385.5074
 20
27.8000
 40
5.00
 41
1.00
 50
0.0000
  1
ＯＡⅡ型
  0
TEXT
  8
0_00
 62
7
 10
447.9407
 20
29.8000
 40
5.00
 41
1.00
 50
0.0000
  1
笠木１９５～２７０納まり図
  0
TEXT
  8
15_0F
 62
7
 10
114.3304
 20
346.2963
 40
5.00
 41
1.00
 50
0.0000
  1
１０
  0
TEXT
  8
15_0F
 62
7
 10
206.7304
 20
346.2963
 40
5.00
 41
1.00
 50
0.0000
  1
躯体寸法（推奨寸法１６５）
  0
TEXT
  8
15_0F
 62
7
 10
336.9304
 20
346.2963
 40
5.00
 41
1.00
 50
0.0000
  1
１０
  0
TEXT
  8
0_00
 62
7
 10
227.5545
 20
554.9286
 40
5.00
 41
1.00
 50
0.0000
  1
３０
  0
TEXT
  8
0_00
 62
7
 10
258.1334
 20
548.9110
 40
5.00
 41
1.00
 50
0.0000
  1
１
  0
TEXT
  8
0_00
 62
7
 10
342.0374
 20
494.5881
 40
5.00
 41
1.00
 50
0.0000
  1
ブラケット１９５
  0
TEXT
  8
0_00
 62
7
 10
273.6542
 20
504.6637
 40
4.50
 41
0.75
 50
0.0000
  1
笠木195
  0
TEXT
  8
15_0F
 62
7
 10
209.2804
 20
338.2963
 40
5.00
 41
1.00
 50
0.0000
  1
（最大躯体寸法１７５）
  0
TEXT
  8
15_0F
 62
7
 10
306.5071
 20
346.7317
 40
5.00
 41
1.00
 50
0.0000
  1
ｎ
  0
TEXT
  8
15_0F
 62
7
 10
150.2470
 20
347.1485
 40
5.00
 41
1.00
 50
0.0000
  1
ｎ
  0
TEXT
  8
0_00
 62
7
 10
320.4692
 20
401.6448
 40
5.00
 41
1.00
 50
0.0000
  1
タッピンねじ・トラス
  0
TEXT
  8
0_00
 62
7
 10
332.4692
 20
393.6448
 40
5.00
 41
1.00
 50
0.0000
  1
φ６×５０
  0
TEXT
  8
0_00
 62
7
 10
320.4692
 20
384.6448
 40
5.00
 41
1.00
 50
0.0000
  1
ナイロンアンカー
  0
TEXT
  8
0_00
 62
7
 10
335.4692
 20
376.6448
 40
5.00
 41
1.00
 50
0.0000
  1
φ８
  0
TEXT
  8
0_00
 62
7
 10
320.4692
 20
367.6448
 40
5.00
 41
1.00
 50
0.0000
  1
下穴（φ８）現場加工
  0
TEXT
  8
0_00
 62
7
 10
322.4692
 20
359.6448
 40
5.00
 41
1.00
 50
0.0000
  1
下穴コーキング処理
  0
TEXT
  8
15_0F
 62
7
 10
495.3411
 20
346.2963
 40
5.00
 41
1.00
 50
0.0000
  1
１０
  0
TEXT
  8
15_0F
 62
7
 10
595.2410
 20
346.2963
 40
5.00
 41
1.00
 50
0.0000
  1
躯体寸法（推奨寸法１８０）
  0
TEXT
  8
15_0F
 62
7
 10
732.9410
 20
346.2963
 40
5.00
 41
1.00
 50
0.0000
  1
１０
  0
TEXT
  8
0_00
 62
7
 10
616.0652
 20
554.9286
 40
5.00
 41
1.00
 50
0.0000
  1
３０
  0
TEXT
  8
0_00
 62
7
 10
646.6440
 20
548.9110
 40
5.00
 41
1.00
 50
0.0000
  1
１
  0
TEXT
  8
0_00
 62
7
 10
738.0480
 20
494.5881
 40
5.00
 41
1.00
 50
0.0000
  1
ブラケット２１０
  0
TEXT
  8
0_00
 62
7
 10
662.1648
 20
504.6637
 40
5.00
 41
1.00
 50
0.0000
  1
笠木２１０
  0
TEXT
  8
15_0F
 62
7
 10
597.7910
 20
338.2963
 40
5.00
 41
1.00
 50
0.0000
  1
（最大躯体寸法１９０）
  0
TEXT
  8
15_0F
 62
7
 10
702.5177
 20
346.7317
 40
5.00
 41
1.00
 50
0.0000
  1
ｎ
  0
TEXT
  8
15_0F
 62
7
 10
531.2576
 20
347.1485
 40
5.00
 41
1.00
 50
0.0000
  1
ｎ
  0
TEXT
  8
0_00
 62
7
 10
656.4799
 20
401.6448
 40
5.00
 41
1.00
 50
0.0000
  1
タッピンねじ・トラス
  0
TEXT
  8
0_00
 62
7
 10
668.4799
 20
393.6448
 40
5.00
 41
1.00
 50
0.0000
  1
φ６×５０
  0
TEXT
  8
0_00
 62
7
 10
672.4799
 20
384.6448
 40
5.00
 41
1.00
 50
0.0000
  1
ナイロンアンカー
  0
TEXT
  8
0_00
 62
7
 10
687.4799
 20
376.6448
 40
5.00
 41
1.00
 50
0.0000
  1
φ８
  0
TEXT
  8
0_00
 62
7
 10
686.4799
 20
367.6448
 40
5.00
 41
1.00
 50
0.0000
  1
下穴（φ８）現場加工
  0
TEXT
  8
0_00
 62
7
 10
688.4799
 20
359.6448
 40
5.00
 41
1.00
 50
0.0000
  1
下穴コーキング処理
  0
TEXT
  8
15_0F
 62
7
 10
94.3433
 20
94.2963
 40
5.00
 41
1.00
 50
0.0000
  1
１０
  0
TEXT
  8
15_0F
 62
7
 10
204.2433
 20
94.2963
 40
5.00
 41
1.00
 50
0.0000
  1
躯体寸法（推奨寸法２１０）
  0
TEXT
  8
15_0F
 62
7
 10
361.9433
 20
94.2963
 40
5.00
 41
1.00
 50
0.0000
  1
１０
  0
TEXT
  8
0_00
 62
7
 10
230.0674
 20
302.9286
 40
5.00
 41
1.00
 50
0.0000
  1
３０
  0
TEXT
  8
0_00
 62
7
 10
260.6462
 20
296.9110
 40
5.00
 41
1.00
 50
0.0000
  1
１
  0
TEXT
  8
0_00
 62
7
 10
366.3109
 20
244.4123
 40
5.00
 41
1.00
 50
0.0000
  1
ブラケット２４０
  0
TEXT
  8
0_00
 62
7
 10
276.1671
 20
252.6637
 40
5.00
 41
1.00
 50
0.0000
  1
笠木２４０
  0
TEXT
  8
15_0F
 62
7
 10
208.7933
 20
86.2963
 40
5.00
 41
1.00
 50
0.0000
  1
（最大躯体寸法２２０）
  0
TEXT
  8
15_0F
 62
7
 10
331.5200
 20
94.7317
 40
5.00
 41
1.00
 50
0.0000
  1
ｎ
  0
TEXT
  8
15_0F
 62
7
 10
130.2599
 20
95.1485
 40
5.00
 41
1.00
 50
0.0000
  1
ｎ
  0
TEXT
  8
0_00
 62
7
 10
63.2435
 20
152.9647
 40
5.00
 41
1.00
 50
0.0000
  1
タッピンねじ・トラス
  0
TEXT
  8
0_00
 62
7
 10
75.2435
 20
144.9647
 40
5.00
 41
1.00
 50
0.0000
  1
φ６×５０
  0
TEXT
  8
0_00
 62
7
 10
72.8435
 20
135.9647
 40
5.00
 41
1.00
 50
0.0000
  1
ナイロンアンカー
  0
TEXT
  8
0_00
 62
7
 10
86.6435
 20
127.9647
 40
5.00
 41
1.00
 50
0.0000
  1
φ８
  0
TEXT
  8
0_00
 62
7
 10
63.2435
 20
118.9647
 40
5.00
 41
1.00
 50
0.0000
  1
下穴（φ８）現場加工
  0
TEXT
  8
0_00
 62
7
 10
66.0435
 20
110.9647
 40
5.00
 41
1.00
 50
0.0000
  1
下穴コーキング処理
  0
TEXT
  8
15_0F
 62
7
 10
464.7706
 20
94.2963
 40
5.00
 41
1.00
 50
0.0000
  1
１０
  0
TEXT
  8
15_0F
 62
7
 10
587.1706
 20
94.2963
 40
5.00
 41
1.00
 50
0.0000
  1
躯体寸法（推奨寸法２４０）
  0
TEXT
  8
15_0F
 62
7
 10
762.3706
 20
94.2963
 40
5.00
 41
1.00
 50
0.0000
  1
１０
  0
TEXT
  8
0_00
 62
7
 10
615.4948
 20
298.9285
 40
5.00
 41
1.00
 50
0.0000
  1
３０
  0
TEXT
  8
0_00
 62
7
 10
646.0736
 20
292.9109
 40
5.00
 41
1.00
 50
0.0000
  1
１
  0
TEXT
  8
0_00
 62
7
 10
761.4297
 20
241.1031
 40
5.00
 41
1.00
 50
0.0000
  1
ブラケット２7０
  0
TEXT
  8
0_00
 62
7
 10
661.5944
 20
252.6637
 40
5.00
 41
1.00
 50
0.0000
  1
笠木２７０
  0
TEXT
  8
15_0F
 62
7
 10
594.2206
 20
86.2963
 40
5.00
 41
1.00
 50
0.0000
  1
（最大躯体寸法２５０）
  0
TEXT
  8
15_0F
 62
7
 10
731.9473
 20
94.7317
 40
5.00
 41
1.00
 50
0.0000
  1
ｎ
  0
TEXT
  8
15_0F
 62
7
 10
500.6872
 20
95.1485
 40
5.00
 41
1.00
 50
0.0000
  1
ｎ
  0
TEXT
  8
0_00
 62
7
 10
431.9894
 20
146.9634
 40
5.00
 41
1.00
 50
0.0000
  1
タッピンねじ・トラス
  0
TEXT
  8
0_00
 62
7
 10
443.9894
 20
138.9634
 40
5.00
 41
1.00
 50
0.0000
  1
φ６×５０
  0
TEXT
  8
0_00
 62
7
 10
441.5894
 20
129.9634
 40
5.00
 41
1.00
 50
0.0000
  1
ナイロンアンカー
  0
TEXT
  8
0_00
 62
7
 10
455.3894
 20
121.9634
 40
5.00
 41
1.00
 50
0.0000
  1
φ８
  0
TEXT
  8
0_00
 62
7
 10
431.9894
 20
112.9634
 40
5.00
 41
1.00
 50
0.0000
  1
下穴（φ８）現場加工
  0
TEXT
  8
0_00
 62
7
 10
434.7894
 20
104.9634
 40
5.00
 41
1.00
 50
0.0000
  1
下穴コーキング処理
  0
TEXT
  8
0_00
 62
7
 10
338.7407
 20
27.8000
 40
5.00
 41
1.00
 50
0.0000
  1
ＲＣ造
  0
TEXT
  8
0_00
 62
2
 10
351.2304
 20
528.0963
 40
8.00
 41
1.00
 50
0.0000
  1
建物側
  0
TEXT
  8
0_00
 62
2
 10
90.4304
 20
528.0963
 40
8.00
 41
1.00
 50
0.0000
  1
屋外側
  0
TEXT
  8
0_00
 62
2
 10
739.7411
 20
528.0963
 40
8.00
 41
1.00
 50
0.0000
  1
建物側
  0
TEXT
  8
0_00
 62
2
 10
478.9410
 20
528.0963
 40
8.00
 41
1.00
 50
0.0000
  1
屋外側
  0
TEXT
  8
0_00
 62
2
 10
373.7433
 20
276.0963
 40
8.00
 41
1.00
 50
0.0000
  1
建物側
  0
TEXT
  8
0_00
 62
2
 10
72.9433
 20
276.0963
 40
8.00
 41
1.00
 50
0.0000
  1
屋外側
  0
TEXT
  8
0_00
 62
2
 10
448.3706
 20
276.0963
 40
8.00
 41
1.00
 50
0.0000
  1
屋外側
  0
TEXT
  8
0_00
 62
2
 10
769.1707
 20
276.0963
 40
8.00
 41
1.00
 50
0.0000
  1
建物側
  0
TEXT
  8
0_00
 62
7
 10
46.8603
 20
26.8000
 40
5.00
 41
1.00
 50
0.0000
  1
適用製品
  0
TEXT
  8
0_00
 62
7
 10
86.8603
 20
26.8000
 40
5.00
 41
1.00
 50
0.0000
  1
適用日付
  0
TEXT
  8
0_00
 62
7
 10
119.0603
 20
66.8000
 40
5.00
 41
1.00
 50
0.0000
  1
記事
  0
TEXT
  8
0_00
 62
7
 10
315.0407
 20
56.8000
 40
5.00
 41
1.00
 50
0.0000
  1
階層仕様
  0
TEXT
  8
0_00
 62
7
 10
315.0407
 20
36.8000
 40
5.00
 41
1.00
 50
0.0000
  1
適用躯体
  0
TEXT
  8
0_00
 62
7
 10
420.0407
 20
56.8000
 40
5.00
 41
1.00
 50
0.0000
  1
名　称
  0
TEXT
  8
0_00
 62
7
 10
420.0407
 20
36.8000
 40
5.00
 41
1.00
 50
0.0000
  1
図　名
  0
TEXT
  8
0_00
 62
7
 10
543.2912
 20
66.8305
 40
5.00
 41
1.00
 50
0.0000
  1
Ｎｏ．
  0
TEXT
  8
0_00
 62
7
 10
749.0407
 20
66.8000
 40
5.00
 41
1.00
 50
0.0000
  1
適　　　　　　　　用
  0
TEXT
  8
0_00
 62
7
 10
718.9407
 20
66.8000
 40
5.00
 41
1.00
 50
0.0000
  1
個数
  0
TEXT
  8
0_00
 62
7
 10
682.1407
 20
66.8000
 40
5.00
 41
1.00
 50
0.0000
  1
材　　質
  0
TEXT
  8
0_00
 62
7
 10
617.4407
 20
66.8000
 40
5.00
 41
1.00
 50
0.0000
  1
部　　　品　　　名
  0
TEXT
  8
0_00
 62
7
 10
597.2907
 20
66.8000
 40
5.00
 41
1.00
 50
0.0000
  1
品番
  0
TEXT
  8
0_00
 62
7
 10
567.2407
 20
66.8000
 40
5.00
 41
1.00
 50
0.0000
  1
図　　番
  0
TEXT
  8
0_00
 62
7
 10
544.4407
 20
56.8000
 40
5.00
 41
1.00
 50
0.0000
  1
尺度
  0
TEXT
  8
0_00
 62
7
 10
544.4407
 20
36.8000
 40
5.00
 41
1.00
 50
0.0000
  1
日付
  0
TEXT
  8
0_00
 62
7
 10
618.9294
 20
56.8000
 40
5.00
 41
1.00
 50
0.0000
  1
承認
  0
TEXT
  8
0_00
 62
7
 10
647.0406
 20
56.8000
 40
5.00
 41
1.00
 50
0.0000
  1
検図
  0
TEXT
  8
0_00
 62
7
 10
671.2407
 20
56.8000
 40
5.00
 41
1.00
 50
0.0000
  1
設計
  0
TEXT
  8
0_00
 62
7
 10
696.1407
 20
56.8000
 40
5.00
 41
1.00
 50
0.0000
  1
製図
  0
TEXT
  8
0_00
 62
7
 10
716.3407
 20
36.8000
 40
5.00
 41
1.00
 50
0.0000
  1
図番
  0
TEXT
  8
0_00
 62
2
 10
735.9479
 20
49.4900
 40
8.00
 41
1.00
 50
0.0000
  1
文化シヤッター株式会社
  0
TEXT
  8
0_00
 62
7
 10
133.8603
 20
575.3000
 40
5.00
 41
1.00
 50
180.0000
  1
図番
  0
TEXT
  8
0_00
 62
7
 10
532.7007
 20
569.3446
 40
4.00
 41
1.00
 50
0.0000
  1
ＮＯ
  0
TEXT
  8
0_00
 62
7
 10
550.1407
 20
569.3000
 40
5.00
 41
1.00
 50
0.0000
  1
個　数
  0
TEXT
  8
0_00
 62
7
 10
580.2407
 20
569.3000
 40
5.00
 41
1.00
 50
0.0000
  1
日　　付
  0
TEXT
  8
0_00
 62
7
 10
656.1407
 20
569.3000
 40
5.00
 41
1.00
 50
0.0000
  1
訂　　　正　　　記　　　事
  0
TEXT
  8
0_00
 62
7
 10
558.9407
 20
46.8000
 40
4.50
 41
0.75
 50
0.0000
  1
:
  0
TEXT
  8
0_00
 62
7
 10
758.5808
 20
17.8000
 40
4.00
 41
1.00
 50
0.0000
  1
ＪＩＳ　Ａ－３
  0
TEXT
  8
0_00
 62
7
 10
786.3323
 20
17.7988
 40
4.00
 41
1.00
 50
0.0000
  1
（２９７×４２０）
  0
TEXT
  8
0_00
 62
7
 10
768.7407
 20
569.3000
 40
5.00
 41
1.00
 50
0.0000
  1
担　当
  0
TEXT
  8
0_00
 62
7
 10
792.7407
 20
569.3000
 40
5.00
 41
1.00
 50
0.0000
  1
承　認
  0
TEXT
  8
0_00
 62
7
 10
367.5407
 20
56.8000
 40
5.00
 41
1.00
 50
0.0000
  1
機種名
  0
TEXT
  8
0_00
 62
7
 10
367.5407
 20
36.8000
 40
5.00
 41
1.00
 50
0.0000
  1
型　式
  0
TEXT
  8
15_0F
 62
7
 10
223.2304
 20
528.2963
 40
4.50
 41
0.75
 50
0.0000
  1
195
  0
TEXT
  8
15_0F
 62
7
 10
69.0000
 20
450.4561
 40
4.50
 41
0.75
 50
90.0000
  1
65
  0
TEXT
  8
15_0F
 62
7
 10
377.0000
 20
445.9561
 40
4.50
 41
0.75
 50
90.0000
  1
60
  0
TEXT
  8
15_0F
 62
7
 10
83.0000
 20
469.4561
 40
4.50
 41
0.75
 50
90.0000
  1
20
  0
TEXT
  8
15_0F
 62
7
 10
611.7410
 20
528.2963
 40
4.50
 41
0.75
 50
0.0000
  1
210
  0
TEXT
  8
15_0F
 62
7
 10
461.6207
 20
450.4561
 40
4.50
 41
0.75
 50
90.0000
  1
65
  0
TEXT
  8
15_0F
 62
7
 10
769.6207
 20
445.9561
 40
4.50
 41
0.75
 50
90.0000
  1
60
  0
TEXT
  8
15_0F
 62
7
 10
475.6207
 20
469.4561
 40
4.50
 41
0.75
 50
90.0000
  1
20
  0
TEXT
  8
15_0F
 62
7
 10
225.7433
 20
276.2963
 40
4.50
 41
0.75
 50
0.0000
  1
240
  0
TEXT
  8
15_0F
 62
7
 10
69.0000
 20
198.9561
 40
4.50
 41
0.75
 50
90.0000
  1
65
  0
TEXT
  8
15_0F
 62
7
 10
391.0000
 20
193.4561
 40
4.50
 41
0.75
 50
90.0000
  1
60
  0
TEXT
  8
15_0F
 62
7
 10
83.0000
 20
217.4561
 40
4.50
 41
0.75
 50
90.0000
  1
20
  0
TEXT
  8
15_0F
 62
7
 10
225.7433
 20
108.2963
 40
4.50
 41
0.75
 50
0.0000
  1
138
  0
TEXT
  8
15_0F
 62
7
 10
611.1706
 20
276.2963
 40
4.50
 41
0.75
 50
0.0000
  1
270
  0
TEXT
  8
15_0F
 62
7
 10
447.0000
 20
199.4561
 40
4.50
 41
0.75
 50
90.0000
  1
65
  0
TEXT
  8
15_0F
 62
7
 10
783.0000
 20
192.9561
 40
4.50
 41
0.75
 50
90.0000
  1
60
  0
TEXT
  8
15_0F
 62
7
 10
461.0000
 20
217.4561
 40
4.50
 41
0.75
 50
90.0000
  1
20
  0
TEXT
  8
15_0F
 62
7
 10
611.1706
 20
108.2963
 40
4.50
 41
0.75
 50
0.0000
  1
138
  0
POINT
  8
15_0F
 62
6
 10
142.9304
 20
345.2963
  0
POINT
  8
15_0F
 62
6
 10
317.9304
 20
345.2963
  0
POINT
  8
14_0E
 62
5
 10
230.4304
 20
464.2561
  0
POINT
  8
14_0E
 62
5
 10
230.4304
 20
464.2561
  0
POINT
  8
6_06
 62
5
 10
230.4304
 20
464.2561
  0
POINT
  8
0_00
 62
5
 10
230.4304
 20
464.2561
  0
POINT
  8
0_00
 62
5
 10
230.4304
 20
464.2561
  0
POINT
  8
15_0F
 62
6
 10
523.9410
 20
345.2963
  0
POINT
  8
15_0F
 62
6
 10
713.9410
 20
345.2963
  0
POINT
  8
0_00
 62
5
 10
618.9410
 20
467.7561
  0
POINT
  8
14_0E
 62
5
 10
618.9410
 20
464.2561
  0
POINT
  8
14_0E
 62
5
 10
618.9410
 20
464.2561
  0
POINT
  8
6_06
 62
5
 10
618.9410
 20
464.2561
  0
POINT
  8
0_00
 62
5
 10
618.9410
 20
464.2561
  0
POINT
  8
0_00
 62
5
 10
618.9410
 20
464.2561
  0
POINT
  8
0_00
 62
5
 10
719.8482
 20
370.8395
  0
POINT
  8
15_0F
 62
6
 10
122.9433
 20
93.2963
  0
POINT
  8
15_0F
 62
6
 10
342.9433
 20
93.2963
  0
POINT
  8
0_00
 62
2
 10
352.9433
 20
228.2561
  0
POINT
  8
15_0F
 62
6
 10
493.3706
 20
93.2963
  0
POINT
  8
15_0F
 62
6
 10
743.3706
 20
93.2963
  0
POINT
  8
0_00
 62
5
 10
618.3706
 20
212.2561
  0
POINT
  8
0_00
 62
2
 10
483.3706
 20
236.7561
  0
POINT
  8
0_00
 62
2
 10
16.0603
 20
9.9994
  0
POINT
  8
0_00
 62
2
 10
16.0603
 20
9.9994
  0
POINT
  8
0_00
 62
2
 10
56.4603
 20
39.8000
  0
POINT
  8
0_00
 62
2
 10
56.4603
 20
49.8000
  0
POINT
  8
0_00
 62
2
 10
56.4603
 20
59.8000
  0
POINT
  8
0_00
 62
2
 10
56.4603
 20
69.8000
  0
POINT
  8
0_00
 62
2
 10
345.9407
 20
50.8000
  0
POINT
  8
0_00
 62
2
 10
345.9407
 20
30.8000
  0
POINT
  8
0_00
 62
2
 10
479.1407
 20
52.8000
  0
POINT
  8
0_00
 62
2
 10
479.1407
 20
32.8000
  0
POINT
  8
0_00
 62
2
 10
731.8407
 20
34.8000
  0
POINT
  8
0_00
 62
2
 10
676.0406
 20
39.8000
  0
POINT
  8
0_00
 62
2
 10
96.4603
 20
39.8000
  0
POINT
  8
0_00
 62
2
 10
96.4603
 20
49.8000
  0
POINT
  8
0_00
 62
2
 10
96.4603
 20
59.8000
  0
POINT
  8
0_00
 62
2
 10
96.4603
 20
69.8000
  0
POINT
  8
0_00
 62
2
 10
570.8407
 20
49.8000
  0
POINT
  8
0_00
 62
2
 10
551.8407
 20
49.8000
  0
POINT
  8
0_00
 62
2
 10
136.4603
 20
69.8000
  0
POINT
  8
0_00
 62
2
 10
136.4603
 20
59.8000
  0
POINT
  8
0_00
 62
2
 10
136.4603
 20
49.8000
  0
POINT
  8
0_00
 62
2
 10
136.4603
 20
39.8000
  0
POINT
  8
0_00
 62
2
 10
136.4603
 20
29.8001
  0
POINT
  8
0_00
 62
2
 10
700.9407
 20
39.8000
  0
POINT
  8
0_00
 62
2
 10
56.4603
 20
29.8001
  0
POINT
  8
0_00
 62
2
 10
96.4603
 20
29.8001
  0
POINT
  8
0_00
 62
2
 10
116.4603
 20
572.3000
  0
POINT
  8
0_00
 62
2
 10
575.0907
 20
32.8000
  0
POINT
  8
0_00
 62
2
 10
398.4407
 20
50.8000
  0
POINT
  8
0_00
 62
2
 10
398.4407
 20
30.8000
  0
ENDSEC
  0
EOF
