999
  
  0
SECTION
  2
HEADER
  9
$EXTMIN
 10
0
 20
0
  9
$EXTMAX
 10
840
 20
592
  9
$LTSCALE
 40
2.00
  9
$PDMODE
 70
33
  9
$PDSIZE
 40
1.20
  0
ENDSEC
  0
SECTION
  2
TABLES
  0
TABLE
  2
LTYPE
 70
9
  0
LTYPE
  2
CONTINUOUS
 70
64
  3
実線
 72
65
 73
0
 40
0.00
  0
LTYPE
  2
DASHED
 70
64
  3
__  __  __  __  __  __  __ 
 72
65
 73
2
 40
1.00
 49
0.50
 49
-0.50
  0
LTYPE
  2
HIDDEN1
 70
64
  3
____    ____    ____    ___
 72
65
 73
2
 40
2.20
 49
1.20
 49
-1.00
  0
LTYPE
  2
HIDDEN2
 70
64
  3
______  ______  ______  ___
 72
65
 73
2
 40
4.50
 49
3.50
 49
-1.00
  0
LTYPE
  2
CENTER1
 70
64
  3
_______ _ _______ _ _______
 72
65
 73
4
 40
20.00
 49
17.00
 49
-1.00
 49
1.00
 49
-1.00
  0
LTYPE
  2
CENTER2
 70
64
  3
___________  __  __________
 72
65
 73
4
 40
40.00
 49
34.00
 49
-2.00
 49
2.00
 49
-2.00
  0
LTYPE
  2
PHANTOM1
 70
64
  3
______ _ _ ______ _ _ _____
 72
65
 73
6
 40
20.00
 49
15.00
 49
-1.00
 49
1.00
 49
-1.00
 49
1.00
 49
-1.00
  0
LTYPE
  2
PHANTOM2
 70
64
  3
__________  _  _  _________
 72
65
 73
6
 40
40.00
 49
30.00
 49
-2.00
 49
2.00
 49
-2.00
 49
2.00
 49
-2.00
  0
LTYPE
  2
DOT
 70
64
  3
 .  .  .  .  .  .  .  .  . 
 72
65
 73
2
 40
1.00
 49
0.00
 49
-1.00
  0
ENDTAB
  0
TABLE
  2
STYLE
 70
1
  0
STYLE
  2
STANDARD
 70
64
 40
0.0
 41
1.0
 42
0.0
 50
0.0
 71
0
  3
ROMANS
  4
BIGFONT
  0
ENDTAB
  0
TABLE
  2
LAYER
 70
5
  0
LAYER
  2
0_00
 70
64
 62
7
  6
CONTINUOUS
  0
LAYER
  2
11_0B
 70
64
 62
7
  6
CONTINUOUS
  0
LAYER
  2
12_0C
 70
64
 62
7
  6
CONTINUOUS
  0
LAYER
  2
15_0F
 70
64
 62
7
  6
CONTINUOUS
  0
LAYER
  2
158_9E
 70
64
 62
7
  6
CONTINUOUS
  0
ENDTAB
  0
ENDSEC
  0
SECTION
  2
ENTITIES
  0
LINE
  8
0_00
  6
CONTINUOUS
 62
7
 10
36.4603
 20
321.3000
 11
812.3407
 21
321.3000
  0
LINE
  8
0_00
  6
CENTER1
 62
6
 10
424.4005
 20
380.6980
 11
424.4005
 21
490.8939
  0
LINE
  8
0_00
  6
CONTINUOUS
 62
4
 10
289.4005
 20
464.2561
 11
559.4005
 21
464.2561
  0
LINE
  8
0_00
  6
CONTINUOUS
 62
4
 10
277.5005
 20
489.1528
 11
571.5005
 21
479.3528
  0
LINE
  8
0_00
  6
CONTINUOUS
 62
4
 10
274.4005
 20
486.1545
 11
274.4005
 21
427.4175
  0
LINE
  8
0_00
  6
CONTINUOUS
 62
4
 10
574.4005
 20
422.4174
 11
574.4005
 21
476.3544
  0
LINE
  8
0_00
  6
CONTINUOUS
 62
4
 10
277.5575
 20
424.4215
 11
280.8581
 21
424.5945
  0
LINE
  8
0_00
  6
CONTINUOUS
 62
4
 10
571.2435
 20
419.4216
 11
567.9429
 21
419.5945
  0
LINE
  8
0_00
  6
CONTINUOUS
 62
4
 10
280.7430
 20
426.7915
 11
277.1267
 21
426.6020
  0
LINE
  8
0_00
  6
CONTINUOUS
 62
4
 10
276.6005
 20
427.1013
 11
276.6005
 21
486.4646
  0
LINE
  8
0_00
  6
CONTINUOUS
 62
4
 10
277.1172
 20
486.9643
 11
571.7172
 21
477.1443
  0
LINE
  8
0_00
  6
CONTINUOUS
 62
4
 10
572.2005
 20
476.6446
 11
572.2005
 21
422.1013
  0
LINE
  8
0_00
  6
CONTINUOUS
 62
4
 10
571.6743
 20
421.6020
 11
568.0581
 21
421.7915
  0
LINE
  8
0_00
  6
CONTINUOUS
 62
4
 10
284.3379
 20
464.2561
 11
564.4562
 21
464.2561
  0
LINE
  8
0_00
  6
CONTINUOUS
 62
4
 10
289.6005
 20
484.2676
 11
289.6005
 21
482.5766
  0
LINE
  8
0_00
  6
CONTINUOUS
 62
4
 10
297.1005
 20
484.0376
 11
297.1005
 21
482.6435
  0
LINE
  8
0_00
  6
CONTINUOUS
 62
4
 10
289.6005
 20
482.5766
 11
287.4587
 21
482.6480
  0
LINE
  8
0_00
  6
CONTINUOUS
 62
4
 10
296.5839
 20
482.1438
 11
292.3172
 21
482.2860
  0
LINE
  8
0_00
  6
CONTINUOUS
 62
4
 10
291.8005
 20
481.7863
 11
291.8005
 21
480.3021
  0
LINE
  8
0_00
  6
CONTINUOUS
 62
4
 10
291.8005
 20
480.3021
 11
288.3204
 21
480.4181
  0
LINE
  8
0_00
  6
CONTINUOUS
 62
4
 10
290.1005
 20
484.5611
 11
290.1005
 21
484.3610
  0
LINE
  8
0_00
  6
CONTINUOUS
 62
4
 10
296.6005
 20
484.3445
 11
296.6005
 21
484.1444
  0
LINE
  8
0_00
  6
CONTINUOUS
 62
4
 10
290.1005
 20
484.3610
 11
296.6005
 21
484.1444
  0
LINE
  8
0_00
  6
CONTINUOUS
 62
4
 10
289.9105
 20
484.5674
 11
290.1005
 21
484.5611
  0
LINE
  8
0_00
  6
CONTINUOUS
 62
4
 10
296.6005
 20
484.3445
 11
296.8105
 21
484.3375
  0
LINE
  8
0_00
  6
CONTINUOUS
 62
4
 10
278.8099
 20
427.2379
 11
283.8423
 21
463.8226
  0
LINE
  8
0_00
  6
CONTINUOUS
 62
4
 10
284.5017
 20
467.5561
 11
310.1005
 21
467.5561
  0
LINE
  8
0_00
  6
CONTINUOUS
 62
4
 10
310.1005
 20
467.7561
 11
310.1005
 21
467.5561
  0
LINE
  8
0_00
  6
CONTINUOUS
 62
4
 10
372.1034
 20
480.2561
 11
372.1034
 21
467.7561
  0
LINE
  8
0_00
  6
CONTINUOUS
 62
4
 10
370.1034
 20
480.2561
 11
370.1034
 21
468.2561
  0
LINE
  8
0_00
  6
CONTINUOUS
 62
4
 10
478.7034
 20
476.7561
 11
478.7034
 21
468.2561
  0
LINE
  8
0_00
  6
CONTINUOUS
 62
4
 10
476.7034
 20
476.7561
 11
476.7034
 21
467.7561
  0
LINE
  8
0_00
  6
CONTINUOUS
 62
4
 10
310.1005
 20
467.7561
 11
369.6034
 21
467.7561
  0
LINE
  8
0_00
  6
CONTINUOUS
 62
4
 10
479.2034
 20
467.7561
 11
538.7005
 21
467.7561
  0
LINE
  8
0_00
  6
CONTINUOUS
 62
4
 10
564.9528
 20
463.8148
 11
569.9971
 21
422.2458
  0
LINE
  8
0_00
  6
CONTINUOUS
 62
4
 10
551.7005
 20
475.5309
 11
551.7005
 21
474.1235
  0
LINE
  8
0_00
  6
CONTINUOUS
 62
4
 10
563.4177
 20
467.5561
 11
538.7005
 21
467.5561
  0
LINE
  8
0_00
  6
CONTINUOUS
 62
4
 10
538.7005
 20
467.7561
 11
538.7005
 21
467.5561
  0
LINE
  8
0_00
  6
CONTINUOUS
 62
4
 10
552.2005
 20
475.8245
 11
552.2005
 21
475.6243
  0
LINE
  8
0_00
  6
CONTINUOUS
 62
4
 10
558.7005
 20
475.6078
 11
558.7005
 21
475.4077
  0
LINE
  8
0_00
  6
CONTINUOUS
 62
4
 10
424.4005
 20
467.4561
 11
424.1005
 21
467.7561
  0
LINE
  8
0_00
  6
CONTINUOUS
 62
4
 10
424.4005
 20
467.4561
 11
424.7005
 21
467.7561
  0
LINE
  8
0_00
  6
CONTINUOUS
 62
4
 10
451.7034
 20
467.4561
 11
451.4033
 21
467.7561
  0
LINE
  8
0_00
  6
CONTINUOUS
 62
4
 10
451.7034
 20
467.4561
 11
452.0034
 21
467.7561
  0
LINE
  8
0_00
  6
CONTINUOUS
 62
4
 10
456.7034
 20
467.4561
 11
456.4034
 21
467.7561
  0
LINE
  8
0_00
  6
CONTINUOUS
 62
4
 10
456.7034
 20
467.4561
 11
457.0033
 21
467.7561
  0
LINE
  8
0_00
  6
CONTINUOUS
 62
4
 10
461.7034
 20
467.4561
 11
461.4034
 21
467.7561
  0
LINE
  8
0_00
  6
CONTINUOUS
 62
4
 10
461.7034
 20
467.4561
 11
462.0034
 21
467.7561
  0
LINE
  8
0_00
  6
CONTINUOUS
 62
4
 10
466.7034
 20
467.4561
 11
466.4033
 21
467.7561
  0
LINE
  8
0_00
  6
CONTINUOUS
 62
4
 10
466.7034
 20
467.4561
 11
467.0034
 21
467.7561
  0
LINE
  8
0_00
  6
CONTINUOUS
 62
4
 10
467.0034
 20
467.7561
 11
476.7034
 21
467.7561
  0
LINE
  8
0_00
  6
CONTINUOUS
 62
4
 10
462.0034
 20
467.7561
 11
466.4033
 21
467.7561
  0
LINE
  8
0_00
  6
CONTINUOUS
 62
4
 10
457.0033
 20
467.7561
 11
461.4034
 21
467.7561
  0
LINE
  8
0_00
  6
CONTINUOUS
 62
4
 10
452.0034
 20
467.7561
 11
456.4034
 21
467.7561
  0
LINE
  8
0_00
  6
CONTINUOUS
 62
4
 10
372.1034
 20
467.7561
 11
424.4005
 21
467.7561
  0
LINE
  8
0_00
  6
CONTINUOUS
 62
4
 10
424.7005
 20
467.7561
 11
451.4033
 21
467.7561
  0
LINE
  8
0_00
  6
CONTINUOUS
 62
4
 10
561.6807
 20
475.5085
 11
558.7005
 21
475.6078
  0
LINE
  8
0_00
  6
CONTINUOUS
 62
4
 10
552.2005
 20
475.8245
 11
552.0105
 21
475.8308
  0
LINE
  8
0_00
  6
CONTINUOUS
 62
4
 10
558.7005
 20
475.4077
 11
552.2005
 21
475.6243
  0
LINE
  8
0_00
  6
CONTINUOUS
 62
4
 10
552.1838
 20
473.6238
 11
560.8754
 21
473.3341
  0
LINE
  8
0_00
  6
CONTINUOUS
 62
4
 10
280.6005
 20
464.2561
 11
285.4699
 21
481.2015
  0
LINE
  8
0_00
  6
CONTINUOUS
 62
4
 10
280.6005
 20
464.2561
 11
276.7532
 21
427.3580
  0
LINE
  8
0_00
  6
CONTINUOUS
 62
4
 10
277.2505
 20
426.8061
 11
278.3146
 21
426.8061
  0
LINE
  8
0_00
  6
CONTINUOUS
 62
4
 10
568.2005
 20
464.2561
 11
572.0485
 21
422.3518
  0
LINE
  8
0_00
  6
CONTINUOUS
 62
4
 10
571.5505
 20
421.8061
 11
570.4935
 21
421.8061
  0
LINE
  8
0_00
  6
CONTINUOUS
 62
4
 10
284.0212
 20
468.1942
 11
287.3260
 21
479.6949
  0
LINE
  8
0_00
  6
CONTINUOUS
 62
4
 10
563.4221
 20
474.3643
 11
568.2005
 21
464.2561
  0
LINE
  8
0_00
  6
CONTINUOUS
 62
4
 10
561.7462
 20
472.7620
 11
563.8698
 21
468.2698
  0
LINE
  8
0_00
  6
CONTINUOUS
 62
2
 10
296.1005
 20
484.1610
 11
296.1005
 21
486.3315
  0
LINE
  8
0_00
  6
CONTINUOUS
 62
2
 10
290.6005
 20
484.3444
 11
290.6005
 21
486.5149
  0
LINE
  8
0_00
  6
CONTINUOUS
 62
2
 10
552.7005
 20
475.6076
 11
552.7005
 21
477.7782
  0
LINE
  8
0_00
  6
CONTINUOUS
 62
2
 10
558.2005
 20
475.4243
 11
558.2005
 21
477.5949
  0
LINE
  8
0_00
  6
CENTER1
 62
6
 10
355.4005
 20
477.4595
 11
355.4005
 21
412.3821
  0
LINE
  8
0_00
  6
CENTER1
 62
6
 10
493.4005
 20
477.2537
 11
493.4005
 21
412.3821
  0
LINE
  8
11_0B
  6
DASHED
 62
2
 10
360.4681
 20
444.2065
 11
363.2574
 21
450.1880
  0
LINE
  8
12_0C
  6
DASHED
 62
2
 10
352.9420
 20
422.9522
 11
352.9420
 21
422.0143
  0
LINE
  8
12_0C
  6
DASHED
 62
2
 10
355.4005
 20
417.7561
 11
352.4005
 21
422.9522
  0
LINE
  8
12_0C
  6
DASHED
 62
2
 10
355.4005
 20
417.7561
 11
358.4005
 21
422.9522
  0
LINE
  8
11_0B
  6
DASHED
 62
2
 10
350.7687
 20
449.1874
 11
350.5903
 21
447.1479
  0
LINE
  8
11_0B
  6
DASHED
 62
2
 10
350.3329
 20
444.2065
 11
350.1545
 21
442.1670
  0
LINE
  8
11_0B
  6
DASHED
 62
2
 10
349.8972
 20
439.2255
 11
349.7188
 21
437.1860
  0
LINE
  8
11_0B
  6
DASHED
 62
2
 10
349.4614
 20
434.2445
 11
349.2830
 21
432.2051
  0
LINE
  8
11_0B
  6
DASHED
 62
2
 10
349.0256
 20
429.2635
 11
348.8653
 21
427.4312
  0
LINE
  8
11_0B
  6
DASHED
 62
2
 10
360.0323
 20
449.1874
 11
360.2108
 21
447.1479
  0
LINE
  8
11_0B
  6
DASHED
 62
2
 10
360.4681
 20
444.2065
 11
360.6465
 21
442.1670
  0
LINE
  8
11_0B
  6
DASHED
 62
2
 10
360.9039
 20
439.2255
 11
361.0823
 21
437.1860
  0
LINE
  8
11_0B
  6
DASHED
 62
2
 10
361.3397
 20
434.2445
 11
361.5181
 21
432.2051
  0
LINE
  8
11_0B
  6
DASHED
 62
2
 10
361.7755
 20
429.2635
 11
361.9357
 21
427.4312
  0
LINE
  8
11_0B
  6
DASHED
 62
2
 10
354.9005
 20
456.2561
 11
355.9005
 21
456.2561
  0
LINE
  8
11_0B
  6
DASHED
 62
2
 10
355.9005
 20
456.2561
 11
358.6895
 21
424.3779
  0
LINE
  8
11_0B
  6
DASHED
 62
2
 10
352.1115
 20
424.3779
 11
354.9005
 21
456.2561
  0
LINE
  8
11_0B
  6
DASHED
 62
2
 10
350.1191
 20
424.5522
 11
352.1115
 21
424.3779
  0
LINE
  8
11_0B
  6
DASHED
 62
2
 10
358.6895
 20
424.3779
 11
360.6819
 21
424.5522
  0
LINE
  8
11_0B
  6
DASHED
 62
2
 10
360.6819
 20
424.5522
 11
361.8818
 21
427.1254
  0
LINE
  8
11_0B
  6
DASHED
 62
2
 10
350.1191
 20
424.5522
 11
348.9193
 21
427.1254
  0
LINE
  8
11_0B
  6
DASHED
 62
2
 10
348.8513
 20
427.2711
 11
352.3380
 21
426.9661
  0
LINE
  8
11_0B
  6
DASHED
 62
2
 10
358.4631
 20
426.9661
 11
361.9497
 21
427.2711
  0
LINE
  8
11_0B
  6
DASHED
 62
2
 10
349.0256
 20
429.2635
 11
351.2172
 21
429.0718
  0
LINE
  8
11_0B
  6
DASHED
 62
2
 10
359.5838
 20
429.0718
 11
361.7755
 21
429.2635
  0
LINE
  8
11_0B
  6
DASHED
 62
2
 10
349.4614
 20
434.2445
 11
351.6530
 21
434.0527
  0
LINE
  8
11_0B
  6
DASHED
 62
2
 10
359.1480
 20
434.0527
 11
361.3397
 21
434.2445
  0
LINE
  8
11_0B
  6
DASHED
 62
2
 10
349.8972
 20
439.2255
 11
352.0888
 21
439.0337
  0
LINE
  8
11_0B
  6
DASHED
 62
2
 10
358.7122
 20
439.0337
 11
360.9039
 21
439.2255
  0
LINE
  8
11_0B
  6
DASHED
 62
2
 10
350.3329
 20
444.2065
 11
352.5246
 21
444.0147
  0
LINE
  8
11_0B
  6
DASHED
 62
2
 10
358.2765
 20
444.0147
 11
360.4681
 21
444.2065
  0
LINE
  8
11_0B
  6
DASHED
 62
2
 10
350.7687
 20
449.1874
 11
352.3626
 21
449.0480
  0
LINE
  8
11_0B
  6
DASHED
 62
2
 10
358.4384
 20
449.0480
 11
360.0323
 21
449.1874
  0
LINE
  8
11_0B
  6
DASHED
 62
2
 10
352.3265
 20
446.3405
 11
352.1261
 21
444.0496
  0
LINE
  8
11_0B
  6
DASHED
 62
2
 10
351.8907
 20
441.3596
 11
351.6903
 21
439.0685
  0
LINE
  8
11_0B
  6
DASHED
 62
2
 10
351.4550
 20
436.3786
 11
351.2545
 21
434.0876
  0
LINE
  8
11_0B
  6
DASHED
 62
2
 10
351.0192
 20
431.3977
 11
350.8188
 21
429.1066
  0
LINE
  8
11_0B
  6
DASHED
 62
2
 10
359.9823
 20
429.1066
 11
359.7819
 21
431.3977
  0
LINE
  8
11_0B
  6
DASHED
 62
2
 10
359.5465
 20
434.0876
 11
359.3461
 21
436.3786
  0
LINE
  8
11_0B
  6
DASHED
 62
2
 10
359.1107
 20
439.0685
 11
358.9103
 21
441.3596
  0
LINE
  8
11_0B
  6
DASHED
 62
2
 10
358.6750
 20
444.0496
 11
358.4745
 21
446.3405
  0
LINE
  8
11_0B
  6
DASHED
 62
2
 10
359.5175
 20
431.3268
 11
361.2231
 21
431.7838
  0
LINE
  8
11_0B
  6
DASHED
 62
2
 10
351.4456
 20
431.2834
 11
349.5779
 21
431.7838
  0
LINE
  8
11_0B
  6
DASHED
 62
2
 10
359.0818
 20
436.3078
 11
360.7874
 21
436.7648
  0
LINE
  8
11_0B
  6
DASHED
 62
2
 10
351.7193
 20
436.3078
 11
350.0137
 21
436.7648
  0
LINE
  8
11_0B
  6
DASHED
 62
2
 10
358.6460
 20
441.2888
 11
360.3516
 21
441.7458
  0
LINE
  8
11_0B
  6
DASHED
 62
2
 10
352.1550
 20
441.2888
 11
350.4495
 21
441.7458
  0
LINE
  8
11_0B
  6
DASHED
 62
2
 10
358.2102
 20
446.2697
 11
359.9158
 21
446.7268
  0
LINE
  8
11_0B
  6
DASHED
 62
2
 10
352.5908
 20
446.2697
 11
350.8853
 21
446.7268
  0
LINE
  8
11_0B
  6
DASHED
 62
2
 10
352.1634
 20
449.0654
 11
352.4325
 21
452.1411
  0
LINE
  8
11_0B
  6
DASHED
 62
2
 10
358.6376
 20
449.0654
 11
358.3686
 21
452.1411
  0
LINE
  8
11_0B
  6
DASHED
 62
2
 10
352.8858
 20
445.8485
 11
352.7412
 21
444.1965
  0
LINE
  8
11_0B
  6
DASHED
 62
2
 10
352.4500
 20
440.8675
 11
352.3055
 21
439.2155
  0
LINE
  8
11_0B
  6
DASHED
 62
2
 10
352.0142
 20
435.8866
 11
351.8697
 21
434.2346
  0
LINE
  8
11_0B
  6
DASHED
 62
2
 10
351.5930
 20
431.0727
 11
351.4339
 21
429.2535
  0
LINE
  8
11_0B
  6
DASHED
 62
2
 10
359.3671
 20
429.2535
 11
359.2226
 21
430.9055
  0
LINE
  8
11_0B
  6
DASHED
 62
2
 10
358.9314
 20
434.2346
 11
358.7868
 21
435.8866
  0
LINE
  8
11_0B
  6
DASHED
 62
2
 10
358.4956
 20
439.2155
 11
358.3510
 21
440.8675
  0
LINE
  8
11_0B
  6
DASHED
 62
2
 10
358.0598
 20
444.1965
 11
357.9153
 21
445.8485
  0
LINE
  8
11_0B
  6
DASHED
 62
2
 10
352.4669
 20
452.1351
 11
351.4005
 21
452.3231
  0
LINE
  8
11_0B
  6
DASHED
 62
2
 10
358.3341
 20
452.1351
 11
359.4005
 21
452.3231
  0
LINE
  8
11_0B
  6
DASHED
 62
2
 10
362.3511
 20
450.6107
 11
359.3178
 21
444.1058
  0
LINE
  8
11_0B
  6
DASHED
 62
2
 10
350.3329
 20
444.2065
 11
347.5436
 21
450.1880
  0
LINE
  8
11_0B
  6
DASHED
 62
2
 10
348.4500
 20
450.6107
 11
351.4832
 21
444.1058
  0
LINE
  8
11_0B
  6
DASHED
 62
2
 10
363.0639
 20
450.7197
 11
362.8826
 21
450.8041
  0
LINE
  8
11_0B
  6
DASHED
 62
2
 10
347.7371
 20
450.7197
 11
347.9184
 21
450.8041
  0
LINE
  8
11_0B
  6
DASHED
 62
2
 10
352.7960
 20
451.7063
 11
352.5793
 21
449.2298
  0
LINE
  8
11_0B
  6
DASHED
 62
2
 10
358.0051
 20
451.7063
 11
358.4745
 21
446.3405
  0
LINE
  8
12_0C
  6
CONTINUOUS
 62
2
 10
362.4005
 20
467.7561
 11
362.4005
 21
468.1708
  0
LINE
  8
12_0C
  6
CONTINUOUS
 62
2
 10
362.4005
 20
468.1708
 11
355.4005
 21
468.1708
  0
LINE
  8
12_0C
  6
CONTINUOUS
 62
2
 10
348.4005
 20
467.7561
 11
348.4005
 21
468.1708
  0
LINE
  8
12_0C
  6
CONTINUOUS
 62
2
 10
348.4005
 20
468.1708
 11
355.4005
 21
468.1708
  0
LINE
  8
11_0B
  6
DASHED
 62
2
 10
351.4005
 20
464.2561
 11
351.4005
 21
452.3231
  0
LINE
  8
11_0B
  6
DASHED
 62
2
 10
359.4005
 20
464.2561
 11
359.4005
 21
452.3231
  0
LINE
  8
11_0B
  6
DASHED
 62
2
 10
351.4005
 20
464.2561
 11
359.4005
 21
464.2561
  0
LINE
  8
12_0C
  6
DASHED
 62
2
 10
357.8590
 20
467.7561
 11
357.8590
 21
422.0143
  0
LINE
  8
12_0C
  6
DASHED
 62
2
 10
358.4005
 20
467.7561
 11
358.4005
 21
422.9522
  0
LINE
  8
12_0C
  6
DASHED
 62
2
 10
352.4005
 20
467.7561
 11
352.4005
 21
422.9522
  0
LINE
  8
12_0C
  6
DASHED
 62
2
 10
352.9420
 20
467.7561
 11
352.9420
 21
422.9522
  0
LINE
  8
11_0B
  6
DASHED
 62
2
 10
498.4681
 20
444.2065
 11
501.2574
 21
450.1880
  0
LINE
  8
12_0C
  6
DASHED
 62
2
 10
490.9420
 20
422.9522
 11
490.9420
 21
422.0143
  0
LINE
  8
12_0C
  6
DASHED
 62
2
 10
493.4005
 20
417.7561
 11
490.4005
 21
422.9522
  0
LINE
  8
12_0C
  6
DASHED
 62
2
 10
493.4005
 20
417.7561
 11
496.4005
 21
422.9522
  0
LINE
  8
11_0B
  6
DASHED
 62
2
 10
488.7687
 20
449.1874
 11
488.5903
 21
447.1479
  0
LINE
  8
11_0B
  6
DASHED
 62
2
 10
488.3329
 20
444.2065
 11
488.1545
 21
442.1670
  0
LINE
  8
11_0B
  6
DASHED
 62
2
 10
487.8971
 20
439.2255
 11
487.7187
 21
437.1860
  0
LINE
  8
11_0B
  6
DASHED
 62
2
 10
487.4613
 20
434.2445
 11
487.2829
 21
432.2051
  0
LINE
  8
11_0B
  6
DASHED
 62
2
 10
487.0256
 20
429.2635
 11
486.8653
 21
427.4312
  0
LINE
  8
11_0B
  6
DASHED
 62
2
 10
498.0323
 20
449.1874
 11
498.2108
 21
447.1479
  0
LINE
  8
11_0B
  6
DASHED
 62
2
 10
498.4681
 20
444.2065
 11
498.6465
 21
442.1670
  0
LINE
  8
11_0B
  6
DASHED
 62
2
 10
498.9038
 20
439.2255
 11
499.0823
 21
437.1860
  0
LINE
  8
11_0B
  6
DASHED
 62
2
 10
499.3396
 20
434.2445
 11
499.5180
 21
432.2051
  0
LINE
  8
11_0B
  6
DASHED
 62
2
 10
499.7754
 20
429.2635
 11
499.9357
 21
427.4312
  0
LINE
  8
11_0B
  6
DASHED
 62
2
 10
492.9005
 20
456.2561
 11
493.9005
 21
456.2561
  0
LINE
  8
11_0B
  6
DASHED
 62
2
 10
493.9005
 20
456.2561
 11
496.6895
 21
424.3779
  0
LINE
  8
11_0B
  6
DASHED
 62
2
 10
490.1115
 20
424.3779
 11
492.9005
 21
456.2561
  0
LINE
  8
11_0B
  6
DASHED
 62
2
 10
488.1191
 20
424.5522
 11
490.1115
 21
424.3779
  0
LINE
  8
11_0B
  6
DASHED
 62
2
 10
496.6895
 20
424.3779
 11
498.6819
 21
424.5522
  0
LINE
  8
11_0B
  6
DASHED
 62
2
 10
498.6819
 20
424.5522
 11
499.8818
 21
427.1254
  0
LINE
  8
11_0B
  6
DASHED
 62
2
 10
488.1191
 20
424.5522
 11
486.9193
 21
427.1254
  0
LINE
  8
11_0B
  6
DASHED
 62
2
 10
486.8513
 20
427.2711
 11
490.3380
 21
426.9661
  0
LINE
  8
11_0B
  6
DASHED
 62
2
 10
496.4630
 20
426.9661
 11
499.9497
 21
427.2711
  0
LINE
  8
11_0B
  6
DASHED
 62
2
 10
487.0256
 20
429.2635
 11
489.2172
 21
429.0718
  0
LINE
  8
11_0B
  6
DASHED
 62
2
 10
497.5838
 20
429.0718
 11
499.7754
 21
429.2635
  0
LINE
  8
11_0B
  6
DASHED
 62
2
 10
487.4613
 20
434.2445
 11
489.6530
 21
434.0527
  0
LINE
  8
11_0B
  6
DASHED
 62
2
 10
497.1480
 20
434.0527
 11
499.3396
 21
434.2445
  0
LINE
  8
11_0B
  6
DASHED
 62
2
 10
487.8971
 20
439.2255
 11
490.0888
 21
439.0337
  0
LINE
  8
11_0B
  6
DASHED
 62
2
 10
496.7122
 20
439.0337
 11
498.9038
 21
439.2255
  0
LINE
  8
11_0B
  6
DASHED
 62
2
 10
488.3329
 20
444.2065
 11
490.5246
 21
444.0147
  0
LINE
  8
11_0B
  6
DASHED
 62
2
 10
496.2765
 20
444.0147
 11
498.4681
 21
444.2065
  0
LINE
  8
11_0B
  6
DASHED
 62
2
 10
488.7687
 20
449.1874
 11
490.3626
 21
449.0480
  0
LINE
  8
11_0B
  6
DASHED
 62
2
 10
496.4384
 20
449.0480
 11
498.0323
 21
449.1874
  0
LINE
  8
11_0B
  6
DASHED
 62
2
 10
490.3265
 20
446.3405
 11
490.1261
 21
444.0496
  0
LINE
  8
11_0B
  6
DASHED
 62
2
 10
489.8907
 20
441.3596
 11
489.6903
 21
439.0685
  0
LINE
  8
11_0B
  6
DASHED
 62
2
 10
489.4550
 20
436.3786
 11
489.2545
 21
434.0876
  0
LINE
  8
11_0B
  6
DASHED
 62
2
 10
489.0192
 20
431.3977
 11
488.8188
 21
429.1066
  0
LINE
  8
11_0B
  6
DASHED
 62
2
 10
497.9823
 20
429.1066
 11
497.7819
 21
431.3977
  0
LINE
  8
11_0B
  6
DASHED
 62
2
 10
497.5465
 20
434.0876
 11
497.3461
 21
436.3786
  0
LINE
  8
11_0B
  6
DASHED
 62
2
 10
497.1107
 20
439.0685
 11
496.9103
 21
441.3596
  0
LINE
  8
11_0B
  6
DASHED
 62
2
 10
496.6750
 20
444.0496
 11
496.4745
 21
446.3405
  0
LINE
  8
11_0B
  6
DASHED
 62
2
 10
497.5175
 20
431.3268
 11
499.2231
 21
431.7838
  0
LINE
  8
11_0B
  6
DASHED
 62
2
 10
489.4456
 20
431.2834
 11
487.5779
 21
431.7838
  0
LINE
  8
11_0B
  6
DASHED
 62
2
 10
497.0818
 20
436.3078
 11
498.7874
 21
436.7648
  0
LINE
  8
11_0B
  6
DASHED
 62
2
 10
489.7193
 20
436.3078
 11
488.0137
 21
436.7648
  0
LINE
  8
11_0B
  6
DASHED
 62
2
 10
496.6460
 20
441.2888
 11
498.3516
 21
441.7458
  0
LINE
  8
11_0B
  6
DASHED
 62
2
 10
490.1550
 20
441.2888
 11
488.4495
 21
441.7458
  0
LINE
  8
11_0B
  6
DASHED
 62
2
 10
496.2102
 20
446.2697
 11
497.9158
 21
446.7268
  0
LINE
  8
11_0B
  6
DASHED
 62
2
 10
490.5908
 20
446.2697
 11
488.8853
 21
446.7268
  0
LINE
  8
11_0B
  6
DASHED
 62
2
 10
490.1634
 20
449.0654
 11
490.4325
 21
452.1411
  0
LINE
  8
11_0B
  6
DASHED
 62
2
 10
496.6377
 20
449.0654
 11
496.3685
 21
452.1411
  0
LINE
  8
11_0B
  6
DASHED
 62
2
 10
490.8858
 20
445.8485
 11
490.7413
 21
444.1965
  0
LINE
  8
11_0B
  6
DASHED
 62
2
 10
490.4500
 20
440.8675
 11
490.3055
 21
439.2155
  0
LINE
  8
11_0B
  6
DASHED
 62
2
 10
490.0142
 20
435.8866
 11
489.8697
 21
434.2346
  0
LINE
  8
11_0B
  6
DASHED
 62
2
 10
489.5930
 20
431.0727
 11
489.4339
 21
429.2535
  0
LINE
  8
11_0B
  6
DASHED
 62
2
 10
497.3671
 20
429.2535
 11
497.2226
 21
430.9055
  0
LINE
  8
11_0B
  6
DASHED
 62
2
 10
496.9314
 20
434.2346
 11
496.7869
 21
435.8866
  0
LINE
  8
11_0B
  6
DASHED
 62
2
 10
496.4956
 20
439.2155
 11
496.3511
 21
440.8675
  0
LINE
  8
11_0B
  6
DASHED
 62
2
 10
496.0598
 20
444.1965
 11
495.9153
 21
445.8485
  0
LINE
  8
11_0B
  6
DASHED
 62
2
 10
490.4669
 20
452.1351
 11
489.4005
 21
452.3231
  0
LINE
  8
11_0B
  6
DASHED
 62
2
 10
496.3341
 20
452.1351
 11
497.4005
 21
452.3231
  0
LINE
  8
11_0B
  6
DASHED
 62
2
 10
500.3511
 20
450.6107
 11
497.3178
 21
444.1058
  0
LINE
  8
11_0B
  6
DASHED
 62
2
 10
488.3329
 20
444.2065
 11
485.5436
 21
450.1880
  0
LINE
  8
11_0B
  6
DASHED
 62
2
 10
486.4500
 20
450.6107
 11
489.4832
 21
444.1058
  0
LINE
  8
11_0B
  6
DASHED
 62
2
 10
501.0639
 20
450.7197
 11
500.8826
 21
450.8041
  0
LINE
  8
11_0B
  6
DASHED
 62
2
 10
485.7371
 20
450.7197
 11
485.9184
 21
450.8041
  0
LINE
  8
11_0B
  6
DASHED
 62
2
 10
490.7959
 20
451.7063
 11
490.5793
 21
449.2298
  0
LINE
  8
11_0B
  6
DASHED
 62
2
 10
496.0050
 20
451.7063
 11
496.4745
 21
446.3405
  0
LINE
  8
12_0C
  6
CONTINUOUS
 62
2
 10
500.4005
 20
467.7561
 11
500.4005
 21
468.1708
  0
LINE
  8
12_0C
  6
CONTINUOUS
 62
2
 10
500.4005
 20
468.1708
 11
493.4005
 21
468.1708
  0
LINE
  8
12_0C
  6
CONTINUOUS
 62
2
 10
486.4005
 20
467.7561
 11
486.4005
 21
468.1708
  0
LINE
  8
12_0C
  6
CONTINUOUS
 62
2
 10
486.4005
 20
468.1708
 11
493.4005
 21
468.1708
  0
LINE
  8
11_0B
  6
DASHED
 62
2
 10
489.4005
 20
464.2561
 11
489.4005
 21
452.3231
  0
LINE
  8
11_0B
  6
DASHED
 62
2
 10
497.4005
 20
464.2561
 11
497.4005
 21
452.3231
  0
LINE
  8
11_0B
  6
DASHED
 62
2
 10
489.4005
 20
464.2561
 11
497.4005
 21
464.2561
  0
LINE
  8
12_0C
  6
DASHED
 62
2
 10
495.8590
 20
467.7561
 11
495.8590
 21
422.0143
  0
LINE
  8
12_0C
  6
DASHED
 62
2
 10
496.4005
 20
467.7561
 11
496.4005
 21
422.9522
  0
LINE
  8
12_0C
  6
DASHED
 62
2
 10
490.4005
 20
467.7561
 11
490.4005
 21
422.9522
  0
LINE
  8
12_0C
  6
DASHED
 62
2
 10
490.9420
 20
467.7561
 11
490.9420
 21
422.9522
  0
LINE
  8
0_00
  6
CENTER1
 62
6
 10
424.4005
 20
124.4960
 11
424.4005
 21
254.4614
  0
LINE
  8
0_00
  6
CONTINUOUS
 62
4
 10
264.4005
 20
212.2561
 11
584.4005
 21
212.2561
  0
LINE
  8
0_00
  6
CONTINUOUS
 62
4
 10
252.5005
 20
237.9861
 11
596.5005
 21
226.5195
  0
LINE
  8
0_00
  6
CONTINUOUS
 62
4
 10
249.4005
 20
234.9878
 11
249.4005
 21
176.2508
  0
LINE
  8
0_00
  6
CONTINUOUS
 62
4
 10
599.4005
 20
169.5841
 11
599.4005
 21
223.5211
  0
LINE
  8
0_00
  6
CONTINUOUS
 62
4
 10
252.5575
 20
173.2549
 11
255.8581
 21
173.4279
  0
LINE
  8
0_00
  6
CONTINUOUS
 62
4
 10
596.2435
 20
166.5882
 11
593.0377
 21
166.7562
  0
LINE
  8
0_00
  6
CENTER1
 62
6
 10
355.4005
 20
225.4595
 11
355.4005
 21
160.0642
  0
LINE
  8
0_00
  6
CENTER1
 62
6
 10
493.4005
 20
225.2537
 11
493.4005
 21
160.0642
  0
LINE
  8
0_00
  6
DASHED
 62
2
 10
360.4681
 20
192.2064
 11
363.2574
 21
198.1881
  0
LINE
  8
0_00
  6
CONTINUOUS
 62
6
 10
352.9420
 20
170.9523
 11
352.9420
 21
170.0144
  0
LINE
  8
0_00
  6
DASHED
 62
2
 10
355.4005
 20
165.7561
 11
352.4005
 21
170.9523
  0
LINE
  8
0_00
  6
DASHED
 62
2
 10
355.4005
 20
165.7561
 11
358.4005
 21
170.9523
  0
LINE
  8
0_00
  6
DASHED
 62
2
 10
350.7687
 20
197.1874
 11
350.5903
 21
195.1480
  0
LINE
  8
0_00
  6
DASHED
 62
2
 10
350.3329
 20
192.2064
 11
350.1545
 21
190.1670
  0
LINE
  8
0_00
  6
DASHED
 62
2
 10
349.8972
 20
187.2255
 11
349.7188
 21
185.1860
  0
LINE
  8
0_00
  6
DASHED
 62
2
 10
349.4614
 20
182.2445
 11
349.2830
 21
180.2051
  0
LINE
  8
0_00
  6
DASHED
 62
2
 10
349.0256
 20
177.2635
 11
348.8653
 21
175.4313
  0
LINE
  8
0_00
  6
DASHED
 62
2
 10
360.0323
 20
197.1874
 11
360.2108
 21
195.1480
  0
LINE
  8
0_00
  6
DASHED
 62
2
 10
360.4681
 20
192.2064
 11
360.6465
 21
190.1670
  0
LINE
  8
0_00
  6
DASHED
 62
2
 10
360.9039
 20
187.2255
 11
361.0823
 21
185.1860
  0
LINE
  8
0_00
  6
DASHED
 62
2
 10
361.3397
 20
182.2445
 11
361.5181
 21
180.2051
  0
LINE
  8
0_00
  6
DASHED
 62
2
 10
361.7755
 20
177.2635
 11
361.9357
 21
175.4313
  0
LINE
  8
0_00
  6
DASHED
 62
2
 10
354.9005
 20
204.2561
 11
355.9005
 21
204.2561
  0
LINE
  8
0_00
  6
DASHED
 62
2
 10
355.9005
 20
204.2561
 11
358.6895
 21
172.3779
  0
LINE
  8
0_00
  6
DASHED
 62
2
 10
352.1115
 20
172.3779
 11
354.9005
 21
204.2561
  0
LINE
  8
0_00
  6
DASHED
 62
2
 10
350.1191
 20
172.5522
 11
352.1115
 21
172.3779
  0
LINE
  8
0_00
  6
DASHED
 62
2
 10
358.6895
 20
172.3779
 11
360.6819
 21
172.5522
  0
LINE
  8
0_00
  6
DASHED
 62
2
 10
360.6819
 20
172.5522
 11
361.8818
 21
175.1254
  0
LINE
  8
0_00
  6
DASHED
 62
2
 10
350.1191
 20
172.5522
 11
348.9193
 21
175.1254
  0
LINE
  8
0_00
  6
DASHED
 62
2
 10
348.8513
 20
175.2711
 11
352.3380
 21
174.9661
  0
LINE
  8
0_00
  6
DASHED
 62
2
 10
358.4631
 20
174.9661
 11
361.9497
 21
175.2711
  0
LINE
  8
0_00
  6
DASHED
 62
2
 10
349.0256
 20
177.2635
 11
351.2172
 21
177.0718
  0
LINE
  8
0_00
  6
DASHED
 62
2
 10
359.5838
 20
177.0718
 11
361.7755
 21
177.2635
  0
LINE
  8
0_00
  6
DASHED
 62
2
 10
349.4614
 20
182.2445
 11
351.6530
 21
182.0527
  0
LINE
  8
0_00
  6
DASHED
 62
2
 10
359.1480
 20
182.0527
 11
361.3397
 21
182.2445
  0
LINE
  8
0_00
  6
DASHED
 62
2
 10
349.8972
 20
187.2255
 11
352.0888
 21
187.0337
  0
LINE
  8
0_00
  6
DASHED
 62
2
 10
358.7122
 20
187.0337
 11
360.9039
 21
187.2255
  0
LINE
  8
0_00
  6
DASHED
 62
2
 10
350.3329
 20
192.2064
 11
352.5246
 21
192.0147
  0
LINE
  8
0_00
  6
DASHED
 62
2
 10
358.2765
 20
192.0147
 11
360.4681
 21
192.2064
  0
LINE
  8
0_00
  6
DASHED
 62
2
 10
350.7687
 20
197.1874
 11
352.3626
 21
197.0480
  0
LINE
  8
0_00
  6
DASHED
 62
2
 10
358.4384
 20
197.0480
 11
360.0323
 21
197.1874
  0
LINE
  8
0_00
  6
DASHED
 62
2
 10
352.3265
 20
194.3406
 11
352.1261
 21
192.0496
  0
LINE
  8
0_00
  6
DASHED
 62
2
 10
351.8907
 20
189.3596
 11
351.6903
 21
187.0686
  0
LINE
  8
0_00
  6
DASHED
 62
2
 10
351.4550
 20
184.3786
 11
351.2545
 21
182.0876
  0
LINE
  8
0_00
  6
DASHED
 62
2
 10
351.0192
 20
179.3976
 11
350.8188
 21
177.1066
  0
LINE
  8
0_00
  6
DASHED
 62
2
 10
359.9823
 20
177.1066
 11
359.7819
 21
179.3976
  0
LINE
  8
0_00
  6
DASHED
 62
2
 10
359.5465
 20
182.0876
 11
359.3461
 21
184.3786
  0
LINE
  8
0_00
  6
DASHED
 62
2
 10
359.1107
 20
187.0686
 11
358.9103
 21
189.3596
  0
LINE
  8
0_00
  6
DASHED
 62
2
 10
358.6750
 20
192.0496
 11
358.4745
 21
194.3406
  0
LINE
  8
0_00
  6
DASHED
 62
2
 10
359.5175
 20
179.3268
 11
361.2231
 21
179.7838
  0
LINE
  8
0_00
  6
DASHED
 62
2
 10
351.4456
 20
179.2834
 11
349.5779
 21
179.7838
  0
LINE
  8
0_00
  6
DASHED
 62
2
 10
359.0818
 20
184.3078
 11
360.7874
 21
184.7648
  0
LINE
  8
0_00
  6
DASHED
 62
2
 10
351.7193
 20
184.3078
 11
350.0137
 21
184.7648
  0
LINE
  8
0_00
  6
DASHED
 62
2
 10
358.6460
 20
189.2888
 11
360.3516
 21
189.7458
  0
LINE
  8
0_00
  6
DASHED
 62
2
 10
352.1550
 20
189.2888
 11
350.4495
 21
189.7458
  0
LINE
  8
0_00
  6
DASHED
 62
2
 10
358.2102
 20
194.2697
 11
359.9158
 21
194.7267
  0
LINE
  8
0_00
  6
DASHED
 62
2
 10
352.5908
 20
194.2697
 11
350.8853
 21
194.7267
  0
LINE
  8
0_00
  6
DASHED
 62
2
 10
352.1634
 20
197.0654
 11
352.4325
 21
200.1411
  0
LINE
  8
0_00
  6
DASHED
 62
2
 10
358.6376
 20
197.0654
 11
358.3686
 21
200.1411
  0
LINE
  8
0_00
  6
DASHED
 62
2
 10
352.8858
 20
193.8485
 11
352.7412
 21
192.1965
  0
LINE
  8
0_00
  6
DASHED
 62
2
 10
352.4500
 20
188.8675
 11
352.3055
 21
187.2155
  0
LINE
  8
0_00
  6
DASHED
 62
2
 10
352.0142
 20
183.8866
 11
351.8697
 21
182.2346
  0
LINE
  8
0_00
  6
DASHED
 62
2
 10
351.5930
 20
179.0728
 11
351.4339
 21
177.2536
  0
LINE
  8
0_00
  6
DASHED
 62
2
 10
359.3671
 20
177.2536
 11
359.2226
 21
178.9056
  0
LINE
  8
0_00
  6
DASHED
 62
2
 10
358.9314
 20
182.2346
 11
358.7868
 21
183.8866
  0
LINE
  8
0_00
  6
DASHED
 62
2
 10
358.4956
 20
187.2155
 11
358.3510
 21
188.8675
  0
LINE
  8
0_00
  6
DASHED
 62
2
 10
358.0598
 20
192.1965
 11
357.9153
 21
193.8485
  0
LINE
  8
0_00
  6
DASHED
 62
2
 10
352.4669
 20
200.1350
 11
351.4005
 21
200.3231
  0
LINE
  8
0_00
  6
DASHED
 62
2
 10
358.3341
 20
200.1350
 11
359.4005
 21
200.3231
  0
LINE
  8
0_00
  6
DASHED
 62
2
 10
362.3511
 20
198.6107
 11
359.3178
 21
192.1058
  0
LINE
  8
0_00
  6
DASHED
 62
2
 10
350.3329
 20
192.2064
 11
347.5436
 21
198.1881
  0
LINE
  8
0_00
  6
DASHED
 62
2
 10
348.4500
 20
198.6107
 11
351.4832
 21
192.1058
  0
LINE
  8
0_00
  6
DASHED
 62
2
 10
363.0639
 20
198.7196
 11
362.8826
 21
198.8042
  0
LINE
  8
0_00
  6
DASHED
 62
2
 10
347.7371
 20
198.7196
 11
347.9184
 21
198.8042
  0
LINE
  8
0_00
  6
DASHED
 62
2
 10
352.7960
 20
199.7063
 11
352.5793
 21
197.2298
  0
LINE
  8
0_00
  6
DASHED
 62
2
 10
358.0051
 20
199.7063
 11
358.4745
 21
194.3406
  0
LINE
  8
0_00
  6
CONTINUOUS
 62
2
 10
362.4005
 20
215.7561
 11
362.4005
 21
216.1707
  0
LINE
  8
0_00
  6
CONTINUOUS
 62
2
 10
362.4005
 20
216.1707
 11
355.4005
 21
216.1707
  0
LINE
  8
0_00
  6
CONTINUOUS
 62
2
 10
348.4005
 20
215.7561
 11
348.4005
 21
216.1707
  0
LINE
  8
0_00
  6
CONTINUOUS
 62
2
 10
348.4005
 20
216.1707
 11
355.4005
 21
216.1707
  0
LINE
  8
0_00
  6
DASHED
 62
2
 10
351.4005
 20
212.2561
 11
351.4005
 21
200.3231
  0
LINE
  8
0_00
  6
DASHED
 62
2
 10
359.4005
 20
212.2561
 11
359.4005
 21
200.3231
  0
LINE
  8
0_00
  6
DASHED
 62
2
 10
351.4005
 20
212.2561
 11
359.4005
 21
212.2561
  0
LINE
  8
0_00
  6
DASHED
 62
2
 10
357.8590
 20
215.7561
 11
357.8590
 21
170.0144
  0
LINE
  8
0_00
  6
DASHED
 62
2
 10
358.4005
 20
215.7561
 11
358.4005
 21
170.9523
  0
LINE
  8
0_00
  6
DASHED
 62
2
 10
352.4005
 20
215.7561
 11
352.4005
 21
170.9523
  0
LINE
  8
0_00
  6
DASHED
 62
2
 10
352.9420
 20
215.7561
 11
352.9420
 21
170.9523
  0
LINE
  8
0_00
  6
DASHED
 62
2
 10
498.4681
 20
192.2064
 11
501.2574
 21
198.1881
  0
LINE
  8
0_00
  6
CONTINUOUS
 62
6
 10
490.9420
 20
170.9523
 11
490.9420
 21
170.0144
  0
LINE
  8
0_00
  6
DASHED
 62
2
 10
493.4005
 20
165.7561
 11
490.4005
 21
170.9523
  0
LINE
  8
0_00
  6
DASHED
 62
2
 10
493.4005
 20
165.7561
 11
496.4005
 21
170.9523
  0
LINE
  8
0_00
  6
DASHED
 62
2
 10
488.7687
 20
197.1874
 11
488.5903
 21
195.1480
  0
LINE
  8
0_00
  6
DASHED
 62
2
 10
488.3329
 20
192.2064
 11
488.1545
 21
190.1670
  0
LINE
  8
0_00
  6
DASHED
 62
2
 10
487.8971
 20
187.2255
 11
487.7187
 21
185.1860
  0
LINE
  8
0_00
  6
DASHED
 62
2
 10
487.4613
 20
182.2445
 11
487.2829
 21
180.2051
  0
LINE
  8
0_00
  6
DASHED
 62
2
 10
487.0256
 20
177.2635
 11
486.8653
 21
175.4313
  0
LINE
  8
0_00
  6
DASHED
 62
2
 10
498.0323
 20
197.1874
 11
498.2108
 21
195.1480
  0
LINE
  8
0_00
  6
DASHED
 62
2
 10
498.4681
 20
192.2064
 11
498.6465
 21
190.1670
  0
LINE
  8
0_00
  6
DASHED
 62
2
 10
498.9038
 20
187.2255
 11
499.0823
 21
185.1860
  0
LINE
  8
0_00
  6
DASHED
 62
2
 10
499.3396
 20
182.2445
 11
499.5180
 21
180.2051
  0
LINE
  8
0_00
  6
DASHED
 62
2
 10
499.7754
 20
177.2635
 11
499.9357
 21
175.4313
  0
LINE
  8
0_00
  6
DASHED
 62
2
 10
492.9005
 20
204.2561
 11
493.9005
 21
204.2561
  0
LINE
  8
0_00
  6
DASHED
 62
2
 10
493.9005
 20
204.2561
 11
496.6895
 21
172.3779
  0
LINE
  8
0_00
  6
DASHED
 62
2
 10
490.1115
 20
172.3779
 11
492.9005
 21
204.2561
  0
LINE
  8
0_00
  6
DASHED
 62
2
 10
488.1191
 20
172.5522
 11
490.1115
 21
172.3779
  0
LINE
  8
0_00
  6
DASHED
 62
2
 10
496.6895
 20
172.3779
 11
498.6819
 21
172.5522
  0
LINE
  8
0_00
  6
DASHED
 62
2
 10
498.6819
 20
172.5522
 11
499.8818
 21
175.1254
  0
LINE
  8
0_00
  6
DASHED
 62
2
 10
488.1191
 20
172.5522
 11
486.9193
 21
175.1254
  0
LINE
  8
0_00
  6
DASHED
 62
2
 10
486.8513
 20
175.2711
 11
490.3380
 21
174.9661
  0
LINE
  8
0_00
  6
DASHED
 62
2
 10
496.4630
 20
174.9661
 11
499.9497
 21
175.2711
  0
LINE
  8
0_00
  6
DASHED
 62
2
 10
487.0256
 20
177.2635
 11
489.2172
 21
177.0718
  0
LINE
  8
0_00
  6
DASHED
 62
2
 10
497.5838
 20
177.0718
 11
499.7754
 21
177.2635
  0
LINE
  8
0_00
  6
DASHED
 62
2
 10
487.4613
 20
182.2445
 11
489.6530
 21
182.0527
  0
LINE
  8
0_00
  6
DASHED
 62
2
 10
497.1480
 20
182.0527
 11
499.3396
 21
182.2445
  0
LINE
  8
0_00
  6
DASHED
 62
2
 10
487.8971
 20
187.2255
 11
490.0888
 21
187.0337
  0
LINE
  8
0_00
  6
DASHED
 62
2
 10
496.7122
 20
187.0337
 11
498.9038
 21
187.2255
  0
LINE
  8
0_00
  6
DASHED
 62
2
 10
488.3329
 20
192.2064
 11
490.5246
 21
192.0147
  0
LINE
  8
0_00
  6
DASHED
 62
2
 10
496.2765
 20
192.0147
 11
498.4681
 21
192.2064
  0
LINE
  8
0_00
  6
DASHED
 62
2
 10
488.7687
 20
197.1874
 11
490.3626
 21
197.0480
  0
LINE
  8
0_00
  6
DASHED
 62
2
 10
496.4384
 20
197.0480
 11
498.0323
 21
197.1874
  0
LINE
  8
0_00
  6
DASHED
 62
2
 10
490.3265
 20
194.3406
 11
490.1261
 21
192.0496
  0
LINE
  8
0_00
  6
DASHED
 62
2
 10
489.8907
 20
189.3596
 11
489.6903
 21
187.0686
  0
LINE
  8
0_00
  6
DASHED
 62
2
 10
489.4550
 20
184.3786
 11
489.2545
 21
182.0876
  0
LINE
  8
0_00
  6
DASHED
 62
2
 10
489.0192
 20
179.3976
 11
488.8188
 21
177.1066
  0
LINE
  8
0_00
  6
DASHED
 62
2
 10
497.9823
 20
177.1066
 11
497.7819
 21
179.3976
  0
LINE
  8
0_00
  6
DASHED
 62
2
 10
497.5465
 20
182.0876
 11
497.3461
 21
184.3786
  0
LINE
  8
0_00
  6
DASHED
 62
2
 10
497.1107
 20
187.0686
 11
496.9103
 21
189.3596
  0
LINE
  8
0_00
  6
DASHED
 62
2
 10
496.6750
 20
192.0496
 11
496.4745
 21
194.3406
  0
LINE
  8
0_00
  6
DASHED
 62
2
 10
497.5175
 20
179.3268
 11
499.2231
 21
179.7838
  0
LINE
  8
0_00
  6
DASHED
 62
2
 10
489.4456
 20
179.2834
 11
487.5779
 21
179.7838
  0
LINE
  8
0_00
  6
DASHED
 62
2
 10
497.0818
 20
184.3078
 11
498.7874
 21
184.7648
  0
LINE
  8
0_00
  6
DASHED
 62
2
 10
489.7193
 20
184.3078
 11
488.0137
 21
184.7648
  0
LINE
  8
0_00
  6
DASHED
 62
2
 10
496.6460
 20
189.2888
 11
498.3516
 21
189.7458
  0
LINE
  8
0_00
  6
DASHED
 62
2
 10
490.1550
 20
189.2888
 11
488.4495
 21
189.7458
  0
LINE
  8
0_00
  6
DASHED
 62
2
 10
496.2102
 20
194.2697
 11
497.9158
 21
194.7267
  0
LINE
  8
0_00
  6
DASHED
 62
2
 10
490.5908
 20
194.2697
 11
488.8853
 21
194.7267
  0
LINE
  8
0_00
  6
DASHED
 62
2
 10
490.1634
 20
197.0654
 11
490.4325
 21
200.1411
  0
LINE
  8
0_00
  6
DASHED
 62
2
 10
496.6377
 20
197.0654
 11
496.3685
 21
200.1411
  0
LINE
  8
0_00
  6
DASHED
 62
2
 10
490.8858
 20
193.8485
 11
490.7413
 21
192.1965
  0
LINE
  8
0_00
  6
DASHED
 62
2
 10
490.4500
 20
188.8675
 11
490.3055
 21
187.2155
  0
LINE
  8
0_00
  6
DASHED
 62
2
 10
490.0142
 20
183.8866
 11
489.8697
 21
182.2346
  0
LINE
  8
0_00
  6
DASHED
 62
2
 10
489.5930
 20
179.0728
 11
489.4339
 21
177.2536
  0
LINE
  8
0_00
  6
DASHED
 62
2
 10
497.3671
 20
177.2536
 11
497.2226
 21
178.9056
  0
LINE
  8
0_00
  6
DASHED
 62
2
 10
496.9314
 20
182.2346
 11
496.7869
 21
183.8866
  0
LINE
  8
0_00
  6
DASHED
 62
2
 10
496.4956
 20
187.2155
 11
496.3511
 21
188.8675
  0
LINE
  8
0_00
  6
DASHED
 62
2
 10
496.0598
 20
192.1965
 11
495.9153
 21
193.8485
  0
LINE
  8
0_00
  6
DASHED
 62
2
 10
490.4669
 20
200.1350
 11
489.4005
 21
200.3231
  0
LINE
  8
0_00
  6
DASHED
 62
2
 10
496.3341
 20
200.1350
 11
497.4005
 21
200.3231
  0
LINE
  8
0_00
  6
DASHED
 62
2
 10
500.3511
 20
198.6107
 11
497.3178
 21
192.1058
  0
LINE
  8
0_00
  6
DASHED
 62
2
 10
488.3329
 20
192.2064
 11
485.5436
 21
198.1881
  0
LINE
  8
0_00
  6
DASHED
 62
2
 10
486.4500
 20
198.6107
 11
489.4832
 21
192.1058
  0
LINE
  8
0_00
  6
DASHED
 62
2
 10
501.0639
 20
198.7196
 11
500.8826
 21
198.8042
  0
LINE
  8
0_00
  6
DASHED
 62
2
 10
485.7371
 20
198.7196
 11
485.9184
 21
198.8042
  0
LINE
  8
0_00
  6
DASHED
 62
2
 10
490.7959
 20
199.7063
 11
490.5793
 21
197.2298
  0
LINE
  8
0_00
  6
DASHED
 62
2
 10
496.0050
 20
199.7063
 11
496.4745
 21
194.3406
  0
LINE
  8
0_00
  6
CONTINUOUS
 62
2
 10
500.4005
 20
215.7561
 11
500.4005
 21
216.1707
  0
LINE
  8
0_00
  6
CONTINUOUS
 62
2
 10
500.4005
 20
216.1707
 11
493.4005
 21
216.1707
  0
LINE
  8
0_00
  6
CONTINUOUS
 62
2
 10
486.4005
 20
215.7561
 11
486.4005
 21
216.1707
  0
LINE
  8
0_00
  6
CONTINUOUS
 62
2
 10
486.4005
 20
216.1707
 11
493.4005
 21
216.1707
  0
LINE
  8
0_00
  6
DASHED
 62
2
 10
489.4005
 20
212.2561
 11
489.4005
 21
200.3231
  0
LINE
  8
0_00
  6
DASHED
 62
2
 10
497.4005
 20
212.2561
 11
497.4005
 21
200.3231
  0
LINE
  8
0_00
  6
DASHED
 62
2
 10
489.4005
 20
212.2561
 11
497.4005
 21
212.2561
  0
LINE
  8
0_00
  6
DASHED
 62
2
 10
495.8590
 20
215.7561
 11
495.8590
 21
170.0144
  0
LINE
  8
0_00
  6
DASHED
 62
2
 10
496.4005
 20
215.7561
 11
496.4005
 21
170.9523
  0
LINE
  8
0_00
  6
DASHED
 62
2
 10
490.4005
 20
215.7561
 11
490.4005
 21
170.9523
  0
LINE
  8
0_00
  6
DASHED
 62
2
 10
490.9420
 20
215.7561
 11
490.9420
 21
170.9523
  0
LINE
  8
0_00
  6
CONTINUOUS
 62
4
 10
255.7325
 20
175.8246
 11
252.3267
 21
175.6461
  0
LINE
  8
0_00
  6
CONTINUOUS
 62
4
 10
251.8005
 20
176.1454
 11
251.8005
 21
235.0912
  0
LINE
  8
0_00
  6
CONTINUOUS
 62
4
 10
252.3172
 20
235.5909
 11
596.5172
 21
224.1176
  0
LINE
  8
0_00
  6
CONTINUOUS
 62
4
 10
597.0005
 20
223.6178
 11
597.0005
 21
169.4787
  0
LINE
  8
0_00
  6
CONTINUOUS
 62
4
 10
596.4744
 20
168.9794
 11
593.1633
 21
169.1530
  0
LINE
  8
0_00
  6
CONTINUOUS
 62
2
 10
271.1005
 20
232.8158
 11
271.1005
 21
234.9648
  0
LINE
  8
0_00
  6
CONTINUOUS
 62
2
 10
266.1005
 20
232.9824
 11
266.1005
 21
235.1314
  0
LINE
  8
0_00
  6
CONTINUOUS
 62
4
 10
264.6005
 20
232.9214
 11
264.6005
 21
231.2304
  0
LINE
  8
0_00
  6
CONTINUOUS
 62
4
 10
271.5839
 20
230.7986
 11
267.3171
 21
230.9402
  0
LINE
  8
0_00
  6
CONTINUOUS
 62
4
 10
272.1005
 20
232.6925
 11
272.1005
 21
231.2983
  0
LINE
  8
0_00
  6
CONTINUOUS
 62
4
 10
264.6005
 20
231.2304
 11
262.4732
 21
231.3009
  0
LINE
  8
0_00
  6
CONTINUOUS
 62
4
 10
260.4797
 20
229.8369
 11
255.6005
 21
212.2561
  0
LINE
  8
0_00
  6
CONTINUOUS
 62
4
 10
266.8005
 20
230.4404
 11
266.8005
 21
228.9562
  0
LINE
  8
0_00
  6
CONTINUOUS
 62
4
 10
266.8005
 20
228.9562
 11
263.3439
 21
229.0709
  0
LINE
  8
0_00
  6
CONTINUOUS
 62
4
 10
262.3471
 20
228.3389
 11
258.9754
 21
216.1898
  0
LINE
  8
0_00
  6
CONTINUOUS
 62
4
 10
255.6005
 20
212.2561
 11
251.8033
 21
176.4088
  0
LINE
  8
0_00
  6
CONTINUOUS
 62
4
 10
253.8609
 20
176.2867
 11
258.8402
 21
211.8255
  0
LINE
  8
0_00
  6
CONTINUOUS
 62
4
 10
253.3657
 20
175.8561
 11
252.3005
 21
175.8561
  0
LINE
  8
0_00
  6
CONTINUOUS
 62
4
 10
265.1005
 20
233.0148
 11
271.6005
 21
232.7991
  0
LINE
  8
0_00
  6
CONTINUOUS
 62
4
 10
265.1005
 20
233.2149
 11
265.1005
 21
233.0148
  0
LINE
  8
0_00
  6
CONTINUOUS
 62
4
 10
271.6005
 20
232.7991
 11
271.6005
 21
232.9993
  0
LINE
  8
0_00
  6
CONTINUOUS
 62
4
 10
264.9105
 20
233.2212
 11
265.1005
 21
233.2149
  0
LINE
  8
0_00
  6
CONTINUOUS
 62
4
 10
271.6005
 20
232.9993
 11
271.8105
 21
232.9923
  0
LINE
  8
0_00
  6
CONTINUOUS
 62
4
 10
259.4572
 20
215.5561
 11
285.1005
 21
215.5561
  0
LINE
  8
0_00
  6
CONTINUOUS
 62
4
 10
285.1005
 20
215.5561
 11
285.1005
 21
215.7561
  0
LINE
  8
0_00
  6
CONTINUOUS
 62
4
 10
479.2005
 20
215.7561
 11
563.7005
 21
215.7561
  0
LINE
  8
0_00
  6
CONTINUOUS
 62
4
 10
285.1005
 20
215.7561
 11
369.6005
 21
215.7561
  0
LINE
  8
0_00
  6
CONTINUOUS
 62
4
 10
588.1962
 20
215.5561
 11
563.7005
 21
215.5561
  0
LINE
  8
0_00
  6
CONTINUOUS
 62
4
 10
563.7005
 20
215.7561
 11
563.7005
 21
215.5561
  0
LINE
  8
0_00
  6
CONTINUOUS
 62
4
 10
259.3353
 20
212.2561
 11
589.4561
 21
212.2561
  0
LINE
  8
0_00
  6
CONTINUOUS
 62
4
 10
467.0005
 20
215.7561
 11
466.7006
 21
215.4561
  0
LINE
  8
0_00
  6
CONTINUOUS
 62
4
 10
466.7006
 20
215.4561
 11
466.4005
 21
215.7561
  0
LINE
  8
0_00
  6
CONTINUOUS
 62
4
 10
462.0005
 20
215.7561
 11
461.7005
 21
215.4561
  0
LINE
  8
0_00
  6
CONTINUOUS
 62
4
 10
461.7005
 20
215.4561
 11
461.4005
 21
215.7561
  0
LINE
  8
0_00
  6
CONTINUOUS
 62
4
 10
457.0005
 20
215.7561
 11
456.7005
 21
215.4561
  0
LINE
  8
0_00
  6
CONTINUOUS
 62
4
 10
456.7005
 20
215.4561
 11
456.4005
 21
215.7561
  0
LINE
  8
0_00
  6
CONTINUOUS
 62
4
 10
452.0005
 20
215.7561
 11
451.7006
 21
215.4561
  0
LINE
  8
0_00
  6
CONTINUOUS
 62
4
 10
451.7006
 20
215.4561
 11
451.4005
 21
215.7561
  0
LINE
  8
0_00
  6
CONTINUOUS
 62
4
 10
424.7005
 20
215.7561
 11
424.4005
 21
215.4561
  0
LINE
  8
0_00
  6
CONTINUOUS
 62
4
 10
424.4005
 20
215.4561
 11
424.1005
 21
215.7561
  0
LINE
  8
0_00
  6
CONTINUOUS
 62
4
 10
372.1005
 20
215.7561
 11
424.1005
 21
215.7561
  0
LINE
  8
0_00
  6
CONTINUOUS
 62
4
 10
452.0005
 20
215.7561
 11
456.4005
 21
215.7561
  0
LINE
  8
0_00
  6
CONTINUOUS
 62
4
 10
457.0005
 20
215.7561
 11
461.4005
 21
215.7561
  0
LINE
  8
0_00
  6
CONTINUOUS
 62
4
 10
462.0005
 20
215.7561
 11
466.4005
 21
215.7561
  0
LINE
  8
0_00
  6
CONTINUOUS
 62
4
 10
467.0005
 20
215.7561
 11
476.7005
 21
215.7561
  0
LINE
  8
0_00
  6
CONTINUOUS
 62
4
 10
447.0005
 20
215.7561
 11
446.7005
 21
215.4561
  0
LINE
  8
0_00
  6
CONTINUOUS
 62
4
 10
446.7005
 20
215.4561
 11
446.4005
 21
215.7561
  0
LINE
  8
0_00
  6
CONTINUOUS
 62
4
 10
424.7005
 20
215.7561
 11
446.4005
 21
215.7561
  0
LINE
  8
0_00
  6
CONTINUOUS
 62
4
 10
447.0005
 20
215.7561
 11
451.4005
 21
215.7561
  0
LINE
  8
0_00
  6
CONTINUOUS
 62
4
 10
586.8079
 20
219.8298
 11
588.6403
 21
216.2858
  0
LINE
  8
0_00
  6
CONTINUOUS
 62
4
 10
585.9528
 20
220.3699
 11
577.1840
 21
220.6608
  0
LINE
  8
0_00
  6
CONTINUOUS
 62
2
 10
582.7005
 20
222.4781
 11
582.7005
 21
224.5781
  0
LINE
  8
0_00
  6
CONTINUOUS
 62
4
 10
593.2005
 20
212.2561
 11
588.4390
 21
221.4651
  0
LINE
  8
0_00
  6
CONTINUOUS
 62
4
 10
583.7005
 20
222.6459
 11
583.7005
 21
222.4458
  0
LINE
  8
0_00
  6
CONTINUOUS
 62
4
 10
583.7005
 20
222.6459
 11
586.7288
 21
222.5454
  0
LINE
  8
0_00
  6
CONTINUOUS
 62
4
 10
593.2005
 20
212.2561
 11
596.9985
 21
169.6005
  0
LINE
  8
0_00
  6
CONTINUOUS
 62
4
 10
589.9526
 20
211.8147
 11
594.9484
 21
169.4975
  0
LINE
  8
0_00
  6
CONTINUOUS
 62
2
 10
577.7005
 20
222.6448
 11
577.7005
 21
224.7448
  0
LINE
  8
0_00
  6
CONTINUOUS
 62
4
 10
576.7005
 20
222.5680
 11
576.7005
 21
221.1606
  0
LINE
  8
0_00
  6
CONTINUOUS
 62
4
 10
577.2005
 20
222.8615
 11
577.2005
 21
222.6614
  0
LINE
  8
0_00
  6
CONTINUOUS
 62
4
 10
577.2005
 20
222.6614
 11
583.7005
 21
222.4458
  0
LINE
  8
0_00
  6
CONTINUOUS
 62
4
 10
577.0105
 20
222.8678
 11
577.2005
 21
222.8615
  0
LINE
  8
0_00
  6
CONTINUOUS
 62
4
 10
476.7005
 20
215.7561
 11
476.7005
 21
224.7561
  0
LINE
  8
0_00
  6
CONTINUOUS
 62
4
 10
478.7005
 20
224.7561
 11
478.7005
 21
216.2561
  0
LINE
  8
0_00
  6
CONTINUOUS
 62
4
 10
372.1005
 20
228.2561
 11
372.1005
 21
215.7561
  0
LINE
  8
0_00
  6
CONTINUOUS
 62
4
 10
370.1005
 20
216.2561
 11
370.1005
 21
228.2561
  0
LINE
  8
0_00
  6
CONTINUOUS
 62
4
 10
289.4005
 20
456.2561
 11
289.4005
 21
391.7561
  0
LINE
  8
0_00
  6
CONTINUOUS
 62
2
 10
297.4005
 20
464.2561
 11
297.4005
 21
456.2561
  0
LINE
  8
0_00
  6
CONTINUOUS
 62
2
 10
294.9550
 20
463.8732
 11
297.4005
 21
461.4277
  0
LINE
  8
0_00
  6
CONTINUOUS
 62
2
 10
293.0379
 20
462.9619
 11
297.4005
 21
458.5992
  0
LINE
  8
0_00
  6
CONTINUOUS
 62
2
 10
291.5062
 20
461.6652
 11
296.9152
 21
456.2561
  0
LINE
  8
0_00
  6
CONTINUOUS
 62
2
 10
290.3349
 20
460.0081
 11
294.0868
 21
456.2561
  0
LINE
  8
0_00
  6
CONTINUOUS
 62
2
 10
289.5788
 20
457.9357
 11
291.2584
 21
456.2561
  0
LINE
  8
0_00
  6
CONTINUOUS
 62
2
 10
390.3416
 20
456.2561
 11
325.8416
 21
391.7561
  0
LINE
  8
0_00
  6
CONTINUOUS
 62
2
 10
387.5132
 20
456.2561
 11
323.0132
 21
391.7561
  0
LINE
  8
0_00
  6
CONTINUOUS
 62
2
 10
384.6848
 20
456.2561
 11
320.1848
 21
391.7561
  0
LINE
  8
0_00
  6
CONTINUOUS
 62
2
 10
452.5670
 20
456.2561
 11
388.0670
 21
391.7561
  0
LINE
  8
0_00
  6
CONTINUOUS
 62
2
 10
449.7386
 20
456.2561
 11
385.2386
 21
391.7561
  0
LINE
  8
0_00
  6
CONTINUOUS
 62
2
 10
446.9102
 20
456.2561
 11
382.4102
 21
391.7561
  0
LINE
  8
0_00
  6
CONTINUOUS
 62
2
 10
509.1356
 20
456.2561
 11
444.6356
 21
391.7561
  0
LINE
  8
0_00
  6
CONTINUOUS
 62
2
 10
511.9640
 20
456.2561
 11
447.4641
 21
391.7561
  0
LINE
  8
0_00
  6
CONTINUOUS
 62
2
 10
514.7924
 20
456.2561
 11
450.2925
 21
391.7561
  0
LINE
  8
0_00
  6
CONTINUOUS
 62
4
 10
559.4005
 20
430.6388
 11
559.4005
 21
456.2561
  0
LINE
  8
0_00
  6
CONTINUOUS
 62
4
 10
551.4005
 20
456.2561
 11
551.4005
 21
430.6388
  0
LINE
  8
0_00
  6
CONTINUOUS
 62
2
 10
554.0672
 20
456.3228
 11
554.0672
 21
430.6388
  0
LINE
  8
0_00
  6
CONTINUOUS
 62
2
 10
556.7339
 20
455.8895
 11
556.7339
 21
430.6388
  0
LINE
  8
0_00
  6
CONTINUOUS
 62
4
 10
551.4005
 20
456.2561
 11
289.4005
 21
456.2561
  0
LINE
  8
0_00
  6
CONTINUOUS
 62
2
 10
551.4672
 20
458.9228
 11
297.4005
 21
458.9228
  0
LINE
  8
0_00
  6
CONTINUOUS
 62
2
 10
551.0339
 20
461.5894
 11
297.4005
 21
461.5894
  0
LINE
  8
0_00
  6
CENTER1
 62
2
 10
564.4005
 20
457.1785
 11
564.4005
 21
414.5144
  0
LINE
  8
0_00
  6
CENTER1
 62
2
 10
284.4005
 20
462.0375
 11
284.4005
 21
391.7561
  0
LINE
  8
0_00
  6
CONTINUOUS
 62
2
 10
328.1162
 20
456.2561
 11
289.4005
 21
417.5404
  0
LINE
  8
0_00
  6
CONTINUOUS
 62
2
 10
325.2878
 20
456.2561
 11
289.4005
 21
420.3688
  0
LINE
  8
0_00
  6
CONTINUOUS
 62
2
 10
322.4594
 20
456.2561
 11
289.4005
 21
423.1972
  0
LINE
  8
0_00
  6
CONTINUOUS
 62
2
 10
266.2736
 20
233.1833
 11
268.1534
 21
235.0630
  0
LINE
  8
0_00
  6
CONTINUOUS
 62
2
 10
266.1005
 20
234.4243
 11
266.7848
 21
235.1086
  0
LINE
  8
0_00
  6
CONTINUOUS
 62
2
 10
266.1005
 20
233.7172
 11
267.4691
 21
235.0858
  0
LINE
  8
0_00
  6
CONTINUOUS
 62
2
 10
266.9579
 20
233.1604
 11
268.8377
 21
235.0402
  0
LINE
  8
0_00
  6
CONTINUOUS
 62
2
 10
267.6422
 20
233.1376
 11
269.5220
 21
235.0174
  0
LINE
  8
0_00
  6
CONTINUOUS
 62
2
 10
268.3265
 20
233.1148
 11
270.2063
 21
234.9946
  0
LINE
  8
0_00
  6
CONTINUOUS
 62
2
 10
269.0108
 20
233.0920
 11
270.8906
 21
234.9718
  0
LINE
  8
0_00
  6
CONTINUOUS
 62
2
 10
270.3794
 20
233.0464
 11
271.1005
 21
233.7675
  0
LINE
  8
0_00
  6
CONTINUOUS
 62
2
 10
269.6951
 20
233.0692
 11
271.1005
 21
234.4746
  0
LINE
  8
0_00
  6
CONTINUOUS
 62
2
 10
577.7005
 20
224.0377
 11
578.3848
 21
224.7220
  0
LINE
  8
0_00
  6
CONTINUOUS
 62
2
 10
577.7005
 20
223.3306
 11
579.0691
 21
224.6992
  0
LINE
  8
0_00
  6
CONTINUOUS
 62
2
 10
577.8737
 20
222.7966
 11
579.7534
 21
224.6764
  0
LINE
  8
0_00
  6
CONTINUOUS
 62
2
 10
578.5579
 20
222.7738
 11
580.4377
 21
224.6536
  0
LINE
  8
0_00
  6
CONTINUOUS
 62
2
 10
579.2422
 20
222.7509
 11
581.1220
 21
224.6307
  0
LINE
  8
0_00
  6
CONTINUOUS
 62
2
 10
579.9265
 20
222.7281
 11
581.8063
 21
224.6079
  0
LINE
  8
0_00
  6
CONTINUOUS
 62
2
 10
580.6108
 20
222.7053
 11
582.4906
 21
224.5851
  0
LINE
  8
0_00
  6
CONTINUOUS
 62
2
 10
581.2951
 20
222.6825
 11
582.7005
 21
224.0879
  0
LINE
  8
0_00
  6
CONTINUOUS
 62
2
 10
581.9794
 20
222.6597
 11
582.7005
 21
223.3808
  0
LINE
  8
0_00
  6
CONTINUOUS
 62
2
 10
582.6637
 20
222.6369
 11
582.7005
 21
222.6737
  0
LINE
  8
0_00
  6
CONTINUOUS
 62
4
 10
584.4005
 20
145.6318
 11
584.4005
 21
204.2561
  0
LINE
  8
0_00
  6
CONTINUOUS
 62
4
 10
576.4005
 20
204.2561
 11
576.4005
 21
145.6318
  0
LINE
  8
0_00
  6
CONTINUOUS
 62
2
 10
579.0672
 20
204.3228
 11
579.0672
 21
145.6318
  0
LINE
  8
0_00
  6
CONTINUOUS
 62
2
 10
581.7339
 20
203.8895
 11
581.7339
 21
145.6318
  0
LINE
  8
0_00
  6
CENTER1
 62
2
 10
589.4005
 20
205.1785
 11
589.4005
 21
145.6318
  0
LINE
  8
0_00
  6
CONTINUOUS
 62
4
 10
264.4005
 20
204.2561
 11
264.4005
 21
139.7561
  0
LINE
  8
0_00
  6
CONTINUOUS
 62
2
 10
272.4005
 20
212.2561
 11
272.4005
 21
204.2561
  0
LINE
  8
0_00
  6
CONTINUOUS
 62
2
 10
269.9550
 20
211.8732
 11
272.4005
 21
209.4277
  0
LINE
  8
0_00
  6
CONTINUOUS
 62
2
 10
268.0379
 20
210.9619
 11
272.4005
 21
206.5993
  0
LINE
  8
0_00
  6
CONTINUOUS
 62
2
 10
266.5062
 20
209.6651
 11
271.9152
 21
204.2561
  0
LINE
  8
0_00
  6
CONTINUOUS
 62
2
 10
265.3349
 20
208.0080
 11
269.0868
 21
204.2561
  0
LINE
  8
0_00
  6
CONTINUOUS
 62
2
 10
264.5788
 20
205.9357
 11
266.2584
 21
204.2561
  0
LINE
  8
0_00
  6
CENTER1
 62
2
 10
259.4005
 20
210.0376
 11
259.4005
 21
139.7561
  0
LINE
  8
0_00
  6
CONTINUOUS
 62
4
 10
576.4005
 20
204.2561
 11
264.4005
 21
204.2561
  0
LINE
  8
0_00
  6
CONTINUOUS
 62
2
 10
576.4672
 20
206.9228
 11
272.4005
 21
206.9228
  0
LINE
  8
0_00
  6
CONTINUOUS
 62
2
 10
576.0339
 20
209.5894
 11
272.4005
 21
209.5894
  0
LINE
  8
0_00
  6
CONTINUOUS
 62
2
 10
353.1162
 20
204.2561
 11
288.6162
 21
139.7561
  0
LINE
  8
0_00
  6
CONTINUOUS
 62
2
 10
347.4594
 20
204.2561
 11
282.9594
 21
139.7561
  0
LINE
  8
0_00
  6
CONTINUOUS
 62
2
 10
350.2878
 20
204.2561
 11
285.7878
 21
139.7561
  0
LINE
  8
0_00
  6
CONTINUOUS
 62
2
 10
409.6848
 20
204.2561
 11
345.1848
 21
139.7561
  0
LINE
  8
0_00
  6
CONTINUOUS
 62
2
 10
412.5132
 20
204.2561
 11
348.0132
 21
139.7561
  0
LINE
  8
0_00
  6
CONTINUOUS
 62
2
 10
415.3416
 20
204.2561
 11
350.8416
 21
139.7561
  0
LINE
  8
0_00
  6
CONTINUOUS
 62
2
 10
471.9102
 20
204.2561
 11
407.4102
 21
139.7561
  0
LINE
  8
0_00
  6
CONTINUOUS
 62
2
 10
474.7386
 20
204.2561
 11
410.2386
 21
139.7561
  0
LINE
  8
0_00
  6
CONTINUOUS
 62
2
 10
477.5671
 20
204.2561
 11
413.0670
 21
139.7561
  0
LINE
  8
0_00
  6
CONTINUOUS
 62
2
 10
534.1356
 20
204.2561
 11
469.6356
 21
139.7561
  0
LINE
  8
0_00
  6
CONTINUOUS
 62
2
 10
536.9640
 20
204.2561
 11
472.4640
 21
139.7561
  0
LINE
  8
0_00
  6
CONTINUOUS
 62
2
 10
539.7924
 20
204.2561
 11
475.2924
 21
139.7561
  0
LINE
  8
0_00
  6
CONTINUOUS
 62
2
 10
290.8909
 20
204.2561
 11
264.4005
 21
177.7658
  0
LINE
  8
0_00
  6
CONTINUOUS
 62
2
 10
288.0624
 20
204.2561
 11
264.4005
 21
180.5942
  0
LINE
  8
0_00
  6
CONTINUOUS
 62
2
 10
285.2340
 20
204.2561
 11
264.4005
 21
183.4226
  0
LINE
  8
0_00
  6
CONTINUOUS
 62
6
 10
401.9005
 20
552.1725
 11
446.9005
 21
552.1725
  0
LINE
  8
0_00
  6
CONTINUOUS
 62
6
 10
401.9005
 20
552.1725
 11
446.9005
 21
550.6725
  0
LINE
  8
0_00
  6
CONTINUOUS
 62
6
 10
446.9005
 20
552.1725
 11
446.9005
 21
550.6725
  0
LINE
  8
0_00
  6
CONTINUOUS
 62
6
 10
511.2408
 20
502.5975
 11
541.2408
 21
502.5975
  0
LINE
  8
0_00
  6
CONTINUOUS
 62
6
 10
490.6898
 20
482.0465
 11
511.2408
 21
502.5975
  0
LINE
  8
0_00
  6
CONTINUOUS
 62
6
 10
490.6898
 20
482.0465
 11
494.8831
 21
484.7697
  0
LINE
  8
0_00
  6
CONTINUOUS
 62
6
 10
490.6898
 20
482.0465
 11
493.4130
 21
486.2398
  0
LINE
  8
0_00
  6
CONTINUOUS
 62
6
 10
565.2018
 20
470.5997
 11
587.1240
 21
492.5219
  0
LINE
  8
0_00
  6
CONTINUOUS
 62
6
 10
565.2018
 20
470.5997
 11
569.3951
 21
473.3229
  0
LINE
  8
0_00
  6
CONTINUOUS
 62
6
 10
565.2018
 20
470.5997
 11
567.9249
 21
474.7931
  0
LINE
  8
0_00
  6
CONTINUOUS
 62
6
 10
587.1240
 20
492.5219
 11
631.5240
 21
492.5219
  0
LINE
  8
0_00
  6
CONTINUOUS
 62
6
 10
495.5813
 20
437.0450
 11
544.4460
 21
388.1802
  0
LINE
  8
0_00
  6
CONTINUOUS
 62
6
 10
495.5813
 20
437.0450
 11
498.3044
 21
432.8516
  0
LINE
  8
0_00
  6
CONTINUOUS
 62
6
 10
495.5813
 20
437.0450
 11
499.7747
 21
434.3218
  0
LINE
  8
0_00
  6
CONTINUOUS
 62
6
 10
510.1230
 20
422.5032
 11
562.0676
 21
422.5032
  0
LINE
  8
0_00
  6
CONTINUOUS
 62
6
 10
526.6940
 20
405.9323
 11
573.0940
 21
405.9323
  0
LINE
  8
0_00
  6
CONTINUOUS
 62
6
 10
544.4460
 20
388.1802
 11
598.1558
 21
388.1802
  0
LINE
  8
0_00
  6
CONTINUOUS
 62
6
 10
284.4005
 20
381.7561
 11
284.4005
 21
346.0000
  0
LINE
  8
0_00
  6
CONTINUOUS
 62
6
 10
274.4005
 20
417.4175
 11
274.4005
 21
346.0000
  0
LINE
  8
0_00
  6
CONTINUOUS
 62
6
 10
274.4005
 20
350.0000
 11
284.4005
 21
350.0000
  0
LINE
  8
0_00
  6
CONTINUOUS
 62
6
 10
254.8005
 20
350.0000
 11
274.4005
 21
350.0000
  0
LINE
  8
0_00
  6
CONTINUOUS
 62
6
 10
274.4005
 20
350.0000
 11
269.5098
 21
351.0396
  0
LINE
  8
0_00
  6
CONTINUOUS
 62
6
 10
274.4005
 20
350.0000
 11
269.5098
 21
348.9604
  0
LINE
  8
0_00
  6
CONTINUOUS
 62
6
 10
289.4005
 20
381.7561
 11
289.4005
 21
346.0000
  0
LINE
  8
0_00
  6
CONTINUOUS
 62
6
 10
284.4005
 20
350.0000
 11
289.4005
 21
350.0000
  0
LINE
  8
0_00
  6
CONTINUOUS
 62
6
 10
559.4005
 20
375.8069
 11
559.4005
 21
346.0000
  0
LINE
  8
0_00
  6
CONTINUOUS
 62
6
 10
289.4005
 20
350.0000
 11
559.4005
 21
350.0000
  0
LINE
  8
0_00
  6
CONTINUOUS
 62
6
 10
289.4005
 20
350.0000
 11
294.2913
 21
348.9604
  0
LINE
  8
0_00
  6
CONTINUOUS
 62
6
 10
289.4005
 20
350.0000
 11
294.2913
 21
351.0396
  0
LINE
  8
0_00
  6
CONTINUOUS
 62
6
 10
559.4005
 20
350.0000
 11
554.5098
 21
351.0396
  0
LINE
  8
0_00
  6
CONTINUOUS
 62
6
 10
559.4005
 20
350.0000
 11
554.5098
 21
348.9604
  0
LINE
  8
0_00
  6
CONTINUOUS
 62
6
 10
564.4005
 20
375.8069
 11
564.4005
 21
346.0000
  0
LINE
  8
0_00
  6
CONTINUOUS
 62
6
 10
559.4005
 20
350.0000
 11
564.4005
 21
350.0000
  0
LINE
  8
0_00
  6
CONTINUOUS
 62
6
 10
564.4005
 20
350.0000
 11
574.4005
 21
350.0000
  0
LINE
  8
0_00
  6
CONTINUOUS
 62
6
 10
594.0005
 20
350.0000
 11
574.4005
 21
350.0000
  0
LINE
  8
0_00
  6
CONTINUOUS
 62
6
 10
574.4005
 20
350.0000
 11
579.2913
 21
348.9604
  0
LINE
  8
0_00
  6
CONTINUOUS
 62
6
 10
574.4005
 20
350.0000
 11
579.2913
 21
351.0396
  0
LINE
  8
0_00
  6
CONTINUOUS
 62
2
 10
551.4005
 20
436.2957
 11
546.2776
 21
431.1728
  0
LINE
  8
0_00
  6
CONTINUOUS
 62
2
 10
521.6052
 20
406.5003
 11
506.8610
 21
391.7561
  0
LINE
  8
0_00
  6
CONTINUOUS
 62
2
 10
551.4005
 20
433.4672
 11
547.6919
 21
429.7586
  0
LINE
  8
0_00
  6
CONTINUOUS
 62
2
 10
523.0193
 20
405.0861
 11
509.6894
 21
391.7561
  0
LINE
  8
0_00
  6
CONTINUOUS
 62
2
 10
551.4005
 20
430.6388
 11
549.5019
 21
428.7402
  0
LINE
  8
0_00
  6
CONTINUOUS
 62
2
 10
524.4336
 20
403.6718
 11
512.5178
 21
391.7561
  0
LINE
  8
0_00
  6
CONTINUOUS
 62
6
 10
574.4005
 20
415.9726
 11
574.4005
 21
400.1573
  0
LINE
  8
0_00
  6
CONTINUOUS
 62
6
 10
574.4005
 20
375.8069
 11
574.4005
 21
346.0000
  0
LINE
  8
0_00
  6
CONTINUOUS
 62
6
 10
401.9005
 20
300.1725
 11
446.9005
 21
300.1725
  0
LINE
  8
0_00
  6
CONTINUOUS
 62
6
 10
401.9005
 20
300.1725
 11
446.9005
 21
298.6725
  0
LINE
  8
0_00
  6
CONTINUOUS
 62
6
 10
446.9005
 20
300.1725
 11
446.9005
 21
298.6725
  0
LINE
  8
0_00
  6
CONTINUOUS
 62
6
 10
536.2408
 20
250.5975
 11
566.2408
 21
250.5975
  0
LINE
  8
0_00
  6
CONTINUOUS
 62
6
 10
515.6898
 20
230.0465
 11
536.2408
 21
250.5975
  0
LINE
  8
0_00
  6
CONTINUOUS
 62
6
 10
515.6898
 20
230.0465
 11
519.8832
 21
232.7697
  0
LINE
  8
0_00
  6
CONTINUOUS
 62
6
 10
515.6898
 20
230.0465
 11
518.4130
 21
234.2399
  0
LINE
  8
0_00
  6
CONTINUOUS
 62
6
 10
590.2018
 20
218.5997
 11
612.1240
 21
240.5219
  0
LINE
  8
0_00
  6
CONTINUOUS
 62
6
 10
590.2018
 20
218.5997
 11
594.3951
 21
221.3229
  0
LINE
  8
0_00
  6
CONTINUOUS
 62
6
 10
590.2018
 20
218.5997
 11
592.9249
 21
222.7931
  0
LINE
  8
0_00
  6
CONTINUOUS
 62
6
 10
612.1240
 20
240.5219
 11
656.5240
 21
240.5219
  0
LINE
  8
0_00
  6
CONTINUOUS
 62
6
 10
495.5813
 20
185.0450
 11
544.4460
 21
136.1802
  0
LINE
  8
0_00
  6
CONTINUOUS
 62
6
 10
495.5813
 20
185.0450
 11
498.3044
 21
180.8516
  0
LINE
  8
0_00
  6
CONTINUOUS
 62
6
 10
495.5813
 20
185.0450
 11
499.7747
 21
182.3218
  0
LINE
  8
0_00
  6
CONTINUOUS
 62
6
 10
510.1230
 20
170.5033
 11
562.0676
 21
170.5033
  0
LINE
  8
0_00
  6
CONTINUOUS
 62
6
 10
526.6940
 20
153.9323
 11
573.0940
 21
153.9323
  0
LINE
  8
0_00
  6
CONTINUOUS
 62
6
 10
544.4460
 20
136.1802
 11
598.1558
 21
136.1802
  0
LINE
  8
0_00
  6
CONTINUOUS
 62
6
 10
259.4005
 20
129.7561
 11
259.4005
 21
94.0000
  0
LINE
  8
0_00
  6
CONTINUOUS
 62
6
 10
249.4005
 20
165.4175
 11
249.4005
 21
94.0000
  0
LINE
  8
0_00
  6
CONTINUOUS
 62
6
 10
249.4005
 20
98.0000
 11
259.4005
 21
98.0000
  0
LINE
  8
0_00
  6
CONTINUOUS
 62
6
 10
229.8005
 20
98.0000
 11
249.4005
 21
98.0000
  0
LINE
  8
0_00
  6
CONTINUOUS
 62
6
 10
249.4005
 20
98.0000
 11
244.5098
 21
99.0396
  0
LINE
  8
0_00
  6
CONTINUOUS
 62
6
 10
249.4005
 20
98.0000
 11
244.5098
 21
96.9604
  0
LINE
  8
0_00
  6
CONTINUOUS
 62
6
 10
264.4005
 20
129.7561
 11
264.4005
 21
94.0000
  0
LINE
  8
0_00
  6
CONTINUOUS
 62
6
 10
259.4005
 20
98.0000
 11
264.4005
 21
98.0000
  0
LINE
  8
0_00
  6
CONTINUOUS
 62
6
 10
584.4005
 20
123.8069
 11
584.4005
 21
94.0000
  0
LINE
  8
0_00
  6
CONTINUOUS
 62
6
 10
264.4005
 20
98.0000
 11
584.4005
 21
98.0000
  0
LINE
  8
0_00
  6
CONTINUOUS
 62
6
 10
264.4005
 20
98.0000
 11
269.2913
 21
96.9604
  0
LINE
  8
0_00
  6
CONTINUOUS
 62
6
 10
264.4005
 20
98.0000
 11
269.2913
 21
99.0396
  0
LINE
  8
0_00
  6
CONTINUOUS
 62
6
 10
584.4005
 20
98.0000
 11
579.5098
 21
99.0396
  0
LINE
  8
0_00
  6
CONTINUOUS
 62
6
 10
584.4005
 20
98.0000
 11
579.5098
 21
96.9604
  0
LINE
  8
0_00
  6
CONTINUOUS
 62
6
 10
589.4005
 20
123.8069
 11
589.4005
 21
94.0000
  0
LINE
  8
0_00
  6
CONTINUOUS
 62
6
 10
584.4005
 20
98.0000
 11
589.4005
 21
98.0000
  0
LINE
  8
0_00
  6
CONTINUOUS
 62
6
 10
589.4005
 20
98.0000
 11
599.4005
 21
98.0000
  0
LINE
  8
0_00
  6
CONTINUOUS
 62
6
 10
619.0005
 20
98.0000
 11
599.4005
 21
98.0000
  0
LINE
  8
0_00
  6
CONTINUOUS
 62
6
 10
599.4005
 20
98.0000
 11
604.2913
 21
96.9604
  0
LINE
  8
0_00
  6
CONTINUOUS
 62
6
 10
599.4005
 20
98.0000
 11
604.2913
 21
99.0396
  0
LINE
  8
0_00
  6
CONTINUOUS
 62
6
 10
599.4005
 20
165.4175
 11
599.4005
 21
94.0000
  0
LINE
  8
0_00
  6
CONTINUOUS
 62
2
 10
576.7672
 20
179.0055
 11
560.4653
 21
162.7035
  0
LINE
  8
0_00
  6
CONTINUOUS
 62
2
 10
576.7672
 20
181.8339
 11
559.0510
 21
164.1178
  0
LINE
  8
0_00
  6
CONTINUOUS
 62
2
 10
576.7672
 20
184.6623
 11
557.6368
 21
165.5320
  0
LINE
  8
0_00
  6
CONTINUOUS
 62
4
 10
594.4005
 20
527.2963
 11
615.2005
 21
527.2963
  0
LINE
  8
0_00
  6
CONTINUOUS
 62
4
 10
615.2005
 20
527.2963
 11
615.2005
 21
536.8962
  0
LINE
  8
0_00
  6
CONTINUOUS
 62
4
 10
594.4005
 20
536.8962
 11
615.2005
 21
536.8962
  0
LINE
  8
0_00
  6
CONTINUOUS
 62
4
 10
594.4005
 20
527.2963
 11
594.4005
 21
536.8962
  0
LINE
  8
0_00
  6
CONTINUOUS
 62
4
 10
233.6005
 20
527.2963
 11
254.4005
 21
527.2963
  0
LINE
  8
0_00
  6
CONTINUOUS
 62
4
 10
254.4005
 20
527.2963
 11
254.4005
 21
536.8962
  0
LINE
  8
0_00
  6
CONTINUOUS
 62
4
 10
233.6005
 20
536.8962
 11
254.4005
 21
536.8962
  0
LINE
  8
0_00
  6
CONTINUOUS
 62
4
 10
233.6005
 20
527.2963
 11
233.6005
 21
536.8962
  0
LINE
  8
0_00
  6
CONTINUOUS
 62
4
 10
213.6005
 20
275.2963
 11
234.4005
 21
275.2963
  0
LINE
  8
0_00
  6
CONTINUOUS
 62
4
 10
234.4005
 20
275.2963
 11
234.4005
 21
284.8963
  0
LINE
  8
0_00
  6
CONTINUOUS
 62
4
 10
213.6005
 20
284.8963
 11
234.4005
 21
284.8963
  0
LINE
  8
0_00
  6
CONTINUOUS
 62
4
 10
213.6005
 20
275.2963
 11
213.6005
 21
284.8963
  0
LINE
  8
0_00
  6
CONTINUOUS
 62
4
 10
614.4005
 20
275.2963
 11
635.2005
 21
275.2963
  0
LINE
  8
0_00
  6
CONTINUOUS
 62
4
 10
635.2005
 20
275.2963
 11
635.2005
 21
284.8963
  0
LINE
  8
0_00
  6
CONTINUOUS
 62
4
 10
614.4005
 20
284.8963
 11
635.2005
 21
284.8963
  0
LINE
  8
0_00
  6
CONTINUOUS
 62
4
 10
614.4005
 20
275.2963
 11
614.4005
 21
284.8963
  0
LINE
  8
0_00
  6
CONTINUOUS
 62
3
 10
364.9407
 20
64.8000
 11
364.9407
 21
24.8000
  0
LINE
  8
0_00
  6
CONTINUOUS
 62
7
 10
36.4603
 20
74.8000
 11
812.3407
 21
74.8000
  0
LINE
  8
0_00
  6
CONTINUOUS
 62
3
 10
812.3407
 20
567.8000
 11
812.3407
 21
576.8000
  0
LINE
  8
0_00
  6
CONTINUOUS
 62
7
 10
812.3407
 20
24.8000
 11
812.3407
 21
567.8000
  0
LINE
  8
0_00
  6
CONTINUOUS
 62
3
 10
36.4603
 20
567.8000
 11
36.4603
 21
576.8000
  0
LINE
  8
0_00
  6
CONTINUOUS
 62
7
 10
36.4603
 20
24.8000
 11
36.4603
 21
567.8000
  0
LINE
  8
0_00
  6
CONTINUOUS
 62
7
 10
36.4603
 20
567.8000
 11
812.3407
 21
567.8000
  0
LINE
  8
0_00
  6
CONTINUOUS
 62
7
 10
36.4603
 20
24.8000
 11
812.3407
 21
24.8000
  0
LINE
  8
0_00
  6
CONTINUOUS
 62
3
 10
26.4603
 20
14.8000
 11
26.4603
 21
576.8000
  0
LINE
  8
0_00
  6
CONTINUOUS
 62
3
 10
822.3407
 20
14.8000
 11
822.3407
 21
576.8000
  0
LINE
  8
0_00
  6
CONTINUOUS
 62
3
 10
26.4603
 20
576.8000
 11
822.3407
 21
576.8000
  0
LINE
  8
0_00
  6
CONTINUOUS
 62
3
 10
713.7407
 20
24.8000
 11
713.7407
 21
74.8000
  0
LINE
  8
0_00
  6
CONTINUOUS
 62
3
 10
36.4603
 20
64.8000
 11
541.8407
 21
64.8000
  0
LINE
  8
0_00
  6
CONTINUOUS
 62
7
 10
541.8407
 20
64.8000
 11
812.3407
 21
64.8000
  0
LINE
  8
0_00
  6
CONTINUOUS
 62
3
 10
713.7407
 20
44.8000
 11
812.3407
 21
44.8000
  0
LINE
  8
0_00
  6
CONTINUOUS
 62
3
 10
733.7407
 20
74.8000
 11
733.7407
 21
64.8000
  0
LINE
  8
0_00
  6
CONTINUOUS
 62
3
 10
541.8407
 20
24.8000
 11
541.8407
 21
64.8000
  0
LINE
  8
0_00
  6
CONTINUOUS
 62
7
 10
541.8407
 20
64.8000
 11
541.8407
 21
74.8000
  0
LINE
  8
0_00
  6
CONTINUOUS
 62
3
 10
557.8407
 20
64.8000
 11
557.8407
 21
74.8000
  0
LINE
  8
0_00
  6
CONTINUOUS
 62
3
 10
608.3407
 20
24.8000
 11
608.3407
 21
74.8000
  0
LINE
  8
0_00
  6
CONTINUOUS
 62
3
 10
669.7407
 20
64.8000
 11
669.7407
 21
74.8000
  0
LINE
  8
0_00
  6
CONTINUOUS
 62
3
 10
688.1407
 20
24.8000
 11
688.1407
 21
64.8000
  0
LINE
  8
0_00
  6
CONTINUOUS
 62
3
 10
663.9407
 20
24.8000
 11
663.9407
 21
64.8000
  0
LINE
  8
0_00
  6
CONTINUOUS
 62
3
 10
639.7407
 20
24.8000
 11
639.7407
 21
64.8000
  0
LINE
  8
0_00
  6
CONTINUOUS
 62
3
 10
312.4407
 20
24.8000
 11
312.4407
 21
74.8000
  0
LINE
  8
0_00
  6
CONTINUOUS
 62
3
 10
417.4407
 20
24.8000
 11
417.4407
 21
64.8000
  0
LINE
  8
0_00
  6
CONTINUOUS
 62
3
 10
36.4603
 20
54.8001
 11
312.4407
 21
54.8001
  0
LINE
  8
0_00
  6
CONTINUOUS
 62
3
 10
36.4603
 20
44.8000
 11
608.3407
 21
44.8000
  0
LINE
  8
0_00
  6
CONTINUOUS
 62
3
 10
116.4603
 20
34.8000
 11
312.4407
 21
34.8000
  0
LINE
  8
0_00
  6
CONTINUOUS
 62
7
 10
36.4603
 20
34.8000
 11
116.4603
 21
34.8000
  0
LINE
  8
0_00
  6
CONTINUOUS
 62
3
 10
545.3407
 20
567.8000
 11
545.3407
 21
576.8000
  0
LINE
  8
0_00
  6
CONTINUOUS
 62
3
 10
525.3407
 20
567.8000
 11
525.3407
 21
576.8000
  0
LINE
  8
0_00
  6
CONTINUOUS
 62
3
 10
136.4603
 20
567.8000
 11
136.4603
 21
576.8000
  0
LINE
  8
0_00
  6
CONTINUOUS
 62
3
 10
569.3407
 20
567.8000
 11
569.3407
 21
576.8000
  0
LINE
  8
0_00
  6
CONTINUOUS
 62
3
 10
610.3407
 20
567.8000
 11
610.3407
 21
576.8000
  0
LINE
  8
0_00
  6
CONTINUOUS
 62
3
 10
764.3407
 20
567.8000
 11
764.3407
 21
576.8000
  0
LINE
  8
0_00
  6
CONTINUOUS
 62
3
 10
76.4603
 20
74.8000
 11
76.4603
 21
24.8000
  0
LINE
  8
0_00
  6
CONTINUOUS
 62
7
 10
116.4603
 20
74.8000
 11
116.4603
 21
24.8000
  0
LINE
  8
0_00
  6
CONTINUOUS
 62
3
 10
579.8407
 20
44.8000
 11
579.8407
 21
64.8000
  0
LINE
  8
0_00
  6
CONTINUOUS
 62
3
 10
595.8407
 20
74.8000
 11
595.8407
 21
64.8000
  0
LINE
  8
0_00
  6
CONTINUOUS
 62
3
 10
608.3407
 20
54.8001
 11
713.7407
 21
54.8001
  0
LINE
  8
0_00
  6
CONTINUOUS
 62
3
 10
717.7407
 20
47.8000
 11
719.0406
 21
47.8000
  0
LINE
  8
0_00
  6
CONTINUOUS
 62
3
 10
719.0406
 20
47.8000
 11
719.0406
 21
60.8000
  0
LINE
  8
0_00
  6
CONTINUOUS
 62
3
 10
719.0406
 20
60.8000
 11
717.7407
 21
60.8000
  0
LINE
  8
0_00
  6
CONTINUOUS
 62
3
 10
717.7407
 20
47.8000
 11
717.7407
 21
60.8000
  0
LINE
  8
0_00
  6
CONTINUOUS
 62
3
 10
719.5607
 20
47.8000
 11
720.8607
 21
47.8000
  0
LINE
  8
0_00
  6
CONTINUOUS
 62
3
 10
720.8607
 20
47.8000
 11
720.8607
 21
60.8000
  0
LINE
  8
0_00
  6
CONTINUOUS
 62
3
 10
720.8607
 20
60.8000
 11
719.5607
 21
60.8000
  0
LINE
  8
0_00
  6
CONTINUOUS
 62
3
 10
719.5607
 20
47.8000
 11
719.5607
 21
60.8000
  0
LINE
  8
0_00
  6
CONTINUOUS
 62
3
 10
721.3807
 20
47.8000
 11
722.6807
 21
47.8000
  0
LINE
  8
0_00
  6
CONTINUOUS
 62
3
 10
722.6807
 20
47.8000
 11
722.6807
 21
60.8000
  0
LINE
  8
0_00
  6
CONTINUOUS
 62
3
 10
722.6807
 20
60.8000
 11
721.3807
 21
60.8000
  0
LINE
  8
0_00
  6
CONTINUOUS
 62
3
 10
721.3807
 20
47.8000
 11
721.3807
 21
60.8000
  0
LINE
  8
0_00
  6
CONTINUOUS
 62
3
 10
723.2007
 20
47.8000
 11
724.5007
 21
47.8000
  0
LINE
  8
0_00
  6
CONTINUOUS
 62
3
 10
724.5007
 20
60.8000
 11
723.2007
 21
60.8000
  0
LINE
  8
0_00
  6
CONTINUOUS
 62
3
 10
723.2007
 20
47.8000
 11
723.2007
 21
60.8000
  0
LINE
  8
0_00
  6
CONTINUOUS
 62
3
 10
728.2708
 20
47.8000
 11
733.3407
 21
47.8000
  0
LINE
  8
0_00
  6
CONTINUOUS
 62
3
 10
733.3407
 20
47.8000
 11
733.3407
 21
48.9700
  0
LINE
  8
0_00
  6
CONTINUOUS
 62
3
 10
733.3407
 20
48.9700
 11
728.2708
 21
48.9700
  0
LINE
  8
0_00
  6
CONTINUOUS
 62
3
 10
728.2708
 20
48.9700
 11
728.2708
 21
47.8000
  0
LINE
  8
0_00
  6
CONTINUOUS
 62
3
 10
728.2708
 20
49.4900
 11
733.3407
 21
49.4900
  0
LINE
  8
0_00
  6
CONTINUOUS
 62
3
 10
733.3407
 20
49.4900
 11
733.3407
 21
50.6600
  0
LINE
  8
0_00
  6
CONTINUOUS
 62
3
 10
733.3407
 20
50.6600
 11
728.2708
 21
50.6600
  0
LINE
  8
0_00
  6
CONTINUOUS
 62
3
 10
728.2708
 20
50.6600
 11
728.2708
 21
49.4900
  0
LINE
  8
0_00
  6
CONTINUOUS
 62
3
 10
728.2708
 20
51.1800
 11
733.3407
 21
51.1800
  0
LINE
  8
0_00
  6
CONTINUOUS
 62
3
 10
733.3407
 20
51.1800
 11
733.3407
 21
52.3500
  0
LINE
  8
0_00
  6
CONTINUOUS
 62
3
 10
733.3407
 20
52.3500
 11
728.2708
 21
52.3500
  0
LINE
  8
0_00
  6
CONTINUOUS
 62
3
 10
728.2708
 20
52.3500
 11
728.2708
 21
51.1800
  0
LINE
  8
0_00
  6
CONTINUOUS
 62
3
 10
728.2708
 20
52.8700
 11
733.3407
 21
52.8700
  0
LINE
  8
0_00
  6
CONTINUOUS
 62
3
 10
733.3407
 20
52.8700
 11
733.3407
 21
54.0400
  0
LINE
  8
0_00
  6
CONTINUOUS
 62
3
 10
733.3407
 20
54.0400
 11
728.2708
 21
54.0400
  0
LINE
  8
0_00
  6
CONTINUOUS
 62
3
 10
728.2708
 20
54.0400
 11
728.2708
 21
52.8700
  0
LINE
  8
0_00
  6
CONTINUOUS
 62
3
 10
728.2708
 20
54.5600
 11
733.3407
 21
54.5600
  0
LINE
  8
0_00
  6
CONTINUOUS
 62
3
 10
733.3407
 20
54.5600
 11
733.3407
 21
55.7300
  0
LINE
  8
0_00
  6
CONTINUOUS
 62
3
 10
733.3407
 20
55.7300
 11
728.2708
 21
55.7300
  0
LINE
  8
0_00
  6
CONTINUOUS
 62
3
 10
728.2708
 20
55.7300
 11
728.2708
 21
54.5600
  0
LINE
  8
0_00
  6
CONTINUOUS
 62
3
 10
728.2708
 20
56.2500
 11
733.3407
 21
56.2500
  0
LINE
  8
0_00
  6
CONTINUOUS
 62
3
 10
733.3407
 20
56.2500
 11
733.3407
 21
57.4200
  0
LINE
  8
0_00
  6
CONTINUOUS
 62
3
 10
733.3407
 20
57.4200
 11
728.2708
 21
57.4200
  0
LINE
  8
0_00
  6
CONTINUOUS
 62
3
 10
728.2708
 20
57.4200
 11
728.2708
 21
56.2500
  0
LINE
  8
0_00
  6
CONTINUOUS
 62
3
 10
728.2708
 20
57.9401
 11
733.3407
 21
57.9401
  0
LINE
  8
0_00
  6
CONTINUOUS
 62
3
 10
733.3407
 20
57.9401
 11
733.3407
 21
59.1100
  0
LINE
  8
0_00
  6
CONTINUOUS
 62
3
 10
733.3407
 20
59.1100
 11
728.2708
 21
59.1100
  0
LINE
  8
0_00
  6
CONTINUOUS
 62
3
 10
728.2708
 20
59.1100
 11
728.2708
 21
57.9401
  0
LINE
  8
0_00
  6
CONTINUOUS
 62
3
 10
728.2708
 20
59.6301
 11
733.3407
 21
59.6301
  0
LINE
  8
0_00
  6
CONTINUOUS
 62
3
 10
733.3407
 20
59.6301
 11
733.3407
 21
60.8000
  0
LINE
  8
0_00
  6
CONTINUOUS
 62
3
 10
733.3407
 20
60.8000
 11
728.2708
 21
60.8000
  0
LINE
  8
0_00
  6
CONTINUOUS
 62
3
 10
728.2708
 20
60.8000
 11
728.2708
 21
59.6301
  0
LINE
  8
0_00
  6
CONTINUOUS
 62
3
 10
725.0208
 20
47.8000
 11
725.0208
 21
51.3750
  0
LINE
  8
0_00
  6
CONTINUOUS
 62
3
 10
725.8917
 20
48.5150
 11
725.8917
 21
51.3750
  0
LINE
  8
0_00
  6
CONTINUOUS
 62
3
 10
725.0208
 20
47.8000
 11
726.4507
 21
47.8000
  0
LINE
  8
0_00
  6
CONTINUOUS
 62
3
 10
725.8917
 20
48.5150
 11
726.4507
 21
48.5150
  0
LINE
  8
0_00
  6
CONTINUOUS
 62
3
 10
726.4033
 20
53.2037
 11
726.9707
 21
52.0900
  0
LINE
  8
0_00
  6
CONTINUOUS
 62
3
 10
727.2941
 20
55.0302
 11
726.4032
 21
53.2037
  0
LINE
  8
0_00
  6
CONTINUOUS
 62
3
 10
724.5007
 20
56.9001
 11
724.5007
 21
60.8000
  0
LINE
  8
0_00
  6
CONTINUOUS
 62
3
 10
724.5007
 20
56.9001
 11
726.1257
 21
56.9001
  0
LINE
  8
0_00
  6
CONTINUOUS
 62
3
 10
724.5007
 20
56.1200
 11
725.2222
 21
56.1200
  0
LINE
  8
0_00
  6
CONTINUOUS
 62
3
 10
724.5007
 20
52.0900
 11
726.9707
 21
52.0900
  0
LINE
  8
0_00
  6
CONTINUOUS
 62
3
 10
724.5007
 20
54.6407
 11
725.2223
 21
56.1201
  0
LINE
  8
0_00
  6
CONTINUOUS
 62
3
 10
724.5007
 20
54.6409
 11
724.5007
 21
56.1200
  0
LINE
  8
0_00
  6
CONTINUOUS
 62
3
 10
724.5007
 20
52.0900
 11
724.5007
 21
47.8000
  0
LINE
  8
0_00
  6
CONTINUOUS
 62
3
 10
717.9407
 20
60.8000
 11
717.9407
 21
47.8000
  0
LINE
  8
0_00
  6
CONTINUOUS
 62
3
 10
718.1407
 20
60.8000
 11
718.1407
 21
47.8000
  0
LINE
  8
0_00
  6
CONTINUOUS
 62
3
 10
718.3407
 20
60.8000
 11
718.3407
 21
47.8000
  0
LINE
  8
0_00
  6
CONTINUOUS
 62
3
 10
718.5406
 20
60.8000
 11
718.5406
 21
47.8000
  0
LINE
  8
0_00
  6
CONTINUOUS
 62
3
 10
718.7407
 20
60.8000
 11
718.7407
 21
47.8000
  0
LINE
  8
0_00
  6
CONTINUOUS
 62
3
 10
719.7607
 20
60.8000
 11
719.7607
 21
47.8000
  0
LINE
  8
0_00
  6
CONTINUOUS
 62
3
 10
719.9607
 20
60.8000
 11
719.9607
 21
47.8000
  0
LINE
  8
0_00
  6
CONTINUOUS
 62
3
 10
720.1606
 20
60.8000
 11
720.1606
 21
47.8000
  0
LINE
  8
0_00
  6
CONTINUOUS
 62
3
 10
720.3607
 20
60.8000
 11
720.3607
 21
47.8000
  0
LINE
  8
0_00
  6
CONTINUOUS
 62
3
 10
720.5607
 20
60.8000
 11
720.5607
 21
47.8000
  0
LINE
  8
0_00
  6
CONTINUOUS
 62
3
 10
720.7607
 20
60.8000
 11
720.7607
 21
47.8000
  0
LINE
  8
0_00
  6
CONTINUOUS
 62
3
 10
721.5807
 20
60.8000
 11
721.5807
 21
47.8000
  0
LINE
  8
0_00
  6
CONTINUOUS
 62
3
 10
721.7808
 20
60.8000
 11
721.7808
 21
47.8000
  0
LINE
  8
0_00
  6
CONTINUOUS
 62
3
 10
721.9807
 20
60.8000
 11
721.9807
 21
47.8000
  0
LINE
  8
0_00
  6
CONTINUOUS
 62
3
 10
722.1807
 20
60.8000
 11
722.1807
 21
47.8000
  0
LINE
  8
0_00
  6
CONTINUOUS
 62
3
 10
722.3807
 20
60.8000
 11
722.3807
 21
47.8000
  0
LINE
  8
0_00
  6
CONTINUOUS
 62
3
 10
722.5807
 20
60.8000
 11
722.5807
 21
47.8000
  0
LINE
  8
0_00
  6
CONTINUOUS
 62
3
 10
728.2708
 20
48.0000
 11
733.3407
 21
48.0000
  0
LINE
  8
0_00
  6
CONTINUOUS
 62
3
 10
728.2708
 20
48.2001
 11
733.3407
 21
48.2001
  0
LINE
  8
0_00
  6
CONTINUOUS
 62
3
 10
728.2708
 20
48.4000
 11
733.3407
 21
48.4000
  0
LINE
  8
0_00
  6
CONTINUOUS
 62
3
 10
728.2708
 20
48.6000
 11
733.3407
 21
48.6000
  0
LINE
  8
0_00
  6
CONTINUOUS
 62
3
 10
728.2708
 20
48.8000
 11
733.3407
 21
48.8000
  0
LINE
  8
0_00
  6
CONTINUOUS
 62
3
 10
728.2708
 20
49.6900
 11
733.3407
 21
49.6900
  0
LINE
  8
0_00
  6
CONTINUOUS
 62
3
 10
728.2708
 20
49.8901
 11
733.3407
 21
49.8901
  0
LINE
  8
0_00
  6
CONTINUOUS
 62
3
 10
728.2708
 20
50.0900
 11
733.3407
 21
50.0900
  0
LINE
  8
0_00
  6
CONTINUOUS
 62
3
 10
728.2708
 20
50.2900
 11
733.3407
 21
50.2900
  0
LINE
  8
0_00
  6
CONTINUOUS
 62
3
 10
728.2708
 20
50.4900
 11
733.3407
 21
50.4900
  0
LINE
  8
0_00
  6
CONTINUOUS
 62
3
 10
728.2708
 20
51.3801
 11
733.3407
 21
51.3801
  0
LINE
  8
0_00
  6
CONTINUOUS
 62
3
 10
728.2708
 20
51.5801
 11
733.3407
 21
51.5801
  0
LINE
  8
0_00
  6
CONTINUOUS
 62
3
 10
728.2708
 20
51.7800
 11
733.3407
 21
51.7800
  0
LINE
  8
0_00
  6
CONTINUOUS
 62
3
 10
728.2708
 20
51.9800
 11
733.3407
 21
51.9800
  0
LINE
  8
0_00
  6
CONTINUOUS
 62
3
 10
728.2708
 20
52.1800
 11
733.3407
 21
52.1800
  0
LINE
  8
0_00
  6
CONTINUOUS
 62
3
 10
728.2708
 20
53.0701
 11
733.3407
 21
53.0701
  0
LINE
  8
0_00
  6
CONTINUOUS
 62
3
 10
728.2708
 20
53.2701
 11
733.3407
 21
53.2701
  0
LINE
  8
0_00
  6
CONTINUOUS
 62
3
 10
728.2708
 20
53.4700
 11
733.3407
 21
53.4700
  0
LINE
  8
0_00
  6
CONTINUOUS
 62
3
 10
728.2708
 20
53.6700
 11
733.3407
 21
53.6700
  0
LINE
  8
0_00
  6
CONTINUOUS
 62
3
 10
728.2708
 20
53.8700
 11
733.3407
 21
53.8700
  0
LINE
  8
0_00
  6
CONTINUOUS
 62
3
 10
728.2708
 20
54.7601
 11
733.3407
 21
54.7601
  0
LINE
  8
0_00
  6
CONTINUOUS
 62
3
 10
728.2708
 20
54.9601
 11
733.3407
 21
54.9601
  0
LINE
  8
0_00
  6
CONTINUOUS
 62
3
 10
728.2708
 20
55.1600
 11
733.3407
 21
55.1600
  0
LINE
  8
0_00
  6
CONTINUOUS
 62
3
 10
728.2708
 20
55.3600
 11
733.3407
 21
55.3600
  0
LINE
  8
0_00
  6
CONTINUOUS
 62
3
 10
728.2708
 20
55.5600
 11
733.3407
 21
55.5600
  0
LINE
  8
0_00
  6
CONTINUOUS
 62
3
 10
733.3407
 20
56.4501
 11
728.2708
 21
56.4501
  0
LINE
  8
0_00
  6
CONTINUOUS
 62
3
 10
733.3407
 20
56.6501
 11
728.2708
 21
56.6501
  0
LINE
  8
0_00
  6
CONTINUOUS
 62
3
 10
733.3407
 20
56.8500
 11
728.2708
 21
56.8500
  0
LINE
  8
0_00
  6
CONTINUOUS
 62
3
 10
733.3407
 20
57.0500
 11
728.2708
 21
57.0500
  0
LINE
  8
0_00
  6
CONTINUOUS
 62
3
 10
733.3407
 20
57.2500
 11
728.2708
 21
57.2500
  0
LINE
  8
0_00
  6
CONTINUOUS
 62
3
 10
728.2708
 20
58.1401
 11
733.3407
 21
58.1401
  0
LINE
  8
0_00
  6
CONTINUOUS
 62
3
 10
728.2708
 20
58.3401
 11
733.3407
 21
58.3401
  0
LINE
  8
0_00
  6
CONTINUOUS
 62
3
 10
728.2708
 20
58.5400
 11
733.3407
 21
58.5400
  0
LINE
  8
0_00
  6
CONTINUOUS
 62
3
 10
728.2708
 20
58.7400
 11
733.3407
 21
58.7400
  0
LINE
  8
0_00
  6
CONTINUOUS
 62
3
 10
728.2708
 20
58.9400
 11
733.3407
 21
58.9400
  0
LINE
  8
0_00
  6
CONTINUOUS
 62
3
 10
728.2708
 20
59.8301
 11
733.3407
 21
59.8301
  0
LINE
  8
0_00
  6
CONTINUOUS
 62
3
 10
728.2708
 20
60.0301
 11
733.3407
 21
60.0301
  0
LINE
  8
0_00
  6
CONTINUOUS
 62
3
 10
728.2708
 20
60.2300
 11
733.3407
 21
60.2300
  0
LINE
  8
0_00
  6
CONTINUOUS
 62
3
 10
728.2708
 20
60.4300
 11
733.3407
 21
60.4300
  0
LINE
  8
0_00
  6
CONTINUOUS
 62
3
 10
728.2708
 20
60.6301
 11
733.3407
 21
60.6301
  0
LINE
  8
0_00
  6
CONTINUOUS
 62
3
 10
723.4006
 20
60.8000
 11
723.4006
 21
47.8000
  0
LINE
  8
0_00
  6
CONTINUOUS
 62
3
 10
723.6007
 20
60.8000
 11
723.6007
 21
47.8000
  0
LINE
  8
0_00
  6
CONTINUOUS
 62
3
 10
723.8007
 20
60.8000
 11
723.8007
 21
47.8000
  0
LINE
  8
0_00
  6
CONTINUOUS
 62
3
 10
724.0006
 20
60.8000
 11
724.0006
 21
47.8000
  0
LINE
  8
0_00
  6
CONTINUOUS
 62
3
 10
724.2007
 20
60.8000
 11
724.2007
 21
47.8000
  0
LINE
  8
0_00
  6
CONTINUOUS
 62
3
 10
724.4006
 20
60.8000
 11
724.4006
 21
47.8000
  0
LINE
  8
0_00
  6
CONTINUOUS
 62
3
 10
725.2207
 20
47.8000
 11
725.2207
 21
51.3750
  0
LINE
  8
0_00
  6
CONTINUOUS
 62
3
 10
725.4208
 20
47.8000
 11
725.4208
 21
51.3750
  0
LINE
  8
0_00
  6
CONTINUOUS
 62
3
 10
725.6207
 20
47.8000
 11
725.6207
 21
51.3750
  0
LINE
  8
0_00
  6
CONTINUOUS
 62
3
 10
725.8207
 20
47.8000
 11
725.8207
 21
51.3750
  0
LINE
  8
0_00
  6
CONTINUOUS
 62
3
 10
725.8917
 20
48.3150
 11
726.4507
 21
48.3150
  0
LINE
  8
0_00
  6
CONTINUOUS
 62
3
 10
725.8917
 20
48.1150
 11
726.4507
 21
48.1150
  0
LINE
  8
0_00
  6
CONTINUOUS
 62
3
 10
725.8917
 20
47.9150
 11
726.4507
 21
47.9150
  0
LINE
  8
0_00
  6
CONTINUOUS
 62
3
 10
726.8550
 20
52.3172
 11
724.5236
 21
52.3172
  0
LINE
  8
0_00
  6
CONTINUOUS
 62
3
 10
726.7355
 20
52.5518
 11
724.5236
 21
52.5518
  0
LINE
  8
0_00
  6
CONTINUOUS
 62
3
 10
726.5959
 20
52.8256
 11
724.5187
 21
52.8256
  0
LINE
  8
0_00
  6
CONTINUOUS
 62
3
 10
726.4803
 20
53.0524
 11
724.5162
 21
53.0524
  0
LINE
  8
0_00
  6
CONTINUOUS
 62
3
 10
727.3906
 20
55.6841
 11
726.1002
 21
53.0386
  0
LINE
  8
0_00
  6
CONTINUOUS
 62
3
 10
727.3264
 20
56.0089
 11
725.8738
 21
53.0306
  0
LINE
  8
0_00
  6
CONTINUOUS
 62
3
 10
727.2056
 20
56.2172
 11
725.6610
 21
53.0506
  0
LINE
  8
0_00
  6
CONTINUOUS
 62
3
 10
727.0686
 20
56.3929
 11
725.4303
 21
53.0339
  0
LINE
  8
0_00
  6
CONTINUOUS
 62
3
 10
726.9340
 20
56.5731
 11
725.2527
 21
53.1258
  0
LINE
  8
0_00
  6
CONTINUOUS
 62
3
 10
726.7581
 20
56.6684
 11
724.9939
 21
53.0516
  0
LINE
  8
0_00
  6
CONTINUOUS
 62
3
 10
726.5841
 20
56.7681
 11
724.7689
 21
53.0465
  0
LINE
  8
0_00
  6
CONTINUOUS
 62
3
 10
726.3777
 20
56.8012
 11
724.5591
 21
53.0725
  0
LINE
  8
0_00
  6
CONTINUOUS
 62
3
 10
726.1666
 20
56.8245
 11
724.4702
 21
53.3465
  0
LINE
  8
0_00
  6
CONTINUOUS
 62
3
 10
725.9583
 20
56.8535
 11
724.4886
 21
53.8405
  0
LINE
  8
0_00
  6
CONTINUOUS
 62
3
 10
725.7305
 20
56.8429
 11
724.4259
 21
54.1681
  0
LINE
  8
0_00
  6
CONTINUOUS
 62
3
 10
725.3284
 20
56.3201
 11
724.5007
 21
56.3201
  0
LINE
  8
0_00
  6
CONTINUOUS
 62
3
 10
725.4904
 20
56.5201
 11
724.5007
 21
56.5201
  0
LINE
  8
0_00
  6
CONTINUOUS
 62
3
 10
725.5664
 20
56.7200
 11
724.5007
 21
56.7200
  0
LINE
  8
0_00
  6
CONTINUOUS
 62
3
 10
530.8407
 20
568.3262
 11
539.8407
 21
568.3262
  0
LINE
  8
0_00
  6
CONTINUOUS
 62
3
 10
531.4457
 20
569.3739
 11
530.8407
 21
568.3262
  0
LINE
  8
0_00
  6
CONTINUOUS
 62
3
 10
533.9286
 20
573.6746
 11
535.3407
 21
576.1204
  0
LINE
  8
0_00
  6
CONTINUOUS
 62
3
 10
539.2358
 20
569.3739
 11
539.8407
 21
568.3262
  0
LINE
  8
0_00
  6
CONTINUOUS
 62
3
 10
536.7528
 20
573.6746
 11
535.3407
 21
576.1204
  0
LINE
  8
0_00
  6
CONTINUOUS
 62
6
 10
812.3407
 20
102.8000
 11
814.3407
 21
102.8000
  0
LINE
  8
0_00
  6
CONTINUOUS
 62
6
 10
812.3407
 20
116.8000
 11
814.3407
 21
116.8000
  0
LINE
  8
0_00
  6
CONTINUOUS
 62
6
 10
812.3407
 20
130.8000
 11
814.3407
 21
130.8000
  0
LINE
  8
0_00
  6
CONTINUOUS
 62
6
 10
812.3407
 20
144.8000
 11
814.3407
 21
144.8000
  0
LINE
  8
0_00
  6
CONTINUOUS
 62
6
 10
812.3407
 20
158.8000
 11
814.3407
 21
158.8000
  0
LINE
  8
0_00
  6
CONTINUOUS
 62
6
 10
812.3407
 20
172.8000
 11
814.3407
 21
172.8000
  0
LINE
  8
0_00
  6
CONTINUOUS
 62
6
 10
812.3407
 20
186.8000
 11
814.3407
 21
186.8000
  0
LINE
  8
0_00
  6
CONTINUOUS
 62
6
 10
812.3407
 20
200.8000
 11
814.3407
 21
200.8000
  0
LINE
  8
0_00
  6
CONTINUOUS
 62
6
 10
812.3407
 20
214.8001
 11
814.3407
 21
214.8001
  0
LINE
  8
0_00
  6
CONTINUOUS
 62
6
 10
812.3407
 20
228.8000
 11
814.3407
 21
228.8000
  0
LINE
  8
0_00
  6
CONTINUOUS
 62
6
 10
812.3407
 20
242.8000
 11
814.3407
 21
242.8000
  0
LINE
  8
0_00
  6
CONTINUOUS
 62
6
 10
812.3407
 20
256.8000
 11
814.3407
 21
256.8000
  0
LINE
  8
0_00
  6
CONTINUOUS
 62
6
 10
812.3407
 20
270.8000
 11
814.3407
 21
270.8000
  0
LINE
  8
0_00
  6
CONTINUOUS
 62
6
 10
812.3407
 20
284.8000
 11
814.3407
 21
284.8000
  0
LINE
  8
0_00
  6
CONTINUOUS
 62
6
 10
812.3407
 20
298.8000
 11
814.3407
 21
298.8000
  0
LINE
  8
0_00
  6
CONTINUOUS
 62
6
 10
812.3407
 20
312.8000
 11
814.3407
 21
312.8000
  0
LINE
  8
0_00
  6
CONTINUOUS
 62
6
 10
812.3407
 20
326.8000
 11
814.3407
 21
326.8000
  0
LINE
  8
0_00
  6
CONTINUOUS
 62
6
 10
812.3407
 20
555.8000
 11
814.3407
 21
555.8000
  0
LINE
  8
0_00
  6
CONTINUOUS
 62
6
 10
812.3407
 20
543.8000
 11
814.3407
 21
543.8000
  0
LINE
  8
0_00
  6
CONTINUOUS
 62
6
 10
812.3407
 20
531.8000
 11
814.3407
 21
531.8000
  0
LINE
  8
0_00
  6
CONTINUOUS
 62
6
 10
812.3407
 20
519.8000
 11
814.3407
 21
519.8000
  0
LINE
  8
0_00
  6
CONTINUOUS
 62
6
 10
812.3407
 20
507.8000
 11
814.3407
 21
507.8000
  0
LINE
  8
0_00
  6
CONTINUOUS
 62
6
 10
812.3407
 20
495.8001
 11
814.3407
 21
495.8001
  0
LINE
  8
0_00
  6
CONTINUOUS
 62
6
 10
812.3407
 20
340.8000
 11
814.3407
 21
340.8000
  0
LINE
  8
0_00
  6
CONTINUOUS
 62
6
 10
812.3407
 20
354.8000
 11
814.3407
 21
354.8000
  0
LINE
  8
0_00
  6
CONTINUOUS
 62
6
 10
812.3407
 20
368.8000
 11
814.3407
 21
368.8000
  0
LINE
  8
0_00
  6
CONTINUOUS
 62
6
 10
812.3407
 20
382.8000
 11
814.3407
 21
382.8000
  0
LINE
  8
0_00
  6
CONTINUOUS
 62
6
 10
812.3407
 20
396.8000
 11
814.3407
 21
396.8000
  0
LINE
  8
0_00
  6
CONTINUOUS
 62
6
 10
812.3407
 20
410.8000
 11
814.3407
 21
410.8000
  0
LINE
  8
0_00
  6
CONTINUOUS
 62
6
 10
812.3407
 20
424.8000
 11
814.3407
 21
424.8000
  0
LINE
  8
0_00
  6
CONTINUOUS
 62
6
 10
812.3407
 20
438.8000
 11
814.3407
 21
438.8000
  0
LINE
  8
0_00
  6
CONTINUOUS
 62
6
 10
812.3407
 20
452.8000
 11
814.3407
 21
452.8000
  0
LINE
  8
0_00
  6
CONTINUOUS
 62
6
 10
812.3407
 20
466.8001
 11
814.3407
 21
466.8001
  0
LINE
  8
0_00
  6
CONTINUOUS
 62
6
 10
812.3407
 20
480.8001
 11
814.3407
 21
480.8001
  0
LINE
  8
0_00
  6
CENTER1
 62
3
 10
587.3607
 20
48.8000
 11
587.3607
 21
60.8000
  0
LINE
  8
0_00
  6
CONTINUOUS
 62
4
 10
594.3607
 20
52.3000
 11
594.3607
 21
57.3000
  0
LINE
  8
0_00
  6
CONTINUOUS
 62
4
 10
603.3607
 20
50.8000
 11
603.3607
 21
58.8000
  0
LINE
  8
0_00
  6
CONTINUOUS
 62
4
 10
594.3607
 20
57.3000
 11
603.3607
 21
58.8000
  0
LINE
  8
0_00
  6
CONTINUOUS
 62
4
 10
594.3607
 20
52.3000
 11
603.3607
 21
50.8000
  0
LINE
  8
0_00
  6
CENTER1
 62
3
 10
581.3607
 20
54.8000
 11
604.9037
 21
54.8000
  0
LINE
  8
0_00
  6
CONTINUOUS
 62
3
 10
794.3407
 20
24.8000
 11
794.3407
 21
44.8000
  0
LINE
  8
0_00
  6
CONTINUOUS
 62
3
 10
26.4603
 20
14.8000
 11
822.3407
 21
14.8000
  0
LINE
  8
0_00
  6
CONTINUOUS
 62
3
 10
788.3407
 20
576.8000
 11
788.3407
 21
567.8000
  0
LINE
  8
0_00
  6
CONTINUOUS
 62
3
 10
0.0000
 20
295.8000
 11
26.4603
 21
295.8000
  0
LINE
  8
0_00
  6
CONTINUOUS
 62
3
 10
417.4407
 20
14.8000
 11
417.4407
 21
0.0000
  0
LINE
  8
0_00
  6
CONTINUOUS
 62
3
 10
417.4407
 20
576.8000
 11
417.4407
 21
594.0000
  0
LINE
  8
0_00
  6
CONTINUOUS
 62
3
 10
822.3407
 20
295.8000
 11
840.0000
 21
295.8000
  0
LINE
  8
0_00
  6
CONTINUOUS
 62
2
 10
294.4008
 20
486.3882
 11
292.3002
 21
484.2877
  0
LINE
  8
0_00
  6
CONTINUOUS
 62
2
 10
293.7165
 20
486.4110
 11
291.6160
 21
484.3105
  0
LINE
  8
0_00
  6
CONTINUOUS
 62
2
 10
293.0322
 20
486.4338
 11
290.9316
 21
484.3333
  0
LINE
  8
0_00
  6
CONTINUOUS
 62
2
 10
292.3479
 20
486.4566
 11
290.6005
 21
484.7093
  0
LINE
  8
0_00
  6
CONTINUOUS
 62
2
 10
291.6636
 20
486.4795
 11
290.6005
 21
485.4164
  0
LINE
  8
0_00
  6
CONTINUOUS
 62
2
 10
290.9793
 20
486.5023
 11
290.6005
 21
486.1235
  0
LINE
  8
0_00
  6
CONTINUOUS
 62
2
 10
295.0851
 20
486.3654
 11
292.9846
 21
484.2649
  0
LINE
  8
0_00
  6
CONTINUOUS
 62
2
 10
295.7694
 20
486.3426
 11
293.6689
 21
484.2421
  0
LINE
  8
0_00
  6
CONTINUOUS
 62
2
 10
296.1005
 20
485.9666
 11
294.3531
 21
484.2192
  0
LINE
  8
0_00
  6
CONTINUOUS
 62
2
 10
296.1005
 20
485.2595
 11
295.0374
 21
484.1964
  0
LINE
  8
0_00
  6
CONTINUOUS
 62
2
 10
296.1005
 20
484.5524
 11
295.7217
 21
484.1737
  0
LINE
  8
0_00
  6
CONTINUOUS
 62
2
 10
556.5008
 20
477.6516
 11
554.4003
 21
475.5510
  0
LINE
  8
0_00
  6
CONTINUOUS
 62
2
 10
555.8165
 20
477.6743
 11
553.7159
 21
475.5739
  0
LINE
  8
0_00
  6
CONTINUOUS
 62
2
 10
555.1322
 20
477.6972
 11
553.0317
 21
475.5966
  0
LINE
  8
0_00
  6
CONTINUOUS
 62
2
 10
554.4479
 20
477.7200
 11
552.7005
 21
475.9726
  0
LINE
  8
0_00
  6
CONTINUOUS
 62
2
 10
553.7636
 20
477.7428
 11
552.7005
 21
476.6797
  0
LINE
  8
0_00
  6
CONTINUOUS
 62
2
 10
553.0793
 20
477.7656
 11
552.7005
 21
477.3868
  0
LINE
  8
0_00
  6
CONTINUOUS
 62
2
 10
557.1851
 20
477.6287
 11
555.0845
 21
475.5282
  0
LINE
  8
0_00
  6
CONTINUOUS
 62
2
 10
557.8694
 20
477.6060
 11
555.7689
 21
475.5054
  0
LINE
  8
0_00
  6
CONTINUOUS
 62
2
 10
558.2005
 20
477.2299
 11
556.4531
 21
475.4826
  0
LINE
  8
0_00
  6
CONTINUOUS
 62
2
 10
558.2005
 20
476.5229
 11
557.1375
 21
475.4598
  0
LINE
  8
0_00
  6
CONTINUOUS
 62
2
 10
558.2005
 20
475.8157
 11
557.8217
 21
475.4370
  0
LINE
  8
0_00
  6
CONTINUOUS
 62
2
 10
297.4005
 20
464.2561
 11
289.4005
 21
456.2561
  0
LINE
  8
0_00
  6
CONTINUOUS
 62
2
 10
293.6253
 20
463.3093
 11
290.3473
 21
460.0313
  0
LINE
  8
0_00
  6
CONTINUOUS
 62
2
 10
297.4005
 20
461.4277
 11
292.2289
 21
456.2561
  0
LINE
  8
0_00
  6
CONTINUOUS
 62
2
 10
297.4005
 20
458.5992
 11
295.0574
 21
456.2561
  0
LINE
  8
0_00
  6
CONTINUOUS
 62
2
 10
297.4005
 20
464.2561
 11
289.4005
 21
456.2561
  0
LINE
  8
0_00
  6
CONTINUOUS
 62
2
 10
293.6253
 20
463.3093
 11
290.3473
 21
460.0313
  0
LINE
  8
0_00
  6
CONTINUOUS
 62
2
 10
297.4005
 20
461.4277
 11
292.2289
 21
456.2561
  0
LINE
  8
0_00
  6
CONTINUOUS
 62
2
 10
297.4005
 20
458.5992
 11
295.0574
 21
456.2561
  0
LINE
  8
0_00
  6
CONTINUOUS
 62
2
 10
272.4005
 20
212.2561
 11
264.4005
 21
204.2561
  0
LINE
  8
0_00
  6
CONTINUOUS
 62
2
 10
268.6253
 20
211.3093
 11
265.3473
 21
208.0313
  0
LINE
  8
0_00
  6
CONTINUOUS
 62
2
 10
272.4005
 20
209.4277
 11
267.2289
 21
204.2561
  0
LINE
  8
0_00
  6
CONTINUOUS
 62
2
 10
272.4005
 20
206.5993
 11
270.0574
 21
204.2561
  0
LINE
  8
0_00
  6
CONTINUOUS
 62
2
 10
272.4005
 20
212.2561
 11
264.4005
 21
204.2561
  0
LINE
  8
0_00
  6
CONTINUOUS
 62
2
 10
268.6253
 20
211.3093
 11
265.3473
 21
208.0313
  0
LINE
  8
0_00
  6
CONTINUOUS
 62
2
 10
272.4005
 20
209.4277
 11
267.2289
 21
204.2561
  0
LINE
  8
0_00
  6
CONTINUOUS
 62
2
 10
272.4005
 20
206.5993
 11
270.0574
 21
204.2561
  0
LINE
  8
0_00
  6
CONTINUOUS
 62
6
 10
574.4005
 20
491.4061
 11
574.4005
 21
530.2963
  0
LINE
  8
0_00
  6
CONTINUOUS
 62
6
 10
274.4005
 20
491.4061
 11
274.4005
 21
530.2963
  0
LINE
  8
0_00
  6
CONTINUOUS
 62
6
 10
274.4005
 20
527.2963
 11
574.4005
 21
527.2963
  0
LINE
  8
0_00
  6
CONTINUOUS
 62
6
 10
274.4005
 20
527.2963
 11
279.2913
 21
526.2567
  0
LINE
  8
0_00
  6
CONTINUOUS
 62
6
 10
274.4005
 20
527.2963
 11
279.2913
 21
528.3358
  0
LINE
  8
0_00
  6
CONTINUOUS
 62
6
 10
574.4005
 20
527.2963
 11
569.5098
 21
528.3358
  0
LINE
  8
0_00
  6
CONTINUOUS
 62
6
 10
574.4005
 20
527.2963
 11
569.5098
 21
526.2567
  0
LINE
  8
0_00
  6
CONTINUOUS
 62
6
 10
267.4005
 20
489.1544
 11
206.0000
 21
489.1544
  0
LINE
  8
0_00
  6
CONTINUOUS
 62
6
 10
267.4005
 20
424.4174
 11
206.0000
 21
424.4174
  0
LINE
  8
0_00
  6
CONTINUOUS
 62
6
 10
210.0000
 20
489.1544
 11
210.0000
 21
424.4174
  0
LINE
  8
0_00
  6
CONTINUOUS
 62
6
 10
210.0000
 20
489.1544
 11
208.9604
 21
484.2637
  0
LINE
  8
0_00
  6
CONTINUOUS
 62
6
 10
210.0000
 20
489.1544
 11
211.0396
 21
484.2637
  0
LINE
  8
0_00
  6
CONTINUOUS
 62
6
 10
210.0000
 20
424.4174
 11
211.0396
 21
429.3082
  0
LINE
  8
0_00
  6
CONTINUOUS
 62
6
 10
210.0000
 20
424.4174
 11
208.9604
 21
429.3082
  0
LINE
  8
0_00
  6
CONTINUOUS
 62
6
 10
269.2620
 20
464.2561
 11
220.0000
 21
464.2561
  0
LINE
  8
0_00
  6
CONTINUOUS
 62
6
 10
312.9196
 20
484.2561
 11
220.0000
 21
484.2561
  0
LINE
  8
0_00
  6
CONTINUOUS
 62
6
 10
224.0000
 20
464.2561
 11
224.0000
 21
484.2561
  0
LINE
  8
0_00
  6
CONTINUOUS
 62
6
 10
224.0000
 20
464.2561
 11
225.0396
 21
469.1469
  0
LINE
  8
0_00
  6
CONTINUOUS
 62
6
 10
224.0000
 20
464.2561
 11
222.9604
 21
469.1469
  0
LINE
  8
0_00
  6
CONTINUOUS
 62
6
 10
224.0000
 20
484.2561
 11
222.9604
 21
479.3654
  0
LINE
  8
0_00
  6
CONTINUOUS
 62
6
 10
224.0000
 20
484.2561
 11
225.0396
 21
479.3654
  0
LINE
  8
0_00
  6
CONTINUOUS
 62
6
 10
581.4005
 20
419.4175
 11
634.0000
 21
419.4175
  0
LINE
  8
0_00
  6
CONTINUOUS
 62
6
 10
584.4005
 20
479.2561
 11
634.0000
 21
479.2561
  0
LINE
  8
0_00
  6
CONTINUOUS
 62
6
 10
630.0000
 20
479.2561
 11
630.0000
 21
419.4175
  0
LINE
  8
0_00
  6
CONTINUOUS
 62
6
 10
630.0000
 20
479.2561
 11
628.9604
 21
474.3654
  0
LINE
  8
0_00
  6
CONTINUOUS
 62
6
 10
630.0000
 20
479.2561
 11
631.0396
 21
474.3654
  0
LINE
  8
0_00
  6
CONTINUOUS
 62
6
 10
630.0000
 20
419.4175
 11
631.0396
 21
424.3082
  0
LINE
  8
0_00
  6
CONTINUOUS
 62
6
 10
630.0000
 20
419.4175
 11
628.9604
 21
424.3082
  0
LINE
  8
0_00
  6
CONTINUOUS
 62
6
 10
599.4005
 20
239.4061
 11
599.4005
 21
278.2963
  0
LINE
  8
0_00
  6
CONTINUOUS
 62
6
 10
249.4005
 20
239.4061
 11
249.4005
 21
278.2963
  0
LINE
  8
0_00
  6
CONTINUOUS
 62
6
 10
249.4005
 20
275.2963
 11
599.4005
 21
275.2963
  0
LINE
  8
0_00
  6
CONTINUOUS
 62
6
 10
249.4005
 20
275.2963
 11
254.2913
 21
274.2567
  0
LINE
  8
0_00
  6
CONTINUOUS
 62
6
 10
249.4005
 20
275.2963
 11
254.2913
 21
276.3358
  0
LINE
  8
0_00
  6
CONTINUOUS
 62
6
 10
599.4005
 20
275.2963
 11
594.5098
 21
276.3358
  0
LINE
  8
0_00
  6
CONTINUOUS
 62
6
 10
599.4005
 20
275.2963
 11
594.5098
 21
274.2567
  0
LINE
  8
0_00
  6
CONTINUOUS
 62
6
 10
606.4005
 20
166.5841
 11
648.0000
 21
166.5841
  0
LINE
  8
0_00
  6
CONTINUOUS
 62
6
 10
609.4005
 20
226.4228
 11
648.0000
 21
226.4228
  0
LINE
  8
0_00
  6
CONTINUOUS
 62
6
 10
644.0000
 20
226.4228
 11
644.0000
 21
166.5841
  0
LINE
  8
0_00
  6
CONTINUOUS
 62
6
 10
644.0000
 20
226.4228
 11
642.9604
 21
221.5321
  0
LINE
  8
0_00
  6
CONTINUOUS
 62
6
 10
644.0000
 20
226.4228
 11
645.0396
 21
221.5321
  0
LINE
  8
0_00
  6
CONTINUOUS
 62
6
 10
644.0000
 20
166.5841
 11
645.0396
 21
171.4749
  0
LINE
  8
0_00
  6
CONTINUOUS
 62
6
 10
644.0000
 20
166.5841
 11
642.9604
 21
171.4749
  0
LINE
  8
0_00
  6
CONTINUOUS
 62
6
 10
242.4005
 20
173.2508
 11
192.0000
 21
173.2508
  0
LINE
  8
0_00
  6
CONTINUOUS
 62
6
 10
242.5005
 20
237.9861
 11
192.0000
 21
237.9861
  0
LINE
  8
0_00
  6
CONTINUOUS
 62
6
 10
196.0000
 20
237.9861
 11
196.0000
 21
173.2508
  0
LINE
  8
0_00
  6
CONTINUOUS
 62
6
 10
196.0000
 20
237.9861
 11
194.9604
 21
233.0954
  0
LINE
  8
0_00
  6
CONTINUOUS
 62
6
 10
196.0000
 20
237.9861
 11
197.0396
 21
233.0954
  0
LINE
  8
0_00
  6
CONTINUOUS
 62
6
 10
196.0000
 20
173.2508
 11
197.0396
 21
178.1415
  0
LINE
  8
0_00
  6
CONTINUOUS
 62
6
 10
196.0000
 20
173.2508
 11
194.9604
 21
178.1415
  0
LINE
  8
0_00
  6
CONTINUOUS
 62
6
 10
245.7906
 20
212.2561
 11
206.0000
 21
212.2561
  0
LINE
  8
0_00
  6
CONTINUOUS
 62
6
 10
293.7644
 20
232.2561
 11
206.0000
 21
232.2561
  0
LINE
  8
0_00
  6
CONTINUOUS
 62
6
 10
210.0000
 20
212.2561
 11
210.0000
 21
232.2561
  0
LINE
  8
0_00
  6
CONTINUOUS
 62
6
 10
210.0000
 20
212.2561
 11
211.0396
 21
217.1469
  0
LINE
  8
0_00
  6
CONTINUOUS
 62
6
 10
210.0000
 20
212.2561
 11
208.9604
 21
217.1469
  0
LINE
  8
0_00
  6
CONTINUOUS
 62
6
 10
210.0000
 20
232.2561
 11
208.9604
 21
227.3654
  0
LINE
  8
0_00
  6
CONTINUOUS
 62
6
 10
210.0000
 20
232.2561
 11
211.0396
 21
227.3654
  0
LINE
  8
0_00
  6
CONTINUOUS
 62
6
 10
355.4005
 20
402.3821
 11
355.4005
 21
360.0000
  0
LINE
  8
0_00
  6
CONTINUOUS
 62
6
 10
493.4005
 20
402.3821
 11
493.4005
 21
360.0000
  0
LINE
  8
0_00
  6
CONTINUOUS
 62
6
 10
355.4005
 20
364.0000
 11
493.4005
 21
364.0000
  0
LINE
  8
0_00
  6
CONTINUOUS
 62
6
 10
355.4005
 20
364.0000
 11
360.2913
 21
362.9604
  0
LINE
  8
0_00
  6
CONTINUOUS
 62
6
 10
355.4005
 20
364.0000
 11
360.2913
 21
365.0396
  0
LINE
  8
0_00
  6
CONTINUOUS
 62
6
 10
493.4005
 20
364.0000
 11
488.5097
 21
365.0396
  0
LINE
  8
0_00
  6
CONTINUOUS
 62
6
 10
493.4005
 20
364.0000
 11
488.5097
 21
362.9604
  0
LINE
  8
0_00
  6
CONTINUOUS
 62
6
 10
355.4005
 20
150.0642
 11
355.4005
 21
108.0000
  0
LINE
  8
0_00
  6
CONTINUOUS
 62
6
 10
493.4005
 20
150.0642
 11
493.4005
 21
108.0000
  0
LINE
  8
0_00
  6
CONTINUOUS
 62
6
 10
355.4005
 20
112.0000
 11
493.4005
 21
112.0000
  0
LINE
  8
0_00
  6
CONTINUOUS
 62
6
 10
355.4005
 20
112.0000
 11
360.2913
 21
110.9604
  0
LINE
  8
0_00
  6
CONTINUOUS
 62
6
 10
355.4005
 20
112.0000
 11
360.2913
 21
113.0396
  0
LINE
  8
0_00
  6
CONTINUOUS
 62
6
 10
493.4005
 20
112.0000
 11
488.5097
 21
113.0396
  0
LINE
  8
0_00
  6
CONTINUOUS
 62
6
 10
493.4005
 20
112.0000
 11
488.5097
 21
110.9604
  0
ARC
  8
0_00
  6
CONTINUOUS
 62
4
 10
568.0005
 20
420.6931
 40
1.1000
 50
87.0000
 51
267.0000
  0
ARC
  8
0_00
  6
CONTINUOUS
 62
4
 10
280.8005
 20
425.6931
 40
1.1000
 50
273.0000
 51
453.0000
  0
ARC
  8
0_00
  6
CONTINUOUS
 62
4
 10
277.4005
 20
486.1545
 40
3.0000
 50
88.0908
 51
180.0000
  0
ARC
  8
0_00
  6
CONTINUOUS
 62
4
 10
277.4005
 20
427.4175
 40
3.0000
 50
180.0000
 51
273.0000
  0
ARC
  8
0_00
  6
CONTINUOUS
 62
4
 10
571.4005
 20
422.4174
 40
3.0000
 50
267.0000
 51
360.0000
  0
ARC
  8
0_00
  6
CONTINUOUS
 62
4
 10
571.4005
 20
476.3544
 40
3.0000
 50
0.0000
 51
88.0908
  0
ARC
  8
0_00
  6
CONTINUOUS
 62
4
 10
277.1005
 20
427.1013
 40
0.5000
 50
180.0000
 51
273.0000
  0
ARC
  8
0_00
  6
CONTINUOUS
 62
4
 10
277.1005
 20
486.4646
 40
0.5000
 50
88.0908
 51
180.0000
  0
ARC
  8
0_00
  6
CONTINUOUS
 62
4
 10
571.7005
 20
476.6446
 40
0.5000
 50
0.0000
 51
88.0908
  0
ARC
  8
0_00
  6
CONTINUOUS
 62
4
 10
571.7005
 20
422.1013
 40
0.5000
 50
267.0000
 51
360.0000
  0
ARC
  8
0_00
  6
CONTINUOUS
 62
4
 10
477.7034
 20
476.7561
 40
1.0000
 50
0.0000
 51
180.0000
  0
ARC
  8
0_00
  6
CONTINUOUS
 62
4
 10
371.1034
 20
480.2561
 40
1.0000
 50
0.0000
 51
180.0000
  0
ARC
  8
0_00
  6
CONTINUOUS
 62
4
 10
369.6034
 20
468.2561
 40
0.5000
 50
270.0000
 51
360.0000
  0
ARC
  8
0_00
  6
CONTINUOUS
 62
4
 10
479.2034
 20
468.2561
 40
0.5000
 50
180.0000
 51
270.0000
  0
ARC
  8
0_00
  6
CONTINUOUS
 62
4
 10
296.8005
 20
484.0376
 40
0.3000
 50
0.0000
 51
88.0908
  0
ARC
  8
0_00
  6
CONTINUOUS
 62
4
 10
289.9005
 20
484.2676
 40
0.3000
 50
88.0908
 51
180.0000
  0
ARC
  8
0_00
  6
CONTINUOUS
 62
4
 10
296.6005
 20
482.6435
 40
0.5000
 50
268.0909
 51
360.0000
  0
ARC
  8
0_00
  6
CONTINUOUS
 62
4
 10
292.3005
 20
481.7863
 40
0.5000
 50
88.0908
 51
180.0000
  0
ARC
  8
0_00
  6
CONTINUOUS
 62
4
 10
284.3379
 20
463.7561
 40
0.5000
 50
90.0000
 51
172.3572
  0
ARC
  8
0_00
  6
CONTINUOUS
 62
4
 10
564.4562
 20
463.7561
 40
0.5000
 50
6.7475
 51
90.0000
  0
ARC
  8
0_00
  6
CONTINUOUS
 62
4
 10
552.2005
 20
474.1235
 40
0.5000
 50
180.0000
 51
268.0909
  0
ARC
  8
0_00
  6
CONTINUOUS
 62
4
 10
552.0005
 20
475.5309
 40
0.3000
 50
88.0908
 51
180.0000
  0
ARC
  8
0_00
  6
CONTINUOUS
 62
4
 10
277.2505
 20
427.3061
 40
0.5000
 50
174.0474
 51
270.0000
  0
ARC
  8
0_00
  6
CONTINUOUS
 62
4
 10
278.3146
 20
427.3061
 40
0.5000
 50
270.0000
 51
352.1678
  0
ARC
  8
0_00
  6
CONTINUOUS
 62
4
 10
571.5505
 20
422.3061
 40
0.5000
 50
270.0000
 51
365.2465
  0
ARC
  8
0_00
  6
CONTINUOUS
 62
4
 10
570.4935
 20
422.3061
 40
0.5000
 50
186.9191
 51
270.0000
  0
ARC
  8
0_00
  6
CONTINUOUS
 62
4
 10
284.5017
 20
468.0561
 40
0.5000
 50
163.9676
 51
270.0000
  0
ARC
  8
0_00
  6
CONTINUOUS
 62
4
 10
287.3922
 20
480.6492
 40
2.0000
 50
88.0908
 51
163.9676
  0
ARC
  8
0_00
  6
CONTINUOUS
 62
4
 10
288.2871
 20
479.4187
 40
1.0000
 50
88.0908
 51
163.9676
  0
ARC
  8
0_00
  6
CONTINUOUS
 62
4
 10
560.8421
 20
472.3346
 40
1.0000
 50
25.3011
 51
88.0908
  0
ARC
  8
0_00
  6
CONTINUOUS
 62
4
 10
563.4177
 20
468.0561
 40
0.5000
 50
270.0000
 51
385.3011
  0
ARC
  8
0_00
  6
CONTINUOUS
 62
4
 10
561.6140
 20
473.5096
 40
2.0000
 50
25.3011
 51
88.0908
  0
ARC
  8
11_0B
  6
DASHED
 62
2
 10
350.9888
 20
447.1131
 40
0.4000
 50
175.0000
 51
255.0000
  0
ARC
  8
11_0B
  6
DASHED
 62
2
 10
350.5530
 20
442.1321
 40
0.4000
 50
175.0000
 51
255.0000
  0
ARC
  8
11_0B
  6
DASHED
 62
2
 10
350.1172
 20
437.1512
 40
0.4000
 50
175.0000
 51
255.0000
  0
ARC
  8
11_0B
  6
DASHED
 62
2
 10
349.6814
 20
432.1702
 40
0.4000
 50
175.0000
 51
255.0000
  0
ARC
  8
11_0B
  6
DASHED
 62
2
 10
349.4630
 20
427.3789
 40
0.6000
 50
175.0000
 51
205.0000
  0
ARC
  8
11_0B
  6
DASHED
 62
2
 10
359.8123
 20
447.1131
 40
0.4000
 50
285.0000
 51
365.0000
  0
ARC
  8
11_0B
  6
DASHED
 62
2
 10
360.2480
 20
442.1321
 40
0.4000
 50
285.0000
 51
365.0000
  0
ARC
  8
11_0B
  6
DASHED
 62
2
 10
360.6838
 20
437.1512
 40
0.4000
 50
285.0000
 51
365.0000
  0
ARC
  8
11_0B
  6
DASHED
 62
2
 10
361.1196
 20
432.1702
 40
0.4000
 50
285.0000
 51
365.0000
  0
ARC
  8
11_0B
  6
DASHED
 62
2
 10
361.3380
 20
427.3789
 40
0.6000
 50
335.0000
 51
365.0000
  0
ARC
  8
11_0B
  6
DASHED
 62
2
 10
351.2347
 20
429.2710
 40
0.2000
 50
265.0000
 51
355.0000
  0
ARC
  8
11_0B
  6
DASHED
 62
2
 10
359.5664
 20
429.2710
 40
0.2000
 50
185.0000
 51
275.0000
  0
ARC
  8
11_0B
  6
DASHED
 62
2
 10
351.6704
 20
434.2520
 40
0.2000
 50
265.0000
 51
355.0000
  0
ARC
  8
11_0B
  6
DASHED
 62
2
 10
359.1306
 20
434.2520
 40
0.2000
 50
185.0000
 51
275.0000
  0
ARC
  8
11_0B
  6
DASHED
 62
2
 10
352.1062
 20
439.2329
 40
0.2000
 50
265.0000
 51
355.0000
  0
ARC
  8
11_0B
  6
DASHED
 62
2
 10
358.6948
 20
439.2329
 40
0.2000
 50
185.0000
 51
275.0000
  0
ARC
  8
11_0B
  6
DASHED
 62
2
 10
352.5420
 20
444.2139
 40
0.2000
 50
265.0000
 51
355.0000
  0
ARC
  8
11_0B
  6
DASHED
 62
2
 10
358.2590
 20
444.2139
 40
0.2000
 50
185.0000
 51
275.0000
  0
ARC
  8
11_0B
  6
DASHED
 62
2
 10
352.3801
 20
449.2472
 40
0.2000
 50
265.0000
 51
355.0000
  0
ARC
  8
11_0B
  6
DASHED
 62
2
 10
358.4210
 20
449.2472
 40
0.2000
 50
185.0000
 51
275.0000
  0
ARC
  8
11_0B
  6
DASHED
 62
2
 10
359.6211
 20
430.9405
 40
0.4000
 50
105.0000
 51
185.0000
  0
ARC
  8
11_0B
  6
DASHED
 62
2
 10
351.3938
 20
431.0902
 40
0.2000
 50
355.0000
 51
435.0000
  0
ARC
  8
11_0B
  6
DASHED
 62
2
 10
359.1853
 20
435.9214
 40
0.4000
 50
105.0000
 51
185.0000
  0
ARC
  8
11_0B
  6
DASHED
 62
2
 10
351.6157
 20
435.9214
 40
0.4000
 50
355.0000
 51
435.0000
  0
ARC
  8
11_0B
  6
DASHED
 62
2
 10
358.7495
 20
440.9024
 40
0.4000
 50
105.0000
 51
185.0000
  0
ARC
  8
11_0B
  6
DASHED
 62
2
 10
352.0515
 20
440.9024
 40
0.4000
 50
355.0000
 51
435.0000
  0
ARC
  8
11_0B
  6
DASHED
 62
2
 10
358.3138
 20
445.8833
 40
0.4000
 50
105.0000
 51
185.0000
  0
ARC
  8
11_0B
  6
DASHED
 62
2
 10
352.4873
 20
445.8833
 40
0.4000
 50
355.0000
 51
435.0000
  0
ARC
  8
11_0B
  6
DASHED
 62
2
 10
352.3975
 20
451.7411
 40
0.4000
 50
355.0000
 51
440.0000
  0
ARC
  8
11_0B
  6
DASHED
 62
2
 10
358.4036
 20
451.7411
 40
0.4000
 50
100.0000
 51
185.0000
  0
ARC
  8
11_0B
  6
DASHED
 62
2
 10
362.8949
 20
450.3571
 40
0.4000
 50
335.0000
 51
425.0000
  0
ARC
  8
11_0B
  6
DASHED
 62
2
 10
362.7136
 20
450.4416
 40
0.4000
 50
65.0000
 51
155.0000
  0
ARC
  8
11_0B
  6
DASHED
 62
2
 10
347.9062
 20
450.3571
 40
0.4000
 50
115.0000
 51
205.0000
  0
ARC
  8
11_0B
  6
DASHED
 62
2
 10
348.0874
 20
450.4416
 40
0.4000
 50
25.0000
 51
115.0000
  0
ARC
  8
12_0C
  6
CONTINUOUS
 62
2
 10
355.4005
 20
462.3561
 40
9.1000
 50
39.7151
 51
90.0000
  0
ARC
  8
12_0C
  6
CONTINUOUS
 62
2
 10
355.4005
 20
462.3561
 40
9.1000
 50
90.0000
 51
140.2849
  0
ARC
  8
11_0B
  6
DASHED
 62
2
 10
488.9888
 20
447.1131
 40
0.4000
 50
175.0000
 51
255.0000
  0
ARC
  8
11_0B
  6
DASHED
 62
2
 10
488.5530
 20
442.1321
 40
0.4000
 50
175.0000
 51
255.0000
  0
ARC
  8
11_0B
  6
DASHED
 62
2
 10
488.1172
 20
437.1512
 40
0.4000
 50
175.0000
 51
255.0000
  0
ARC
  8
11_0B
  6
DASHED
 62
2
 10
487.6814
 20
432.1702
 40
0.4000
 50
175.0000
 51
255.0000
  0
ARC
  8
11_0B
  6
DASHED
 62
2
 10
487.4630
 20
427.3789
 40
0.6000
 50
175.0000
 51
205.0000
  0
ARC
  8
11_0B
  6
DASHED
 62
2
 10
497.8123
 20
447.1131
 40
0.4000
 50
285.0000
 51
365.0000
  0
ARC
  8
11_0B
  6
DASHED
 62
2
 10
498.2480
 20
442.1321
 40
0.4000
 50
285.0000
 51
365.0000
  0
ARC
  8
11_0B
  6
DASHED
 62
2
 10
498.6838
 20
437.1512
 40
0.4000
 50
285.0000
 51
365.0000
  0
ARC
  8
11_0B
  6
DASHED
 62
2
 10
499.1196
 20
432.1702
 40
0.4000
 50
285.0000
 51
365.0000
  0
ARC
  8
11_0B
  6
DASHED
 62
2
 10
499.3380
 20
427.3789
 40
0.6000
 50
335.0000
 51
365.0000
  0
ARC
  8
11_0B
  6
DASHED
 62
2
 10
489.2347
 20
429.2710
 40
0.2000
 50
265.0000
 51
355.0000
  0
ARC
  8
11_0B
  6
DASHED
 62
2
 10
497.5664
 20
429.2710
 40
0.2000
 50
185.0000
 51
275.0000
  0
ARC
  8
11_0B
  6
DASHED
 62
2
 10
489.6704
 20
434.2520
 40
0.2000
 50
265.0000
 51
355.0000
  0
ARC
  8
11_0B
  6
DASHED
 62
2
 10
497.1306
 20
434.2520
 40
0.2000
 50
185.0000
 51
275.0000
  0
ARC
  8
11_0B
  6
DASHED
 62
2
 10
490.1062
 20
439.2329
 40
0.2000
 50
265.0000
 51
355.0000
  0
ARC
  8
11_0B
  6
DASHED
 62
2
 10
496.6948
 20
439.2329
 40
0.2000
 50
185.0000
 51
275.0000
  0
ARC
  8
11_0B
  6
DASHED
 62
2
 10
490.5420
 20
444.2139
 40
0.2000
 50
265.0000
 51
355.0000
  0
ARC
  8
11_0B
  6
DASHED
 62
2
 10
496.2590
 20
444.2139
 40
0.2000
 50
185.0000
 51
275.0000
  0
ARC
  8
11_0B
  6
DASHED
 62
2
 10
490.3800
 20
449.2472
 40
0.2000
 50
265.0000
 51
355.0000
  0
ARC
  8
11_0B
  6
DASHED
 62
2
 10
496.4209
 20
449.2472
 40
0.2000
 50
185.0000
 51
275.0000
  0
ARC
  8
11_0B
  6
DASHED
 62
2
 10
497.6211
 20
430.9405
 40
0.4000
 50
105.0000
 51
185.0000
  0
ARC
  8
11_0B
  6
DASHED
 62
2
 10
489.3939
 20
431.0902
 40
0.2000
 50
355.0000
 51
435.0000
  0
ARC
  8
11_0B
  6
DASHED
 62
2
 10
497.1853
 20
435.9214
 40
0.4000
 50
105.0000
 51
185.0000
  0
ARC
  8
11_0B
  6
DASHED
 62
2
 10
489.6157
 20
435.9214
 40
0.4000
 50
355.0000
 51
435.0000
  0
ARC
  8
11_0B
  6
DASHED
 62
2
 10
496.7495
 20
440.9024
 40
0.4000
 50
105.0000
 51
185.0000
  0
ARC
  8
11_0B
  6
DASHED
 62
2
 10
490.0515
 20
440.9024
 40
0.4000
 50
355.0000
 51
435.0000
  0
ARC
  8
11_0B
  6
DASHED
 62
2
 10
496.3138
 20
445.8833
 40
0.4000
 50
105.0000
 51
185.0000
  0
ARC
  8
11_0B
  6
DASHED
 62
2
 10
490.4873
 20
445.8833
 40
0.4000
 50
355.0000
 51
435.0000
  0
ARC
  8
11_0B
  6
DASHED
 62
2
 10
490.3975
 20
451.7411
 40
0.4000
 50
355.0000
 51
440.0000
  0
ARC
  8
11_0B
  6
DASHED
 62
2
 10
496.4036
 20
451.7411
 40
0.4000
 50
100.0000
 51
185.0000
  0
ARC
  8
11_0B
  6
DASHED
 62
2
 10
500.8949
 20
450.3571
 40
0.4000
 50
335.0000
 51
425.0000
  0
ARC
  8
11_0B
  6
DASHED
 62
2
 10
500.7136
 20
450.4416
 40
0.4000
 50
65.0000
 51
155.0000
  0
ARC
  8
11_0B
  6
DASHED
 62
2
 10
485.9062
 20
450.3571
 40
0.4000
 50
115.0000
 51
205.0000
  0
ARC
  8
11_0B
  6
DASHED
 62
2
 10
486.0874
 20
450.4416
 40
0.4000
 50
25.0000
 51
115.0000
  0
ARC
  8
12_0C
  6
CONTINUOUS
 62
2
 10
493.4005
 20
462.3561
 40
9.1000
 50
39.7151
 51
90.0000
  0
ARC
  8
12_0C
  6
CONTINUOUS
 62
2
 10
493.4005
 20
462.3561
 40
9.1000
 50
90.0000
 51
140.2849
  0
ARC
  8
0_00
  6
CONTINUOUS
 62
4
 10
252.4005
 20
234.9878
 40
3.0000
 50
88.0908
 51
180.0000
  0
ARC
  8
0_00
  6
CONTINUOUS
 62
4
 10
252.4005
 20
176.2508
 40
3.0000
 50
180.0000
 51
273.0000
  0
ARC
  8
0_00
  6
CONTINUOUS
 62
4
 10
596.4005
 20
169.5841
 40
3.0000
 50
267.0000
 51
360.0000
  0
ARC
  8
0_00
  6
CONTINUOUS
 62
4
 10
596.4005
 20
223.5211
 40
3.0000
 50
0.0000
 51
88.0908
  0
ARC
  8
0_00
  6
DASHED
 62
2
 10
350.9888
 20
195.1131
 40
0.4000
 50
175.0000
 51
255.0000
  0
ARC
  8
0_00
  6
DASHED
 62
2
 10
350.5530
 20
190.1321
 40
0.4000
 50
175.0000
 51
255.0000
  0
ARC
  8
0_00
  6
DASHED
 62
2
 10
350.1172
 20
185.1512
 40
0.4000
 50
175.0000
 51
255.0000
  0
ARC
  8
0_00
  6
DASHED
 62
2
 10
349.6814
 20
180.1702
 40
0.4000
 50
175.0000
 51
255.0000
  0
ARC
  8
0_00
  6
DASHED
 62
2
 10
349.4630
 20
175.3790
 40
0.6000
 50
175.0000
 51
205.0000
  0
ARC
  8
0_00
  6
DASHED
 62
2
 10
359.8123
 20
195.1131
 40
0.4000
 50
285.0000
 51
365.0000
  0
ARC
  8
0_00
  6
DASHED
 62
2
 10
360.2480
 20
190.1321
 40
0.4000
 50
285.0000
 51
365.0000
  0
ARC
  8
0_00
  6
DASHED
 62
2
 10
360.6838
 20
185.1512
 40
0.4000
 50
285.0000
 51
365.0000
  0
ARC
  8
0_00
  6
DASHED
 62
2
 10
361.1196
 20
180.1702
 40
0.4000
 50
285.0000
 51
365.0000
  0
ARC
  8
0_00
  6
DASHED
 62
2
 10
361.3380
 20
175.3790
 40
0.6000
 50
335.0000
 51
365.0000
  0
ARC
  8
0_00
  6
DASHED
 62
2
 10
351.2347
 20
177.2710
 40
0.2000
 50
265.0000
 51
355.0000
  0
ARC
  8
0_00
  6
DASHED
 62
2
 10
359.5664
 20
177.2710
 40
0.2000
 50
185.0000
 51
275.0000
  0
ARC
  8
0_00
  6
DASHED
 62
2
 10
351.6704
 20
182.2520
 40
0.2000
 50
265.0000
 51
355.0000
  0
ARC
  8
0_00
  6
DASHED
 62
2
 10
359.1306
 20
182.2520
 40
0.2000
 50
185.0000
 51
275.0000
  0
ARC
  8
0_00
  6
DASHED
 62
2
 10
352.1062
 20
187.2330
 40
0.2000
 50
265.0000
 51
355.0000
  0
ARC
  8
0_00
  6
DASHED
 62
2
 10
358.6948
 20
187.2330
 40
0.2000
 50
185.0000
 51
275.0000
  0
ARC
  8
0_00
  6
DASHED
 62
2
 10
352.5420
 20
192.2139
 40
0.2000
 50
265.0000
 51
355.0000
  0
ARC
  8
0_00
  6
DASHED
 62
2
 10
358.2590
 20
192.2139
 40
0.2000
 50
185.0000
 51
275.0000
  0
ARC
  8
0_00
  6
DASHED
 62
2
 10
352.3801
 20
197.2472
 40
0.2000
 50
265.0000
 51
355.0000
  0
ARC
  8
0_00
  6
DASHED
 62
2
 10
358.4210
 20
197.2472
 40
0.2000
 50
185.0000
 51
275.0000
  0
ARC
  8
0_00
  6
DASHED
 62
2
 10
359.6211
 20
178.9404
 40
0.4000
 50
105.0000
 51
185.0000
  0
ARC
  8
0_00
  6
DASHED
 62
2
 10
351.3938
 20
179.0902
 40
0.2000
 50
355.0000
 51
435.0000
  0
ARC
  8
0_00
  6
DASHED
 62
2
 10
359.1853
 20
183.9214
 40
0.4000
 50
105.0000
 51
185.0000
  0
ARC
  8
0_00
  6
DASHED
 62
2
 10
351.6157
 20
183.9214
 40
0.4000
 50
355.0000
 51
435.0000
  0
ARC
  8
0_00
  6
DASHED
 62
2
 10
358.7495
 20
188.9024
 40
0.4000
 50
105.0000
 51
185.0000
  0
ARC
  8
0_00
  6
DASHED
 62
2
 10
352.0515
 20
188.9024
 40
0.4000
 50
355.0000
 51
435.0000
  0
ARC
  8
0_00
  6
DASHED
 62
2
 10
358.3138
 20
193.8834
 40
0.4000
 50
105.0000
 51
185.0000
  0
ARC
  8
0_00
  6
DASHED
 62
2
 10
352.4873
 20
193.8834
 40
0.4000
 50
355.0000
 51
435.0000
  0
ARC
  8
0_00
  6
DASHED
 62
2
 10
352.3975
 20
199.7411
 40
0.4000
 50
355.0000
 51
440.0000
  0
ARC
  8
0_00
  6
DASHED
 62
2
 10
358.4036
 20
199.7411
 40
0.4000
 50
100.0000
 51
185.0000
  0
ARC
  8
0_00
  6
DASHED
 62
2
 10
362.8949
 20
198.3571
 40
0.4000
 50
335.0000
 51
425.0000
  0
ARC
  8
0_00
  6
DASHED
 62
2
 10
362.7136
 20
198.4416
 40
0.4000
 50
65.0000
 51
155.0000
  0
ARC
  8
0_00
  6
DASHED
 62
2
 10
347.9062
 20
198.3571
 40
0.4000
 50
115.0000
 51
205.0000
  0
ARC
  8
0_00
  6
DASHED
 62
2
 10
348.0874
 20
198.4416
 40
0.4000
 50
25.0000
 51
115.0000
  0
ARC
  8
0_00
  6
CONTINUOUS
 62
2
 10
355.4005
 20
210.3561
 40
9.1000
 50
39.7151
 51
90.0000
  0
ARC
  8
0_00
  6
CONTINUOUS
 62
2
 10
355.4005
 20
210.3561
 40
9.1000
 50
90.0000
 51
140.2849
  0
ARC
  8
0_00
  6
DASHED
 62
2
 10
488.9888
 20
195.1131
 40
0.4000
 50
175.0000
 51
255.0000
  0
ARC
  8
0_00
  6
DASHED
 62
2
 10
488.5530
 20
190.1321
 40
0.4000
 50
175.0000
 51
255.0000
  0
ARC
  8
0_00
  6
DASHED
 62
2
 10
488.1172
 20
185.1512
 40
0.4000
 50
175.0000
 51
255.0000
  0
ARC
  8
0_00
  6
DASHED
 62
2
 10
487.6814
 20
180.1702
 40
0.4000
 50
175.0000
 51
255.0000
  0
ARC
  8
0_00
  6
DASHED
 62
2
 10
487.4630
 20
175.3790
 40
0.6000
 50
175.0000
 51
205.0000
  0
ARC
  8
0_00
  6
DASHED
 62
2
 10
497.8123
 20
195.1131
 40
0.4000
 50
285.0000
 51
365.0000
  0
ARC
  8
0_00
  6
DASHED
 62
2
 10
498.2480
 20
190.1321
 40
0.4000
 50
285.0000
 51
365.0000
  0
ARC
  8
0_00
  6
DASHED
 62
2
 10
498.6838
 20
185.1512
 40
0.4000
 50
285.0000
 51
365.0000
  0
ARC
  8
0_00
  6
DASHED
 62
2
 10
499.1196
 20
180.1702
 40
0.4000
 50
285.0000
 51
365.0000
  0
ARC
  8
0_00
  6
DASHED
 62
2
 10
499.3380
 20
175.3790
 40
0.6000
 50
335.0000
 51
365.0000
  0
ARC
  8
0_00
  6
DASHED
 62
2
 10
489.2347
 20
177.2710
 40
0.2000
 50
265.0000
 51
355.0000
  0
ARC
  8
0_00
  6
DASHED
 62
2
 10
497.5664
 20
177.2710
 40
0.2000
 50
185.0000
 51
275.0000
  0
ARC
  8
0_00
  6
DASHED
 62
2
 10
489.6704
 20
182.2520
 40
0.2000
 50
265.0000
 51
355.0000
  0
ARC
  8
0_00
  6
DASHED
 62
2
 10
497.1306
 20
182.2520
 40
0.2000
 50
185.0000
 51
275.0000
  0
ARC
  8
0_00
  6
DASHED
 62
2
 10
490.1062
 20
187.2330
 40
0.2000
 50
265.0000
 51
355.0000
  0
ARC
  8
0_00
  6
DASHED
 62
2
 10
496.6948
 20
187.2330
 40
0.2000
 50
185.0000
 51
275.0000
  0
ARC
  8
0_00
  6
DASHED
 62
2
 10
490.5420
 20
192.2139
 40
0.2000
 50
265.0000
 51
355.0000
  0
ARC
  8
0_00
  6
DASHED
 62
2
 10
496.2590
 20
192.2139
 40
0.2000
 50
185.0000
 51
275.0000
  0
ARC
  8
0_00
  6
DASHED
 62
2
 10
490.3800
 20
197.2472
 40
0.2000
 50
265.0000
 51
355.0000
  0
ARC
  8
0_00
  6
DASHED
 62
2
 10
496.4209
 20
197.2472
 40
0.2000
 50
185.0000
 51
275.0000
  0
ARC
  8
0_00
  6
DASHED
 62
2
 10
497.6211
 20
178.9404
 40
0.4000
 50
105.0000
 51
185.0000
  0
ARC
  8
0_00
  6
DASHED
 62
2
 10
489.3939
 20
179.0902
 40
0.2000
 50
355.0000
 51
435.0000
  0
ARC
  8
0_00
  6
DASHED
 62
2
 10
497.1853
 20
183.9214
 40
0.4000
 50
105.0000
 51
185.0000
  0
ARC
  8
0_00
  6
DASHED
 62
2
 10
489.6157
 20
183.9214
 40
0.4000
 50
355.0000
 51
435.0000
  0
ARC
  8
0_00
  6
DASHED
 62
2
 10
496.7495
 20
188.9024
 40
0.4000
 50
105.0000
 51
185.0000
  0
ARC
  8
0_00
  6
DASHED
 62
2
 10
490.0515
 20
188.9024
 40
0.4000
 50
355.0000
 51
435.0000
  0
ARC
  8
0_00
  6
DASHED
 62
2
 10
496.3138
 20
193.8834
 40
0.4000
 50
105.0000
 51
185.0000
  0
ARC
  8
0_00
  6
DASHED
 62
2
 10
490.4873
 20
193.8834
 40
0.4000
 50
355.0000
 51
435.0000
  0
ARC
  8
0_00
  6
DASHED
 62
2
 10
490.3975
 20
199.7411
 40
0.4000
 50
355.0000
 51
440.0000
  0
ARC
  8
0_00
  6
DASHED
 62
2
 10
496.4036
 20
199.7411
 40
0.4000
 50
100.0000
 51
185.0000
  0
ARC
  8
0_00
  6
DASHED
 62
2
 10
500.8949
 20
198.3571
 40
0.4000
 50
335.0000
 51
425.0000
  0
ARC
  8
0_00
  6
DASHED
 62
2
 10
500.7136
 20
198.4416
 40
0.4000
 50
65.0000
 51
155.0000
  0
ARC
  8
0_00
  6
DASHED
 62
2
 10
485.9062
 20
198.3571
 40
0.4000
 50
115.0000
 51
205.0000
  0
ARC
  8
0_00
  6
DASHED
 62
2
 10
486.0874
 20
198.4416
 40
0.4000
 50
25.0000
 51
115.0000
  0
ARC
  8
0_00
  6
CONTINUOUS
 62
2
 10
493.4005
 20
210.3561
 40
9.1000
 50
39.7151
 51
90.0000
  0
ARC
  8
0_00
  6
CONTINUOUS
 62
2
 10
493.4005
 20
210.3561
 40
9.1000
 50
90.0000
 51
140.2849
  0
ARC
  8
0_00
  6
CONTINUOUS
 62
4
 10
593.1005
 20
167.9546
 40
1.2000
 50
87.0000
 51
267.0000
  0
ARC
  8
0_00
  6
CONTINUOUS
 62
4
 10
255.7005
 20
174.6213
 40
1.2000
 50
277.5216
 51
453.0000
  0
ARC
  8
0_00
  6
CONTINUOUS
 62
4
 10
252.3005
 20
176.1454
 40
0.5000
 50
180.0000
 51
273.0000
  0
ARC
  8
0_00
  6
CONTINUOUS
 62
4
 10
252.3005
 20
235.0912
 40
0.5000
 50
88.0908
 51
180.0000
  0
ARC
  8
0_00
  6
CONTINUOUS
 62
4
 10
596.5005
 20
223.6178
 40
0.5000
 50
0.0000
 51
88.0908
  0
ARC
  8
0_00
  6
CONTINUOUS
 62
4
 10
596.5005
 20
169.4787
 40
0.5000
 50
267.0000
 51
360.0000
  0
ARC
  8
0_00
  6
CONTINUOUS
 62
4
 10
252.3005
 20
176.3561
 40
0.5000
 50
173.9533
 51
270.0000
  0
ARC
  8
0_00
  6
CONTINUOUS
 62
4
 10
262.4069
 20
229.3021
 40
2.0000
 50
88.1000
 51
164.4891
  0
ARC
  8
0_00
  6
CONTINUOUS
 62
4
 10
263.3107
 20
228.0714
 40
1.0000
 50
88.1000
 51
164.4891
  0
ARC
  8
0_00
  6
CONTINUOUS
 62
4
 10
259.4572
 20
216.0561
 40
0.5000
 50
164.4891
 51
270.0000
  0
ARC
  8
0_00
  6
CONTINUOUS
 62
4
 10
267.3005
 20
230.4404
 40
0.5000
 50
88.1000
 51
180.0000
  0
ARC
  8
0_00
  6
CONTINUOUS
 62
4
 10
271.6005
 20
231.2983
 40
0.5000
 50
268.1000
 51
360.0000
  0
ARC
  8
0_00
  6
CONTINUOUS
 62
4
 10
264.9005
 20
232.9214
 40
0.3000
 50
88.1000
 51
180.0000
  0
ARC
  8
0_00
  6
CONTINUOUS
 62
4
 10
271.8005
 20
232.6925
 40
0.3000
 50
0.0000
 51
88.1000
  0
ARC
  8
0_00
  6
CONTINUOUS
 62
4
 10
259.3353
 20
211.7561
 40
0.5000
 50
90.0000
 51
172.0242
  0
ARC
  8
0_00
  6
CONTINUOUS
 62
4
 10
253.3657
 20
176.3561
 40
0.5000
 50
270.0000
 51
352.0242
  0
ARC
  8
0_00
  6
CONTINUOUS
 62
4
 10
369.6005
 20
216.2561
 40
0.5000
 50
270.0000
 51
360.0000
  0
ARC
  8
0_00
  6
CONTINUOUS
 62
4
 10
479.2005
 20
216.2561
 40
0.5000
 50
180.0000
 51
270.0000
  0
ARC
  8
0_00
  6
CONTINUOUS
 62
4
 10
589.4561
 20
211.7561
 40
0.5000
 50
6.7329
 51
90.0000
  0
ARC
  8
0_00
  6
CONTINUOUS
 62
4
 10
588.1962
 20
216.0561
 40
0.5000
 50
270.0000
 51
387.3413
  0
ARC
  8
0_00
  6
CONTINUOUS
 62
4
 10
585.9196
 20
219.3705
 40
1.0000
 50
27.3413
 51
88.1000
  0
ARC
  8
0_00
  6
CONTINUOUS
 62
4
 10
586.6624
 20
220.5465
 40
2.0000
 50
27.3413
 51
88.1000
  0
ARC
  8
0_00
  6
CONTINUOUS
 62
4
 10
577.2005
 20
221.1606
 40
0.5000
 50
180.0000
 51
268.1000
  0
ARC
  8
0_00
  6
CONTINUOUS
 62
4
 10
577.0005
 20
222.5680
 40
0.3000
 50
88.1000
 51
180.0000
  0
ARC
  8
0_00
  6
CONTINUOUS
 62
4
 10
477.7005
 20
224.7561
 40
1.0000
 50
0.0000
 51
180.0000
  0
ARC
  8
0_00
  6
CONTINUOUS
 62
4
 10
371.1005
 20
228.2561
 40
1.0000
 50
0.0000
 51
180.0000
  0
ARC
  8
0_00
  6
CONTINUOUS
 62
2
 10
297.4005
 20
456.2561
 40
8.0000
 50
90.0000
 51
180.0000
  0
ARC
  8
0_00
  6
CONTINUOUS
 62
2
 10
551.4672
 20
456.3228
 40
2.6000
 50
0.0000
 51
90.0000
  0
ARC
  8
0_00
  6
CONTINUOUS
 62
2
 10
551.0339
 20
455.8895
 40
5.7000
 50
0.0000
 51
90.0000
  0
ARC
  8
0_00
  6
CONTINUOUS
 62
4
 10
551.4005
 20
456.2561
 40
8.0000
 50
0.0000
 51
90.0000
  0
ARC
  8
0_00
  6
CONTINUOUS
 62
2
 10
576.4672
 20
204.3228
 40
2.6000
 50
0.0000
 51
90.0000
  0
ARC
  8
0_00
  6
CONTINUOUS
 62
2
 10
576.0339
 20
203.8895
 40
5.7000
 50
0.0000
 51
90.0000
  0
ARC
  8
0_00
  6
CONTINUOUS
 62
4
 10
576.4005
 20
204.2561
 40
8.0000
 50
0.0000
 51
90.0000
  0
ARC
  8
0_00
  6
CONTINUOUS
 62
2
 10
272.4005
 20
204.2561
 40
8.0000
 50
90.0000
 51
180.0000
  0
ARC
  8
0_00
  6
CONTINUOUS
 62
3
 10
726.4507
 20
48.1575
 40
0.3575
 50
270.0000
 51
450.0000
  0
ARC
  8
0_00
  6
CONTINUOUS
 62
3
 10
725.4562
 20
51.3750
 40
0.4355
 50
0.0000
 51
180.0000
  0
ARC
  8
0_00
  6
CONTINUOUS
 62
3
 10
726.1257
 20
55.6000
 40
1.3000
 50
333.9999
 51
450.0000
  0
CIRCLE
  8
0_00
  6
CONTINUOUS
 62
3
 10
726.7107
 20
58.2000
 40
1.0400
  0
ARC
  8
0_00
  6
CONTINUOUS
 62
3
 10
725.5208
 20
51.3750
 40
0.3000
 50
0.0000
 51
180.0000
  0
ARC
  8
0_00
  6
CONTINUOUS
 62
3
 10
725.5208
 20
51.3750
 40
0.1000
 50
0.0000
 51
180.0000
  0
ARC
  8
0_00
  6
CONTINUOUS
 62
3
 10
726.4507
 20
48.1150
 40
0.2000
 50
270.0000
 51
450.0000
  0
CIRCLE
  8
0_00
  6
CONTINUOUS
 62
3
 10
726.7107
 20
58.2000
 40
0.8830
  0
CIRCLE
  8
0_00
  6
CONTINUOUS
 62
3
 10
726.7107
 20
58.2000
 40
0.6837
  0
CIRCLE
  8
0_00
  6
CONTINUOUS
 62
3
 10
726.7107
 20
58.2000
 40
0.4684
  0
CIRCLE
  8
0_00
  6
CONTINUOUS
 62
3
 10
726.7107
 20
58.2000
 40
0.2293
  0
CIRCLE
  8
0_00
  6
CONTINUOUS
 62
3
 10
726.7107
 20
58.2000
 40
0.1133
  0
CIRCLE
  8
0_00
  6
CONTINUOUS
 62
4
 10
587.3607
 20
54.8000
 40
2.5000
  0
CIRCLE
  8
0_00
  6
CONTINUOUS
 62
4
 10
587.3607
 20
54.8000
 40
4.0000
  0
TEXT
  8
15_0F
 62
7
 10
549.4407
 20
46.8000
 40
5.00
 41
1.00
 50
0.0000
  1
１
  0
TEXT
  8
15_0F
 62
7
 10
568.4407
 20
46.8000
 40
5.00
 41
1.00
 50
0.0000
  1
２
  0
TEXT
  8
15_0F
 62
7
 10
469.5407
 20
49.8000
 40
5.00
 41
1.00
 50
0.0000
  1
納まり図
  0
TEXT
  8
15_0F
 62
7
 10
331.5407
 20
47.8000
 40
5.00
 41
1.00
 50
0.0000
  1
低・中・高層
  0
TEXT
  8
15_0F
 62
7
 10
386.4407
 20
47.8000
 40
5.00
 41
1.00
 50
0.0000
  1
アルミ笠木
  0
TEXT
  8
15_0F
 62
7
 10
385.5074
 20
27.8000
 40
5.00
 41
1.00
 50
0.0000
  1
ＯＡⅡ型
  0
TEXT
  8
158_9E
 62
3
 10
1898.8621
 20
582.1137
 40
16.00
 41
1.00
 50
90.0000
  1
２２０≦ＬＣ≦４５５
  0
TEXT
  8
0_00
 62
7
 10
447.9407
 20
29.8000
 40
5.00
 41
1.00
 50
0.0000
  1
笠木３００～３５０納まり図
  0
TEXT
  8
0_00
 62
7
 10
421.5246
 20
554.9286
 40
5.00
 41
1.00
 50
0.0000
  1
３０
  0
TEXT
  8
0_00
 62
7
 10
452.1035
 20
548.9110
 40
5.00
 41
1.00
 50
0.0000
  1
１
  0
TEXT
  8
0_00
 62
7
 10
514.2408
 20
503.5975
 40
5.00
 41
1.00
 50
0.0000
  1
笠木３００
  0
TEXT
  8
0_00
 62
7
 10
590.1240
 20
493.5219
 40
5.00
 41
1.00
 50
0.0000
  1
ブラケット３００
  0
TEXT
  8
0_00
 62
7
 10
511.0675
 20
423.5032
 40
5.00
 41
1.00
 50
0.0000
  1
タッピンねじ・トラス
  0
TEXT
  8
0_00
 62
7
 10
523.0676
 20
415.5032
 40
5.00
 41
1.00
 50
0.0000
  1
φ６×５０
  0
TEXT
  8
0_00
 62
7
 10
531.6940
 20
406.9323
 40
5.00
 41
1.00
 50
0.0000
  1
ナイロンアンカー
  0
TEXT
  8
0_00
 62
7
 10
546.6940
 20
398.9323
 40
5.00
 41
1.00
 50
0.0000
  1
φ８
  0
TEXT
  8
0_00
 62
7
 10
547.1558
 20
389.1802
 40
5.00
 41
1.00
 50
0.0000
  1
下穴（φ８）現場加工
  0
TEXT
  8
0_00
 62
7
 10
549.1558
 20
381.1802
 40
5.00
 41
1.00
 50
0.0000
  1
下穴コーキング処理
  0
TEXT
  8
0_00
 62
7
 10
258.8005
 20
352.0000
 40
4.50
 41
0.75
 50
0.0000
  1
10
  0
TEXT
  8
0_00
 62
7
 10
292.1638
 20
352.0000
 40
4.50
 41
0.75
 50
0.0000
  1
n
  0
TEXT
  8
0_00
 62
7
 10
393.2005
 20
352.0000
 40
5.00
 41
1.00
 50
0.0000
  1
躯体寸法（推奨寸法２７０）
  0
TEXT
  8
0_00
 62
7
 10
551.5005
 20
352.0000
 40
4.50
 41
0.75
 50
0.0000
  1
n
  0
TEXT
  8
0_00
 62
7
 10
580.4005
 20
352.0000
 40
4.50
 41
0.75
 50
0.0000
  1
10
  0
TEXT
  8
0_00
 62
7
 10
398.2505
 20
343.0000
 40
5.00
 41
1.00
 50
0.0000
  1
（最大躯体寸法２８０）
  0
TEXT
  8
0_00
 62
7
 10
421.5246
 20
302.9286
 40
5.00
 41
1.00
 50
0.0000
  1
３０
  0
TEXT
  8
0_00
 62
7
 10
452.1035
 20
296.9110
 40
5.00
 41
1.00
 50
0.0000
  1
１
  0
TEXT
  8
0_00
 62
7
 10
539.2408
 20
251.5975
 40
5.00
 41
1.00
 50
0.0000
  1
笠木３５０
  0
TEXT
  8
0_00
 62
7
 10
615.1240
 20
241.5219
 40
5.00
 41
1.00
 50
0.0000
  1
ブラケット３５０
  0
TEXT
  8
0_00
 62
7
 10
511.0675
 20
171.5033
 40
5.00
 41
1.00
 50
0.0000
  1
タッピンねじ・トラス
  0
TEXT
  8
0_00
 62
7
 10
523.0676
 20
163.5033
 40
5.00
 41
1.00
 50
0.0000
  1
φ６×５０
  0
TEXT
  8
0_00
 62
7
 10
531.6940
 20
154.9323
 40
5.00
 41
1.00
 50
0.0000
  1
ナイロンアンカー
  0
TEXT
  8
0_00
 62
7
 10
546.6940
 20
146.9323
 40
5.00
 41
1.00
 50
0.0000
  1
φ８
  0
TEXT
  8
0_00
 62
7
 10
547.1558
 20
137.1802
 40
5.00
 41
1.00
 50
0.0000
  1
下穴（φ８）現場加工
  0
TEXT
  8
0_00
 62
7
 10
549.1558
 20
129.1802
 40
5.00
 41
1.00
 50
0.0000
  1
下穴コーキング処理
  0
TEXT
  8
0_00
 62
7
 10
233.8005
 20
100.0000
 40
4.50
 41
0.75
 50
0.0000
  1
10
  0
TEXT
  8
0_00
 62
7
 10
267.1638
 20
100.0000
 40
4.50
 41
0.75
 50
0.0000
  1
n
  0
TEXT
  8
0_00
 62
7
 10
393.2005
 20
100.0000
 40
5.00
 41
1.00
 50
0.0000
  1
躯体寸法（推奨寸法３２０）
  0
TEXT
  8
0_00
 62
7
 10
576.5005
 20
100.0000
 40
4.50
 41
0.75
 50
0.0000
  1
n
  0
TEXT
  8
0_00
 62
7
 10
605.4005
 20
100.0000
 40
4.50
 41
0.75
 50
0.0000
  1
10
  0
TEXT
  8
0_00
 62
7
 10
398.2505
 20
91.0000
 40
5.00
 41
1.00
 50
0.0000
  1
（最大躯体寸法３３０）
  0
TEXT
  8
0_00
 62
7
 10
338.7407
 20
27.8000
 40
5.00
 41
1.00
 50
0.0000
  1
ＲＣ造
  0
TEXT
  8
0_00
 62
2
 10
595.2005
 20
528.0963
 40
8.00
 41
1.00
 50
0.0000
  1
建物側
  0
TEXT
  8
0_00
 62
2
 10
234.4005
 20
528.0963
 40
8.00
 41
1.00
 50
0.0000
  1
屋外側
  0
TEXT
  8
0_00
 62
2
 10
214.4005
 20
276.0963
 40
8.00
 41
1.00
 50
0.0000
  1
屋外側
  0
TEXT
  8
0_00
 62
2
 10
615.2005
 20
276.0963
 40
8.00
 41
1.00
 50
0.0000
  1
建物側
  0
TEXT
  8
0_00
 62
7
 10
46.8603
 20
26.8000
 40
5.00
 41
1.00
 50
0.0000
  1
適用製品
  0
TEXT
  8
0_00
 62
7
 10
86.8603
 20
26.8000
 40
5.00
 41
1.00
 50
0.0000
  1
適用日付
  0
TEXT
  8
0_00
 62
7
 10
119.0603
 20
66.8000
 40
5.00
 41
1.00
 50
0.0000
  1
記事
  0
TEXT
  8
0_00
 62
7
 10
315.0407
 20
56.8000
 40
5.00
 41
1.00
 50
0.0000
  1
階層仕様
  0
TEXT
  8
0_00
 62
7
 10
315.0407
 20
36.8000
 40
5.00
 41
1.00
 50
0.0000
  1
適用躯体
  0
TEXT
  8
0_00
 62
7
 10
420.0407
 20
56.8000
 40
5.00
 41
1.00
 50
0.0000
  1
名　称
  0
TEXT
  8
0_00
 62
7
 10
420.0407
 20
36.8000
 40
5.00
 41
1.00
 50
0.0000
  1
図　名
  0
TEXT
  8
0_00
 62
7
 10
543.2912
 20
66.8305
 40
5.00
 41
1.00
 50
0.0000
  1
Ｎｏ．
  0
TEXT
  8
0_00
 62
7
 10
749.0407
 20
66.8000
 40
5.00
 41
1.00
 50
0.0000
  1
適　　　　　　　　用
  0
TEXT
  8
0_00
 62
7
 10
718.9407
 20
66.8000
 40
5.00
 41
1.00
 50
0.0000
  1
個数
  0
TEXT
  8
0_00
 62
7
 10
682.1407
 20
66.8000
 40
5.00
 41
1.00
 50
0.0000
  1
材　　質
  0
TEXT
  8
0_00
 62
7
 10
617.4407
 20
66.8000
 40
5.00
 41
1.00
 50
0.0000
  1
部　　　品　　　名
  0
TEXT
  8
0_00
 62
7
 10
597.2907
 20
66.8000
 40
5.00
 41
1.00
 50
0.0000
  1
品番
  0
TEXT
  8
0_00
 62
7
 10
567.2407
 20
66.8000
 40
5.00
 41
1.00
 50
0.0000
  1
図　　番
  0
TEXT
  8
0_00
 62
7
 10
544.4407
 20
56.8000
 40
5.00
 41
1.00
 50
0.0000
  1
尺度
  0
TEXT
  8
0_00
 62
7
 10
544.4407
 20
36.8000
 40
5.00
 41
1.00
 50
0.0000
  1
日付
  0
TEXT
  8
0_00
 62
7
 10
618.9294
 20
56.8000
 40
5.00
 41
1.00
 50
0.0000
  1
承認
  0
TEXT
  8
0_00
 62
7
 10
647.0406
 20
56.8000
 40
5.00
 41
1.00
 50
0.0000
  1
検図
  0
TEXT
  8
0_00
 62
7
 10
671.2407
 20
56.8000
 40
5.00
 41
1.00
 50
0.0000
  1
設計
  0
TEXT
  8
0_00
 62
7
 10
696.1407
 20
56.8000
 40
5.00
 41
1.00
 50
0.0000
  1
製図
  0
TEXT
  8
0_00
 62
7
 10
716.3407
 20
36.8000
 40
5.00
 41
1.00
 50
0.0000
  1
図番
  0
TEXT
  8
0_00
 62
2
 10
735.9479
 20
49.4900
 40
8.00
 41
1.00
 50
0.0000
  1
文化シヤッター株式会社
  0
TEXT
  8
0_00
 62
7
 10
133.8603
 20
575.3000
 40
5.00
 41
1.00
 50
180.0000
  1
図番
  0
TEXT
  8
0_00
 62
7
 10
532.7007
 20
569.3446
 40
4.00
 41
1.00
 50
0.0000
  1
ＮＯ
  0
TEXT
  8
0_00
 62
7
 10
550.1407
 20
569.3000
 40
5.00
 41
1.00
 50
0.0000
  1
個　数
  0
TEXT
  8
0_00
 62
7
 10
580.2407
 20
569.3000
 40
5.00
 41
1.00
 50
0.0000
  1
日　　付
  0
TEXT
  8
0_00
 62
7
 10
656.1407
 20
569.3000
 40
5.00
 41
1.00
 50
0.0000
  1
訂　　　正　　　記　　　事
  0
TEXT
  8
0_00
 62
7
 10
558.9407
 20
46.8000
 40
4.50
 41
0.75
 50
0.0000
  1
:
  0
TEXT
  8
0_00
 62
7
 10
758.5808
 20
17.8000
 40
4.00
 41
1.00
 50
0.0000
  1
ＪＩＳ　Ａ－３
  0
TEXT
  8
0_00
 62
7
 10
786.3323
 20
17.7988
 40
4.00
 41
1.00
 50
0.0000
  1
（２９７×４２０）
  0
TEXT
  8
0_00
 62
7
 10
768.7407
 20
569.3000
 40
5.00
 41
1.00
 50
0.0000
  1
担　当
  0
TEXT
  8
0_00
 62
7
 10
792.7407
 20
569.3000
 40
5.00
 41
1.00
 50
0.0000
  1
承　認
  0
TEXT
  8
0_00
 62
7
 10
367.5407
 20
56.8000
 40
5.00
 41
1.00
 50
0.0000
  1
機種名
  0
TEXT
  8
0_00
 62
7
 10
367.5407
 20
36.8000
 40
5.00
 41
1.00
 50
0.0000
  1
型　式
  0
TEXT
  8
0_00
 62
7
 10
417.2005
 20
528.2963
 40
4.50
 41
0.75
 50
0.0000
  1
300
  0
TEXT
  8
0_00
 62
7
 10
208.0000
 20
451.9860
 40
4.50
 41
0.75
 50
90.0000
  1
65
  0
TEXT
  8
0_00
 62
7
 10
222.0000
 20
469.4561
 40
4.50
 41
0.75
 50
90.0000
  1
20
  0
TEXT
  8
0_00
 62
7
 10
628.0000
 20
444.5368
 40
4.50
 41
0.75
 50
90.0000
  1
60
  0
TEXT
  8
0_00
 62
7
 10
417.2005
 20
276.2963
 40
4.50
 41
0.75
 50
0.0000
  1
350
  0
TEXT
  8
0_00
 62
7
 10
642.0000
 20
191.7035
 40
4.50
 41
0.75
 50
90.0000
  1
60
  0
TEXT
  8
0_00
 62
7
 10
194.0000
 20
200.8185
 40
4.50
 41
0.75
 50
90.0000
  1
65
  0
TEXT
  8
0_00
 62
7
 10
208.0000
 20
217.4561
 40
4.50
 41
0.75
 50
90.0000
  1
20
  0
TEXT
  8
0_00
 62
7
 10
417.2005
 20
366.0000
 40
4.50
 41
0.75
 50
0.0000
  1
138
  0
TEXT
  8
0_00
 62
7
 10
417.2005
 20
114.0000
 40
4.50
 41
0.75
 50
0.0000
  1
138
  0
POINT
  8
12_0C
 62
6
 10
355.4005
 20
463.7561
  0
POINT
  8
12_0C
 62
6
 10
493.4005
 20
463.7561
  0
POINT
  8
0_00
 62
6
 10
355.4005
 20
211.7561
  0
POINT
  8
0_00
 62
6
 10
493.4005
 20
211.7561
  0
POINT
  8
0_00
 62
5
 10
559.4005
 20
464.2561
  0
POINT
  8
0_00
 62
5
 10
289.4005
 20
464.2561
  0
POINT
  8
0_00
 62
5
 10
584.4005
 20
212.2561
  0
POINT
  8
0_00
 62
5
 10
264.4005
 20
212.2561
  0
POINT
  8
0_00
 62
5
 10
580.5241
 20
392.3749
  0
POINT
  8
0_00
 62
6
 10
284.4005
 20
350.0000
  0
POINT
  8
0_00
 62
6
 10
564.4005
 20
350.0000
  0
POINT
  8
0_00
 62
5
 10
574.4005
 20
479.2561
  0
POINT
  8
0_00
 62
6
 10
355.4005
 20
211.7561
  0
POINT
  8
0_00
 62
6
 10
493.4005
 20
211.7561
  0
POINT
  8
0_00
 62
6
 10
259.4005
 20
98.0000
  0
POINT
  8
0_00
 62
6
 10
589.4005
 20
98.0000
  0
POINT
  8
0_00
 62
5
 10
599.4005
 20
226.4228
  0
POINT
  8
0_00
 62
5
 10
439.5129
 20
232.7823
  0
POINT
  8
0_00
 62
2
 10
16.0603
 20
9.9994
  0
POINT
  8
0_00
 62
2
 10
16.0603
 20
9.9994
  0
POINT
  8
0_00
 62
2
 10
56.4603
 20
39.8000
  0
POINT
  8
0_00
 62
2
 10
56.4603
 20
49.8000
  0
POINT
  8
0_00
 62
2
 10
56.4603
 20
59.8000
  0
POINT
  8
0_00
 62
2
 10
56.4603
 20
69.8000
  0
POINT
  8
0_00
 62
2
 10
345.9407
 20
50.8000
  0
POINT
  8
0_00
 62
2
 10
345.9407
 20
30.8000
  0
POINT
  8
0_00
 62
2
 10
479.1407
 20
52.8000
  0
POINT
  8
0_00
 62
2
 10
479.1407
 20
32.8000
  0
POINT
  8
0_00
 62
2
 10
731.8407
 20
34.8000
  0
POINT
  8
0_00
 62
2
 10
676.0406
 20
39.8000
  0
POINT
  8
0_00
 62
2
 10
96.4603
 20
39.8000
  0
POINT
  8
0_00
 62
2
 10
96.4603
 20
49.8000
  0
POINT
  8
0_00
 62
2
 10
96.4603
 20
59.8000
  0
POINT
  8
0_00
 62
2
 10
96.4603
 20
69.8000
  0
POINT
  8
0_00
 62
2
 10
570.8407
 20
49.8000
  0
POINT
  8
0_00
 62
2
 10
551.8407
 20
49.8000
  0
POINT
  8
0_00
 62
2
 10
136.4603
 20
69.8000
  0
POINT
  8
0_00
 62
2
 10
136.4603
 20
59.8000
  0
POINT
  8
0_00
 62
2
 10
136.4603
 20
49.8000
  0
POINT
  8
0_00
 62
2
 10
136.4603
 20
39.8000
  0
POINT
  8
0_00
 62
2
 10
136.4603
 20
29.8001
  0
POINT
  8
0_00
 62
2
 10
700.9407
 20
39.8000
  0
POINT
  8
0_00
 62
2
 10
56.4603
 20
29.8001
  0
POINT
  8
0_00
 62
2
 10
96.4603
 20
29.8001
  0
POINT
  8
0_00
 62
2
 10
116.4603
 20
572.3000
  0
POINT
  8
0_00
 62
2
 10
575.0907
 20
32.8000
  0
POINT
  8
0_00
 62
2
 10
398.4407
 20
50.8000
  0
POINT
  8
0_00
 62
2
 10
398.4407
 20
30.8000
  0
ENDSEC
  0
EOF
