999
  
  0
SECTION
  2
HEADER
  9
$EXTMIN
 10
0
 20
0
  9
$EXTMAX
 10
840
 20
592
  9
$LTSCALE
 40
2.00
  9
$PDMODE
 70
33
  9
$PDSIZE
 40
1.20
  0
ENDSEC
  0
SECTION
  2
TABLES
  0
TABLE
  2
LTYPE
 70
9
  0
LTYPE
  2
CONTINUOUS
 70
64
  3
実線
 72
65
 73
0
 40
0.00
  0
LTYPE
  2
DASHED
 70
64
  3
__  __  __  __  __  __  __ 
 72
65
 73
2
 40
1.00
 49
0.50
 49
-0.50
  0
LTYPE
  2
HIDDEN1
 70
64
  3
____    ____    ____    ___
 72
65
 73
2
 40
2.20
 49
1.20
 49
-1.00
  0
LTYPE
  2
HIDDEN2
 70
64
  3
______  ______  ______  ___
 72
65
 73
2
 40
4.50
 49
3.50
 49
-1.00
  0
LTYPE
  2
CENTER1
 70
64
  3
_______ _ _______ _ _______
 72
65
 73
4
 40
20.00
 49
17.00
 49
-1.00
 49
1.00
 49
-1.00
  0
LTYPE
  2
CENTER2
 70
64
  3
___________  __  __________
 72
65
 73
4
 40
40.00
 49
34.00
 49
-2.00
 49
2.00
 49
-2.00
  0
LTYPE
  2
PHANTOM1
 70
64
  3
______ _ _ ______ _ _ _____
 72
65
 73
6
 40
20.00
 49
15.00
 49
-1.00
 49
1.00
 49
-1.00
 49
1.00
 49
-1.00
  0
LTYPE
  2
PHANTOM2
 70
64
  3
__________  _  _  _________
 72
65
 73
6
 40
40.00
 49
30.00
 49
-2.00
 49
2.00
 49
-2.00
 49
2.00
 49
-2.00
  0
LTYPE
  2
DOT
 70
64
  3
 .  .  .  .  .  .  .  .  . 
 72
65
 73
2
 40
1.00
 49
0.00
 49
-1.00
  0
ENDTAB
  0
TABLE
  2
STYLE
 70
1
  0
STYLE
  2
STANDARD
 70
64
 40
0.0
 41
1.0
 42
0.0
 50
0.0
 71
0
  3
ROMANS
  4
BIGFONT
  0
ENDTAB
  0
TABLE
  2
LAYER
 70
2
  0
LAYER
  2
0_00
 70
64
 62
7
  6
CONTINUOUS
  0
LAYER
  2
15_0F
 70
64
 62
7
  6
CONTINUOUS
  0
ENDTAB
  0
ENDSEC
  0
SECTION
  2
ENTITIES
  0
LINE
  8
0_00
  6
CONTINUOUS
 62
7
 10
424.4005
 20
567.8000
 11
424.4005
 21
74.8000
  0
LINE
  8
0_00
  6
CONTINUOUS
 62
7
 10
36.4603
 20
321.3000
 11
812.3407
 21
321.3000
  0
LINE
  8
0_00
  6
CENTER1
 62
6
 10
102.8867
 20
454.9024
 11
409.0556
 21
454.9024
  0
LINE
  8
0_00
  6
CENTER1
 62
6
 10
102.8867
 20
454.9024
 11
102.8867
 21
332.9934
  0
LINE
  8
0_00
  6
CENTER1
 62
6
 10
59.3384
 20
498.4507
 11
152.4846
 21
405.3046
  0
LINE
  8
0_00
  6
CENTER1
 62
6
 10
122.8867
 20
495.0811
 11
122.8867
 21
415.0363
  0
LINE
  8
0_00
  6
CENTER1
 62
6
 10
302.8867
 20
500.9700
 11
302.8867
 21
405.5895
  0
LINE
  8
0_00
  6
CONTINUOUS
 62
6
 10
126.5908
 20
487.2224
 11
141.1256
 21
501.7572
  0
LINE
  8
0_00
  6
CONTINUOUS
 62
6
 10
126.5908
 20
487.2224
 11
130.7841
 21
489.9456
  0
LINE
  8
0_00
  6
CONTINUOUS
 62
6
 10
126.5908
 20
487.2224
 11
129.3140
 21
491.4158
  0
LINE
  8
0_00
  6
CONTINUOUS
 62
6
 10
141.1256
 20
501.7572
 11
190.3256
 21
501.7572
  0
LINE
  8
0_00
  6
CONTINUOUS
 62
4
 10
138.8867
 20
418.9025
 11
66.8867
 21
490.9024
  0
LINE
  8
0_00
  6
CONTINUOUS
 62
4
 10
315.6067
 20
420.3510
 11
315.6067
 21
489.8450
  0
LINE
  8
0_00
  6
CONTINUOUS
 62
5
 10
313.0067
 20
420.7754
 11
313.0067
 21
489.2333
  0
LINE
  8
0_00
  6
CONTINUOUS
 62
5
 10
311.0067
 20
420.7754
 11
311.0067
 21
489.2333
  0
LINE
  8
0_00
  6
DASHED
 62
6
 10
283.2867
 20
488.9697
 11
283.2867
 21
421.2260
  0
LINE
  8
0_00
  6
DASHED
 62
6
 10
290.1667
 20
420.3510
 11
290.1667
 21
489.8450
  0
LINE
  8
0_00
  6
DASHED
 62
6
 10
283.7667
 20
421.2260
 11
283.2867
 21
421.2260
  0
LINE
  8
0_00
  6
DASHED
 62
6
 10
284.1667
 20
421.7033
 11
283.7667
 21
421.7033
  0
LINE
  8
0_00
  6
DASHED
 62
6
 10
283.7667
 20
488.9697
 11
283.2867
 21
488.9697
  0
LINE
  8
0_00
  6
DASHED
 62
6
 10
284.1667
 20
488.4922
 11
283.7667
 21
488.4922
  0
LINE
  8
0_00
  6
CONTINUOUS
 62
4
 10
322.4867
 20
488.9697
 11
322.4867
 21
421.2260
  0
LINE
  8
0_00
  6
CONTINUOUS
 62
4
 10
322.0067
 20
488.9697
 11
322.0067
 21
421.2260
  0
LINE
  8
0_00
  6
CONTINUOUS
 62
4
 10
315.6067
 20
420.3510
 11
315.6067
 21
489.8450
  0
LINE
  8
0_00
  6
CONTINUOUS
 62
4
 10
322.0067
 20
421.2260
 11
322.4867
 21
421.2260
  0
LINE
  8
0_00
  6
CONTINUOUS
 62
4
 10
322.0067
 20
422.2538
 11
322.4867
 21
422.2538
  0
LINE
  8
0_00
  6
CONTINUOUS
 62
4
 10
321.6067
 20
421.7033
 11
322.0067
 21
421.7033
  0
LINE
  8
0_00
  6
CONTINUOUS
 62
4
 10
321.6067
 20
422.6869
 11
322.0067
 21
422.6869
  0
LINE
  8
0_00
  6
CONTINUOUS
 62
4
 10
322.0067
 20
488.9697
 11
322.4867
 21
488.9697
  0
LINE
  8
0_00
  6
CONTINUOUS
 62
4
 10
322.0067
 20
487.7688
 11
322.4867
 21
487.7688
  0
LINE
  8
0_00
  6
CONTINUOUS
 62
4
 10
321.6067
 20
488.4922
 11
322.0067
 21
488.4922
  0
LINE
  8
0_00
  6
CONTINUOUS
 62
4
 10
321.6067
 20
487.3374
 11
322.0067
 21
487.3374
  0
LINE
  8
0_00
  6
CONTINUOUS
 62
2
 10
315.6067
 20
418.3625
 11
321.6067
 21
418.3625
  0
LINE
  8
0_00
  6
CONTINUOUS
 62
2
 10
315.6067
 20
491.8532
 11
321.6067
 21
491.8532
  0
LINE
  8
0_00
  6
DASHED
 62
6
 10
284.1667
 20
490.9024
 11
284.1667
 21
418.9025
  0
LINE
  8
0_00
  6
CONTINUOUS
 62
2
 10
321.6067
 20
491.8532
 11
321.6067
 21
418.3625
  0
LINE
  8
0_00
  6
DASHED
 62
6
 10
290.1667
 20
490.9024
 11
290.1667
 21
418.9025
  0
LINE
  8
0_00
  6
CONTINUOUS
 62
2
 10
315.6067
 20
491.8532
 11
315.6067
 21
418.3625
  0
LINE
  8
0_00
  6
CONTINUOUS
 62
2
 10
317.0812
 20
491.8532
 11
321.6067
 21
487.3278
  0
LINE
  8
0_00
  6
CONTINUOUS
 62
2
 10
315.6067
 20
488.8023
 11
321.6067
 21
482.8022
  0
LINE
  8
0_00
  6
CONTINUOUS
 62
2
 10
315.6067
 20
484.2768
 11
321.6067
 21
478.2768
  0
LINE
  8
0_00
  6
CONTINUOUS
 62
2
 10
315.6067
 20
479.7513
 11
321.6067
 21
473.7513
  0
LINE
  8
0_00
  6
CONTINUOUS
 62
2
 10
315.6067
 20
475.2258
 11
321.6067
 21
469.2258
  0
LINE
  8
0_00
  6
CONTINUOUS
 62
2
 10
315.6067
 20
470.7004
 11
321.6067
 21
464.7003
  0
LINE
  8
0_00
  6
CONTINUOUS
 62
2
 10
315.6067
 20
466.1749
 11
321.6067
 21
460.1749
  0
LINE
  8
0_00
  6
CONTINUOUS
 62
2
 10
315.6067
 20
461.6494
 11
321.6067
 21
455.6494
  0
LINE
  8
0_00
  6
CONTINUOUS
 62
2
 10
315.6067
 20
457.1239
 11
321.6067
 21
451.1239
  0
LINE
  8
0_00
  6
CONTINUOUS
 62
2
 10
315.6067
 20
452.5984
 11
321.6067
 21
446.5984
  0
LINE
  8
0_00
  6
CONTINUOUS
 62
2
 10
315.6067
 20
448.0729
 11
321.6067
 21
442.0729
  0
LINE
  8
0_00
  6
CONTINUOUS
 62
2
 10
315.6067
 20
443.5474
 11
321.6067
 21
437.5474
  0
LINE
  8
0_00
  6
CONTINUOUS
 62
2
 10
315.6067
 20
439.0220
 11
321.6067
 21
433.0220
  0
LINE
  8
0_00
  6
CONTINUOUS
 62
2
 10
315.6067
 20
434.4965
 11
321.6067
 21
428.4964
  0
LINE
  8
0_00
  6
CONTINUOUS
 62
2
 10
315.6067
 20
429.9710
 11
321.6067
 21
423.9710
  0
LINE
  8
0_00
  6
CONTINUOUS
 62
2
 10
315.6067
 20
425.4455
 11
321.6067
 21
419.4455
  0
LINE
  8
0_00
  6
CONTINUOUS
 62
2
 10
315.6067
 20
420.9200
 11
318.1642
 21
418.3625
  0
LINE
  8
0_00
  6
CONTINUOUS
 62
2
 10
315.6067
 20
418.6573
 11
315.9015
 21
418.3625
  0
LINE
  8
0_00
  6
DASHED
 62
6
 10
286.5920
 20
490.9024
 11
290.1667
 21
487.3278
  0
LINE
  8
0_00
  6
DASHED
 62
6
 10
284.1667
 20
488.8023
 11
290.1667
 21
482.8022
  0
LINE
  8
0_00
  6
DASHED
 62
6
 10
284.1667
 20
484.2768
 11
290.1667
 21
478.2768
  0
LINE
  8
0_00
  6
DASHED
 62
6
 10
284.1667
 20
479.7513
 11
290.1667
 21
473.7513
  0
LINE
  8
0_00
  6
DASHED
 62
6
 10
284.1667
 20
475.2258
 11
290.1667
 21
469.2258
  0
LINE
  8
0_00
  6
DASHED
 62
6
 10
284.1667
 20
470.7004
 11
290.1667
 21
464.7003
  0
LINE
  8
0_00
  6
DASHED
 62
6
 10
284.1667
 20
466.1749
 11
290.1667
 21
460.1749
  0
LINE
  8
0_00
  6
DASHED
 62
6
 10
284.1667
 20
461.6494
 11
290.1667
 21
455.6494
  0
LINE
  8
0_00
  6
DASHED
 62
6
 10
284.1667
 20
457.1239
 11
290.1667
 21
451.1239
  0
LINE
  8
0_00
  6
DASHED
 62
6
 10
284.1667
 20
452.5984
 11
290.1667
 21
446.5984
  0
LINE
  8
0_00
  6
DASHED
 62
6
 10
284.1667
 20
448.0729
 11
290.1667
 21
442.0729
  0
LINE
  8
0_00
  6
DASHED
 62
6
 10
284.1667
 20
443.5474
 11
290.1667
 21
437.5474
  0
LINE
  8
0_00
  6
DASHED
 62
6
 10
284.1667
 20
439.0220
 11
290.1667
 21
433.0220
  0
LINE
  8
0_00
  6
DASHED
 62
6
 10
284.1667
 20
434.4965
 11
290.1667
 21
428.4964
  0
LINE
  8
0_00
  6
DASHED
 62
6
 10
284.1667
 20
429.9710
 11
290.1667
 21
423.9710
  0
LINE
  8
0_00
  6
DASHED
 62
6
 10
284.1667
 20
425.4455
 11
290.1667
 21
419.4455
  0
LINE
  8
0_00
  6
DASHED
 62
6
 10
284.1667
 20
420.9200
 11
286.1843
 21
418.9025
  0
LINE
  8
0_00
  6
DASHED
 62
6
 10
284.1667
 20
418.6573
 11
284.4615
 21
418.3625
  0
LINE
  8
0_00
  6
CONTINUOUS
 62
4
 10
138.8867
 20
418.9025
 11
138.8867
 21
344.1678
  0
LINE
  8
0_00
  6
CONTINUOUS
 62
4
 10
66.8867
 20
490.9024
 11
66.8867
 21
344.1678
  0
LINE
  8
0_00
  6
CONTINUOUS
 62
4
 10
295.8867
 20
418.5362
 11
295.8867
 21
491.2686
  0
LINE
  8
0_00
  6
CONTINUOUS
 62
4
 10
309.8867
 20
418.5362
 11
309.8867
 21
491.2686
  0
LINE
  8
0_00
  6
CONTINUOUS
 62
4
 10
302.8867
 20
492.1601
 11
309.5164
 21
491.6676
  0
LINE
  8
0_00
  6
CONTINUOUS
 62
4
 10
302.8867
 20
492.1601
 11
296.2571
 21
491.6676
  0
LINE
  8
0_00
  6
CONTINUOUS
 62
4
 10
302.8867
 20
417.6448
 11
309.5164
 21
418.1373
  0
LINE
  8
0_00
  6
CONTINUOUS
 62
4
 10
302.8867
 20
417.6448
 11
296.2571
 21
418.1373
  0
LINE
  8
0_00
  6
CONTINUOUS
 62
4
 10
309.8867
 20
489.2333
 11
315.6067
 21
489.2333
  0
LINE
  8
0_00
  6
DASHED
 62
6
 10
290.1667
 20
489.2333
 11
309.8867
 21
489.2333
  0
LINE
  8
0_00
  6
DASHED
 62
6
 10
290.1667
 20
488.5596
 11
309.8867
 21
488.5596
  0
LINE
  8
0_00
  6
CONTINUOUS
 62
4
 10
315.6067
 20
488.5596
 11
309.8867
 21
488.5596
  0
LINE
  8
0_00
  6
CONTINUOUS
 62
4
 10
309.8867
 20
421.4599
 11
315.6067
 21
421.4599
  0
LINE
  8
0_00
  6
DASHED
 62
6
 10
290.1667
 20
421.4599
 11
309.8867
 21
421.4599
  0
LINE
  8
0_00
  6
DASHED
 62
6
 10
290.1667
 20
420.7754
 11
309.8867
 21
420.7754
  0
LINE
  8
0_00
  6
CONTINUOUS
 62
4
 10
315.6067
 20
420.7754
 11
309.8867
 21
420.7754
  0
LINE
  8
0_00
  6
DASHED
 62
6
 10
283.7667
 20
488.9697
 11
283.7667
 21
488.4922
  0
LINE
  8
0_00
  6
DASHED
 62
6
 10
283.7667
 20
421.7033
 11
283.7667
 21
421.2260
  0
LINE
  8
0_00
  6
DASHED
 62
2
 10
300.8867
 20
490.9024
 11
300.8867
 21
418.9025
  0
LINE
  8
0_00
  6
DASHED
 62
2
 10
295.8867
 20
490.9024
 11
300.8867
 21
490.9024
  0
LINE
  8
0_00
  6
DASHED
 62
2
 10
295.8867
 20
418.9025
 11
300.8867
 21
418.9025
  0
LINE
  8
0_00
  6
CONTINUOUS
 62
4
 10
138.8867
 20
418.9025
 11
295.8867
 21
418.9025
  0
LINE
  8
0_00
  6
DASHED
 62
2
 10
304.8867
 20
490.9024
 11
304.8867
 21
418.9025
  0
LINE
  8
0_00
  6
DASHED
 62
2
 10
304.8867
 20
418.9025
 11
309.8867
 21
418.9025
  0
LINE
  8
0_00
  6
DASHED
 62
2
 10
304.8867
 20
490.9024
 11
309.8867
 21
490.9024
  0
LINE
  8
0_00
  6
CONTINUOUS
 62
4
 10
402.2634
 20
484.9024
 11
322.4867
 21
484.9024
  0
LINE
  8
0_00
  6
CONTINUOUS
 62
4
 10
322.4867
 20
424.9024
 11
402.2634
 21
424.9024
  0
LINE
  8
0_00
  6
CONTINUOUS
 62
4
 10
128.4867
 20
464.5024
 11
131.2867
 21
464.5024
  0
LINE
  8
0_00
  6
CONTINUOUS
 62
4
 10
128.4867
 20
467.7024
 11
131.2867
 21
467.7024
  0
LINE
  8
0_00
  6
DASHED
 62
6
 10
128.4867
 20
445.3025
 11
131.2867
 21
445.3025
  0
LINE
  8
0_00
  6
DASHED
 62
6
 10
128.4867
 20
442.1024
 11
131.2867
 21
442.1024
  0
LINE
  8
0_00
  6
CONTINUOUS
 62
4
 10
117.2867
 20
464.5024
 11
114.4867
 21
464.5024
  0
LINE
  8
0_00
  6
CONTINUOUS
 62
4
 10
117.2867
 20
467.7024
 11
114.4867
 21
467.7024
  0
LINE
  8
0_00
  6
DASHED
 62
6
 10
117.2867
 20
445.3025
 11
114.4867
 21
445.3025
  0
LINE
  8
0_00
  6
DASHED
 62
6
 10
117.2867
 20
442.1024
 11
114.4867
 21
442.1024
  0
LINE
  8
0_00
  6
DASHED
 62
6
 10
134.8867
 20
434.1024
 11
110.8867
 21
434.1024
  0
LINE
  8
0_00
  6
CONTINUOUS
 62
4
 10
110.8867
 20
475.8225
 11
134.8867
 21
475.8225
  0
LINE
  8
0_00
  6
CONTINUOUS
 62
4
 10
110.8867
 20
476.6224
 11
134.8867
 21
476.6224
  0
LINE
  8
0_00
  6
CONTINUOUS
 62
4
 10
134.8867
 20
481.8224
 11
110.8867
 21
481.8224
  0
LINE
  8
0_00
  6
CONTINUOUS
 62
4
 10
134.8867
 20
484.6224
 11
110.8867
 21
484.6224
  0
LINE
  8
0_00
  6
CONTINUOUS
 62
4
 10
134.8867
 20
484.8224
 11
110.8867
 21
484.8224
  0
LINE
  8
0_00
  6
CONTINUOUS
 62
4
 10
134.8867
 20
486.3024
 11
110.8867
 21
486.3024
  0
LINE
  8
0_00
  6
CONTINUOUS
 62
4
 10
134.8867
 20
488.4224
 11
110.8867
 21
488.4224
  0
LINE
  8
0_00
  6
CONTINUOUS
 62
4
 10
134.8867
 20
490.3025
 11
110.8867
 21
490.3025
  0
LINE
  8
0_00
  6
CONTINUOUS
 62
2
 10
134.8867
 20
482.0225
 11
110.8867
 21
482.0225
  0
LINE
  8
0_00
  6
CONTINUOUS
 62
2
 10
134.8867
 20
484.0225
 11
110.8867
 21
484.0225
  0
LINE
  8
0_00
  6
CONTINUOUS
 62
4
 10
97.4650
 20
490.9024
 11
97.5219
 21
490.8445
  0
LINE
  8
0_00
  6
CONTINUOUS
 62
4
 10
97.5219
 20
490.8445
 11
97.8053
 21
490.5550
  0
LINE
  8
0_00
  6
CONTINUOUS
 62
4
 10
97.8053
 20
490.5550
 11
98.0880
 21
490.2656
  0
LINE
  8
0_00
  6
CONTINUOUS
 62
4
 10
98.0880
 20
490.2656
 11
98.3695
 21
489.9760
  0
LINE
  8
0_00
  6
CONTINUOUS
 62
4
 10
98.3695
 20
489.9760
 11
98.6495
 21
489.6863
  0
LINE
  8
0_00
  6
CONTINUOUS
 62
4
 10
98.6495
 20
489.6863
 11
98.9276
 21
489.3965
  0
LINE
  8
0_00
  6
CONTINUOUS
 62
4
 10
98.9276
 20
489.3965
 11
99.2035
 21
489.1066
  0
LINE
  8
0_00
  6
CONTINUOUS
 62
4
 10
99.2035
 20
489.1066
 11
99.4767
 21
488.8165
  0
LINE
  8
0_00
  6
CONTINUOUS
 62
4
 10
99.4767
 20
488.8165
 11
99.7469
 21
488.5262
  0
LINE
  8
0_00
  6
CONTINUOUS
 62
4
 10
99.7469
 20
488.5262
 11
100.0137
 21
488.2357
  0
LINE
  8
0_00
  6
CONTINUOUS
 62
4
 10
100.0137
 20
488.2357
 11
100.2768
 21
487.9449
  0
LINE
  8
0_00
  6
CONTINUOUS
 62
4
 10
100.2768
 20
487.9449
 11
100.5357
 21
487.6540
  0
LINE
  8
0_00
  6
CONTINUOUS
 62
4
 10
100.5357
 20
487.6540
 11
100.7900
 21
487.3626
  0
LINE
  8
0_00
  6
CONTINUOUS
 62
4
 10
100.7900
 20
487.3626
 11
101.0395
 21
487.0710
  0
LINE
  8
0_00
  6
CONTINUOUS
 62
4
 10
101.0395
 20
487.0710
 11
101.2837
 21
486.7790
  0
LINE
  8
0_00
  6
CONTINUOUS
 62
4
 10
101.2837
 20
486.7790
 11
101.5222
 21
486.4866
  0
LINE
  8
0_00
  6
CONTINUOUS
 62
4
 10
101.5222
 20
486.4866
 11
101.7547
 21
486.1939
  0
LINE
  8
0_00
  6
CONTINUOUS
 62
4
 10
101.7547
 20
486.1939
 11
101.9808
 21
485.9008
  0
LINE
  8
0_00
  6
CONTINUOUS
 62
4
 10
101.9808
 20
485.9008
 11
102.2001
 21
485.6072
  0
LINE
  8
0_00
  6
CONTINUOUS
 62
4
 10
102.2001
 20
485.6072
 11
102.4123
 21
485.3131
  0
LINE
  8
0_00
  6
CONTINUOUS
 62
4
 10
102.4123
 20
485.3131
 11
102.6169
 21
485.0186
  0
LINE
  8
0_00
  6
CONTINUOUS
 62
4
 10
102.6169
 20
485.0186
 11
102.8135
 21
484.7235
  0
LINE
  8
0_00
  6
CONTINUOUS
 62
4
 10
102.8135
 20
484.7235
 11
103.0019
 21
484.4279
  0
LINE
  8
0_00
  6
CONTINUOUS
 62
4
 10
103.0019
 20
484.4279
 11
103.1816
 21
484.1317
  0
LINE
  8
0_00
  6
CONTINUOUS
 62
4
 10
103.1816
 20
484.1317
 11
103.3523
 21
483.8350
  0
LINE
  8
0_00
  6
CONTINUOUS
 62
4
 10
103.3523
 20
483.8350
 11
103.5135
 21
483.5376
  0
LINE
  8
0_00
  6
CONTINUOUS
 62
4
 10
103.5135
 20
483.5376
 11
103.6649
 21
483.2397
  0
LINE
  8
0_00
  6
CONTINUOUS
 62
4
 10
103.6649
 20
483.2397
 11
103.8062
 21
482.9410
  0
LINE
  8
0_00
  6
CONTINUOUS
 62
4
 10
103.8062
 20
482.9410
 11
103.9369
 21
482.6417
  0
LINE
  8
0_00
  6
CONTINUOUS
 62
4
 10
103.9369
 20
482.6417
 11
104.0566
 21
482.3416
  0
LINE
  8
0_00
  6
CONTINUOUS
 62
4
 10
104.0566
 20
482.3416
 11
104.1652
 21
482.0408
  0
LINE
  8
0_00
  6
CONTINUOUS
 62
4
 10
104.1652
 20
482.0408
 11
104.2633
 21
481.7393
  0
LINE
  8
0_00
  6
CONTINUOUS
 62
4
 10
104.2633
 20
481.7393
 11
104.3516
 21
481.4371
  0
LINE
  8
0_00
  6
CONTINUOUS
 62
4
 10
104.3516
 20
481.4371
 11
104.4309
 21
481.1342
  0
LINE
  8
0_00
  6
CONTINUOUS
 62
4
 10
104.4309
 20
481.1342
 11
104.5020
 21
480.8304
  0
LINE
  8
0_00
  6
CONTINUOUS
 62
4
 10
104.5020
 20
480.8304
 11
104.5656
 21
480.5261
  0
LINE
  8
0_00
  6
CONTINUOUS
 62
4
 10
104.5656
 20
480.5261
 11
104.6224
 21
480.2209
  0
LINE
  8
0_00
  6
CONTINUOUS
 62
4
 10
104.6224
 20
480.2209
 11
104.6734
 21
479.9151
  0
LINE
  8
0_00
  6
CONTINUOUS
 62
4
 10
104.6734
 20
479.9151
 11
104.7192
 21
479.6086
  0
LINE
  8
0_00
  6
CONTINUOUS
 62
4
 10
104.7192
 20
479.6086
 11
104.7606
 21
479.3013
  0
LINE
  8
0_00
  6
CONTINUOUS
 62
4
 10
104.7606
 20
479.3013
 11
104.7984
 21
478.9933
  0
LINE
  8
0_00
  6
CONTINUOUS
 62
4
 10
104.7984
 20
478.9933
 11
104.8334
 21
478.6847
  0
LINE
  8
0_00
  6
CONTINUOUS
 62
4
 10
104.8334
 20
478.6847
 11
104.8662
 21
478.3753
  0
LINE
  8
0_00
  6
CONTINUOUS
 62
4
 10
104.8662
 20
478.3753
 11
104.8977
 21
478.0653
  0
LINE
  8
0_00
  6
CONTINUOUS
 62
4
 10
104.8977
 20
478.0653
 11
104.9287
 21
477.7545
  0
LINE
  8
0_00
  6
CONTINUOUS
 62
4
 10
104.9287
 20
477.7545
 11
104.9599
 21
477.4430
  0
LINE
  8
0_00
  6
CONTINUOUS
 62
4
 10
104.9599
 20
477.4430
 11
104.9922
 21
477.1309
  0
LINE
  8
0_00
  6
CONTINUOUS
 62
4
 10
104.9922
 20
477.1309
 11
105.0261
 21
476.8180
  0
LINE
  8
0_00
  6
CONTINUOUS
 62
4
 10
105.0261
 20
476.8180
 11
105.0626
 21
476.5045
  0
LINE
  8
0_00
  6
CONTINUOUS
 62
4
 10
105.0626
 20
476.5045
 11
105.1024
 21
476.1903
  0
LINE
  8
0_00
  6
CONTINUOUS
 62
4
 10
105.1024
 20
476.1903
 11
105.1462
 21
475.8754
  0
LINE
  8
0_00
  6
CONTINUOUS
 62
4
 10
105.1462
 20
475.8754
 11
105.1949
 21
475.5598
  0
LINE
  8
0_00
  6
CONTINUOUS
 62
4
 10
105.1949
 20
475.5598
 11
105.2492
 21
475.2435
  0
LINE
  8
0_00
  6
CONTINUOUS
 62
4
 10
105.2492
 20
475.2435
 11
105.3099
 21
474.9266
  0
LINE
  8
0_00
  6
CONTINUOUS
 62
4
 10
105.3099
 20
474.9266
 11
105.3777
 21
474.6090
  0
LINE
  8
0_00
  6
CONTINUOUS
 62
4
 10
105.3777
 20
474.6090
 11
105.4535
 21
474.2908
  0
LINE
  8
0_00
  6
CONTINUOUS
 62
4
 10
105.4535
 20
474.2908
 11
105.5379
 21
473.9718
  0
LINE
  8
0_00
  6
CONTINUOUS
 62
4
 10
105.5379
 20
473.9718
 11
105.6318
 21
473.6522
  0
LINE
  8
0_00
  6
CONTINUOUS
 62
4
 10
105.6318
 20
473.6522
 11
105.7359
 21
473.3320
  0
LINE
  8
0_00
  6
CONTINUOUS
 62
4
 10
105.7359
 20
473.3320
 11
105.8509
 21
473.0110
  0
LINE
  8
0_00
  6
CONTINUOUS
 62
4
 10
105.8509
 20
473.0110
 11
105.9775
 21
472.6895
  0
LINE
  8
0_00
  6
CONTINUOUS
 62
4
 10
105.9775
 20
472.6895
 11
106.1153
 21
472.3674
  0
LINE
  8
0_00
  6
CONTINUOUS
 62
4
 10
106.1153
 20
472.3674
 11
106.2637
 21
472.0450
  0
LINE
  8
0_00
  6
CONTINUOUS
 62
4
 10
106.2637
 20
472.0450
 11
106.4221
 21
471.7222
  0
LINE
  8
0_00
  6
CONTINUOUS
 62
4
 10
106.4221
 20
471.7222
 11
106.5899
 21
471.3994
  0
LINE
  8
0_00
  6
CONTINUOUS
 62
4
 10
106.5899
 20
471.3994
 11
106.7664
 21
471.0766
  0
LINE
  8
0_00
  6
CONTINUOUS
 62
4
 10
106.7664
 20
471.0766
 11
106.9513
 21
470.7539
  0
LINE
  8
0_00
  6
CONTINUOUS
 62
4
 10
106.9513
 20
470.7539
 11
107.1438
 21
470.4315
  0
LINE
  8
0_00
  6
CONTINUOUS
 62
4
 10
107.1438
 20
470.4315
 11
107.3434
 21
470.1095
  0
LINE
  8
0_00
  6
CONTINUOUS
 62
4
 10
107.3434
 20
470.1095
 11
107.5495
 21
469.7881
  0
LINE
  8
0_00
  6
CONTINUOUS
 62
4
 10
107.5495
 20
469.7881
 11
107.7615
 21
469.4673
  0
LINE
  8
0_00
  6
CONTINUOUS
 62
4
 10
107.7615
 20
469.4673
 11
107.9788
 21
469.1474
  0
LINE
  8
0_00
  6
CONTINUOUS
 62
4
 10
107.9788
 20
469.1474
 11
108.2008
 21
468.8284
  0
LINE
  8
0_00
  6
CONTINUOUS
 62
4
 10
108.2008
 20
468.8284
 11
108.4269
 21
468.5105
  0
LINE
  8
0_00
  6
CONTINUOUS
 62
4
 10
108.4269
 20
468.5105
 11
108.6567
 21
468.1938
  0
LINE
  8
0_00
  6
CONTINUOUS
 62
4
 10
108.6567
 20
468.1938
 11
108.8893
 21
467.8784
  0
LINE
  8
0_00
  6
CONTINUOUS
 62
4
 10
108.8893
 20
467.8784
 11
109.1244
 21
467.5646
  0
LINE
  8
0_00
  6
CONTINUOUS
 62
4
 10
109.1244
 20
467.5646
 11
109.3613
 21
467.2524
  0
LINE
  8
0_00
  6
CONTINUOUS
 62
4
 10
109.3613
 20
467.2524
 11
109.5994
 21
466.9419
  0
LINE
  8
0_00
  6
CONTINUOUS
 62
4
 10
109.5994
 20
466.9419
 11
109.8381
 21
466.6333
  0
LINE
  8
0_00
  6
CONTINUOUS
 62
4
 10
109.8381
 20
466.6333
 11
110.0769
 21
466.3267
  0
LINE
  8
0_00
  6
CONTINUOUS
 62
4
 10
110.0769
 20
466.3267
 11
110.3151
 21
466.0223
  0
LINE
  8
0_00
  6
CONTINUOUS
 62
4
 10
110.3151
 20
466.0223
 11
110.5522
 21
465.7202
  0
LINE
  8
0_00
  6
CONTINUOUS
 62
4
 10
110.5522
 20
465.7202
 11
110.7876
 21
465.4204
  0
LINE
  8
0_00
  6
CONTINUOUS
 62
4
 10
110.7876
 20
465.4204
 11
111.0207
 21
465.1233
  0
LINE
  8
0_00
  6
CONTINUOUS
 62
4
 10
111.0207
 20
465.1233
 11
111.2509
 21
464.8288
  0
LINE
  8
0_00
  6
CONTINUOUS
 62
4
 10
111.2509
 20
464.8288
 11
111.4776
 21
464.5372
  0
LINE
  8
0_00
  6
CONTINUOUS
 62
4
 10
111.4776
 20
464.5372
 11
111.7003
 21
464.2485
  0
LINE
  8
0_00
  6
CONTINUOUS
 62
4
 10
111.7003
 20
464.2485
 11
111.9183
 21
463.9628
  0
LINE
  8
0_00
  6
CONTINUOUS
 62
4
 10
111.9183
 20
463.9628
 11
112.1311
 21
463.6805
  0
LINE
  8
0_00
  6
CONTINUOUS
 62
4
 10
112.1311
 20
463.6805
 11
112.3383
 21
463.4014
  0
LINE
  8
0_00
  6
CONTINUOUS
 62
4
 10
112.3383
 20
463.4014
 11
112.5399
 21
463.1255
  0
LINE
  8
0_00
  6
CONTINUOUS
 62
4
 10
112.5399
 20
463.1255
 11
112.7363
 21
462.8528
  0
LINE
  8
0_00
  6
CONTINUOUS
 62
4
 10
112.7363
 20
462.8528
 11
112.9278
 21
462.5829
  0
LINE
  8
0_00
  6
CONTINUOUS
 62
4
 10
112.9278
 20
462.5829
 11
113.1146
 21
462.3159
  0
LINE
  8
0_00
  6
CONTINUOUS
 62
4
 10
113.1146
 20
462.3159
 11
113.2971
 21
462.0515
  0
LINE
  8
0_00
  6
CONTINUOUS
 62
4
 10
113.2971
 20
462.0515
 11
113.4757
 21
461.7897
  0
LINE
  8
0_00
  6
CONTINUOUS
 62
4
 10
113.4757
 20
461.7897
 11
113.6504
 21
461.5303
  0
LINE
  8
0_00
  6
CONTINUOUS
 62
4
 10
113.6504
 20
461.5303
 11
113.8218
 21
461.2731
  0
LINE
  8
0_00
  6
CONTINUOUS
 62
4
 10
113.8218
 20
461.2731
 11
113.9900
 21
461.0179
  0
LINE
  8
0_00
  6
CONTINUOUS
 62
4
 10
113.9900
 20
461.0179
 11
114.1554
 21
460.7648
  0
LINE
  8
0_00
  6
CONTINUOUS
 62
4
 10
114.1554
 20
460.7648
 11
114.3182
 21
460.5135
  0
LINE
  8
0_00
  6
CONTINUOUS
 62
4
 10
114.3182
 20
460.5135
 11
114.4789
 21
460.2639
  0
LINE
  8
0_00
  6
CONTINUOUS
 62
4
 10
114.4789
 20
460.2639
 11
114.6375
 21
460.0158
  0
LINE
  8
0_00
  6
CONTINUOUS
 62
4
 10
114.6375
 20
460.0158
 11
114.7945
 21
459.7692
  0
LINE
  8
0_00
  6
CONTINUOUS
 62
4
 10
114.7945
 20
459.7692
 11
114.9502
 21
459.5237
  0
LINE
  8
0_00
  6
CONTINUOUS
 62
4
 10
114.9502
 20
459.5237
 11
115.1048
 21
459.2795
  0
LINE
  8
0_00
  6
CONTINUOUS
 62
4
 10
115.1048
 20
459.2795
 11
115.2587
 21
459.0363
  0
LINE
  8
0_00
  6
CONTINUOUS
 62
4
 10
115.2587
 20
459.0363
 11
115.4121
 21
458.7939
  0
LINE
  8
0_00
  6
CONTINUOUS
 62
4
 10
115.4121
 20
458.7939
 11
115.5654
 21
458.5522
  0
LINE
  8
0_00
  6
CONTINUOUS
 62
4
 10
115.5654
 20
458.5522
 11
115.7188
 21
458.3111
  0
LINE
  8
0_00
  6
CONTINUOUS
 62
4
 10
115.7188
 20
458.3111
 11
115.8727
 21
458.0704
  0
LINE
  8
0_00
  6
CONTINUOUS
 62
4
 10
115.8727
 20
458.0704
 11
116.0273
 21
457.8300
  0
LINE
  8
0_00
  6
CONTINUOUS
 62
4
 10
116.0273
 20
457.8300
 11
116.1830
 21
457.5899
  0
LINE
  8
0_00
  6
CONTINUOUS
 62
4
 10
116.1830
 20
457.5899
 11
116.3399
 21
457.3496
  0
LINE
  8
0_00
  6
CONTINUOUS
 62
4
 10
116.3399
 20
457.3496
 11
116.4985
 21
457.1094
  0
LINE
  8
0_00
  6
CONTINUOUS
 62
4
 10
116.4985
 20
457.1094
 11
116.6591
 21
456.8688
  0
LINE
  8
0_00
  6
CONTINUOUS
 62
4
 10
116.6591
 20
456.8688
 11
116.8218
 21
456.6279
  0
LINE
  8
0_00
  6
CONTINUOUS
 62
4
 10
116.8218
 20
456.6279
 11
116.9871
 21
456.3864
  0
LINE
  8
0_00
  6
CONTINUOUS
 62
4
 10
116.9871
 20
456.3864
 11
117.1553
 21
456.1442
  0
LINE
  8
0_00
  6
CONTINUOUS
 62
4
 10
117.1553
 20
456.1442
 11
117.3265
 21
455.9014
  0
LINE
  8
0_00
  6
CONTINUOUS
 62
4
 10
117.3265
 20
455.9014
 11
117.5012
 21
455.6580
  0
LINE
  8
0_00
  6
CONTINUOUS
 62
4
 10
117.5012
 20
455.6580
 11
117.6795
 21
455.4143
  0
LINE
  8
0_00
  6
CONTINUOUS
 62
4
 10
117.6795
 20
455.4143
 11
117.8617
 21
455.1708
  0
LINE
  8
0_00
  6
CONTINUOUS
 62
4
 10
117.8617
 20
455.1708
 11
118.0482
 21
454.9277
  0
LINE
  8
0_00
  6
CONTINUOUS
 62
4
 10
118.0482
 20
454.9277
 11
118.2391
 21
454.6853
  0
LINE
  8
0_00
  6
CONTINUOUS
 62
4
 10
118.2391
 20
454.6853
 11
118.4348
 21
454.4439
  0
LINE
  8
0_00
  6
CONTINUOUS
 62
4
 10
118.4348
 20
454.4439
 11
118.6355
 21
454.2038
  0
LINE
  8
0_00
  6
CONTINUOUS
 62
4
 10
118.6355
 20
454.2038
 11
118.8415
 21
453.9653
  0
LINE
  8
0_00
  6
CONTINUOUS
 62
4
 10
118.8415
 20
453.9653
 11
119.0531
 21
453.7287
  0
LINE
  8
0_00
  6
CONTINUOUS
 62
4
 10
119.0531
 20
453.7287
 11
119.2705
 21
453.4944
  0
LINE
  8
0_00
  6
CONTINUOUS
 62
4
 10
119.2705
 20
453.4944
 11
119.4940
 21
453.2625
  0
LINE
  8
0_00
  6
CONTINUOUS
 62
4
 10
119.4940
 20
453.2625
 11
119.7239
 21
453.0334
  0
LINE
  8
0_00
  6
CONTINUOUS
 62
4
 10
119.7239
 20
453.0334
 11
119.9604
 21
452.8076
  0
LINE
  8
0_00
  6
CONTINUOUS
 62
4
 10
119.9604
 20
452.8076
 11
120.2038
 21
452.5850
  0
LINE
  8
0_00
  6
CONTINUOUS
 62
4
 10
120.2038
 20
452.5850
 11
120.4545
 21
452.3663
  0
LINE
  8
0_00
  6
CONTINUOUS
 62
4
 10
120.4545
 20
452.3663
 11
120.7127
 21
452.1516
  0
LINE
  8
0_00
  6
CONTINUOUS
 62
4
 10
120.7127
 20
452.1516
 11
120.9785
 21
451.9411
  0
LINE
  8
0_00
  6
CONTINUOUS
 62
4
 10
120.9785
 20
451.9411
 11
121.2524
 21
451.7354
  0
LINE
  8
0_00
  6
CONTINUOUS
 62
4
 10
121.2524
 20
451.7354
 11
121.5345
 21
451.5345
  0
LINE
  8
0_00
  6
CONTINUOUS
 62
4
 10
121.5345
 20
451.5345
 11
121.8252
 21
451.3388
  0
LINE
  8
0_00
  6
CONTINUOUS
 62
4
 10
121.8252
 20
451.3388
 11
122.1247
 21
451.1488
  0
LINE
  8
0_00
  6
CONTINUOUS
 62
4
 10
122.1247
 20
451.1488
 11
122.4333
 21
450.9646
  0
LINE
  8
0_00
  6
CONTINUOUS
 62
4
 10
122.4333
 20
450.9646
 11
122.7513
 21
450.7865
  0
LINE
  8
0_00
  6
CONTINUOUS
 62
4
 10
122.7513
 20
450.7865
 11
123.0789
 21
450.6149
  0
LINE
  8
0_00
  6
CONTINUOUS
 62
4
 10
123.0789
 20
450.6149
 11
123.4164
 21
450.4500
  0
LINE
  8
0_00
  6
CONTINUOUS
 62
4
 10
123.4164
 20
450.4500
 11
123.7641
 21
450.2922
  0
LINE
  8
0_00
  6
CONTINUOUS
 62
4
 10
123.7641
 20
450.2922
 11
124.1222
 21
450.1417
  0
LINE
  8
0_00
  6
CONTINUOUS
 62
4
 10
124.1222
 20
450.1417
 11
124.4911
 21
449.9989
  0
LINE
  8
0_00
  6
CONTINUOUS
 62
4
 10
124.4911
 20
449.9989
 11
124.8709
 21
449.8640
  0
LINE
  8
0_00
  6
CONTINUOUS
 62
4
 10
124.8709
 20
449.8640
 11
125.2619
 21
449.7374
  0
LINE
  8
0_00
  6
CONTINUOUS
 62
4
 10
125.2619
 20
449.7374
 11
125.6636
 21
449.6188
  0
LINE
  8
0_00
  6
CONTINUOUS
 62
4
 10
125.6636
 20
449.6188
 11
126.0753
 21
449.5082
  0
LINE
  8
0_00
  6
CONTINUOUS
 62
4
 10
126.0753
 20
449.5082
 11
126.4966
 21
449.4054
  0
LINE
  8
0_00
  6
CONTINUOUS
 62
4
 10
126.4966
 20
449.4054
 11
126.9267
 21
449.3102
  0
LINE
  8
0_00
  6
CONTINUOUS
 62
4
 10
126.9267
 20
449.3102
 11
127.3652
 21
449.2226
  0
LINE
  8
0_00
  6
CONTINUOUS
 62
4
 10
127.3652
 20
449.2226
 11
127.8115
 21
449.1423
  0
LINE
  8
0_00
  6
CONTINUOUS
 62
4
 10
127.8115
 20
449.1423
 11
128.2649
 21
449.0692
  0
LINE
  8
0_00
  6
CONTINUOUS
 62
4
 10
128.2649
 20
449.0692
 11
128.7249
 21
449.0031
  0
LINE
  8
0_00
  6
CONTINUOUS
 62
4
 10
128.7249
 20
449.0031
 11
129.1909
 21
448.9438
  0
LINE
  8
0_00
  6
CONTINUOUS
 62
4
 10
129.1909
 20
448.9438
 11
129.6622
 21
448.8913
  0
LINE
  8
0_00
  6
CONTINUOUS
 62
4
 10
129.6622
 20
448.8913
 11
130.1384
 21
448.8453
  0
LINE
  8
0_00
  6
CONTINUOUS
 62
4
 10
130.1384
 20
448.8453
 11
130.6189
 21
448.8058
  0
LINE
  8
0_00
  6
CONTINUOUS
 62
4
 10
130.6189
 20
448.8058
 11
131.1030
 21
448.7726
  0
LINE
  8
0_00
  6
CONTINUOUS
 62
4
 10
131.1030
 20
448.7726
 11
131.5901
 21
448.7455
  0
LINE
  8
0_00
  6
CONTINUOUS
 62
4
 10
131.5901
 20
448.7455
 11
132.0798
 21
448.7243
  0
LINE
  8
0_00
  6
CONTINUOUS
 62
4
 10
132.0798
 20
448.7243
 11
132.5713
 21
448.7089
  0
LINE
  8
0_00
  6
CONTINUOUS
 62
4
 10
132.5713
 20
448.7089
 11
133.0641
 21
448.6992
  0
LINE
  8
0_00
  6
CONTINUOUS
 62
4
 10
133.0641
 20
448.6992
 11
133.5577
 21
448.6949
  0
LINE
  8
0_00
  6
CONTINUOUS
 62
4
 10
133.5577
 20
448.6949
 11
134.0514
 21
448.6960
  0
LINE
  8
0_00
  6
CONTINUOUS
 62
4
 10
134.0514
 20
448.6960
 11
134.5446
 21
448.7023
  0
LINE
  8
0_00
  6
CONTINUOUS
 62
4
 10
134.5446
 20
448.7023
 11
135.0368
 21
448.7136
  0
LINE
  8
0_00
  6
CONTINUOUS
 62
4
 10
135.0368
 20
448.7136
 11
135.5274
 21
448.7298
  0
LINE
  8
0_00
  6
CONTINUOUS
 62
4
 10
135.5274
 20
448.7298
 11
136.0157
 21
448.7507
  0
LINE
  8
0_00
  6
CONTINUOUS
 62
4
 10
136.0157
 20
448.7507
 11
136.5013
 21
448.7762
  0
LINE
  8
0_00
  6
CONTINUOUS
 62
4
 10
136.5013
 20
448.7762
 11
136.9835
 21
448.8062
  0
LINE
  8
0_00
  6
CONTINUOUS
 62
4
 10
136.9835
 20
448.8062
 11
137.4618
 21
448.8403
  0
LINE
  8
0_00
  6
CONTINUOUS
 62
4
 10
137.4618
 20
448.8403
 11
137.9354
 21
448.8786
  0
LINE
  8
0_00
  6
CONTINUOUS
 62
4
 10
137.9354
 20
448.8786
 11
138.4040
 21
448.9209
  0
LINE
  8
0_00
  6
CONTINUOUS
 62
4
 10
138.4040
 20
448.9209
 11
138.8668
 21
448.9668
  0
LINE
  8
0_00
  6
CONTINUOUS
 62
4
 10
138.8668
 20
448.9668
 11
139.3234
 21
449.0166
  0
LINE
  8
0_00
  6
CONTINUOUS
 62
4
 10
139.3234
 20
449.0166
 11
139.7736
 21
449.0703
  0
LINE
  8
0_00
  6
CONTINUOUS
 62
4
 10
139.7736
 20
449.0703
 11
140.2173
 21
449.1280
  0
LINE
  8
0_00
  6
CONTINUOUS
 62
4
 10
140.2173
 20
449.1280
 11
140.6545
 21
449.1901
  0
LINE
  8
0_00
  6
CONTINUOUS
 62
4
 10
140.6545
 20
449.1901
 11
141.0851
 21
449.2568
  0
LINE
  8
0_00
  6
CONTINUOUS
 62
4
 10
141.0851
 20
449.2568
 11
141.5089
 21
449.3283
  0
LINE
  8
0_00
  6
CONTINUOUS
 62
4
 10
141.5089
 20
449.3283
 11
141.9260
 21
449.4048
  0
LINE
  8
0_00
  6
CONTINUOUS
 62
4
 10
141.9260
 20
449.4048
 11
142.3362
 21
449.4867
  0
LINE
  8
0_00
  6
CONTINUOUS
 62
4
 10
142.3362
 20
449.4867
 11
142.7393
 21
449.5739
  0
LINE
  8
0_00
  6
CONTINUOUS
 62
4
 10
142.7393
 20
449.5739
 11
143.1355
 21
449.6671
  0
LINE
  8
0_00
  6
CONTINUOUS
 62
4
 10
143.1355
 20
449.6671
 11
143.5245
 21
449.7661
  0
LINE
  8
0_00
  6
CONTINUOUS
 62
4
 10
143.5245
 20
449.7661
 11
143.9063
 21
449.8713
  0
LINE
  8
0_00
  6
CONTINUOUS
 62
4
 10
143.9063
 20
449.8713
 11
144.2809
 21
449.9831
  0
LINE
  8
0_00
  6
CONTINUOUS
 62
4
 10
144.2809
 20
449.9831
 11
144.6480
 21
450.1014
  0
LINE
  8
0_00
  6
CONTINUOUS
 62
4
 10
144.6480
 20
450.1014
 11
145.0078
 21
450.2267
  0
LINE
  8
0_00
  6
CONTINUOUS
 62
4
 10
145.0078
 20
450.2267
 11
145.3599
 21
450.3592
  0
LINE
  8
0_00
  6
CONTINUOUS
 62
4
 10
145.3599
 20
450.3592
 11
145.7045
 21
450.4990
  0
LINE
  8
0_00
  6
CONTINUOUS
 62
4
 10
145.7045
 20
450.4990
 11
146.0413
 21
450.6464
  0
LINE
  8
0_00
  6
CONTINUOUS
 62
4
 10
146.0413
 20
450.6464
 11
146.3704
 21
450.8017
  0
LINE
  8
0_00
  6
CONTINUOUS
 62
4
 10
146.3704
 20
450.8017
 11
146.6916
 21
450.9650
  0
LINE
  8
0_00
  6
CONTINUOUS
 62
4
 10
146.6916
 20
450.9650
 11
147.0049
 21
451.1367
  0
LINE
  8
0_00
  6
CONTINUOUS
 62
4
 10
147.0049
 20
451.1367
 11
147.3102
 21
451.3169
  0
LINE
  8
0_00
  6
CONTINUOUS
 62
4
 10
147.3102
 20
451.3169
 11
147.6073
 21
451.5059
  0
LINE
  8
0_00
  6
CONTINUOUS
 62
4
 10
147.6073
 20
451.5059
 11
147.8962
 21
451.7038
  0
LINE
  8
0_00
  6
CONTINUOUS
 62
4
 10
147.8962
 20
451.7038
 11
148.1769
 21
451.9110
  0
LINE
  8
0_00
  6
CONTINUOUS
 62
4
 10
148.1769
 20
451.9110
 11
148.4492
 21
452.1277
  0
LINE
  8
0_00
  6
CONTINUOUS
 62
4
 10
148.4492
 20
452.1277
 11
148.7132
 21
452.3541
  0
LINE
  8
0_00
  6
CONTINUOUS
 62
4
 10
148.7132
 20
452.3541
 11
148.9685
 21
452.5905
  0
LINE
  8
0_00
  6
CONTINUOUS
 62
4
 10
148.9685
 20
452.5905
 11
149.2153
 21
452.8369
  0
LINE
  8
0_00
  6
CONTINUOUS
 62
4
 10
149.2153
 20
452.8369
 11
149.4534
 21
453.0939
  0
LINE
  8
0_00
  6
CONTINUOUS
 62
4
 10
149.4534
 20
453.0939
 11
149.6829
 21
453.3612
  0
LINE
  8
0_00
  6
CONTINUOUS
 62
4
 10
149.6829
 20
453.3612
 11
149.9045
 21
453.6385
  0
LINE
  8
0_00
  6
CONTINUOUS
 62
4
 10
149.9045
 20
453.6385
 11
150.1189
 21
453.9250
  0
LINE
  8
0_00
  6
CONTINUOUS
 62
4
 10
150.1189
 20
453.9250
 11
150.3271
 21
454.2198
  0
LINE
  8
0_00
  6
CONTINUOUS
 62
4
 10
150.3271
 20
454.2198
 11
150.5299
 21
454.5224
  0
LINE
  8
0_00
  6
CONTINUOUS
 62
4
 10
150.5299
 20
454.5224
 11
150.7281
 21
454.8319
  0
LINE
  8
0_00
  6
CONTINUOUS
 62
4
 10
150.7281
 20
454.8319
 11
150.9225
 21
455.1476
  0
LINE
  8
0_00
  6
CONTINUOUS
 62
4
 10
150.9225
 20
455.1476
 11
151.1140
 21
455.4688
  0
LINE
  8
0_00
  6
CONTINUOUS
 62
4
 10
151.1140
 20
455.4688
 11
151.3034
 21
455.7947
  0
LINE
  8
0_00
  6
CONTINUOUS
 62
4
 10
151.3034
 20
455.7947
 11
151.4915
 21
456.1246
  0
LINE
  8
0_00
  6
CONTINUOUS
 62
4
 10
151.4915
 20
456.1246
 11
151.6792
 21
456.4578
  0
LINE
  8
0_00
  6
CONTINUOUS
 62
4
 10
151.6792
 20
456.4578
 11
151.8673
 21
456.7935
  0
LINE
  8
0_00
  6
CONTINUOUS
 62
4
 10
151.8673
 20
456.7935
 11
152.0567
 21
457.1309
  0
LINE
  8
0_00
  6
CONTINUOUS
 62
4
 10
152.0567
 20
457.1309
 11
152.2481
 21
457.4694
  0
LINE
  8
0_00
  6
CONTINUOUS
 62
4
 10
152.2481
 20
457.4694
 11
152.4424
 21
457.8082
  0
LINE
  8
0_00
  6
CONTINUOUS
 62
4
 10
152.4424
 20
457.8082
 11
152.6404
 21
458.1465
  0
LINE
  8
0_00
  6
CONTINUOUS
 62
4
 10
152.6404
 20
458.1465
 11
152.8430
 21
458.4838
  0
LINE
  8
0_00
  6
CONTINUOUS
 62
4
 10
152.8430
 20
458.4838
 11
153.0511
 21
458.8191
  0
LINE
  8
0_00
  6
CONTINUOUS
 62
4
 10
153.0511
 20
458.8191
 11
153.2653
 21
459.1517
  0
LINE
  8
0_00
  6
CONTINUOUS
 62
4
 10
153.2653
 20
459.1517
 11
153.4867
 21
459.4809
  0
LINE
  8
0_00
  6
CONTINUOUS
 62
4
 10
153.4867
 20
459.4809
 11
153.7159
 21
459.8060
  0
LINE
  8
0_00
  6
CONTINUOUS
 62
4
 10
153.7159
 20
459.8060
 11
153.9538
 21
460.1262
  0
LINE
  8
0_00
  6
CONTINUOUS
 62
4
 10
153.9538
 20
460.1262
 11
154.2014
 21
460.4409
  0
LINE
  8
0_00
  6
CONTINUOUS
 62
4
 10
154.2014
 20
460.4409
 11
154.4593
 21
460.7492
  0
LINE
  8
0_00
  6
CONTINUOUS
 62
4
 10
154.4593
 20
460.7492
 11
154.7285
 21
461.0504
  0
LINE
  8
0_00
  6
CONTINUOUS
 62
4
 10
154.7285
 20
461.0504
 11
155.0097
 21
461.3438
  0
LINE
  8
0_00
  6
CONTINUOUS
 62
4
 10
155.0097
 20
461.3438
 11
155.3038
 21
461.6286
  0
LINE
  8
0_00
  6
CONTINUOUS
 62
4
 10
155.3038
 20
461.6286
 11
155.6117
 21
461.9042
  0
LINE
  8
0_00
  6
CONTINUOUS
 62
4
 10
155.6117
 20
461.9042
 11
155.9341
 21
462.1697
  0
LINE
  8
0_00
  6
CONTINUOUS
 62
4
 10
155.9341
 20
462.1697
 11
156.2719
 21
462.4244
  0
LINE
  8
0_00
  6
CONTINUOUS
 62
4
 10
156.2719
 20
462.4244
 11
156.6256
 21
462.6679
  0
LINE
  8
0_00
  6
CONTINUOUS
 62
4
 10
156.6256
 20
462.6679
 11
156.9940
 21
462.9005
  0
LINE
  8
0_00
  6
CONTINUOUS
 62
4
 10
156.9940
 20
462.9005
 11
157.3756
 21
463.1231
  0
LINE
  8
0_00
  6
CONTINUOUS
 62
4
 10
157.3756
 20
463.1231
 11
157.7690
 21
463.3361
  0
LINE
  8
0_00
  6
CONTINUOUS
 62
4
 10
157.7690
 20
463.3361
 11
158.1727
 21
463.5404
  0
LINE
  8
0_00
  6
CONTINUOUS
 62
4
 10
158.1727
 20
463.5404
 11
158.5851
 21
463.7366
  0
LINE
  8
0_00
  6
CONTINUOUS
 62
4
 10
158.5851
 20
463.7366
 11
159.0047
 21
463.9254
  0
LINE
  8
0_00
  6
CONTINUOUS
 62
4
 10
159.0047
 20
463.9254
 11
159.4301
 21
464.1075
  0
LINE
  8
0_00
  6
CONTINUOUS
 62
4
 10
159.4301
 20
464.1075
 11
159.8598
 21
464.2836
  0
LINE
  8
0_00
  6
CONTINUOUS
 62
4
 10
159.8598
 20
464.2836
 11
160.2922
 21
464.4544
  0
LINE
  8
0_00
  6
CONTINUOUS
 62
4
 10
160.2922
 20
464.4544
 11
160.7259
 21
464.6205
  0
LINE
  8
0_00
  6
CONTINUOUS
 62
4
 10
160.7259
 20
464.6205
 11
161.1594
 21
464.7827
  0
LINE
  8
0_00
  6
CONTINUOUS
 62
4
 10
161.1594
 20
464.7827
 11
161.5912
 21
464.9416
  0
LINE
  8
0_00
  6
CONTINUOUS
 62
4
 10
161.5912
 20
464.9416
 11
162.0197
 21
465.0979
  0
LINE
  8
0_00
  6
CONTINUOUS
 62
4
 10
162.0197
 20
465.0979
 11
162.4435
 21
465.2523
  0
LINE
  8
0_00
  6
CONTINUOUS
 62
4
 10
162.4435
 20
465.2523
 11
162.8611
 21
465.4055
  0
LINE
  8
0_00
  6
CONTINUOUS
 62
4
 10
162.8611
 20
465.4055
 11
163.2710
 21
465.5582
  0
LINE
  8
0_00
  6
CONTINUOUS
 62
4
 10
163.2710
 20
465.5582
 11
163.6717
 21
465.7110
  0
LINE
  8
0_00
  6
CONTINUOUS
 62
4
 10
163.6717
 20
465.7110
 11
164.0617
 21
465.8647
  0
LINE
  8
0_00
  6
CONTINUOUS
 62
4
 10
164.0617
 20
465.8647
 11
164.4395
 21
466.0200
  0
LINE
  8
0_00
  6
CONTINUOUS
 62
4
 10
164.4395
 20
466.0200
 11
164.8036
 21
466.1774
  0
LINE
  8
0_00
  6
CONTINUOUS
 62
4
 10
164.8036
 20
466.1774
 11
165.1525
 21
466.3377
  0
LINE
  8
0_00
  6
CONTINUOUS
 62
4
 10
165.1525
 20
466.3377
 11
165.4847
 21
466.5016
  0
LINE
  8
0_00
  6
CONTINUOUS
 62
4
 10
165.4847
 20
466.5016
 11
165.7988
 21
466.6699
  0
LINE
  8
0_00
  6
CONTINUOUS
 62
4
 10
165.7988
 20
466.6699
 11
166.0931
 21
466.8430
  0
LINE
  8
0_00
  6
CONTINUOUS
 62
4
 10
166.0931
 20
466.8430
 11
166.3663
 21
467.0218
  0
LINE
  8
0_00
  6
CONTINUOUS
 62
4
 10
166.3663
 20
467.0218
 11
166.6168
 21
467.2070
  0
LINE
  8
0_00
  6
CONTINUOUS
 62
4
 10
166.6168
 20
467.2070
 11
166.8432
 21
467.3992
  0
LINE
  8
0_00
  6
CONTINUOUS
 62
4
 10
166.8432
 20
467.3992
 11
167.0439
 21
467.5991
  0
LINE
  8
0_00
  6
CONTINUOUS
 62
4
 10
167.0439
 20
467.5991
 11
167.2174
 21
467.8074
  0
LINE
  8
0_00
  6
CONTINUOUS
 62
4
 10
167.2174
 20
467.8074
 11
167.3628
 21
468.0247
  0
LINE
  8
0_00
  6
CONTINUOUS
 62
4
 10
167.3628
 20
468.0247
 11
167.4815
 21
468.2504
  0
LINE
  8
0_00
  6
CONTINUOUS
 62
4
 10
167.4815
 20
468.2504
 11
167.5752
 21
468.4842
  0
LINE
  8
0_00
  6
CONTINUOUS
 62
4
 10
167.5752
 20
468.4842
 11
167.6460
 21
468.7254
  0
LINE
  8
0_00
  6
CONTINUOUS
 62
4
 10
167.6460
 20
468.7254
 11
167.6956
 21
468.9736
  0
LINE
  8
0_00
  6
CONTINUOUS
 62
4
 10
167.6956
 20
468.9736
 11
167.7260
 21
469.2282
  0
LINE
  8
0_00
  6
CONTINUOUS
 62
4
 10
167.7260
 20
469.2282
 11
167.7390
 21
469.4887
  0
LINE
  8
0_00
  6
CONTINUOUS
 62
4
 10
167.7390
 20
469.4887
 11
167.7365
 21
469.7546
  0
LINE
  8
0_00
  6
CONTINUOUS
 62
4
 10
167.7365
 20
469.7546
 11
167.7205
 21
470.0254
  0
LINE
  8
0_00
  6
CONTINUOUS
 62
4
 10
167.7205
 20
470.0254
 11
167.6927
 21
470.3004
  0
LINE
  8
0_00
  6
CONTINUOUS
 62
4
 10
167.6927
 20
470.3004
 11
167.6551
 21
470.5791
  0
LINE
  8
0_00
  6
CONTINUOUS
 62
4
 10
167.6551
 20
470.5791
 11
167.6095
 21
470.8611
  0
LINE
  8
0_00
  6
CONTINUOUS
 62
4
 10
167.6095
 20
470.8611
 11
167.5579
 21
471.1458
  0
LINE
  8
0_00
  6
CONTINUOUS
 62
4
 10
167.5579
 20
471.1458
 11
167.5021
 21
471.4327
  0
LINE
  8
0_00
  6
CONTINUOUS
 62
4
 10
167.5021
 20
471.4327
 11
167.4440
 21
471.7212
  0
LINE
  8
0_00
  6
CONTINUOUS
 62
4
 10
167.4440
 20
471.7212
 11
167.3855
 21
472.0108
  0
LINE
  8
0_00
  6
CONTINUOUS
 62
4
 10
167.3855
 20
472.0108
 11
167.3284
 21
472.3008
  0
LINE
  8
0_00
  6
CONTINUOUS
 62
4
 10
167.3284
 20
472.3008
 11
167.2747
 21
472.5911
  0
LINE
  8
0_00
  6
CONTINUOUS
 62
4
 10
167.2747
 20
472.5911
 11
167.2262
 21
472.8808
  0
LINE
  8
0_00
  6
CONTINUOUS
 62
4
 10
167.2262
 20
472.8808
 11
167.1848
 21
473.1694
  0
LINE
  8
0_00
  6
CONTINUOUS
 62
4
 10
167.1848
 20
473.1694
 11
167.1524
 21
473.4565
  0
LINE
  8
0_00
  6
CONTINUOUS
 62
4
 10
167.1524
 20
473.4565
 11
167.1309
 21
473.7415
  0
LINE
  8
0_00
  6
CONTINUOUS
 62
4
 10
167.1309
 20
473.7415
 11
167.1222
 21
474.0238
  0
LINE
  8
0_00
  6
CONTINUOUS
 62
4
 10
167.1222
 20
474.0238
 11
167.1281
 21
474.3030
  0
LINE
  8
0_00
  6
CONTINUOUS
 62
4
 10
167.1281
 20
474.3030
 11
167.1505
 21
474.5785
  0
LINE
  8
0_00
  6
CONTINUOUS
 62
4
 10
167.1505
 20
474.5785
 11
167.1913
 21
474.8498
  0
LINE
  8
0_00
  6
CONTINUOUS
 62
4
 10
167.1913
 20
474.8498
 11
167.2524
 21
475.1163
  0
LINE
  8
0_00
  6
CONTINUOUS
 62
4
 10
167.2524
 20
475.1163
 11
167.3357
 21
475.3775
  0
LINE
  8
0_00
  6
CONTINUOUS
 62
4
 10
167.3357
 20
475.3775
 11
167.4430
 21
475.6329
  0
LINE
  8
0_00
  6
CONTINUOUS
 62
4
 10
167.4430
 20
475.6329
 11
167.5763
 21
475.8820
  0
LINE
  8
0_00
  6
CONTINUOUS
 62
4
 10
167.5763
 20
475.8820
 11
167.7368
 21
476.1243
  0
LINE
  8
0_00
  6
CONTINUOUS
 62
4
 10
167.7368
 20
476.1243
 11
167.9235
 21
476.3602
  0
LINE
  8
0_00
  6
CONTINUOUS
 62
4
 10
167.9235
 20
476.3602
 11
168.1350
 21
476.5899
  0
LINE
  8
0_00
  6
CONTINUOUS
 62
4
 10
168.1350
 20
476.5899
 11
168.3695
 21
476.8140
  0
LINE
  8
0_00
  6
CONTINUOUS
 62
4
 10
168.3695
 20
476.8140
 11
168.6256
 21
477.0328
  0
LINE
  8
0_00
  6
CONTINUOUS
 62
4
 10
168.6256
 20
477.0328
 11
168.9017
 21
477.2468
  0
LINE
  8
0_00
  6
CONTINUOUS
 62
4
 10
168.9017
 20
477.2468
 11
169.1962
 21
477.4563
  0
LINE
  8
0_00
  6
CONTINUOUS
 62
4
 10
169.1962
 20
477.4563
 11
169.5075
 21
477.6618
  0
LINE
  8
0_00
  6
CONTINUOUS
 62
4
 10
169.5075
 20
477.6618
 11
169.8341
 21
477.8636
  0
LINE
  8
0_00
  6
CONTINUOUS
 62
4
 10
169.8341
 20
477.8636
 11
170.1745
 21
478.0623
  0
LINE
  8
0_00
  6
CONTINUOUS
 62
4
 10
170.1745
 20
478.0623
 11
170.5269
 21
478.2581
  0
LINE
  8
0_00
  6
CONTINUOUS
 62
4
 10
170.5269
 20
478.2581
 11
170.8900
 21
478.4514
  0
LINE
  8
0_00
  6
CONTINUOUS
 62
4
 10
170.8900
 20
478.4514
 11
171.2620
 21
478.6427
  0
LINE
  8
0_00
  6
CONTINUOUS
 62
4
 10
171.2620
 20
478.6427
 11
171.6415
 21
478.8325
  0
LINE
  8
0_00
  6
CONTINUOUS
 62
4
 10
171.6415
 20
478.8325
 11
172.0268
 21
479.0211
  0
LINE
  8
0_00
  6
CONTINUOUS
 62
4
 10
172.0268
 20
479.0211
 11
172.4165
 21
479.2089
  0
LINE
  8
0_00
  6
CONTINUOUS
 62
4
 10
172.4165
 20
479.2089
 11
172.8088
 21
479.3963
  0
LINE
  8
0_00
  6
CONTINUOUS
 62
4
 10
172.8088
 20
479.3963
 11
173.2024
 21
479.5837
  0
LINE
  8
0_00
  6
CONTINUOUS
 62
4
 10
173.2024
 20
479.5837
 11
173.5955
 21
479.7716
  0
LINE
  8
0_00
  6
CONTINUOUS
 62
4
 10
173.5955
 20
479.7716
 11
173.9867
 21
479.9603
  0
LINE
  8
0_00
  6
CONTINUOUS
 62
4
 10
173.9867
 20
479.9603
 11
174.3743
 21
480.1502
  0
LINE
  8
0_00
  6
CONTINUOUS
 62
4
 10
174.3743
 20
480.1502
 11
174.7569
 21
480.3418
  0
LINE
  8
0_00
  6
CONTINUOUS
 62
4
 10
174.7569
 20
480.3418
 11
175.1327
 21
480.5355
  0
LINE
  8
0_00
  6
CONTINUOUS
 62
4
 10
175.1327
 20
480.5355
 11
175.5003
 21
480.7316
  0
LINE
  8
0_00
  6
CONTINUOUS
 62
4
 10
175.5003
 20
480.7316
 11
175.8581
 21
480.9305
  0
LINE
  8
0_00
  6
CONTINUOUS
 62
4
 10
175.8581
 20
480.9305
 11
176.2045
 21
481.1328
  0
LINE
  8
0_00
  6
CONTINUOUS
 62
4
 10
176.2045
 20
481.1328
 11
176.5380
 21
481.3387
  0
LINE
  8
0_00
  6
CONTINUOUS
 62
4
 10
176.5380
 20
481.3387
 11
176.8570
 21
481.5488
  0
LINE
  8
0_00
  6
CONTINUOUS
 62
4
 10
176.8570
 20
481.5488
 11
177.1599
 21
481.7633
  0
LINE
  8
0_00
  6
CONTINUOUS
 62
4
 10
177.1599
 20
481.7633
 11
177.4451
 21
481.9827
  0
LINE
  8
0_00
  6
CONTINUOUS
 62
4
 10
177.4451
 20
481.9827
 11
177.7115
 21
482.2074
  0
LINE
  8
0_00
  6
CONTINUOUS
 62
4
 10
177.7115
 20
482.2074
 11
177.9594
 21
482.4372
  0
LINE
  8
0_00
  6
CONTINUOUS
 62
4
 10
177.9594
 20
482.4372
 11
178.1892
 21
482.6719
  0
LINE
  8
0_00
  6
CONTINUOUS
 62
4
 10
178.1892
 20
482.6719
 11
178.4018
 21
482.9114
  0
LINE
  8
0_00
  6
CONTINUOUS
 62
4
 10
178.4018
 20
482.9114
 11
178.5977
 21
483.1556
  0
LINE
  8
0_00
  6
CONTINUOUS
 62
4
 10
178.5977
 20
483.1556
 11
178.7777
 21
483.4041
  0
LINE
  8
0_00
  6
CONTINUOUS
 62
4
 10
178.7777
 20
483.4041
 11
178.9422
 21
483.6569
  0
LINE
  8
0_00
  6
CONTINUOUS
 62
4
 10
178.9422
 20
483.6569
 11
179.0920
 21
483.9138
  0
LINE
  8
0_00
  6
CONTINUOUS
 62
4
 10
179.0920
 20
483.9138
 11
179.2278
 21
484.1746
  0
LINE
  8
0_00
  6
CONTINUOUS
 62
4
 10
179.2278
 20
484.1746
 11
179.3500
 21
484.4390
  0
LINE
  8
0_00
  6
CONTINUOUS
 62
4
 10
179.3500
 20
484.4390
 11
179.4595
 21
484.7070
  0
LINE
  8
0_00
  6
CONTINUOUS
 62
4
 10
179.4595
 20
484.7070
 11
179.5568
 21
484.9784
  0
LINE
  8
0_00
  6
CONTINUOUS
 62
4
 10
179.5568
 20
484.9784
 11
179.6426
 21
485.2530
  0
LINE
  8
0_00
  6
CONTINUOUS
 62
4
 10
179.6426
 20
485.2530
 11
179.7174
 21
485.5306
  0
LINE
  8
0_00
  6
CONTINUOUS
 62
4
 10
179.7174
 20
485.5306
 11
179.7821
 21
485.8110
  0
LINE
  8
0_00
  6
CONTINUOUS
 62
4
 10
179.7821
 20
485.8110
 11
179.8371
 21
486.0941
  0
LINE
  8
0_00
  6
CONTINUOUS
 62
4
 10
179.8371
 20
486.0941
 11
179.8831
 21
486.3796
  0
LINE
  8
0_00
  6
CONTINUOUS
 62
4
 10
179.8831
 20
486.3796
 11
179.9209
 21
486.6674
  0
LINE
  8
0_00
  6
CONTINUOUS
 62
4
 10
179.9209
 20
486.6674
 11
179.9509
 21
486.9574
  0
LINE
  8
0_00
  6
CONTINUOUS
 62
4
 10
179.9509
 20
486.9574
 11
179.9739
 21
487.2493
  0
LINE
  8
0_00
  6
CONTINUOUS
 62
4
 10
179.9739
 20
487.2493
 11
179.9905
 21
487.5431
  0
LINE
  8
0_00
  6
CONTINUOUS
 62
4
 10
179.9905
 20
487.5431
 11
180.0013
 21
487.8383
  0
LINE
  8
0_00
  6
CONTINUOUS
 62
4
 10
180.0013
 20
487.8383
 11
180.0070
 21
488.1350
  0
LINE
  8
0_00
  6
CONTINUOUS
 62
4
 10
180.0070
 20
488.1350
 11
180.0082
 21
488.4330
  0
LINE
  8
0_00
  6
CONTINUOUS
 62
4
 10
180.0082
 20
488.4330
 11
180.0056
 21
488.7320
  0
LINE
  8
0_00
  6
CONTINUOUS
 62
4
 10
180.0056
 20
488.7320
 11
179.9998
 21
489.0319
  0
LINE
  8
0_00
  6
CONTINUOUS
 62
4
 10
179.9998
 20
489.0319
 11
179.9914
 21
489.3324
  0
LINE
  8
0_00
  6
CONTINUOUS
 62
4
 10
179.9914
 20
489.3324
 11
179.9810
 21
489.6336
  0
LINE
  8
0_00
  6
CONTINUOUS
 62
4
 10
179.9810
 20
489.6336
 11
179.9695
 21
489.9351
  0
LINE
  8
0_00
  6
CONTINUOUS
 62
4
 10
179.9695
 20
489.9351
 11
179.9302
 21
490.9024
  0
LINE
  8
0_00
  6
CONTINUOUS
 62
4
 10
102.6169
 20
484.9024
 11
110.8867
 21
484.9024
  0
LINE
  8
0_00
  6
CONTINUOUS
 62
4
 10
134.8867
 20
484.9024
 11
179.5568
 21
484.9024
  0
LINE
  8
0_00
  6
CONTINUOUS
 62
4
 10
66.8867
 20
490.9024
 11
97.4650
 21
490.9024
  0
LINE
  8
0_00
  6
CONTINUOUS
 62
4
 10
179.9302
 20
490.9024
 11
295.8867
 21
490.9024
  0
LINE
  8
0_00
  6
CONTINUOUS
 62
4
 10
124.4867
 20
458.3024
 11
124.4867
 21
457.2003
  0
LINE
  8
0_00
  6
CONTINUOUS
 62
4
 10
124.4867
 20
452.6046
 11
124.4867
 21
451.5024
  0
LINE
  8
0_00
  6
CONTINUOUS
 62
4
 10
121.2867
 20
458.3024
 11
121.2867
 21
457.2003
  0
LINE
  8
0_00
  6
CONTINUOUS
 62
4
 10
110.8867
 20
465.2941
 11
110.8867
 21
490.3025
  0
LINE
  8
0_00
  6
DASHED
 62
6
 10
110.8867
 20
434.1024
 11
110.8867
 21
465.2941
  0
LINE
  8
0_00
  6
CONTINUOUS
 62
4
 10
134.8867
 20
448.7102
 11
134.8867
 21
490.3025
  0
LINE
  8
0_00
  6
DASHED
 62
6
 10
134.8867
 20
448.7102
 11
134.8867
 21
434.1024
  0
LINE
  8
0_00
  6
DASHED
 62
6
 10
121.2867
 20
451.5024
 11
121.2867
 21
451.7109
  0
LINE
  8
0_00
  6
CONTINUOUS
 62
4
 10
121.2867
 20
452.6046
 11
121.2867
 21
451.7109
  0
LINE
  8
0_00
  6
CONTINUOUS
 62
6
 10
165.7475
 20
418.9025
 11
184.6867
 21
399.9633
  0
LINE
  8
0_00
  6
CONTINUOUS
 62
6
 10
165.7475
 20
418.9025
 11
168.4707
 21
414.7091
  0
LINE
  8
0_00
  6
CONTINUOUS
 62
6
 10
165.7475
 20
418.9025
 11
169.9409
 21
416.1793
  0
LINE
  8
0_00
  6
CONTINUOUS
 62
6
 10
184.6867
 20
399.9633
 11
233.8867
 21
399.9633
  0
LINE
  8
0_00
  6
CONTINUOUS
 62
6
 10
304.8867
 20
484.5832
 11
322.0608
 21
501.7572
  0
LINE
  8
0_00
  6
CONTINUOUS
 62
6
 10
304.8867
 20
484.5832
 11
309.0801
 21
487.3064
  0
LINE
  8
0_00
  6
CONTINUOUS
 62
6
 10
304.8867
 20
484.5832
 11
307.6099
 21
488.7766
  0
LINE
  8
0_00
  6
CONTINUOUS
 62
6
 10
322.0608
 20
501.7572
 11
366.4608
 21
501.7572
  0
LINE
  8
0_00
  6
CONTINUOUS
 62
6
 10
313.2461
 20
423.6486
 11
330.8409
 21
406.0538
  0
LINE
  8
0_00
  6
CONTINUOUS
 62
6
 10
313.2461
 20
423.6486
 11
315.9692
 21
419.4552
  0
LINE
  8
0_00
  6
CONTINUOUS
 62
6
 10
313.2461
 20
423.6486
 11
317.4394
 21
420.9254
  0
LINE
  8
0_00
  6
CONTINUOUS
 62
6
 10
330.8409
 20
406.0538
 11
413.6408
 21
406.0538
  0
LINE
  8
0_00
  6
CONTINUOUS
 62
4
 10
127.3279
 20
239.6424
 11
64.6625
 21
256.4335
  0
LINE
  8
0_00
  6
CONTINUOUS
 62
4
 10
127.3279
 20
227.1215
 11
64.6625
 21
243.9126
  0
LINE
  8
0_00
  6
CENTER1
 62
6
 10
400.0768
 20
122.9597
 11
74.1216
 21
210.2991
  0
LINE
  8
0_00
  6
CONTINUOUS
 62
4
 10
162.2873
 20
192.8868
 11
139.1051
 21
186.6751
  0
LINE
  8
0_00
  6
CONTINUOUS
 62
4
 10
151.7507
 20
196.2752
 11
135.7815
 21
191.9962
  0
LINE
  8
0_00
  6
CONTINUOUS
 62
4
 10
128.4920
 20
191.8988
 11
126.5240
 21
180.7374
  0
LINE
  8
0_00
  6
CONTINUOUS
 62
4
 10
151.7507
 20
196.2752
 11
151.3618
 21
198.4810
  0
LINE
  8
0_00
  6
CONTINUOUS
 62
4
 10
139.8642
 20
189.3555
 11
129.4322
 21
192.1507
  0
LINE
  8
0_00
  6
CONTINUOUS
 62
4
 10
162.1793
 20
196.9545
 11
151.7473
 21
199.7498
  0
LINE
  8
0_00
  6
CONTINUOUS
 62
4
 10
162.1827
 20
193.4799
 11
161.6694
 21
196.3912
  0
LINE
  8
0_00
  6
CONTINUOUS
 62
4
 10
136.9560
 20
177.9422
 11
126.5240
 21
180.7374
  0
LINE
  8
0_00
  6
CONTINUOUS
 62
4
 10
139.2201
 20
187.3271
 11
162.1827
 21
193.4799
  0
LINE
  8
0_00
  6
CONTINUOUS
 62
4
 10
162.1793
 20
196.9545
 11
162.9268
 21
192.7155
  0
LINE
  8
0_00
  6
CONTINUOUS
 62
4
 10
138.9240
 20
189.1036
 11
136.9560
 21
177.9422
  0
LINE
  8
0_00
  6
CONTINUOUS
 62
4
 10
141.0455
 20
190.5858
 11
139.8642
 21
190.2693
  0
LINE
  8
0_00
  6
CONTINUOUS
 62
4
 10
160.4152
 20
196.4818
 11
162.1793
 21
196.9545
  0
LINE
  8
0_00
  6
CONTINUOUS
 62
4
 10
139.4846
 20
188.8271
 11
139.2201
 21
187.3271
  0
LINE
  8
0_00
  6
CONTINUOUS
 62
4
 10
139.1051
 20
186.6751
 11
137.5955
 21
178.1135
  0
LINE
  8
0_00
  6
CONTINUOUS
 62
4
 10
138.9240
 20
189.1036
 11
128.4920
 21
191.8988
  0
LINE
  8
0_00
  6
CONTINUOUS
 62
4
 10
137.5955
 20
178.1135
 11
136.9560
 21
177.9422
  0
LINE
  8
0_00
  6
CONTINUOUS
 62
4
 10
162.1827
 20
193.4799
 11
151.7507
 21
196.2752
  0
LINE
  8
0_00
  6
CONTINUOUS
 62
4
 10
128.0913
 20
189.6263
 11
68.9281
 21
205.4790
  0
LINE
  8
0_00
  6
CONTINUOUS
 62
4
 10
141.0455
 20
190.1591
 11
140.3114
 21
189.9625
  0
LINE
  8
0_00
  6
CONTINUOUS
 62
4
 10
139.8642
 20
189.3555
 11
138.9240
 21
189.1036
  0
LINE
  8
0_00
  6
CONTINUOUS
 62
4
 10
140.3114
 20
189.0487
 11
139.4846
 21
188.8271
  0
LINE
  8
0_00
  6
CONTINUOUS
 62
4
 10
139.8642
 20
189.3555
 11
139.8642
 21
190.2693
  0
LINE
  8
0_00
  6
CONTINUOUS
 62
4
 10
140.3114
 20
189.0487
 11
140.3114
 21
189.9625
  0
LINE
  8
0_00
  6
CONTINUOUS
 62
4
 10
139.8642
 20
190.2693
 11
129.4322
 21
193.0645
  0
LINE
  8
0_00
  6
CONTINUOUS
 62
4
 10
141.0455
 20
190.5858
 11
141.0455
 21
190.1591
  0
LINE
  8
0_00
  6
CONTINUOUS
 62
4
 10
141.0455
 20
190.5858
 11
130.6135
 21
193.3810
  0
LINE
  8
0_00
  6
CONTINUOUS
 62
4
 10
129.4322
 20
192.1507
 11
128.4920
 21
191.8988
  0
LINE
  8
0_00
  6
CONTINUOUS
 62
4
 10
129.4322
 20
192.1507
 11
129.4322
 21
193.0645
  0
LINE
  8
0_00
  6
CONTINUOUS
 62
4
 10
130.6135
 20
193.3810
 11
129.4322
 21
193.0645
  0
LINE
  8
0_00
  6
CONTINUOUS
 62
4
 10
161.6694
 20
196.3912
 11
160.4152
 21
196.0552
  0
LINE
  8
0_00
  6
CONTINUOUS
 62
4
 10
160.4152
 20
196.4818
 11
160.4152
 21
196.0552
  0
LINE
  8
0_00
  6
CONTINUOUS
 62
4
 10
160.4152
 20
196.4818
 11
149.9832
 21
199.2770
  0
LINE
  8
0_00
  6
CONTINUOUS
 62
4
 10
160.4152
 20
196.0552
 11
149.9832
 21
198.8504
  0
LINE
  8
0_00
  6
CONTINUOUS
 62
4
 10
149.9832
 20
199.2770
 11
151.7473
 21
199.7498
  0
LINE
  8
0_00
  6
CONTINUOUS
 62
4
 10
149.9832
 20
199.2770
 11
149.9832
 21
198.8504
  0
LINE
  8
0_00
  6
CONTINUOUS
 62
4
 10
162.5502
 20
207.9910
 11
140.1582
 21
201.9911
  0
LINE
  8
0_00
  6
CONTINUOUS
 62
2
 10
136.6198
 20
203.5931
 11
160.9390
 21
210.1095
  0
LINE
  8
0_00
  6
CONTINUOUS
 62
2
 10
160.9390
 20
210.1095
 11
163.4684
 21
209.4317
  0
LINE
  8
0_00
  6
CONTINUOUS
 62
2
 10
139.1492
 20
202.9154
 11
163.4684
 21
209.4317
  0
LINE
  8
0_00
  6
CONTINUOUS
 62
2
 10
136.6198
 20
203.5931
 11
139.1492
 21
202.9154
  0
LINE
  8
0_00
  6
CONTINUOUS
 62
2
 10
136.6198
 20
203.5931
 11
135.7816
 21
198.8395
  0
LINE
  8
0_00
  6
CONTINUOUS
 62
2
 10
139.1492
 20
202.9154
 11
138.3110
 21
198.1617
  0
LINE
  8
0_00
  6
CONTINUOUS
 62
2
 10
135.7816
 20
198.8395
 11
138.3110
 21
198.1617
  0
LINE
  8
0_00
  6
CONTINUOUS
 62
2
 10
140.1584
 20
201.9912
 11
139.4478
 21
197.9613
  0
LINE
  8
0_00
  6
CONTINUOUS
 62
2
 10
138.3110
 20
198.1617
 11
139.4478
 21
197.9613
  0
LINE
  8
0_00
  6
CONTINUOUS
 62
2
 10
162.5502
 20
207.9910
 11
163.1967
 21
204.3248
  0
LINE
  8
0_00
  6
CONTINUOUS
 62
2
 10
163.1967
 20
204.3248
 11
156.0321
 21
206.2445
  0
LINE
  8
0_00
  6
CONTINUOUS
 62
2
 10
163.4684
 20
209.4317
 11
164.3336
 21
204.5252
  0
LINE
  8
0_00
  6
CONTINUOUS
 62
2
 10
164.3336
 20
204.5252
 11
163.1967
 21
204.3248
  0
LINE
  8
0_00
  6
CONTINUOUS
 62
2
 10
122.5530
 20
207.3623
 11
125.0824
 21
206.6846
  0
LINE
  8
0_00
  6
CONTINUOUS
 62
2
 10
122.5530
 20
207.3623
 11
121.7148
 21
202.6087
  0
LINE
  8
0_00
  6
CONTINUOUS
 62
2
 10
125.0824
 20
206.6846
 11
124.2442
 21
201.9309
  0
LINE
  8
0_00
  6
CONTINUOUS
 62
2
 10
121.7148
 20
202.6087
 11
124.2442
 21
201.9309
  0
LINE
  8
0_00
  6
CONTINUOUS
 62
2
 10
125.6139
 20
203.0507
 11
125.3811
 21
201.7305
  0
LINE
  8
0_00
  6
CONTINUOUS
 62
2
 10
124.2442
 20
201.9309
 11
125.3811
 21
201.7305
  0
LINE
  8
0_00
  6
CONTINUOUS
 62
2
 10
146.8723
 20
213.8786
 11
149.4016
 21
213.2009
  0
LINE
  8
0_00
  6
CONTINUOUS
 62
2
 10
149.4016
 20
213.2009
 11
149.5595
 21
212.3054
  0
LINE
  8
0_00
  6
CONTINUOUS
 62
2
 10
125.0824
 20
206.6846
 11
149.4016
 21
213.2009
  0
LINE
  8
0_00
  6
CONTINUOUS
 62
2
 10
122.5530
 20
207.3623
 11
146.8723
 21
213.8786
  0
LINE
  8
0_00
  6
CONTINUOUS
 62
4
 10
150.6962
 20
195.9926
 11
139.6238
 21
198.9595
  0
LINE
  8
0_00
  6
CONTINUOUS
 62
4
 10
135.9751
 20
199.9371
 11
125.5571
 21
202.7286
  0
LINE
  8
0_00
  6
CONTINUOUS
 62
4
 10
121.9084
 20
203.7063
 11
88.5877
 21
212.6346
  0
LINE
  8
0_00
  6
CONTINUOUS
 62
2
 10
125.5583
 20
206.1909
 11
148.9687
 21
212.4637
  0
LINE
  8
0_00
  6
CONTINUOUS
 62
2
 10
125.5583
 20
206.1909
 11
125.0321
 21
203.2066
  0
LINE
  8
0_00
  6
CONTINUOUS
 62
2
 10
148.9687
 20
212.4637
 11
159.3470
 21
209.6829
  0
LINE
  8
0_00
  6
CONTINUOUS
 62
2
 10
125.5583
 20
206.1909
 11
136.5581
 21
203.2435
  0
LINE
  8
0_00
  6
CONTINUOUS
 62
2
 10
125.0321
 20
203.2066
 11
136.0319
 21
200.2592
  0
LINE
  8
0_00
  6
CONTINUOUS
 62
4
 10
127.3279
 20
239.6424
 11
127.3279
 21
227.1215
  0
LINE
  8
0_00
  6
CONTINUOUS
 62
4
 10
127.3279
 20
227.1215
 11
128.6731
 21
227.4819
  0
LINE
  8
0_00
  6
CONTINUOUS
 62
4
 10
127.3279
 20
239.6424
 11
155.5187
 21
249.9030
  0
LINE
  8
0_00
  6
CONTINUOUS
 62
4
 10
155.5187
 20
249.9030
 11
155.5187
 21
246.2406
  0
LINE
  8
0_00
  6
CONTINUOUS
 62
4
 10
133.1235
 20
238.0895
 11
133.1235
 21
225.5686
  0
LINE
  8
0_00
  6
CONTINUOUS
 62
4
 10
133.1235
 20
238.0895
 11
161.3143
 21
248.3501
  0
LINE
  8
0_00
  6
CONTINUOUS
 62
4
 10
161.3143
 20
248.3501
 11
412.2010
 21
181.1252
  0
LINE
  8
0_00
  6
CONTINUOUS
 62
4
 10
133.1235
 20
238.0895
 11
389.7594
 21
169.3241
  0
LINE
  8
0_00
  6
CONTINUOUS
 62
4
 10
133.1235
 20
225.5686
 11
386.6292
 21
157.6420
  0
LINE
  8
0_00
  6
CONTINUOUS
 62
4
 10
165.2925
 20
277.3022
 11
131.4635
 21
264.9895
  0
LINE
  8
0_00
  6
CONTINUOUS
 62
4
 10
157.1787
 20
279.4763
 11
123.3498
 21
267.1636
  0
LINE
  8
0_00
  6
CONTINUOUS
 62
2
 10
126.1175
 20
266.1471
 11
126.1175
 21
252.9471
  0
LINE
  8
0_00
  6
CONTINUOUS
 62
4
 10
131.4635
 20
264.9895
 11
131.4635
 21
251.7895
  0
LINE
  8
0_00
  6
CONTINUOUS
 62
4
 10
123.3498
 20
267.1636
 11
123.3498
 21
253.9636
  0
LINE
  8
0_00
  6
CONTINUOUS
 62
4
 10
165.2925
 20
277.3022
 11
165.2925
 21
264.1022
  0
LINE
  8
0_00
  6
CONTINUOUS
 62
2
 10
161.4891
 20
279.0214
 11
126.1175
 21
266.1471
  0
LINE
  8
0_00
  6
CONTINUOUS
 62
4
 10
161.4891
 20
279.0214
 11
157.1787
 21
279.4763
  0
LINE
  8
0_00
  6
CONTINUOUS
 62
4
 10
161.4891
 20
279.0214
 11
165.2925
 21
277.3022
  0
LINE
  8
0_00
  6
CONTINUOUS
 62
2
 10
131.4635
 20
264.9895
 11
126.1175
 21
266.1471
  0
LINE
  8
0_00
  6
CONTINUOUS
 62
2
 10
126.1175
 20
266.1471
 11
123.3498
 21
267.1636
  0
LINE
  8
0_00
  6
CONTINUOUS
 62
4
 10
131.4635
 20
251.7895
 11
126.1175
 21
252.9471
  0
LINE
  8
0_00
  6
CONTINUOUS
 62
4
 10
126.1175
 20
252.9471
 11
123.3498
 21
253.9636
  0
LINE
  8
0_00
  6
CONTINUOUS
 62
4
 10
132.1753
 20
264.3546
 11
164.7904
 21
276.2256
  0
LINE
  8
0_00
  6
CONTINUOUS
 62
4
 10
164.7904
 20
276.2256
 11
164.7904
 21
264.4386
  0
LINE
  8
0_00
  6
CONTINUOUS
 62
4
 10
132.1753
 20
264.3546
 11
132.1753
 21
252.5677
  0
LINE
  8
0_00
  6
CONTINUOUS
 62
4
 10
163.4373
 20
263.9461
 11
163.4373
 21
263.4270
  0
LINE
  8
0_00
  6
CONTINUOUS
 62
4
 10
163.4373
 20
263.9461
 11
155.3235
 21
266.1202
  0
LINE
  8
0_00
  6
CONTINUOUS
 62
4
 10
163.4373
 20
263.4270
 11
155.3235
 21
265.6011
  0
LINE
  8
0_00
  6
CONTINUOUS
 62
2
 10
164.0035
 20
264.6494
 11
157.4446
 21
266.4069
  0
LINE
  8
0_00
  6
CONTINUOUS
 62
4
 10
156.6766
 20
266.6127
 11
156.6766
 21
273.2724
  0
LINE
  8
0_00
  6
CONTINUOUS
 62
4
 10
156.6766
 20
266.6127
 11
155.3235
 21
266.1202
  0
LINE
  8
0_00
  6
CONTINUOUS
 62
4
 10
155.3235
 20
266.1202
 11
155.3235
 21
265.6011
  0
LINE
  8
0_00
  6
CONTINUOUS
 62
4
 10
133.5284
 20
253.0602
 11
133.5284
 21
252.5411
  0
LINE
  8
0_00
  6
CONTINUOUS
 62
4
 10
164.7904
 20
264.4386
 11
163.4373
 21
263.9461
  0
LINE
  8
0_00
  6
CONTINUOUS
 62
4
 10
133.5284
 20
253.0602
 11
132.1753
 21
252.5677
  0
LINE
  8
0_00
  6
CONTINUOUS
 62
4
 10
131.4635
 20
251.7895
 11
133.5284
 21
252.5411
  0
LINE
  8
0_00
  6
CONTINUOUS
 62
4
 10
163.4373
 20
263.4270
 11
165.2925
 21
264.1022
  0
LINE
  8
0_00
  6
CONTINUOUS
 62
4
 10
133.5284
 20
253.0602
 11
132.1753
 21
253.4227
  0
LINE
  8
0_00
  6
CONTINUOUS
 62
4
 10
155.5187
 20
249.9030
 11
132.1753
 21
256.1578
  0
LINE
  8
0_00
  6
CONTINUOUS
 62
4
 10
123.3498
 20
258.5226
 11
92.8533
 21
266.6941
  0
LINE
  8
0_00
  6
CONTINUOUS
 62
6
 10
112.8349
 20
263.3365
 11
61.6708
 21
244.7143
  0
LINE
  8
0_00
  6
CONTINUOUS
 62
6
 10
121.0587
 20
261.2025
 11
69.7846
 21
242.5402
  0
LINE
  8
0_00
  6
CONTINUOUS
 62
6
 10
113.3431
 20
204.0102
 11
78.8182
 21
191.4442
  0
LINE
  8
0_00
  6
CONTINUOUS
 62
6
 10
128.2717
 20
198.9563
 11
95.8404
 21
187.1523
  0
LINE
  8
0_00
  6
CONTINUOUS
 62
6
 10
119.0672
 20
182.8234
 11
88.7653
 21
171.7943
  0
LINE
  8
0_00
  6
CONTINUOUS
 62
6
 10
84.1888
 20
193.3989
 11
77.4592
 21
195.2021
  0
LINE
  8
0_00
  6
CONTINUOUS
 62
6
 10
84.1888
 20
193.3989
 11
100.7850
 21
188.9520
  0
LINE
  8
0_00
  6
CONTINUOUS
 62
6
 10
107.0913
 20
187.2622
 11
100.7850
 21
188.9520
  0
LINE
  8
0_00
  6
CONTINUOUS
 62
6
 10
92.6712
 20
173.2160
 11
84.2200
 21
175.4805
  0
LINE
  8
0_00
  6
CONTINUOUS
 62
6
 10
92.6712
 20
173.2160
 11
105.8461
 21
169.6858
  0
LINE
  8
0_00
  6
CONTINUOUS
 62
6
 10
113.8261
 20
167.5475
 11
105.8461
 21
169.6858
  0
LINE
  8
0_00
  6
CONTINUOUS
 62
6
 10
167.2079
 20
254.1575
 11
208.5401
 21
269.2012
  0
LINE
  8
0_00
  6
CONTINUOUS
 62
6
 10
173.1783
 20
252.6682
 11
214.6812
 21
267.7740
  0
LINE
  8
0_00
  6
CONTINUOUS
 62
6
 10
202.1707
 20
266.8940
 11
188.5098
 21
270.5544
  0
LINE
  8
0_00
  6
CONTINUOUS
 62
6
 10
202.1707
 20
266.8940
 11
207.9837
 21
265.3364
  0
LINE
  8
0_00
  6
CONTINUOUS
 62
6
 10
220.7591
 20
261.9132
 11
207.9837
 21
265.3364
  0
LINE
  8
0_00
  6
CONTINUOUS
 62
6
 10
73.7722
 20
244.2162
 11
82.3008
 21
241.9309
  0
LINE
  8
0_00
  6
CONTINUOUS
 62
6
 10
73.7722
 20
244.2162
 11
66.0138
 21
246.2950
  0
LINE
  8
0_00
  6
CONTINUOUS
 62
6
 10
55.6953
 20
249.0599
 11
66.0138
 21
246.2950
  0
LINE
  8
0_00
  6
CONTINUOUS
 62
6
 10
128.4159
 20
269.0075
 11
112.6976
 21
284.7258
  0
LINE
  8
0_00
  6
CONTINUOUS
 62
6
 10
128.4159
 20
269.0075
 11
125.6927
 21
273.2009
  0
LINE
  8
0_00
  6
CONTINUOUS
 62
6
 10
128.4159
 20
269.0075
 11
124.2225
 21
271.7307
  0
LINE
  8
0_00
  6
CONTINUOUS
 62
6
 10
112.6976
 20
284.7258
 11
59.4176
 21
284.7258
  0
LINE
  8
0_00
  6
CONTINUOUS
 62
6
 10
200.0931
 20
231.1904
 11
215.8629
 21
246.9603
  0
LINE
  8
0_00
  6
CONTINUOUS
 62
6
 10
200.0931
 20
231.1904
 11
204.2864
 21
233.9137
  0
LINE
  8
0_00
  6
CONTINUOUS
 62
6
 10
200.0931
 20
231.1904
 11
202.8163
 21
235.3838
  0
LINE
  8
0_00
  6
CONTINUOUS
 62
6
 10
215.8629
 20
246.9603
 11
234.5829
 21
246.9603
  0
LINE
  8
0_00
  6
CONTINUOUS
 62
6
 10
125.0824
 20
206.6846
 11
110.8103
 21
220.9567
  0
LINE
  8
0_00
  6
CONTINUOUS
 62
6
 10
125.0824
 20
206.6846
 11
122.3592
 21
210.8779
  0
LINE
  8
0_00
  6
CONTINUOUS
 62
6
 10
125.0824
 20
206.6846
 11
120.8890
 21
209.4077
  0
LINE
  8
0_00
  6
CONTINUOUS
 62
6
 10
110.8103
 20
220.9567
 11
74.8103
 21
220.9567
  0
LINE
  8
0_00
  6
CONTINUOUS
 62
6
 10
130.9107
 20
178.8086
 11
100.2710
 21
167.6566
  0
LINE
  8
0_00
  6
CONTINUOUS
 62
6
 10
127.8765
 20
205.5698
 11
151.2869
 21
211.8425
  0
LINE
  8
0_00
  6
CONTINUOUS
 62
6
 10
130.1948
 20
204.9486
 11
153.6051
 21
211.2214
  0
LINE
  8
0_00
  6
CONTINUOUS
 62
6
 10
132.5130
 20
204.3274
 11
155.9233
 21
210.6002
  0
LINE
  8
0_00
  6
CONTINUOUS
 62
6
 10
134.8312
 20
203.7063
 11
158.2416
 21
209.9790
  0
LINE
  8
0_00
  6
CONTINUOUS
 62
6
 10
127.8765
 20
205.5698
 11
127.3503
 21
202.5854
  0
LINE
  8
0_00
  6
CONTINUOUS
 62
6
 10
130.1948
 20
204.9486
 11
129.6685
 21
201.9643
  0
LINE
  8
0_00
  6
CONTINUOUS
 62
6
 10
132.5130
 20
204.3274
 11
131.9868
 21
201.3431
  0
LINE
  8
0_00
  6
CONTINUOUS
 62
6
 10
134.8312
 20
203.7063
 11
134.3050
 21
200.7219
  0
LINE
  8
0_00
  6
CONTINUOUS
 62
4
 10
336.8336
 20
146.6824
 11
320.8643
 21
142.4035
  0
LINE
  8
0_00
  6
CONTINUOUS
 62
4
 10
313.5749
 20
142.3060
 11
311.6068
 21
131.1446
  0
LINE
  8
0_00
  6
CONTINUOUS
 62
4
 10
324.9470
 20
139.7627
 11
314.5150
 21
142.5579
  0
LINE
  8
0_00
  6
CONTINUOUS
 62
4
 10
322.0388
 20
128.3494
 11
311.6068
 21
131.1446
  0
LINE
  8
0_00
  6
CONTINUOUS
 62
4
 10
324.0069
 20
139.5108
 11
322.0388
 21
128.3494
  0
LINE
  8
0_00
  6
CONTINUOUS
 62
4
 10
326.1283
 20
140.9930
 11
324.9470
 21
140.6765
  0
LINE
  8
0_00
  6
CONTINUOUS
 62
4
 10
324.5674
 20
139.2343
 11
324.3029
 21
137.7343
  0
LINE
  8
0_00
  6
CONTINUOUS
 62
4
 10
324.1879
 20
137.0824
 11
322.6783
 21
128.5207
  0
LINE
  8
0_00
  6
CONTINUOUS
 62
4
 10
324.0069
 20
139.5108
 11
313.5749
 21
142.3060
  0
LINE
  8
0_00
  6
CONTINUOUS
 62
4
 10
322.6783
 20
128.5207
 11
322.0388
 21
128.3494
  0
LINE
  8
0_00
  6
CONTINUOUS
 62
4
 10
326.1283
 20
140.5664
 11
325.3942
 21
140.3697
  0
LINE
  8
0_00
  6
CONTINUOUS
 62
4
 10
324.9470
 20
139.7627
 11
324.0069
 21
139.5108
  0
LINE
  8
0_00
  6
CONTINUOUS
 62
4
 10
325.3942
 20
139.4559
 11
324.5674
 21
139.2343
  0
LINE
  8
0_00
  6
CONTINUOUS
 62
4
 10
324.9470
 20
139.7627
 11
324.9470
 21
140.6765
  0
LINE
  8
0_00
  6
CONTINUOUS
 62
4
 10
325.3942
 20
139.4559
 11
325.3942
 21
140.3697
  0
LINE
  8
0_00
  6
CONTINUOUS
 62
4
 10
324.9470
 20
140.6765
 11
314.5150
 21
143.4717
  0
LINE
  8
0_00
  6
CONTINUOUS
 62
4
 10
326.1283
 20
140.9930
 11
326.1283
 21
140.5664
  0
LINE
  8
0_00
  6
CONTINUOUS
 62
4
 10
326.1283
 20
140.9930
 11
315.6963
 21
143.7882
  0
LINE
  8
0_00
  6
CONTINUOUS
 62
4
 10
314.5150
 20
142.5579
 11
313.5749
 21
142.3060
  0
LINE
  8
0_00
  6
CONTINUOUS
 62
4
 10
314.5150
 20
142.5579
 11
314.5150
 21
143.4717
  0
LINE
  8
0_00
  6
CONTINUOUS
 62
4
 10
315.6963
 20
143.7882
 11
314.5150
 21
143.4717
  0
LINE
  8
0_00
  6
CONTINUOUS
 62
4
 10
336.8336
 20
146.6824
 11
336.4446
 21
148.8882
  0
LINE
  8
0_00
  6
CONTINUOUS
 62
4
 10
347.2621
 20
147.3617
 11
336.8301
 21
150.1570
  0
LINE
  8
0_00
  6
CONTINUOUS
 62
4
 10
347.2656
 20
143.8872
 11
346.7522
 21
146.7984
  0
LINE
  8
0_00
  6
CONTINUOUS
 62
4
 10
347.2621
 20
147.3617
 11
348.0096
 21
143.1227
  0
LINE
  8
0_00
  6
CONTINUOUS
 62
4
 10
345.4980
 20
146.8890
 11
347.2621
 21
147.3617
  0
LINE
  8
0_00
  6
CONTINUOUS
 62
4
 10
347.2656
 20
143.8872
 11
336.8336
 21
146.6824
  0
LINE
  8
0_00
  6
CONTINUOUS
 62
4
 10
346.7522
 20
146.7984
 11
345.4980
 21
146.4624
  0
LINE
  8
0_00
  6
CONTINUOUS
 62
4
 10
345.4980
 20
146.8890
 11
345.4980
 21
146.4624
  0
LINE
  8
0_00
  6
CONTINUOUS
 62
4
 10
345.4980
 20
146.8890
 11
335.0660
 21
149.6842
  0
LINE
  8
0_00
  6
CONTINUOUS
 62
4
 10
345.4980
 20
146.4624
 11
335.0660
 21
149.2576
  0
LINE
  8
0_00
  6
CONTINUOUS
 62
4
 10
335.0660
 20
149.6842
 11
336.8301
 21
150.1570
  0
LINE
  8
0_00
  6
CONTINUOUS
 62
4
 10
335.0660
 20
149.6842
 11
335.0660
 21
149.2576
  0
LINE
  8
0_00
  6
CONTINUOUS
 62
4
 10
347.3701
 20
143.2940
 11
324.1879
 21
137.0824
  0
LINE
  8
0_00
  6
CONTINUOUS
 62
4
 10
324.3029
 20
137.7343
 11
347.2656
 21
143.8872
  0
LINE
  8
0_00
  6
CONTINUOUS
 62
4
 10
382.9135
 20
121.3469
 11
324.1879
 21
137.0824
  0
LINE
  8
0_00
  6
CONTINUOUS
 62
4
 10
313.1742
 20
140.0335
 11
139.1051
 21
186.6751
  0
LINE
  8
0_00
  6
CONTINUOUS
 62
4
 10
392.7644
 20
131.1307
 11
347.3701
 21
143.2940
  0
LINE
  8
0_00
  6
CONTINUOUS
 62
4
 10
335.7791
 20
146.3998
 11
162.2873
 21
192.8868
  0
LINE
  8
0_00
  6
CONTINUOUS
 62
6
 10
99.2586
 20
171.4509
 11
62.6295
 21
158.1190
  0
LINE
  8
0_00
  6
CONTINUOUS
 62
6
 10
303.6662
 20
128.8918
 11
247.7124
 21
108.5262
  0
LINE
  8
0_00
  6
CONTINUOUS
 62
6
 10
70.2836
 20
160.9048
 11
255.3664
 21
111.3120
  0
LINE
  8
0_00
  6
CONTINUOUS
 62
6
 10
322.0388
 20
128.3494
 11
331.8123
 21
111.4212
  0
LINE
  8
0_00
  6
CONTINUOUS
 62
6
 10
322.0388
 20
128.3494
 11
323.5839
 21
123.5941
  0
LINE
  8
0_00
  6
CONTINUOUS
 62
6
 10
322.0388
 20
128.3494
 11
325.3845
 21
124.6336
  0
LINE
  8
0_00
  6
CONTINUOUS
 62
6
 10
331.8123
 20
111.4212
 11
361.8123
 21
111.4212
  0
LINE
  8
0_00
  6
CONTINUOUS
 62
6
 10
137.5955
 20
178.1135
 11
146.5203
 21
162.6552
  0
LINE
  8
0_00
  6
CONTINUOUS
 62
6
 10
137.5955
 20
178.1135
 11
139.1405
 21
173.3582
  0
LINE
  8
0_00
  6
CONTINUOUS
 62
6
 10
137.5955
 20
178.1135
 11
140.9411
 21
174.3978
  0
LINE
  8
0_00
  6
CONTINUOUS
 62
6
 10
133.9411
 20
154.4673
 11
187.9411
 21
154.4673
  0
LINE
  8
0_00
  6
CONTINUOUS
 62
6
 10
66.8867
 20
500.3024
 11
66.8867
 21
550.0000
  0
LINE
  8
0_00
  6
CONTINUOUS
 62
6
 10
302.8867
 20
510.9700
 11
302.8867
 21
550.0000
  0
LINE
  8
0_00
  6
CONTINUOUS
 62
6
 10
66.8867
 20
546.0000
 11
302.8867
 21
546.0000
  0
LINE
  8
0_00
  6
CONTINUOUS
 62
6
 10
66.8867
 20
546.0000
 11
71.7775
 21
544.9604
  0
LINE
  8
0_00
  6
CONTINUOUS
 62
6
 10
66.8867
 20
546.0000
 11
71.7775
 21
547.0396
  0
LINE
  8
0_00
  6
CONTINUOUS
 62
6
 10
302.8867
 20
546.0000
 11
297.9960
 21
547.0396
  0
LINE
  8
0_00
  6
CONTINUOUS
 62
6
 10
302.8867
 20
546.0000
 11
297.9960
 21
544.9604
  0
LINE
  8
0_00
  6
CONTINUOUS
 62
6
 10
302.8867
 20
546.0000
 11
402.2634
 21
546.0000
  0
LINE
  8
0_00
  6
CONTINUOUS
 62
3
 10
364.9407
 20
64.8000
 11
364.9407
 21
24.8000
  0
LINE
  8
0_00
  6
CONTINUOUS
 62
7
 10
36.4603
 20
74.8000
 11
812.3407
 21
74.8000
  0
LINE
  8
0_00
  6
CONTINUOUS
 62
3
 10
812.3407
 20
567.8000
 11
812.3407
 21
576.8000
  0
LINE
  8
0_00
  6
CONTINUOUS
 62
7
 10
812.3407
 20
24.8000
 11
812.3407
 21
567.8000
  0
LINE
  8
0_00
  6
CONTINUOUS
 62
3
 10
36.4603
 20
567.8000
 11
36.4603
 21
576.8000
  0
LINE
  8
0_00
  6
CONTINUOUS
 62
7
 10
36.4603
 20
24.8000
 11
36.4603
 21
567.8000
  0
LINE
  8
0_00
  6
CONTINUOUS
 62
7
 10
36.4603
 20
567.8000
 11
812.3407
 21
567.8000
  0
LINE
  8
0_00
  6
CONTINUOUS
 62
7
 10
36.4603
 20
24.8000
 11
812.3407
 21
24.8000
  0
LINE
  8
0_00
  6
CONTINUOUS
 62
3
 10
26.4603
 20
14.8000
 11
26.4603
 21
576.8000
  0
LINE
  8
0_00
  6
CONTINUOUS
 62
3
 10
822.3407
 20
14.8000
 11
822.3407
 21
576.8000
  0
LINE
  8
0_00
  6
CONTINUOUS
 62
3
 10
26.4603
 20
576.8000
 11
822.3407
 21
576.8000
  0
LINE
  8
0_00
  6
CONTINUOUS
 62
3
 10
713.7407
 20
24.8000
 11
713.7407
 21
74.8000
  0
LINE
  8
0_00
  6
CONTINUOUS
 62
3
 10
36.4603
 20
64.8000
 11
541.8407
 21
64.8000
  0
LINE
  8
0_00
  6
CONTINUOUS
 62
7
 10
541.8407
 20
64.8000
 11
812.3407
 21
64.8000
  0
LINE
  8
0_00
  6
CONTINUOUS
 62
3
 10
713.7407
 20
44.8000
 11
812.3407
 21
44.8000
  0
LINE
  8
0_00
  6
CONTINUOUS
 62
3
 10
733.7407
 20
74.8000
 11
733.7407
 21
64.8000
  0
LINE
  8
0_00
  6
CONTINUOUS
 62
3
 10
541.8407
 20
24.8000
 11
541.8407
 21
64.8000
  0
LINE
  8
0_00
  6
CONTINUOUS
 62
7
 10
541.8407
 20
64.8000
 11
541.8407
 21
74.8000
  0
LINE
  8
0_00
  6
CONTINUOUS
 62
3
 10
557.8407
 20
64.8000
 11
557.8407
 21
74.8000
  0
LINE
  8
0_00
  6
CONTINUOUS
 62
3
 10
608.3407
 20
24.8000
 11
608.3407
 21
74.8000
  0
LINE
  8
0_00
  6
CONTINUOUS
 62
3
 10
669.7407
 20
64.8000
 11
669.7407
 21
74.8000
  0
LINE
  8
0_00
  6
CONTINUOUS
 62
3
 10
688.1407
 20
24.8000
 11
688.1407
 21
64.8000
  0
LINE
  8
0_00
  6
CONTINUOUS
 62
3
 10
663.9407
 20
24.8000
 11
663.9407
 21
64.8000
  0
LINE
  8
0_00
  6
CONTINUOUS
 62
3
 10
639.7407
 20
24.8000
 11
639.7407
 21
64.8000
  0
LINE
  8
0_00
  6
CONTINUOUS
 62
3
 10
312.4407
 20
24.8000
 11
312.4407
 21
74.8000
  0
LINE
  8
0_00
  6
CONTINUOUS
 62
3
 10
417.4407
 20
24.8000
 11
417.4407
 21
64.8000
  0
LINE
  8
0_00
  6
CONTINUOUS
 62
3
 10
36.4603
 20
54.8001
 11
312.4407
 21
54.8001
  0
LINE
  8
0_00
  6
CONTINUOUS
 62
3
 10
36.4603
 20
44.8000
 11
608.3407
 21
44.8000
  0
LINE
  8
0_00
  6
CONTINUOUS
 62
3
 10
116.4603
 20
34.8000
 11
312.4407
 21
34.8000
  0
LINE
  8
0_00
  6
CONTINUOUS
 62
7
 10
36.4603
 20
34.8000
 11
116.4603
 21
34.8000
  0
LINE
  8
0_00
  6
CONTINUOUS
 62
3
 10
545.3407
 20
567.8000
 11
545.3407
 21
576.8000
  0
LINE
  8
0_00
  6
CONTINUOUS
 62
3
 10
525.3407
 20
567.8000
 11
525.3407
 21
576.8000
  0
LINE
  8
0_00
  6
CONTINUOUS
 62
3
 10
136.4603
 20
567.8000
 11
136.4603
 21
576.8000
  0
LINE
  8
0_00
  6
CONTINUOUS
 62
3
 10
569.3407
 20
567.8000
 11
569.3407
 21
576.8000
  0
LINE
  8
0_00
  6
CONTINUOUS
 62
3
 10
610.3407
 20
567.8000
 11
610.3407
 21
576.8000
  0
LINE
  8
0_00
  6
CONTINUOUS
 62
3
 10
764.3407
 20
567.8000
 11
764.3407
 21
576.8000
  0
LINE
  8
0_00
  6
CONTINUOUS
 62
3
 10
76.4603
 20
74.8000
 11
76.4603
 21
24.8000
  0
LINE
  8
0_00
  6
CONTINUOUS
 62
7
 10
116.4603
 20
74.8000
 11
116.4603
 21
24.8000
  0
LINE
  8
0_00
  6
CONTINUOUS
 62
3
 10
579.8407
 20
44.8000
 11
579.8407
 21
64.8000
  0
LINE
  8
0_00
  6
CONTINUOUS
 62
3
 10
595.8407
 20
74.8000
 11
595.8407
 21
64.8000
  0
LINE
  8
0_00
  6
CONTINUOUS
 62
3
 10
608.3407
 20
54.8001
 11
713.7407
 21
54.8001
  0
LINE
  8
0_00
  6
CONTINUOUS
 62
3
 10
717.7407
 20
47.8000
 11
719.0406
 21
47.8000
  0
LINE
  8
0_00
  6
CONTINUOUS
 62
3
 10
719.0406
 20
47.8000
 11
719.0406
 21
60.8000
  0
LINE
  8
0_00
  6
CONTINUOUS
 62
3
 10
719.0406
 20
60.8000
 11
717.7407
 21
60.8000
  0
LINE
  8
0_00
  6
CONTINUOUS
 62
3
 10
717.7407
 20
47.8000
 11
717.7407
 21
60.8000
  0
LINE
  8
0_00
  6
CONTINUOUS
 62
3
 10
719.5607
 20
47.8000
 11
720.8607
 21
47.8000
  0
LINE
  8
0_00
  6
CONTINUOUS
 62
3
 10
720.8607
 20
47.8000
 11
720.8607
 21
60.8000
  0
LINE
  8
0_00
  6
CONTINUOUS
 62
3
 10
720.8607
 20
60.8000
 11
719.5607
 21
60.8000
  0
LINE
  8
0_00
  6
CONTINUOUS
 62
3
 10
719.5607
 20
47.8000
 11
719.5607
 21
60.8000
  0
LINE
  8
0_00
  6
CONTINUOUS
 62
3
 10
721.3807
 20
47.8000
 11
722.6807
 21
47.8000
  0
LINE
  8
0_00
  6
CONTINUOUS
 62
3
 10
722.6807
 20
47.8000
 11
722.6807
 21
60.8000
  0
LINE
  8
0_00
  6
CONTINUOUS
 62
3
 10
722.6807
 20
60.8000
 11
721.3807
 21
60.8000
  0
LINE
  8
0_00
  6
CONTINUOUS
 62
3
 10
721.3807
 20
47.8000
 11
721.3807
 21
60.8000
  0
LINE
  8
0_00
  6
CONTINUOUS
 62
3
 10
723.2007
 20
47.8000
 11
724.5007
 21
47.8000
  0
LINE
  8
0_00
  6
CONTINUOUS
 62
3
 10
724.5007
 20
60.8000
 11
723.2007
 21
60.8000
  0
LINE
  8
0_00
  6
CONTINUOUS
 62
3
 10
723.2007
 20
47.8000
 11
723.2007
 21
60.8000
  0
LINE
  8
0_00
  6
CONTINUOUS
 62
3
 10
728.2708
 20
47.8000
 11
733.3407
 21
47.8000
  0
LINE
  8
0_00
  6
CONTINUOUS
 62
3
 10
733.3407
 20
47.8000
 11
733.3407
 21
48.9700
  0
LINE
  8
0_00
  6
CONTINUOUS
 62
3
 10
733.3407
 20
48.9700
 11
728.2708
 21
48.9700
  0
LINE
  8
0_00
  6
CONTINUOUS
 62
3
 10
728.2708
 20
48.9700
 11
728.2708
 21
47.8000
  0
LINE
  8
0_00
  6
CONTINUOUS
 62
3
 10
728.2708
 20
49.4900
 11
733.3407
 21
49.4900
  0
LINE
  8
0_00
  6
CONTINUOUS
 62
3
 10
733.3407
 20
49.4900
 11
733.3407
 21
50.6600
  0
LINE
  8
0_00
  6
CONTINUOUS
 62
3
 10
733.3407
 20
50.6600
 11
728.2708
 21
50.6600
  0
LINE
  8
0_00
  6
CONTINUOUS
 62
3
 10
728.2708
 20
50.6600
 11
728.2708
 21
49.4900
  0
LINE
  8
0_00
  6
CONTINUOUS
 62
3
 10
728.2708
 20
51.1800
 11
733.3407
 21
51.1800
  0
LINE
  8
0_00
  6
CONTINUOUS
 62
3
 10
733.3407
 20
51.1800
 11
733.3407
 21
52.3500
  0
LINE
  8
0_00
  6
CONTINUOUS
 62
3
 10
733.3407
 20
52.3500
 11
728.2708
 21
52.3500
  0
LINE
  8
0_00
  6
CONTINUOUS
 62
3
 10
728.2708
 20
52.3500
 11
728.2708
 21
51.1800
  0
LINE
  8
0_00
  6
CONTINUOUS
 62
3
 10
728.2708
 20
52.8700
 11
733.3407
 21
52.8700
  0
LINE
  8
0_00
  6
CONTINUOUS
 62
3
 10
733.3407
 20
52.8700
 11
733.3407
 21
54.0400
  0
LINE
  8
0_00
  6
CONTINUOUS
 62
3
 10
733.3407
 20
54.0400
 11
728.2708
 21
54.0400
  0
LINE
  8
0_00
  6
CONTINUOUS
 62
3
 10
728.2708
 20
54.0400
 11
728.2708
 21
52.8700
  0
LINE
  8
0_00
  6
CONTINUOUS
 62
3
 10
728.2708
 20
54.5600
 11
733.3407
 21
54.5600
  0
LINE
  8
0_00
  6
CONTINUOUS
 62
3
 10
733.3407
 20
54.5600
 11
733.3407
 21
55.7300
  0
LINE
  8
0_00
  6
CONTINUOUS
 62
3
 10
733.3407
 20
55.7300
 11
728.2708
 21
55.7300
  0
LINE
  8
0_00
  6
CONTINUOUS
 62
3
 10
728.2708
 20
55.7300
 11
728.2708
 21
54.5600
  0
LINE
  8
0_00
  6
CONTINUOUS
 62
3
 10
728.2708
 20
56.2500
 11
733.3407
 21
56.2500
  0
LINE
  8
0_00
  6
CONTINUOUS
 62
3
 10
733.3407
 20
56.2500
 11
733.3407
 21
57.4200
  0
LINE
  8
0_00
  6
CONTINUOUS
 62
3
 10
733.3407
 20
57.4200
 11
728.2708
 21
57.4200
  0
LINE
  8
0_00
  6
CONTINUOUS
 62
3
 10
728.2708
 20
57.4200
 11
728.2708
 21
56.2500
  0
LINE
  8
0_00
  6
CONTINUOUS
 62
3
 10
728.2708
 20
57.9401
 11
733.3407
 21
57.9401
  0
LINE
  8
0_00
  6
CONTINUOUS
 62
3
 10
733.3407
 20
57.9401
 11
733.3407
 21
59.1100
  0
LINE
  8
0_00
  6
CONTINUOUS
 62
3
 10
733.3407
 20
59.1100
 11
728.2708
 21
59.1100
  0
LINE
  8
0_00
  6
CONTINUOUS
 62
3
 10
728.2708
 20
59.1100
 11
728.2708
 21
57.9401
  0
LINE
  8
0_00
  6
CONTINUOUS
 62
3
 10
728.2708
 20
59.6301
 11
733.3407
 21
59.6301
  0
LINE
  8
0_00
  6
CONTINUOUS
 62
3
 10
733.3407
 20
59.6301
 11
733.3407
 21
60.8000
  0
LINE
  8
0_00
  6
CONTINUOUS
 62
3
 10
733.3407
 20
60.8000
 11
728.2708
 21
60.8000
  0
LINE
  8
0_00
  6
CONTINUOUS
 62
3
 10
728.2708
 20
60.8000
 11
728.2708
 21
59.6301
  0
LINE
  8
0_00
  6
CONTINUOUS
 62
3
 10
725.0208
 20
47.8000
 11
725.0208
 21
51.3750
  0
LINE
  8
0_00
  6
CONTINUOUS
 62
3
 10
725.8917
 20
48.5150
 11
725.8917
 21
51.3750
  0
LINE
  8
0_00
  6
CONTINUOUS
 62
3
 10
725.0208
 20
47.8000
 11
726.4507
 21
47.8000
  0
LINE
  8
0_00
  6
CONTINUOUS
 62
3
 10
725.8917
 20
48.5150
 11
726.4507
 21
48.5150
  0
LINE
  8
0_00
  6
CONTINUOUS
 62
3
 10
726.4033
 20
53.2037
 11
726.9707
 21
52.0900
  0
LINE
  8
0_00
  6
CONTINUOUS
 62
3
 10
727.2941
 20
55.0302
 11
726.4032
 21
53.2037
  0
LINE
  8
0_00
  6
CONTINUOUS
 62
3
 10
724.5007
 20
56.9001
 11
724.5007
 21
60.8000
  0
LINE
  8
0_00
  6
CONTINUOUS
 62
3
 10
724.5007
 20
56.9001
 11
726.1257
 21
56.9001
  0
LINE
  8
0_00
  6
CONTINUOUS
 62
3
 10
724.5007
 20
56.1200
 11
725.2222
 21
56.1200
  0
LINE
  8
0_00
  6
CONTINUOUS
 62
3
 10
724.5007
 20
52.0900
 11
726.9707
 21
52.0900
  0
LINE
  8
0_00
  6
CONTINUOUS
 62
3
 10
724.5007
 20
54.6407
 11
725.2223
 21
56.1201
  0
LINE
  8
0_00
  6
CONTINUOUS
 62
3
 10
724.5007
 20
54.6409
 11
724.5007
 21
56.1200
  0
LINE
  8
0_00
  6
CONTINUOUS
 62
3
 10
724.5007
 20
52.0900
 11
724.5007
 21
47.8000
  0
LINE
  8
0_00
  6
CONTINUOUS
 62
3
 10
717.9407
 20
60.8000
 11
717.9407
 21
47.8000
  0
LINE
  8
0_00
  6
CONTINUOUS
 62
3
 10
718.1407
 20
60.8000
 11
718.1407
 21
47.8000
  0
LINE
  8
0_00
  6
CONTINUOUS
 62
3
 10
718.3407
 20
60.8000
 11
718.3407
 21
47.8000
  0
LINE
  8
0_00
  6
CONTINUOUS
 62
3
 10
718.5406
 20
60.8000
 11
718.5406
 21
47.8000
  0
LINE
  8
0_00
  6
CONTINUOUS
 62
3
 10
718.7407
 20
60.8000
 11
718.7407
 21
47.8000
  0
LINE
  8
0_00
  6
CONTINUOUS
 62
3
 10
719.7607
 20
60.8000
 11
719.7607
 21
47.8000
  0
LINE
  8
0_00
  6
CONTINUOUS
 62
3
 10
719.9607
 20
60.8000
 11
719.9607
 21
47.8000
  0
LINE
  8
0_00
  6
CONTINUOUS
 62
3
 10
720.1606
 20
60.8000
 11
720.1606
 21
47.8000
  0
LINE
  8
0_00
  6
CONTINUOUS
 62
3
 10
720.3607
 20
60.8000
 11
720.3607
 21
47.8000
  0
LINE
  8
0_00
  6
CONTINUOUS
 62
3
 10
720.5607
 20
60.8000
 11
720.5607
 21
47.8000
  0
LINE
  8
0_00
  6
CONTINUOUS
 62
3
 10
720.7607
 20
60.8000
 11
720.7607
 21
47.8000
  0
LINE
  8
0_00
  6
CONTINUOUS
 62
3
 10
721.5807
 20
60.8000
 11
721.5807
 21
47.8000
  0
LINE
  8
0_00
  6
CONTINUOUS
 62
3
 10
721.7808
 20
60.8000
 11
721.7808
 21
47.8000
  0
LINE
  8
0_00
  6
CONTINUOUS
 62
3
 10
721.9807
 20
60.8000
 11
721.9807
 21
47.8000
  0
LINE
  8
0_00
  6
CONTINUOUS
 62
3
 10
722.1807
 20
60.8000
 11
722.1807
 21
47.8000
  0
LINE
  8
0_00
  6
CONTINUOUS
 62
3
 10
722.3807
 20
60.8000
 11
722.3807
 21
47.8000
  0
LINE
  8
0_00
  6
CONTINUOUS
 62
3
 10
722.5807
 20
60.8000
 11
722.5807
 21
47.8000
  0
LINE
  8
0_00
  6
CONTINUOUS
 62
3
 10
728.2708
 20
48.0000
 11
733.3407
 21
48.0000
  0
LINE
  8
0_00
  6
CONTINUOUS
 62
3
 10
728.2708
 20
48.2001
 11
733.3407
 21
48.2001
  0
LINE
  8
0_00
  6
CONTINUOUS
 62
3
 10
728.2708
 20
48.4000
 11
733.3407
 21
48.4000
  0
LINE
  8
0_00
  6
CONTINUOUS
 62
3
 10
728.2708
 20
48.6000
 11
733.3407
 21
48.6000
  0
LINE
  8
0_00
  6
CONTINUOUS
 62
3
 10
728.2708
 20
48.8000
 11
733.3407
 21
48.8000
  0
LINE
  8
0_00
  6
CONTINUOUS
 62
3
 10
728.2708
 20
49.6900
 11
733.3407
 21
49.6900
  0
LINE
  8
0_00
  6
CONTINUOUS
 62
3
 10
728.2708
 20
49.8901
 11
733.3407
 21
49.8901
  0
LINE
  8
0_00
  6
CONTINUOUS
 62
3
 10
728.2708
 20
50.0900
 11
733.3407
 21
50.0900
  0
LINE
  8
0_00
  6
CONTINUOUS
 62
3
 10
728.2708
 20
50.2900
 11
733.3407
 21
50.2900
  0
LINE
  8
0_00
  6
CONTINUOUS
 62
3
 10
728.2708
 20
50.4900
 11
733.3407
 21
50.4900
  0
LINE
  8
0_00
  6
CONTINUOUS
 62
3
 10
728.2708
 20
51.3801
 11
733.3407
 21
51.3801
  0
LINE
  8
0_00
  6
CONTINUOUS
 62
3
 10
728.2708
 20
51.5801
 11
733.3407
 21
51.5801
  0
LINE
  8
0_00
  6
CONTINUOUS
 62
3
 10
728.2708
 20
51.7800
 11
733.3407
 21
51.7800
  0
LINE
  8
0_00
  6
CONTINUOUS
 62
3
 10
728.2708
 20
51.9800
 11
733.3407
 21
51.9800
  0
LINE
  8
0_00
  6
CONTINUOUS
 62
3
 10
728.2708
 20
52.1800
 11
733.3407
 21
52.1800
  0
LINE
  8
0_00
  6
CONTINUOUS
 62
3
 10
728.2708
 20
53.0701
 11
733.3407
 21
53.0701
  0
LINE
  8
0_00
  6
CONTINUOUS
 62
3
 10
728.2708
 20
53.2701
 11
733.3407
 21
53.2701
  0
LINE
  8
0_00
  6
CONTINUOUS
 62
3
 10
728.2708
 20
53.4700
 11
733.3407
 21
53.4700
  0
LINE
  8
0_00
  6
CONTINUOUS
 62
3
 10
728.2708
 20
53.6700
 11
733.3407
 21
53.6700
  0
LINE
  8
0_00
  6
CONTINUOUS
 62
3
 10
728.2708
 20
53.8700
 11
733.3407
 21
53.8700
  0
LINE
  8
0_00
  6
CONTINUOUS
 62
3
 10
728.2708
 20
54.7601
 11
733.3407
 21
54.7601
  0
LINE
  8
0_00
  6
CONTINUOUS
 62
3
 10
728.2708
 20
54.9601
 11
733.3407
 21
54.9601
  0
LINE
  8
0_00
  6
CONTINUOUS
 62
3
 10
728.2708
 20
55.1600
 11
733.3407
 21
55.1600
  0
LINE
  8
0_00
  6
CONTINUOUS
 62
3
 10
728.2708
 20
55.3600
 11
733.3407
 21
55.3600
  0
LINE
  8
0_00
  6
CONTINUOUS
 62
3
 10
728.2708
 20
55.5600
 11
733.3407
 21
55.5600
  0
LINE
  8
0_00
  6
CONTINUOUS
 62
3
 10
733.3407
 20
56.4501
 11
728.2708
 21
56.4501
  0
LINE
  8
0_00
  6
CONTINUOUS
 62
3
 10
733.3407
 20
56.6501
 11
728.2708
 21
56.6501
  0
LINE
  8
0_00
  6
CONTINUOUS
 62
3
 10
733.3407
 20
56.8500
 11
728.2708
 21
56.8500
  0
LINE
  8
0_00
  6
CONTINUOUS
 62
3
 10
733.3407
 20
57.0500
 11
728.2708
 21
57.0500
  0
LINE
  8
0_00
  6
CONTINUOUS
 62
3
 10
733.3407
 20
57.2500
 11
728.2708
 21
57.2500
  0
LINE
  8
0_00
  6
CONTINUOUS
 62
3
 10
728.2708
 20
58.1401
 11
733.3407
 21
58.1401
  0
LINE
  8
0_00
  6
CONTINUOUS
 62
3
 10
728.2708
 20
58.3401
 11
733.3407
 21
58.3401
  0
LINE
  8
0_00
  6
CONTINUOUS
 62
3
 10
728.2708
 20
58.5400
 11
733.3407
 21
58.5400
  0
LINE
  8
0_00
  6
CONTINUOUS
 62
3
 10
728.2708
 20
58.7400
 11
733.3407
 21
58.7400
  0
LINE
  8
0_00
  6
CONTINUOUS
 62
3
 10
728.2708
 20
58.9400
 11
733.3407
 21
58.9400
  0
LINE
  8
0_00
  6
CONTINUOUS
 62
3
 10
728.2708
 20
59.8301
 11
733.3407
 21
59.8301
  0
LINE
  8
0_00
  6
CONTINUOUS
 62
3
 10
728.2708
 20
60.0301
 11
733.3407
 21
60.0301
  0
LINE
  8
0_00
  6
CONTINUOUS
 62
3
 10
728.2708
 20
60.2300
 11
733.3407
 21
60.2300
  0
LINE
  8
0_00
  6
CONTINUOUS
 62
3
 10
728.2708
 20
60.4300
 11
733.3407
 21
60.4300
  0
LINE
  8
0_00
  6
CONTINUOUS
 62
3
 10
728.2708
 20
60.6301
 11
733.3407
 21
60.6301
  0
LINE
  8
0_00
  6
CONTINUOUS
 62
3
 10
723.4006
 20
60.8000
 11
723.4006
 21
47.8000
  0
LINE
  8
0_00
  6
CONTINUOUS
 62
3
 10
723.6007
 20
60.8000
 11
723.6007
 21
47.8000
  0
LINE
  8
0_00
  6
CONTINUOUS
 62
3
 10
723.8007
 20
60.8000
 11
723.8007
 21
47.8000
  0
LINE
  8
0_00
  6
CONTINUOUS
 62
3
 10
724.0006
 20
60.8000
 11
724.0006
 21
47.8000
  0
LINE
  8
0_00
  6
CONTINUOUS
 62
3
 10
724.2007
 20
60.8000
 11
724.2007
 21
47.8000
  0
LINE
  8
0_00
  6
CONTINUOUS
 62
3
 10
724.4006
 20
60.8000
 11
724.4006
 21
47.8000
  0
LINE
  8
0_00
  6
CONTINUOUS
 62
3
 10
725.2207
 20
47.8000
 11
725.2207
 21
51.3750
  0
LINE
  8
0_00
  6
CONTINUOUS
 62
3
 10
725.4208
 20
47.8000
 11
725.4208
 21
51.3750
  0
LINE
  8
0_00
  6
CONTINUOUS
 62
3
 10
725.6207
 20
47.8000
 11
725.6207
 21
51.3750
  0
LINE
  8
0_00
  6
CONTINUOUS
 62
3
 10
725.8207
 20
47.8000
 11
725.8207
 21
51.3750
  0
LINE
  8
0_00
  6
CONTINUOUS
 62
3
 10
725.8917
 20
48.3150
 11
726.4507
 21
48.3150
  0
LINE
  8
0_00
  6
CONTINUOUS
 62
3
 10
725.8917
 20
48.1150
 11
726.4507
 21
48.1150
  0
LINE
  8
0_00
  6
CONTINUOUS
 62
3
 10
725.8917
 20
47.9150
 11
726.4507
 21
47.9150
  0
LINE
  8
0_00
  6
CONTINUOUS
 62
3
 10
726.8550
 20
52.3172
 11
724.5236
 21
52.3172
  0
LINE
  8
0_00
  6
CONTINUOUS
 62
3
 10
726.7355
 20
52.5518
 11
724.5236
 21
52.5518
  0
LINE
  8
0_00
  6
CONTINUOUS
 62
3
 10
726.5959
 20
52.8256
 11
724.5187
 21
52.8256
  0
LINE
  8
0_00
  6
CONTINUOUS
 62
3
 10
726.4803
 20
53.0524
 11
724.5162
 21
53.0524
  0
LINE
  8
0_00
  6
CONTINUOUS
 62
3
 10
727.3906
 20
55.6841
 11
726.1002
 21
53.0386
  0
LINE
  8
0_00
  6
CONTINUOUS
 62
3
 10
727.3264
 20
56.0089
 11
725.8738
 21
53.0306
  0
LINE
  8
0_00
  6
CONTINUOUS
 62
3
 10
727.2056
 20
56.2172
 11
725.6610
 21
53.0506
  0
LINE
  8
0_00
  6
CONTINUOUS
 62
3
 10
727.0686
 20
56.3929
 11
725.4303
 21
53.0339
  0
LINE
  8
0_00
  6
CONTINUOUS
 62
3
 10
726.9340
 20
56.5731
 11
725.2527
 21
53.1258
  0
LINE
  8
0_00
  6
CONTINUOUS
 62
3
 10
726.7581
 20
56.6684
 11
724.9939
 21
53.0516
  0
LINE
  8
0_00
  6
CONTINUOUS
 62
3
 10
726.5841
 20
56.7681
 11
724.7689
 21
53.0465
  0
LINE
  8
0_00
  6
CONTINUOUS
 62
3
 10
726.3777
 20
56.8012
 11
724.5591
 21
53.0725
  0
LINE
  8
0_00
  6
CONTINUOUS
 62
3
 10
726.1666
 20
56.8245
 11
724.4702
 21
53.3465
  0
LINE
  8
0_00
  6
CONTINUOUS
 62
3
 10
725.9583
 20
56.8535
 11
724.4886
 21
53.8405
  0
LINE
  8
0_00
  6
CONTINUOUS
 62
3
 10
725.7305
 20
56.8429
 11
724.4259
 21
54.1681
  0
LINE
  8
0_00
  6
CONTINUOUS
 62
3
 10
725.3284
 20
56.3201
 11
724.5007
 21
56.3201
  0
LINE
  8
0_00
  6
CONTINUOUS
 62
3
 10
725.4904
 20
56.5201
 11
724.5007
 21
56.5201
  0
LINE
  8
0_00
  6
CONTINUOUS
 62
3
 10
725.5664
 20
56.7200
 11
724.5007
 21
56.7200
  0
LINE
  8
0_00
  6
CONTINUOUS
 62
3
 10
530.8407
 20
568.3262
 11
539.8407
 21
568.3262
  0
LINE
  8
0_00
  6
CONTINUOUS
 62
3
 10
531.4457
 20
569.3739
 11
530.8407
 21
568.3262
  0
LINE
  8
0_00
  6
CONTINUOUS
 62
3
 10
533.9286
 20
573.6746
 11
535.3407
 21
576.1204
  0
LINE
  8
0_00
  6
CONTINUOUS
 62
3
 10
539.2358
 20
569.3739
 11
539.8407
 21
568.3262
  0
LINE
  8
0_00
  6
CONTINUOUS
 62
3
 10
536.7528
 20
573.6746
 11
535.3407
 21
576.1204
  0
LINE
  8
0_00
  6
CONTINUOUS
 62
3
 10
812.3407
 20
102.8000
 11
814.3407
 21
102.8000
  0
LINE
  8
0_00
  6
CONTINUOUS
 62
3
 10
812.3407
 20
116.8000
 11
814.3407
 21
116.8000
  0
LINE
  8
0_00
  6
CONTINUOUS
 62
3
 10
812.3407
 20
130.8000
 11
814.3407
 21
130.8000
  0
LINE
  8
0_00
  6
CONTINUOUS
 62
3
 10
812.3407
 20
144.8000
 11
814.3407
 21
144.8000
  0
LINE
  8
0_00
  6
CONTINUOUS
 62
3
 10
812.3407
 20
158.8000
 11
814.3407
 21
158.8000
  0
LINE
  8
0_00
  6
CONTINUOUS
 62
3
 10
812.3407
 20
172.8000
 11
814.3407
 21
172.8000
  0
LINE
  8
0_00
  6
CONTINUOUS
 62
3
 10
812.3407
 20
186.8000
 11
814.3407
 21
186.8000
  0
LINE
  8
0_00
  6
CONTINUOUS
 62
3
 10
812.3407
 20
200.8000
 11
814.3407
 21
200.8000
  0
LINE
  8
0_00
  6
CONTINUOUS
 62
3
 10
812.3407
 20
214.8001
 11
814.3407
 21
214.8001
  0
LINE
  8
0_00
  6
CONTINUOUS
 62
3
 10
812.3407
 20
228.8000
 11
814.3407
 21
228.8000
  0
LINE
  8
0_00
  6
CONTINUOUS
 62
3
 10
812.3407
 20
242.8000
 11
814.3407
 21
242.8000
  0
LINE
  8
0_00
  6
CONTINUOUS
 62
3
 10
812.3407
 20
256.8000
 11
814.3407
 21
256.8000
  0
LINE
  8
0_00
  6
CONTINUOUS
 62
3
 10
812.3407
 20
270.8000
 11
814.3407
 21
270.8000
  0
LINE
  8
0_00
  6
CONTINUOUS
 62
3
 10
812.3407
 20
284.8000
 11
814.3407
 21
284.8000
  0
LINE
  8
0_00
  6
CONTINUOUS
 62
3
 10
812.3407
 20
298.8000
 11
814.3407
 21
298.8000
  0
LINE
  8
0_00
  6
CONTINUOUS
 62
3
 10
812.3407
 20
312.8000
 11
814.3407
 21
312.8000
  0
LINE
  8
0_00
  6
CONTINUOUS
 62
3
 10
812.3407
 20
326.8000
 11
814.3407
 21
326.8000
  0
LINE
  8
0_00
  6
CONTINUOUS
 62
3
 10
812.3407
 20
555.8000
 11
814.3407
 21
555.8000
  0
LINE
  8
0_00
  6
CONTINUOUS
 62
3
 10
812.3407
 20
543.8000
 11
814.3407
 21
543.8000
  0
LINE
  8
0_00
  6
CONTINUOUS
 62
3
 10
812.3407
 20
531.8000
 11
814.3407
 21
531.8000
  0
LINE
  8
0_00
  6
CONTINUOUS
 62
3
 10
812.3407
 20
519.8000
 11
814.3407
 21
519.8000
  0
LINE
  8
0_00
  6
CONTINUOUS
 62
3
 10
812.3407
 20
507.8000
 11
814.3407
 21
507.8000
  0
LINE
  8
0_00
  6
CONTINUOUS
 62
3
 10
812.3407
 20
495.8001
 11
814.3407
 21
495.8001
  0
LINE
  8
0_00
  6
CONTINUOUS
 62
3
 10
812.3407
 20
340.8000
 11
814.3407
 21
340.8000
  0
LINE
  8
0_00
  6
CONTINUOUS
 62
3
 10
812.3407
 20
354.8000
 11
814.3407
 21
354.8000
  0
LINE
  8
0_00
  6
CONTINUOUS
 62
3
 10
812.3407
 20
368.8000
 11
814.3407
 21
368.8000
  0
LINE
  8
0_00
  6
CONTINUOUS
 62
3
 10
812.3407
 20
382.8000
 11
814.3407
 21
382.8000
  0
LINE
  8
0_00
  6
CONTINUOUS
 62
3
 10
812.3407
 20
396.8000
 11
814.3407
 21
396.8000
  0
LINE
  8
0_00
  6
CONTINUOUS
 62
3
 10
812.3407
 20
410.8000
 11
814.3407
 21
410.8000
  0
LINE
  8
0_00
  6
CONTINUOUS
 62
3
 10
812.3407
 20
424.8000
 11
814.3407
 21
424.8000
  0
LINE
  8
0_00
  6
CONTINUOUS
 62
3
 10
812.3407
 20
438.8000
 11
814.3407
 21
438.8000
  0
LINE
  8
0_00
  6
CONTINUOUS
 62
3
 10
812.3407
 20
452.8000
 11
814.3407
 21
452.8000
  0
LINE
  8
0_00
  6
CONTINUOUS
 62
3
 10
812.3407
 20
466.8001
 11
814.3407
 21
466.8001
  0
LINE
  8
0_00
  6
CONTINUOUS
 62
3
 10
812.3407
 20
480.8001
 11
814.3407
 21
480.8001
  0
LINE
  8
0_00
  6
CENTER1
 62
3
 10
587.3607
 20
48.8000
 11
587.3607
 21
60.8000
  0
LINE
  8
0_00
  6
CONTINUOUS
 62
4
 10
594.3607
 20
52.3000
 11
594.3607
 21
57.3000
  0
LINE
  8
0_00
  6
CONTINUOUS
 62
4
 10
603.3607
 20
50.8000
 11
603.3607
 21
58.8000
  0
LINE
  8
0_00
  6
CONTINUOUS
 62
4
 10
594.3607
 20
57.3000
 11
603.3607
 21
58.8000
  0
LINE
  8
0_00
  6
CONTINUOUS
 62
4
 10
594.3607
 20
52.3000
 11
603.3607
 21
50.8000
  0
LINE
  8
0_00
  6
CENTER1
 62
3
 10
581.3607
 20
54.8000
 11
604.9037
 21
54.8000
  0
LINE
  8
0_00
  6
CONTINUOUS
 62
3
 10
794.3407
 20
24.8000
 11
794.3407
 21
44.8000
  0
LINE
  8
0_00
  6
CONTINUOUS
 62
3
 10
26.4603
 20
14.8000
 11
822.3407
 21
14.8000
  0
LINE
  8
0_00
  6
CONTINUOUS
 62
3
 10
788.3407
 20
576.8000
 11
788.3407
 21
567.8000
  0
LINE
  8
0_00
  6
CONTINUOUS
 62
3
 10
0.0000
 20
295.8000
 11
26.4603
 21
295.8000
  0
LINE
  8
0_00
  6
CONTINUOUS
 62
3
 10
417.4407
 20
14.8000
 11
417.4407
 21
0.0000
  0
LINE
  8
0_00
  6
CONTINUOUS
 62
3
 10
417.4407
 20
576.8000
 11
417.4407
 21
594.0000
  0
LINE
  8
0_00
  6
CONTINUOUS
 62
3
 10
822.3407
 20
295.8000
 11
840.0000
 21
295.8000
  0
LINE
  8
0_00
  6
CONTINUOUS
 62
6
 10
122.8867
 20
500.8520
 11
122.8867
 21
536.0000
  0
LINE
  8
0_00
  6
CONTINUOUS
 62
6
 10
102.8867
 20
540.0000
 11
102.8867
 21
528.0000
  0
LINE
  8
0_00
  6
CONTINUOUS
 62
6
 10
102.8867
 20
532.0000
 11
122.8867
 21
532.0000
  0
LINE
  8
0_00
  6
CONTINUOUS
 62
6
 10
160.0315
 20
532.0000
 11
122.8867
 21
532.0000
  0
LINE
  8
0_00
  6
CONTINUOUS
 62
6
 10
122.8867
 20
532.0000
 11
127.7775
 21
530.9604
  0
LINE
  8
0_00
  6
CONTINUOUS
 62
6
 10
122.8867
 20
532.0000
 11
127.7775
 21
533.0396
  0
LINE
  8
0_00
  6
CONTINUOUS
 62
6
 10
90.8867
 20
532.0000
 11
102.8867
 21
532.0000
  0
LINE
  8
0_00
  6
CONTINUOUS
 62
6
 10
102.8867
 20
532.0000
 11
97.9960
 21
533.0396
  0
LINE
  8
0_00
  6
CONTINUOUS
 62
6
 10
102.8867
 20
532.0000
 11
97.9960
 21
530.9604
  0
LINE
  8
0_00
  6
CONTINUOUS
 62
4
 10
314.4191
 20
350.6389
 11
330.0191
 21
350.6389
  0
LINE
  8
0_00
  6
CONTINUOUS
 62
2
 10
124.8867
 20
484.0225
 11
122.8867
 21
482.0225
  0
LINE
  8
0_00
  6
CONTINUOUS
 62
2
 10
120.6441
 20
484.0225
 11
118.6441
 21
482.0225
  0
LINE
  8
0_00
  6
CONTINUOUS
 62
2
 10
116.4014
 20
484.0225
 11
114.4014
 21
482.0225
  0
LINE
  8
0_00
  6
CONTINUOUS
 62
2
 10
112.1588
 20
484.0225
 11
110.8867
 21
482.7504
  0
LINE
  8
0_00
  6
CONTINUOUS
 62
2
 10
129.1294
 20
484.0225
 11
127.1294
 21
482.0225
  0
LINE
  8
0_00
  6
CONTINUOUS
 62
2
 10
133.3720
 20
484.0225
 11
131.3720
 21
482.0225
  0
LINE
  8
0_00
  6
CONTINUOUS
 62
2
 10
122.2409
 20
455.9602
 11
122.6807
 21
455.5357
  0
LINE
  8
0_00
  6
CONTINUOUS
 62
2
 10
122.6807
 20
455.5357
 11
122.8867
 21
455.4605
  0
LINE
  8
0_00
  6
CONTINUOUS
 62
2
 10
122.8867
 20
455.4605
 11
123.0816
 21
455.5315
  0
LINE
  8
0_00
  6
CONTINUOUS
 62
2
 10
123.0816
 20
455.5315
 11
123.5353
 21
455.9588
  0
LINE
  8
0_00
  6
CONTINUOUS
 62
2
 10
121.8290
 20
455.5482
 11
122.2535
 21
455.1084
  0
LINE
  8
0_00
  6
CONTINUOUS
 62
2
 10
122.2535
 20
455.1084
 11
122.3286
 21
454.9024
  0
LINE
  8
0_00
  6
CONTINUOUS
 62
2
 10
122.3286
 20
454.9024
 11
122.2576
 21
454.7076
  0
LINE
  8
0_00
  6
CONTINUOUS
 62
2
 10
122.2576
 20
454.7076
 11
121.8304
 21
454.2539
  0
LINE
  8
0_00
  6
CONTINUOUS
 62
2
 10
123.9445
 20
454.2567
 11
123.5200
 21
454.6964
  0
LINE
  8
0_00
  6
CONTINUOUS
 62
2
 10
123.5200
 20
454.6964
 11
123.4448
 21
454.9024
  0
LINE
  8
0_00
  6
CONTINUOUS
 62
2
 10
123.4448
 20
454.9024
 11
123.5158
 21
455.0973
  0
LINE
  8
0_00
  6
CONTINUOUS
 62
2
 10
123.5158
 20
455.0973
 11
123.9431
 21
455.5510
  0
LINE
  8
0_00
  6
CONTINUOUS
 62
2
 10
123.5325
 20
453.8447
 11
123.0927
 21
454.2692
  0
LINE
  8
0_00
  6
CONTINUOUS
 62
2
 10
123.0927
 20
454.2692
 11
122.8867
 21
454.3444
  0
LINE
  8
0_00
  6
CONTINUOUS
 62
2
 10
122.8867
 20
454.3444
 11
122.6919
 21
454.2734
  0
LINE
  8
0_00
  6
CONTINUOUS
 62
2
 10
122.6919
 20
454.2734
 11
122.2382
 21
453.8461
  0
LINE
  8
0_00
  6
CONTINUOUS
 62
6
 10
295.8867
 20
501.2687
 11
295.8867
 21
536.0000
  0
LINE
  8
0_00
  6
CONTINUOUS
 62
6
 10
309.8867
 20
501.2687
 11
309.8867
 21
536.0000
  0
LINE
  8
0_00
  6
CONTINUOUS
 62
6
 10
295.8867
 20
532.0000
 11
309.8867
 21
532.0000
  0
LINE
  8
0_00
  6
CONTINUOUS
 62
6
 10
276.2867
 20
532.0000
 11
295.8867
 21
532.0000
  0
LINE
  8
0_00
  6
CONTINUOUS
 62
6
 10
295.8867
 20
532.0000
 11
290.9960
 21
533.0396
  0
LINE
  8
0_00
  6
CONTINUOUS
 62
6
 10
295.8867
 20
532.0000
 11
290.9960
 21
530.9604
  0
LINE
  8
0_00
  6
CONTINUOUS
 62
6
 10
321.8867
 20
532.0000
 11
309.8867
 21
532.0000
  0
LINE
  8
0_00
  6
CONTINUOUS
 62
6
 10
309.8867
 20
532.0000
 11
314.7775
 21
530.9604
  0
LINE
  8
0_00
  6
CONTINUOUS
 62
6
 10
309.8867
 20
532.0000
 11
314.7775
 21
533.0396
  0
LINE
  8
0_00
  6
CONTINUOUS
 62
6
 10
300.8867
 20
500.9024
 11
300.8867
 21
522.0000
  0
LINE
  8
0_00
  6
CONTINUOUS
 62
6
 10
304.8867
 20
500.9024
 11
304.8867
 21
522.0000
  0
LINE
  8
0_00
  6
CONTINUOUS
 62
6
 10
300.8867
 20
518.0000
 11
304.8867
 21
518.0000
  0
LINE
  8
0_00
  6
CONTINUOUS
 62
6
 10
355.9267
 20
518.0000
 11
304.8867
 21
518.0000
  0
LINE
  8
0_00
  6
CONTINUOUS
 62
6
 10
304.8867
 20
518.0000
 11
309.7775
 21
516.9604
  0
LINE
  8
0_00
  6
CONTINUOUS
 62
6
 10
304.8867
 20
518.0000
 11
309.7775
 21
519.0396
  0
LINE
  8
0_00
  6
CONTINUOUS
 62
6
 10
288.8867
 20
518.0000
 11
300.8867
 21
518.0000
  0
LINE
  8
0_00
  6
CONTINUOUS
 62
6
 10
300.8867
 20
518.0000
 11
295.9960
 21
519.0396
  0
LINE
  8
0_00
  6
CONTINUOUS
 62
6
 10
300.8867
 20
518.0000
 11
295.9960
 21
516.9604
  0
LINE
  8
0_00
  6
CONTINUOUS
 62
6
 10
283.2867
 20
411.2260
 11
283.2867
 21
374.0000
  0
LINE
  8
0_00
  6
CONTINUOUS
 62
6
 10
322.4867
 20
412.2538
 11
322.4867
 21
374.0000
  0
LINE
  8
0_00
  6
CONTINUOUS
 62
6
 10
283.2867
 20
378.0000
 11
322.4867
 21
378.0000
  0
LINE
  8
0_00
  6
CONTINUOUS
 62
6
 10
283.2867
 20
378.0000
 11
288.1775
 21
376.9604
  0
LINE
  8
0_00
  6
CONTINUOUS
 62
6
 10
283.2867
 20
378.0000
 11
288.1775
 21
379.0396
  0
LINE
  8
0_00
  6
CONTINUOUS
 62
6
 10
322.4867
 20
378.0000
 11
317.5960
 21
379.0396
  0
LINE
  8
0_00
  6
CONTINUOUS
 62
6
 10
322.4867
 20
378.0000
 11
317.5960
 21
376.9604
  0
LINE
  8
0_00
  6
CONTINUOUS
 62
6
 10
110.8867
 20
500.3024
 11
110.8867
 21
522.0000
  0
LINE
  8
0_00
  6
CONTINUOUS
 62
6
 10
134.8867
 20
500.3024
 11
134.8867
 21
522.0000
  0
LINE
  8
0_00
  6
CONTINUOUS
 62
6
 10
110.8867
 20
518.0000
 11
134.8867
 21
518.0000
  0
LINE
  8
0_00
  6
CONTINUOUS
 62
6
 10
154.4867
 20
518.0000
 11
134.8867
 21
518.0000
  0
LINE
  8
0_00
  6
CONTINUOUS
 62
6
 10
134.8867
 20
518.0000
 11
139.7775
 21
516.9604
  0
LINE
  8
0_00
  6
CONTINUOUS
 62
6
 10
134.8867
 20
518.0000
 11
139.7775
 21
519.0396
  0
LINE
  8
0_00
  6
CONTINUOUS
 62
6
 10
98.8867
 20
518.0000
 11
110.8867
 21
518.0000
  0
LINE
  8
0_00
  6
CONTINUOUS
 62
6
 10
110.8867
 20
518.0000
 11
105.9960
 21
519.0396
  0
LINE
  8
0_00
  6
CONTINUOUS
 62
6
 10
110.8867
 20
518.0000
 11
105.9960
 21
516.9604
  0
ARC
  8
0_00
  6
CONTINUOUS
 62
4
 10
309.4867
 20
491.2686
 40
0.4000
 50
0.0000
 51
85.7515
  0
ARC
  8
0_00
  6
CONTINUOUS
 62
4
 10
296.2867
 20
491.2686
 40
0.4000
 50
94.2484
 51
180.0000
  0
ARC
  8
0_00
  6
CONTINUOUS
 62
4
 10
309.4867
 20
418.5362
 40
0.4000
 50
274.2485
 51
360.0000
  0
ARC
  8
0_00
  6
CONTINUOUS
 62
4
 10
296.2867
 20
418.5362
 40
0.4000
 50
180.0000
 51
265.7516
  0
CIRCLE
  8
0_00
  6
DASHED
 62
6
 10
122.8867
 20
436.9024
 40
1.7000
  0
ARC
  8
0_00
  6
CONTINUOUS
 62
4
 10
114.4867
 20
466.1024
 40
1.6000
 50
90.0000
 51
270.0000
  0
ARC
  8
0_00
  6
CONTINUOUS
 62
4
 10
117.2867
 20
466.1024
 40
1.6000
 50
270.0000
 51
450.0000
  0
ARC
  8
0_00
  6
CONTINUOUS
 62
4
 10
128.4867
 20
466.1024
 40
1.6000
 50
90.0000
 51
270.0000
  0
ARC
  8
0_00
  6
CONTINUOUS
 62
4
 10
131.2867
 20
466.1024
 40
1.6000
 50
270.0000
 51
450.0000
  0
ARC
  8
0_00
  6
DASHED
 62
6
 10
128.4867
 20
443.7025
 40
1.6000
 50
90.0000
 51
270.0000
  0
ARC
  8
0_00
  6
DASHED
 62
6
 10
131.2867
 20
443.7025
 40
1.6000
 50
270.0000
 51
450.0000
  0
ARC
  8
0_00
  6
DASHED
 62
6
 10
114.4867
 20
443.7025
 40
1.6000
 50
90.0000
 51
270.0000
  0
ARC
  8
0_00
  6
DASHED
 62
6
 10
117.2867
 20
443.7025
 40
1.6000
 50
270.0000
 51
450.0000
  0
ARC
  8
0_00
  6
CONTINUOUS
 62
4
 10
122.8867
 20
458.3024
 40
1.6000
 50
0.0000
 51
180.0000
  0
CIRCLE
  8
0_00
  6
DASHED
 62
6
 10
114.0867
 20
454.9024
 40
1.6000
  0
CIRCLE
  8
0_00
  6
CONTINUOUS
 62
4
 10
131.6867
 20
454.9024
 40
1.6000
  0
ARC
  8
0_00
  6
CONTINUOUS
 62
4
 10
122.8867
 20
451.5024
 40
1.6000
 50
308.2010
 51
360.0000
  0
ARC
  8
0_00
  6
DASHED
 62
6
 10
122.8867
 20
451.5024
 40
1.6000
 50
180.0000
 51
308.2010
  0
ARC
  8
0_00
  6
CONTINUOUS
 62
4
 10
144.3343
 20
190.1979
 40
1.9993
 50
48.2002
 51
132.9665
  0
ARC
  8
0_00
  6
CONTINUOUS
 62
4
 10
142.9418
 20
191.4751
 40
0.1469
 50
110.9797
 51
250.1869
  0
ARC
  8
0_00
  6
CONTINUOUS
 62
4
 10
144.2833
 20
195.1988
 40
4.1049
 50
250.1869
 51
290.9797
  0
ARC
  8
0_00
  6
CONTINUOUS
 62
4
 10
145.7004
 20
191.5032
 40
0.1469
 50
290.9797
 51
430.1869
  0
ARC
  8
0_00
  6
CONTINUOUS
 62
4
 10
144.3589
 20
187.7795
 40
4.1049
 50
70.1869
 51
71.9683
  0
ARC
  8
0_00
  6
CONTINUOUS
 62
4
 10
144.3589
 20
187.7795
 40
4.1049
 50
109.1984
 51
110.9797
  0
ARC
  8
0_00
  6
CONTINUOUS
 62
4
 10
329.4171
 20
140.6051
 40
1.9993
 50
48.2002
 51
132.9665
  0
ARC
  8
0_00
  6
CONTINUOUS
 62
4
 10
328.0246
 20
141.8824
 40
0.1469
 50
110.9797
 51
250.1869
  0
ARC
  8
0_00
  6
CONTINUOUS
 62
4
 10
329.3661
 20
145.6060
 40
4.1049
 50
250.1869
 51
290.9797
  0
ARC
  8
0_00
  6
CONTINUOUS
 62
4
 10
330.7833
 20
141.9104
 40
0.1469
 50
290.9797
 51
430.1869
  0
ARC
  8
0_00
  6
CONTINUOUS
 62
4
 10
329.4417
 20
138.1867
 40
4.1049
 50
70.1869
 51
71.9683
  0
ARC
  8
0_00
  6
CONTINUOUS
 62
4
 10
329.4417
 20
138.1867
 40
4.1049
 50
109.1984
 51
110.9797
  0
ARC
  8
0_00
  6
CONTINUOUS
 62
3
 10
726.4507
 20
48.1575
 40
0.3575
 50
270.0000
 51
450.0000
  0
ARC
  8
0_00
  6
CONTINUOUS
 62
3
 10
725.4562
 20
51.3750
 40
0.4355
 50
0.0000
 51
180.0000
  0
ARC
  8
0_00
  6
CONTINUOUS
 62
3
 10
726.1257
 20
55.6000
 40
1.3000
 50
333.9999
 51
450.0000
  0
CIRCLE
  8
0_00
  6
CONTINUOUS
 62
3
 10
726.7107
 20
58.2000
 40
1.0400
  0
ARC
  8
0_00
  6
CONTINUOUS
 62
3
 10
725.5208
 20
51.3750
 40
0.3000
 50
0.0000
 51
180.0000
  0
ARC
  8
0_00
  6
CONTINUOUS
 62
3
 10
725.5208
 20
51.3750
 40
0.1000
 50
0.0000
 51
180.0000
  0
ARC
  8
0_00
  6
CONTINUOUS
 62
3
 10
726.4507
 20
48.1150
 40
0.2000
 50
270.0000
 51
450.0000
  0
CIRCLE
  8
0_00
  6
CONTINUOUS
 62
3
 10
726.7107
 20
58.2000
 40
0.8830
  0
CIRCLE
  8
0_00
  6
CONTINUOUS
 62
3
 10
726.7107
 20
58.2000
 40
0.6837
  0
CIRCLE
  8
0_00
  6
CONTINUOUS
 62
3
 10
726.7107
 20
58.2000
 40
0.4684
  0
CIRCLE
  8
0_00
  6
CONTINUOUS
 62
3
 10
726.7107
 20
58.2000
 40
0.2293
  0
CIRCLE
  8
0_00
  6
CONTINUOUS
 62
3
 10
726.7107
 20
58.2000
 40
0.1133
  0
CIRCLE
  8
0_00
  6
CONTINUOUS
 62
4
 10
587.3607
 20
54.8000
 40
2.5000
  0
CIRCLE
  8
0_00
  6
CONTINUOUS
 62
4
 10
587.3607
 20
54.8000
 40
4.0000
  0
CIRCLE
  8
0_00
  6
CONTINUOUS
 62
2
 10
122.8867
 20
454.9024
 40
2.8000
  0
ARC
  8
0_00
  6
CONTINUOUS
 62
2
 10
122.8867
 20
454.9024
 40
1.2400
 50
45.0000
 51
58.5444
  0
ARC
  8
0_00
  6
CONTINUOUS
 62
2
 10
122.8867
 20
454.9024
 40
1.2400
 50
121.3667
 51
135.0000
  0
ARC
  8
0_00
  6
CONTINUOUS
 62
2
 10
122.8867
 20
454.9024
 40
1.2400
 50
211.4556
 51
225.0000
  0
ARC
  8
0_00
  6
CONTINUOUS
 62
2
 10
122.8867
 20
454.9024
 40
1.2400
 50
135.0000
 51
148.6333
  0
ARC
  8
0_00
  6
CONTINUOUS
 62
2
 10
122.8867
 20
454.9024
 40
1.2400
 50
31.4556
 51
45.0000
  0
ARC
  8
0_00
  6
CONTINUOUS
 62
2
 10
122.8867
 20
454.9024
 40
1.2400
 50
315.0000
 51
328.6334
  0
ARC
  8
0_00
  6
CONTINUOUS
 62
2
 10
122.8867
 20
454.9024
 40
1.2400
 50
225.0000
 51
238.5444
  0
ARC
  8
0_00
  6
CONTINUOUS
 62
2
 10
122.8867
 20
454.9024
 40
1.2400
 50
301.3667
 51
315.0000
  0
TEXT
  8
15_0F
 62
7
 10
549.4407
 20
46.8000
 40
5.00
 41
1.00
 50
0.0000
  1
１
  0
TEXT
  8
15_0F
 62
7
 10
568.4407
 20
46.8000
 40
5.00
 41
1.00
 50
0.0000
  1
２
  0
TEXT
  8
15_0F
 62
7
 10
469.5407
 20
49.8000
 40
5.00
 41
1.00
 50
0.0000
  1
納まり図
  0
TEXT
  8
15_0F
 62
7
 10
338.7407
 20
27.8000
 40
5.00
 41
1.00
 50
0.0000
  1
ＲＣ造
  0
TEXT
  8
15_0F
 62
7
 10
331.5407
 20
47.8000
 40
5.00
 41
1.00
 50
0.0000
  1
低・中・高層
  0
TEXT
  8
15_0F
 62
7
 10
386.4407
 20
47.8000
 40
5.00
 41
1.00
 50
0.0000
  1
アルミ笠木
  0
TEXT
  8
15_0F
 62
7
 10
385.5074
 20
27.8000
 40
5.00
 41
1.00
 50
0.0000
  1
ＯＡⅡ型
  0
TEXT
  8
0_00
 62
7
 10
440.7407
 20
29.8000
 40
5.00
 41
1.00
 50
0.0000
  1
コーナー部、ジョイント部納まり図
  0
TEXT
  8
0_00
 62
7
 10
144.1256
 20
503.3572
 40
5.00
 41
1.00
 50
0.0000
  1
コーナーブラケット
  0
TEXT
  8
0_00
 62
7
 10
187.6867
 20
401.5633
 40
5.00
 41
1.00
 50
0.0000
  1
９０度コーナー笠木
  0
TEXT
  8
0_00
 62
7
 10
325.0608
 20
503.3572
 40
5.00
 41
1.00
 50
0.0000
  1
ジョイントカバー
  0
TEXT
  8
0_00
 62
7
 10
333.8409
 20
407.6538
 40
5.00
 41
1.00
 50
0.0000
  1
ジョイント＋ジョイントブラケット
  0
TEXT
  8
0_00
 62
2
 10
89.2687
 20
161.4080
 40
6.00
 41
1.00
 50
-15.0000
  1
６０
  0
TEXT
  8
0_00
 62
2
 10
79.3069
 20
182.3524
 40
6.00
 41
1.00
 50
-15.0000
  1
９８
  0
TEXT
  8
0_00
 62
2
 10
192.3240
 20
274.2507
 40
6.00
 41
1.00
 50
-15.0000
  1
笠木隙間：１０
  0
TEXT
  8
0_00
 62
2
 10
54.9908
 20
233.5741
 40
5.40
 41
0.75
 50
0.0000
  1
35
  0
TEXT
  8
0_00
 62
2
 10
63.0176
 20
285.9258
 40
6.00
 41
1.00
 50
0.0000
  1
ジョイントカバー
  0
TEXT
  8
0_00
 62
2
 10
219.4629
 20
248.1603
 40
6.00
 41
1.00
 50
0.0000
  1
笠木
  0
TEXT
  8
0_00
 62
2
 10
78.4103
 20
222.1567
 40
6.00
 41
1.00
 50
0.0000
  1
ジョイント
  0
TEXT
  8
0_00
 62
2
 10
91.2390
 20
144.9468
 40
6.00
 41
1.00
 50
-15.0000
  1
１１０≦ＬＢ（ブラケットピッチ）≦１３６５
  0
TEXT
  8
0_00
 62
7
 10
334.8123
 20
112.4212
 40
5.00
 41
1.00
 50
0.0000
  1
ブラケット
  0
TEXT
  8
0_00
 62
7
 10
136.9411
 20
155.4673
 40
5.00
 41
1.00
 50
0.0000
  1
ジョイントブラケット
  0
TEXT
  8
0_00
 62
7
 10
195.6867
 20
548.0000
 40
4.50
 41
0.75
 50
0.0000
  1
500
  0
TEXT
  8
0_00
 62
7
 10
303.8329
 20
548.0000
 40
5.00
 41
1.00
 50
0.0000
  1
１１０≦ＬＢ（ブラケットピッチ）≦１３６５
  0
TEXT
  8
0_00
 62
7
 10
46.8603
 20
26.8000
 40
5.00
 41
1.00
 50
0.0000
  1
適用製品
  0
TEXT
  8
0_00
 62
7
 10
86.8603
 20
26.8000
 40
5.00
 41
1.00
 50
0.0000
  1
適用日付
  0
TEXT
  8
0_00
 62
7
 10
119.0603
 20
66.8000
 40
5.00
 41
1.00
 50
0.0000
  1
記事
  0
TEXT
  8
0_00
 62
7
 10
315.0407
 20
56.8000
 40
5.00
 41
1.00
 50
0.0000
  1
階層仕様
  0
TEXT
  8
0_00
 62
7
 10
315.0407
 20
36.8000
 40
5.00
 41
1.00
 50
0.0000
  1
適用躯体
  0
TEXT
  8
0_00
 62
7
 10
420.0407
 20
56.8000
 40
5.00
 41
1.00
 50
0.0000
  1
名　称
  0
TEXT
  8
0_00
 62
7
 10
420.0407
 20
36.8000
 40
5.00
 41
1.00
 50
0.0000
  1
図　名
  0
TEXT
  8
0_00
 62
7
 10
543.2912
 20
66.8305
 40
5.00
 41
1.00
 50
0.0000
  1
Ｎｏ．
  0
TEXT
  8
0_00
 62
7
 10
749.0407
 20
66.8000
 40
5.00
 41
1.00
 50
0.0000
  1
適　　　　　　　　用
  0
TEXT
  8
0_00
 62
7
 10
718.9407
 20
66.8000
 40
5.00
 41
1.00
 50
0.0000
  1
個数
  0
TEXT
  8
0_00
 62
7
 10
682.1407
 20
66.8000
 40
5.00
 41
1.00
 50
0.0000
  1
材　　質
  0
TEXT
  8
0_00
 62
7
 10
617.4407
 20
66.8000
 40
5.00
 41
1.00
 50
0.0000
  1
部　　　品　　　名
  0
TEXT
  8
0_00
 62
7
 10
597.2907
 20
66.8000
 40
5.00
 41
1.00
 50
0.0000
  1
品番
  0
TEXT
  8
0_00
 62
7
 10
567.2407
 20
66.8000
 40
5.00
 41
1.00
 50
0.0000
  1
図　　番
  0
TEXT
  8
0_00
 62
7
 10
544.4407
 20
56.8000
 40
5.00
 41
1.00
 50
0.0000
  1
尺度
  0
TEXT
  8
0_00
 62
7
 10
544.4407
 20
36.8000
 40
5.00
 41
1.00
 50
0.0000
  1
日付
  0
TEXT
  8
0_00
 62
7
 10
618.9294
 20
56.8000
 40
5.00
 41
1.00
 50
0.0000
  1
承認
  0
TEXT
  8
0_00
 62
7
 10
647.0406
 20
56.8000
 40
5.00
 41
1.00
 50
0.0000
  1
検図
  0
TEXT
  8
0_00
 62
7
 10
671.2407
 20
56.8000
 40
5.00
 41
1.00
 50
0.0000
  1
設計
  0
TEXT
  8
0_00
 62
7
 10
696.1407
 20
56.8000
 40
5.00
 41
1.00
 50
0.0000
  1
製図
  0
TEXT
  8
0_00
 62
7
 10
716.3407
 20
36.8000
 40
5.00
 41
1.00
 50
0.0000
  1
図番
  0
TEXT
  8
0_00
 62
2
 10
735.9479
 20
49.4900
 40
8.00
 41
1.00
 50
0.0000
  1
文化シヤッター株式会社
  0
TEXT
  8
0_00
 62
7
 10
133.8603
 20
575.3000
 40
5.00
 41
1.00
 50
180.0000
  1
図番
  0
TEXT
  8
0_00
 62
7
 10
532.7007
 20
569.3446
 40
4.00
 41
1.00
 50
0.0000
  1
ＮＯ
  0
TEXT
  8
0_00
 62
7
 10
550.1407
 20
569.3000
 40
5.00
 41
1.00
 50
0.0000
  1
個　数
  0
TEXT
  8
0_00
 62
7
 10
580.2407
 20
569.3000
 40
5.00
 41
1.00
 50
0.0000
  1
日　　付
  0
TEXT
  8
0_00
 62
7
 10
656.1407
 20
569.3000
 40
5.00
 41
1.00
 50
0.0000
  1
訂　　　正　　　記　　　事
  0
TEXT
  8
0_00
 62
7
 10
558.9407
 20
46.8000
 40
4.50
 41
0.75
 50
0.0000
  1
:
  0
TEXT
  8
0_00
 62
7
 10
758.5808
 20
17.8000
 40
4.00
 41
1.00
 50
0.0000
  1
ＪＩＳ　Ａ－３
  0
TEXT
  8
0_00
 62
7
 10
786.3323
 20
17.7988
 40
4.00
 41
1.00
 50
0.0000
  1
（２９７×４２０）
  0
TEXT
  8
0_00
 62
7
 10
768.7407
 20
569.3000
 40
5.00
 41
1.00
 50
0.0000
  1
担　当
  0
TEXT
  8
0_00
 62
7
 10
792.7407
 20
569.3000
 40
5.00
 41
1.00
 50
0.0000
  1
承　認
  0
TEXT
  8
0_00
 62
7
 10
367.5407
 20
56.8000
 40
5.00
 41
1.00
 50
0.0000
  1
機種名
  0
TEXT
  8
0_00
 62
7
 10
367.5407
 20
36.8000
 40
5.00
 41
1.00
 50
0.0000
  1
型　式
  0
TEXT
  8
0_00
 62
7
 10
128.8867
 20
534.0000
 40
5.00
 41
1.00
 50
0.0000
  1
（０～５０）
  0
TEXT
  8
0_00
 62
7
 10
315.0191
 20
351.2390
 40
5.00
 41
1.00
 50
0.0000
  1
１：５
  0
TEXT
  8
0_00
 62
7
 10
280.2867
 20
534.0000
 40
4.50
 41
0.75
 50
0.0000
  1
35
  0
TEXT
  8
0_00
 62
7
 10
313.5267
 20
520.0000
 40
5.00
 41
1.00
 50
0.0000
  1
笠木隙間（１０）
  0
TEXT
  8
0_00
 62
7
 10
298.0867
 20
380.0000
 40
4.50
 41
0.75
 50
0.0000
  1
98
  0
TEXT
  8
0_00
 62
7
 10
140.8867
 20
520.0000
 40
4.50
 41
0.75
 50
0.0000
  1
60
  0
POINT
  8
0_00
 62
6
 10
84.1888
 20
193.3989
  0
POINT
  8
0_00
 62
6
 10
100.7850
 20
188.9520
  0
POINT
  8
0_00
 62
6
 10
92.6712
 20
173.2160
  0
POINT
  8
0_00
 62
6
 10
105.8461
 20
169.6858
  0
POINT
  8
0_00
 62
6
 10
202.1707
 20
266.8940
  0
POINT
  8
0_00
 62
6
 10
207.9837
 20
265.3364
  0
POINT
  8
0_00
 62
6
 10
73.7722
 20
244.2162
  0
POINT
  8
0_00
 62
6
 10
66.0138
 20
246.2950
  0
POINT
  8
0_00
 62
6
 10
70.2836
 20
160.9048
  0
POINT
  8
0_00
 62
6
 10
255.3664
 20
111.3120
  0
POINT
  8
0_00
 62
2
 10
16.0603
 20
9.9994
  0
POINT
  8
0_00
 62
2
 10
16.0603
 20
9.9994
  0
POINT
  8
0_00
 62
2
 10
56.4603
 20
39.8000
  0
POINT
  8
0_00
 62
2
 10
56.4603
 20
49.8000
  0
POINT
  8
0_00
 62
2
 10
56.4603
 20
59.8000
  0
POINT
  8
0_00
 62
2
 10
56.4603
 20
69.8000
  0
POINT
  8
0_00
 62
2
 10
345.9407
 20
50.8000
  0
POINT
  8
0_00
 62
2
 10
345.9407
 20
30.8000
  0
POINT
  8
0_00
 62
2
 10
479.1407
 20
52.8000
  0
POINT
  8
0_00
 62
2
 10
479.1407
 20
32.8000
  0
POINT
  8
0_00
 62
2
 10
731.8407
 20
34.8000
  0
POINT
  8
0_00
 62
2
 10
676.0406
 20
39.8000
  0
POINT
  8
0_00
 62
2
 10
96.4603
 20
39.8000
  0
POINT
  8
0_00
 62
2
 10
96.4603
 20
49.8000
  0
POINT
  8
0_00
 62
2
 10
96.4603
 20
59.8000
  0
POINT
  8
0_00
 62
2
 10
96.4603
 20
69.8000
  0
POINT
  8
0_00
 62
2
 10
570.8407
 20
49.8000
  0
POINT
  8
0_00
 62
2
 10
551.8407
 20
49.8000
  0
POINT
  8
0_00
 62
2
 10
136.4603
 20
69.8000
  0
POINT
  8
0_00
 62
2
 10
136.4603
 20
59.8000
  0
POINT
  8
0_00
 62
2
 10
136.4603
 20
49.8000
  0
POINT
  8
0_00
 62
2
 10
136.4603
 20
39.8000
  0
POINT
  8
0_00
 62
2
 10
136.4603
 20
29.8001
  0
POINT
  8
0_00
 62
2
 10
700.9407
 20
39.8000
  0
POINT
  8
0_00
 62
2
 10
56.4603
 20
29.8001
  0
POINT
  8
0_00
 62
2
 10
96.4603
 20
29.8001
  0
POINT
  8
0_00
 62
2
 10
116.4603
 20
572.3000
  0
POINT
  8
0_00
 62
2
 10
575.0907
 20
32.8000
  0
POINT
  8
0_00
 62
2
 10
398.4407
 20
50.8000
  0
POINT
  8
0_00
 62
2
 10
398.4407
 20
30.8000
  0
POINT
  8
0_00
 62
5
 10
122.8783
 20
454.9155
  0
ENDSEC
  0
EOF
