999
  
  0
SECTION
  2
HEADER
  9
$EXTMIN
 10
0
 20
0
  9
$EXTMAX
 10
840
 20
592
  9
$LTSCALE
 40
2.00
  9
$PDMODE
 70
33
  9
$PDSIZE
 40
1.20
  0
ENDSEC
  0
SECTION
  2
TABLES
  0
TABLE
  2
LTYPE
 70
9
  0
LTYPE
  2
CONTINUOUS
 70
64
  3
実線
 72
65
 73
0
 40
0.00
  0
LTYPE
  2
DASHED
 70
64
  3
__  __  __  __  __  __  __ 
 72
65
 73
2
 40
1.00
 49
0.50
 49
-0.50
  0
LTYPE
  2
HIDDEN1
 70
64
  3
____    ____    ____    ___
 72
65
 73
2
 40
2.20
 49
1.20
 49
-1.00
  0
LTYPE
  2
HIDDEN2
 70
64
  3
______  ______  ______  ___
 72
65
 73
2
 40
4.50
 49
3.50
 49
-1.00
  0
LTYPE
  2
CENTER1
 70
64
  3
_______ _ _______ _ _______
 72
65
 73
4
 40
20.00
 49
17.00
 49
-1.00
 49
1.00
 49
-1.00
  0
LTYPE
  2
CENTER2
 70
64
  3
___________  __  __________
 72
65
 73
4
 40
40.00
 49
34.00
 49
-2.00
 49
2.00
 49
-2.00
  0
LTYPE
  2
PHANTOM1
 70
64
  3
______ _ _ ______ _ _ _____
 72
65
 73
6
 40
20.00
 49
15.00
 49
-1.00
 49
1.00
 49
-1.00
 49
1.00
 49
-1.00
  0
LTYPE
  2
PHANTOM2
 70
64
  3
__________  _  _  _________
 72
65
 73
6
 40
40.00
 49
30.00
 49
-2.00
 49
2.00
 49
-2.00
 49
2.00
 49
-2.00
  0
LTYPE
  2
DOT
 70
64
  3
 .  .  .  .  .  .  .  .  . 
 72
65
 73
2
 40
1.00
 49
0.00
 49
-1.00
  0
ENDTAB
  0
TABLE
  2
STYLE
 70
1
  0
STYLE
  2
STANDARD
 70
64
 40
0.0
 41
1.0
 42
0.0
 50
0.0
 71
0
  3
ROMANS
  4
BIGFONT
  0
ENDTAB
  0
TABLE
  2
LAYER
 70
2
  0
LAYER
  2
0_00
 70
64
 62
7
  6
CONTINUOUS
  0
LAYER
  2
15_0F
 70
64
 62
7
  6
CONTINUOUS
  0
ENDTAB
  0
ENDSEC
  0
SECTION
  2
ENTITIES
  0
LINE
  8
0_00
  6
CONTINUOUS
 62
7
 10
424.4005
 20
567.8000
 11
424.4005
 21
74.8000
  0
LINE
  8
0_00
  6
CONTINUOUS
 62
7
 10
36.4603
 20
321.3000
 11
812.3407
 21
321.3000
  0
LINE
  8
0_00
  6
CONTINUOUS
 62
4
 10
180.4304
 20
507.5311
 11
180.4304
 21
446.5311
  0
LINE
  8
0_00
  6
CONTINUOUS
 62
4
 10
180.4304
 20
446.5311
 11
189.4304
 21
437.5311
  0
LINE
  8
0_00
  6
CONTINUOUS
 62
4
 10
280.4304
 20
446.5311
 11
271.4304
 21
437.5311
  0
LINE
  8
0_00
  6
CONTINUOUS
 62
4
 10
221.4304
 20
431.5311
 11
286.4304
 21
431.5311
  0
LINE
  8
0_00
  6
CONTINUOUS
 62
4
 10
271.4304
 20
437.5311
 11
189.4304
 21
437.5311
  0
LINE
  8
0_00
  6
CONTINUOUS
 62
4
 10
286.4304
 20
496.5311
 11
286.4304
 21
431.5311
  0
LINE
  8
0_00
  6
CONTINUOUS
 62
4
 10
280.4304
 20
446.5311
 11
280.4304
 21
443.5311
  0
LINE
  8
0_00
  6
CONTINUOUS
 62
2
 10
236.0751
 20
437.5311
 11
280.4304
 21
481.8864
  0
LINE
  8
0_00
  6
CONTINUOUS
 62
2
 10
200.7197
 20
437.5311
 11
270.7197
 21
507.5311
  0
LINE
  8
0_00
  6
CONTINUOUS
 62
2
 10
180.4304
 20
452.5971
 11
235.3644
 21
507.5311
  0
LINE
  8
0_00
  6
CONTINUOUS
 62
2
 10
180.4304
 20
487.9525
 11
200.0091
 21
507.5311
  0
LINE
  8
0_00
  6
CONTINUOUS
 62
2
 10
233.2466
 20
437.5311
 11
280.4304
 21
484.7149
  0
LINE
  8
0_00
  6
CONTINUOUS
 62
2
 10
197.8913
 20
437.5311
 11
267.8913
 21
507.5311
  0
LINE
  8
0_00
  6
CONTINUOUS
 62
2
 10
180.4304
 20
455.4256
 11
232.5360
 21
507.5311
  0
LINE
  8
0_00
  6
CONTINUOUS
 62
2
 10
180.4304
 20
490.7809
 11
197.1806
 21
507.5311
  0
LINE
  8
0_00
  6
CONTINUOUS
 62
4
 10
271.4304
 20
437.5311
 11
274.4304
 21
437.5311
  0
LINE
  8
0_00
  6
CONTINUOUS
 62
4
 10
280.4304
 20
507.5311
 11
280.4304
 21
446.5311
  0
LINE
  8
0_00
  6
CENTER1
 62
6
 10
250.4304
 20
457.2267
 11
250.4304
 21
421.2256
  0
LINE
  8
0_00
  6
CONTINUOUS
 62
4
 10
235.9304
 20
410.0311
 11
249.4304
 21
410.0311
  0
LINE
  8
0_00
  6
CONTINUOUS
 62
4
 10
250.4304
 20
409.0311
 11
250.4304
 21
396.0311
  0
LINE
  8
0_00
  6
CONTINUOUS
 62
4
 10
235.4304
 20
409.5311
 11
235.4304
 21
408.8311
  0
LINE
  8
0_00
  6
CONTINUOUS
 62
4
 10
248.2304
 20
408.8311
 11
236.0304
 21
408.8311
  0
LINE
  8
0_00
  6
CONTINUOUS
 62
4
 10
249.2304
 20
407.8311
 11
249.2304
 21
397.2311
  0
LINE
  8
0_00
  6
CONTINUOUS
 62
4
 10
249.4304
 20
395.0311
 11
182.6304
 21
395.0311
  0
LINE
  8
0_00
  6
CONTINUOUS
 62
4
 10
248.2304
 20
396.2311
 11
182.6304
 21
396.2311
  0
LINE
  8
0_00
  6
CONTINUOUS
 62
4
 10
180.4304
 20
420.4475
 11
180.4304
 21
393.6309
  0
LINE
  8
0_00
  6
CONTINUOUS
 62
4
 10
181.6304
 20
394.0311
 11
181.6304
 21
393.6311
  0
LINE
  8
0_00
  6
CONTINUOUS
 62
4
 10
200.4304
 20
433.9311
 11
200.4304
 21
426.8923
  0
LINE
  8
0_00
  6
CONTINUOUS
 62
4
 10
201.6304
 20
433.9311
 11
201.6304
 21
422.5311
  0
LINE
  8
0_00
  6
CONTINUOUS
 62
4
 10
182.9854
 20
423.4143
 11
199.5788
 21
425.9034
  0
LINE
  8
0_00
  6
CONTINUOUS
 62
4
 10
201.6304
 20
422.5311
 11
200.4304
 21
422.8526
  0
LINE
  8
0_00
  6
CONTINUOUS
 62
4
 10
200.4304
 20
424.2371
 11
200.4304
 21
422.8526
  0
LINE
  8
0_00
  6
CONTINUOUS
 62
4
 10
199.8563
 20
424.7316
 11
183.1634
 21
422.2277
  0
LINE
  8
0_00
  6
CONTINUOUS
 62
4
 10
181.6304
 20
420.4475
 11
181.6304
 21
397.2311
  0
LINE
  8
0_00
  6
CONTINUOUS
 62
2
 10
246.4292
 20
426.8311
 11
246.2804
 21
428.5311
  0
LINE
  8
0_00
  6
CONTINUOUS
 62
2
 10
254.4317
 20
426.8311
 11
254.5804
 21
428.5311
  0
LINE
  8
0_00
  6
DASHED
 62
2
 10
250.4304
 20
453.5311
 11
248.3907
 21
451.9679
  0
LINE
  8
0_00
  6
DASHED
 62
2
 10
250.4304
 20
453.5311
 11
252.4304
 21
451.9984
  0
LINE
  8
0_00
  6
DASHED
 62
2
 10
250.4304
 20
453.5311
 11
248.4304
 21
448.7111
  0
LINE
  8
0_00
  6
DASHED
 62
2
 10
248.4304
 20
448.7111
 11
252.4304
 21
449.7829
  0
LINE
  8
0_00
  6
DASHED
 62
2
 10
248.4304
 20
428.5311
 11
248.4304
 21
451.9679
  0
LINE
  8
0_00
  6
DASHED
 62
2
 10
248.9804
 20
428.5311
 11
248.9804
 21
448.8585
  0
LINE
  8
0_00
  6
CONTINUOUS
 62
2
 10
254.5804
 20
428.5311
 11
246.2804
 21
428.5311
  0
LINE
  8
0_00
  6
CONTINUOUS
 62
2
 10
246.4292
 20
426.8311
 11
254.4317
 21
426.8311
  0
LINE
  8
0_00
  6
DASHED
 62
2
 10
252.4304
 20
428.5311
 11
252.4304
 21
451.9984
  0
LINE
  8
0_00
  6
DASHED
 62
2
 10
251.8804
 20
428.5311
 11
251.8804
 21
449.6355
  0
LINE
  8
0_00
  6
CONTINUOUS
 62
2
 10
249.4304
 20
410.0311
 11
327.0034
 21
410.0311
  0
LINE
  8
0_00
  6
CONTINUOUS
 62
2
 10
240.4304
 20
418.0311
 11
327.0034
 21
418.0311
  0
LINE
  8
0_00
  6
CONTINUOUS
 62
2
 10
327.0034
 20
416.0311
 11
240.4304
 21
416.0311
  0
LINE
  8
0_00
  6
CONTINUOUS
 62
2
 10
327.0034
 20
414.0311
 11
240.4304
 21
414.0311
  0
LINE
  8
0_00
  6
CONTINUOUS
 62
2
 10
327.0034
 20
412.0311
 11
240.4304
 21
412.0311
  0
LINE
  8
0_00
  6
CONTINUOUS
 62
2
 10
240.4304
 20
410.0311
 11
240.4304
 21
418.0311
  0
LINE
  8
0_00
  6
CONTINUOUS
 62
2
 10
194.2516
 20
437.5311
 11
188.0727
 21
431.3522
  0
LINE
  8
0_00
  6
CONTINUOUS
 62
2
 10
196.6116
 20
437.0627
 11
188.5412
 21
428.9922
  0
LINE
  8
0_00
  6
CONTINUOUS
 62
2
 10
198.3519
 20
435.9745
 11
189.6293
 21
427.2520
  0
LINE
  8
0_00
  6
CONTINUOUS
 62
2
 10
199.6190
 20
434.4132
 11
191.1906
 21
425.9849
  0
LINE
  8
0_00
  6
CONTINUOUS
 62
2
 10
200.3542
 20
432.3200
 11
193.2838
 21
425.2496
  0
LINE
  8
0_00
  6
CONTINUOUS
 62
2
 10
196.6116
 20
437.0627
 11
199.9620
 21
433.7122
  0
LINE
  8
0_00
  6
CONTINUOUS
 62
2
 10
193.3769
 20
437.4688
 11
200.3682
 21
430.4776
  0
LINE
  8
0_00
  6
CONTINUOUS
 62
2
 10
191.2592
 20
436.7581
 11
199.6575
 21
428.3599
  0
LINE
  8
0_00
  6
CONTINUOUS
 62
2
 10
189.6799
 20
435.5090
 11
198.4083
 21
426.7806
  0
LINE
  8
0_00
  6
CONTINUOUS
 62
2
 10
188.5729
 20
433.7876
 11
196.6869
 21
425.6736
  0
LINE
  8
0_00
  6
CONTINUOUS
 62
2
 10
188.0736
 20
431.4584
 11
194.3578
 21
425.1743
  0
LINE
  8
0_00
  6
CONTINUOUS
 62
2
 10
200.0320
 20
429.1694
 11
196.4344
 21
425.5718
  0
LINE
  8
0_00
  6
CONTINUOUS
 62
2
 10
188.5524
 20
438.4092
 11
183.1114
 21
432.9681
  0
LINE
  8
0_00
  6
CONTINUOUS
 62
2
 10
189.0103
 20
434.6244
 11
182.7087
 21
428.3229
  0
LINE
  8
0_00
  6
CONTINUOUS
 62
2
 10
188.3045
 20
429.6760
 11
181.2891
 21
422.6606
  0
LINE
  8
0_00
  6
CONTINUOUS
 62
2
 10
189.8684
 20
426.9973
 11
186.8679
 21
423.9967
  0
LINE
  8
0_00
  6
CONTINUOUS
 62
2
 10
192.5314
 20
425.4176
 11
191.8592
 21
424.7455
  0
LINE
  8
0_00
  6
CENTER1
 62
6
 10
230.4304
 20
520.1280
 11
230.4304
 21
423.9473
  0
LINE
  8
0_00
  6
CONTINUOUS
 62
6
 10
286.4304
 20
480.5444
 11
303.2116
 21
497.3256
  0
LINE
  8
0_00
  6
CONTINUOUS
 62
6
 10
286.4304
 20
480.5444
 11
290.6238
 21
483.2676
  0
LINE
  8
0_00
  6
CONTINUOUS
 62
6
 10
286.4304
 20
480.5444
 11
289.1536
 21
484.7378
  0
LINE
  8
0_00
  6
CONTINUOUS
 62
6
 10
303.2116
 20
497.3256
 11
390.8116
 21
497.3256
  0
LINE
  8
0_00
  6
CONTINUOUS
 62
6
 10
252.4304
 20
440.2648
 11
273.0891
 21
460.9234
  0
LINE
  8
0_00
  6
CONTINUOUS
 62
6
 10
252.4304
 20
440.2648
 11
256.6238
 21
442.9879
  0
LINE
  8
0_00
  6
CONTINUOUS
 62
6
 10
252.4304
 20
440.2648
 11
255.1536
 21
444.4581
  0
LINE
  8
0_00
  6
CONTINUOUS
 62
6
 10
273.0891
 20
460.9234
 11
345.8891
 21
460.9234
  0
LINE
  8
0_00
  6
CONTINUOUS
 62
6
 10
181.9233
 20
394.7382
 11
163.1747
 21
375.9896
  0
LINE
  8
0_00
  6
CONTINUOUS
 62
6
 10
181.9233
 20
394.7382
 11
177.7300
 21
392.0150
  0
LINE
  8
0_00
  6
CONTINUOUS
 62
6
 10
181.9233
 20
394.7382
 11
179.2001
 21
390.5449
  0
LINE
  8
0_00
  6
CONTINUOUS
 62
6
 10
163.1747
 20
375.9896
 11
128.3747
 21
375.9896
  0
LINE
  8
0_00
  6
CONTINUOUS
 62
6
 10
218.6304
 20
400.2311
 11
181.7239
 21
363.3245
  0
LINE
  8
0_00
  6
CONTINUOUS
 62
6
 10
218.6304
 20
400.2311
 11
214.4371
 21
397.5079
  0
LINE
  8
0_00
  6
CONTINUOUS
 62
6
 10
218.6304
 20
400.2311
 11
215.9072
 21
396.0378
  0
LINE
  8
0_00
  6
CONTINUOUS
 62
6
 10
181.7239
 20
363.3245
 11
122.9239
 21
363.3245
  0
LINE
  8
0_00
  6
CONTINUOUS
 62
6
 10
182.3257
 20
440.6677
 11
162.7518
 21
460.2415
  0
LINE
  8
0_00
  6
CONTINUOUS
 62
6
 10
182.3257
 20
440.6677
 11
179.6024
 21
444.8611
  0
LINE
  8
0_00
  6
CONTINUOUS
 62
6
 10
182.3257
 20
440.6677
 11
178.1323
 21
443.3909
  0
LINE
  8
0_00
  6
CONTINUOUS
 62
6
 10
162.7518
 20
460.2415
 11
75.1518
 21
460.2415
  0
LINE
  8
0_00
  6
CONTINUOUS
 62
4
 10
568.3706
 20
507.5311
 11
568.3706
 21
442.5682
  0
LINE
  8
0_00
  6
CONTINUOUS
 62
4
 10
568.3706
 20
442.5682
 11
577.3706
 21
433.5683
  0
LINE
  8
0_00
  6
CONTINUOUS
 62
4
 10
668.3706
 20
442.5682
 11
659.3706
 21
433.5683
  0
LINE
  8
0_00
  6
CONTINUOUS
 62
4
 10
609.3706
 20
427.5682
 11
674.3706
 21
427.5682
  0
LINE
  8
0_00
  6
CONTINUOUS
 62
4
 10
659.3706
 20
433.5683
 11
577.3706
 21
433.5683
  0
LINE
  8
0_00
  6
CONTINUOUS
 62
4
 10
674.3706
 20
492.5683
 11
674.3706
 21
427.5682
  0
LINE
  8
0_00
  6
CONTINUOUS
 62
4
 10
668.3706
 20
442.5682
 11
668.3706
 21
439.5682
  0
LINE
  8
0_00
  6
CONTINUOUS
 62
2
 10
624.0153
 20
433.5683
 11
668.3706
 21
477.9236
  0
LINE
  8
0_00
  6
CONTINUOUS
 62
2
 10
588.6599
 20
433.5683
 11
662.6228
 21
507.5311
  0
LINE
  8
0_00
  6
CONTINUOUS
 62
2
 10
568.3706
 20
448.6342
 11
627.2675
 21
507.5311
  0
LINE
  8
0_00
  6
CONTINUOUS
 62
2
 10
568.3706
 20
483.9896
 11
591.9121
 21
507.5311
  0
LINE
  8
0_00
  6
CONTINUOUS
 62
2
 10
621.1868
 20
433.5683
 11
668.3706
 21
480.7520
  0
LINE
  8
0_00
  6
CONTINUOUS
 62
2
 10
585.8315
 20
433.5683
 11
659.7944
 21
507.5311
  0
LINE
  8
0_00
  6
CONTINUOUS
 62
2
 10
568.3706
 20
451.4627
 11
624.4390
 21
507.5311
  0
LINE
  8
0_00
  6
CONTINUOUS
 62
2
 10
568.3706
 20
486.8180
 11
589.0837
 21
507.5311
  0
LINE
  8
0_00
  6
CONTINUOUS
 62
4
 10
659.3706
 20
433.5683
 11
662.3706
 21
433.5683
  0
LINE
  8
0_00
  6
CONTINUOUS
 62
4
 10
668.3706
 20
507.5311
 11
668.3706
 21
442.5682
  0
LINE
  8
0_00
  6
CENTER1
 62
6
 10
635.8706
 20
453.2638
 11
635.8706
 21
417.2627
  0
LINE
  8
0_00
  6
CONTINUOUS
 62
2
 10
631.8693
 20
422.8682
 11
631.7206
 21
424.5682
  0
LINE
  8
0_00
  6
CONTINUOUS
 62
2
 10
639.8719
 20
422.8682
 11
640.0206
 21
424.5682
  0
LINE
  8
0_00
  6
DASHED
 62
2
 10
635.8706
 20
449.5682
 11
633.8309
 21
448.0051
  0
LINE
  8
0_00
  6
DASHED
 62
2
 10
635.8706
 20
449.5682
 11
637.8706
 21
448.0355
  0
LINE
  8
0_00
  6
DASHED
 62
2
 10
635.8706
 20
449.5682
 11
633.8706
 21
444.7482
  0
LINE
  8
0_00
  6
DASHED
 62
2
 10
633.8706
 20
444.7482
 11
637.8706
 21
445.8200
  0
LINE
  8
0_00
  6
DASHED
 62
2
 10
633.8706
 20
424.5682
 11
633.8706
 21
448.0051
  0
LINE
  8
0_00
  6
DASHED
 62
2
 10
634.4206
 20
424.5682
 11
634.4206
 21
444.8956
  0
LINE
  8
0_00
  6
CONTINUOUS
 62
2
 10
640.0206
 20
424.5682
 11
631.7206
 21
424.5682
  0
LINE
  8
0_00
  6
CONTINUOUS
 62
2
 10
631.8693
 20
422.8682
 11
639.8719
 21
422.8682
  0
LINE
  8
0_00
  6
DASHED
 62
2
 10
637.8706
 20
424.5682
 11
637.8706
 21
448.0355
  0
LINE
  8
0_00
  6
DASHED
 62
2
 10
637.3206
 20
424.5682
 11
637.3206
 21
445.6727
  0
LINE
  8
0_00
  6
CONTINUOUS
 62
2
 10
693.3635
 20
406.0932
 11
745.4966
 21
406.0932
  0
LINE
  8
0_00
  6
CONTINUOUS
 62
2
 10
693.3635
 20
414.0932
 11
745.4966
 21
414.0932
  0
LINE
  8
0_00
  6
CONTINUOUS
 62
2
 10
745.4966
 20
412.0932
 11
693.3635
 21
412.0932
  0
LINE
  8
0_00
  6
CONTINUOUS
 62
2
 10
745.4966
 20
410.0932
 11
693.3635
 21
410.0932
  0
LINE
  8
0_00
  6
CONTINUOUS
 62
2
 10
745.4966
 20
408.0932
 11
693.3635
 21
408.0932
  0
LINE
  8
0_00
  6
CONTINUOUS
 62
2
 10
693.3635
 20
406.0932
 11
693.3635
 21
414.0932
  0
LINE
  8
0_00
  6
CONTINUOUS
 62
2
 10
584.1414
 20
432.6895
 11
582.0884
 21
430.6365
  0
LINE
  8
0_00
  6
CONTINUOUS
 62
2
 10
587.8251
 20
433.5446
 11
581.2333
 21
426.9529
  0
LINE
  8
0_00
  6
CONTINUOUS
 62
2
 10
590.0265
 20
432.9178
 11
581.8602
 21
424.7514
  0
LINE
  8
0_00
  6
CONTINUOUS
 62
2
 10
591.6566
 20
431.7193
 11
583.0586
 21
423.1213
  0
LINE
  8
0_00
  6
CONTINUOUS
 62
2
 10
584.6746
 20
432.9769
 11
592.7793
 21
424.8722
  0
LINE
  8
0_00
  6
CONTINUOUS
 62
2
 10
583.0132
 20
431.8098
 11
591.6122
 21
423.2109
  0
LINE
  8
0_00
  6
CONTINUOUS
 62
2
 10
581.8304
 20
430.1642
 11
589.9666
 21
422.0281
  0
LINE
  8
0_00
  6
CONTINUOUS
 62
2
 10
581.2265
 20
427.9398
 11
587.7421
 21
421.4241
  0
LINE
  8
0_00
  6
CONTINUOUS
 62
2
 10
582.2472
 20
424.0906
 11
583.8931
 21
422.4448
  0
LINE
  8
0_00
  6
CONTINUOUS
 62
2
 10
592.8080
 20
430.0423
 11
584.7356
 21
421.9700
  0
LINE
  8
0_00
  6
CONTINUOUS
 62
2
 10
570.1286
 20
440.8102
 11
569.3423
 21
440.0240
  0
LINE
  8
0_00
  6
CONTINUOUS
 62
2
 10
572.2499
 20
438.6889
 11
570.2659
 21
436.7049
  0
LINE
  8
0_00
  6
CONTINUOUS
 62
2
 10
574.3712
 20
436.5676
 11
570.8658
 21
433.0621
  0
LINE
  8
0_00
  6
CONTINUOUS
 62
2
 10
576.4926
 20
434.4463
 11
571.0515
 21
429.0053
  0
LINE
  8
0_00
  6
CONTINUOUS
 62
2
 10
579.8572
 20
433.5683
 11
570.6489
 21
424.3600
  0
LINE
  8
0_00
  6
CONTINUOUS
 62
2
 10
584.0998
 20
433.5683
 11
569.2293
 21
418.6978
  0
LINE
  8
0_00
  6
CONTINUOUS
 62
2
 10
581.2881
 20
426.5140
 11
574.6171
 21
419.8429
  0
LINE
  8
0_00
  6
CONTINUOUS
 62
2
 10
582.6158
 20
423.5990
 11
579.4383
 21
420.4214
  0
LINE
  8
0_00
  6
CENTER1
 62
6
 10
618.3706
 20
520.1280
 11
618.3706
 21
419.9845
  0
LINE
  8
0_00
  6
CONTINUOUS
 62
6
 10
674.3706
 20
476.5816
 11
691.1517
 21
493.3627
  0
LINE
  8
0_00
  6
CONTINUOUS
 62
6
 10
674.3706
 20
476.5816
 11
678.5640
 21
479.3047
  0
LINE
  8
0_00
  6
CONTINUOUS
 62
6
 10
674.3706
 20
476.5816
 11
677.0938
 21
480.7749
  0
LINE
  8
0_00
  6
CONTINUOUS
 62
6
 10
691.1517
 20
493.3627
 11
778.7518
 21
493.3627
  0
LINE
  8
0_00
  6
CONTINUOUS
 62
6
 10
637.8706
 20
433.8019
 11
661.0293
 21
456.9605
  0
LINE
  8
0_00
  6
CONTINUOUS
 62
6
 10
637.8706
 20
433.8019
 11
642.0640
 21
436.5251
  0
LINE
  8
0_00
  6
CONTINUOUS
 62
6
 10
637.8706
 20
433.8019
 11
640.5938
 21
437.9953
  0
LINE
  8
0_00
  6
CONTINUOUS
 62
6
 10
661.0293
 20
456.9605
 11
733.8293
 21
456.9605
  0
LINE
  8
0_00
  6
CONTINUOUS
 62
6
 10
569.8635
 20
390.7753
 11
551.1149
 21
372.0267
  0
LINE
  8
0_00
  6
CONTINUOUS
 62
6
 10
569.8635
 20
390.7753
 11
565.6702
 21
388.0521
  0
LINE
  8
0_00
  6
CONTINUOUS
 62
6
 10
569.8635
 20
390.7753
 11
567.1403
 21
386.5820
  0
LINE
  8
0_00
  6
CONTINUOUS
 62
6
 10
551.1149
 20
372.0267
 11
511.5149
 21
372.0267
  0
LINE
  8
0_00
  6
CONTINUOUS
 62
6
 10
606.5706
 20
396.2682
 11
569.6641
 21
359.3617
  0
LINE
  8
0_00
  6
CONTINUOUS
 62
6
 10
606.5706
 20
396.2682
 11
602.3773
 21
393.5450
  0
LINE
  8
0_00
  6
CONTINUOUS
 62
6
 10
606.5706
 20
396.2682
 11
603.8474
 21
392.0749
  0
LINE
  8
0_00
  6
CONTINUOUS
 62
6
 10
569.6641
 20
359.3617
 11
506.0640
 21
359.3617
  0
LINE
  8
0_00
  6
CONTINUOUS
 62
6
 10
570.2659
 20
436.7049
 11
550.6920
 21
456.2786
  0
LINE
  8
0_00
  6
CONTINUOUS
 62
6
 10
570.2659
 20
436.7049
 11
567.5426
 21
440.8982
  0
LINE
  8
0_00
  6
CONTINUOUS
 62
6
 10
570.2659
 20
436.7049
 11
566.0725
 21
439.4280
  0
LINE
  8
0_00
  6
CONTINUOUS
 62
6
 10
550.6920
 20
456.2786
 11
463.0920
 21
456.2786
  0
LINE
  8
0_00
  6
CONTINUOUS
 62
4
 10
703.3635
 20
405.0811
 11
703.3635
 21
392.6933
  0
LINE
  8
0_00
  6
CONTINUOUS
 62
4
 10
673.3635
 20
405.5811
 11
673.3635
 21
404.5811
  0
LINE
  8
0_00
  6
CONTINUOUS
 62
4
 10
701.9635
 20
404.1811
 11
701.9635
 21
394.0933
  0
LINE
  8
0_00
  6
CONTINUOUS
 62
4
 10
699.4635
 20
404.6811
 11
701.4635
 21
404.6811
  0
LINE
  8
0_00
  6
CONTINUOUS
 62
4
 10
699.4635
 20
404.6811
 11
699.4635
 21
402.1811
  0
LINE
  8
0_00
  6
CONTINUOUS
 62
4
 10
698.0635
 20
405.0811
 11
698.0635
 21
403.5811
  0
LINE
  8
0_00
  6
CONTINUOUS
 62
4
 10
696.3635
 20
405.0811
 11
698.0635
 21
405.0811
  0
LINE
  8
0_00
  6
CONTINUOUS
 62
4
 10
696.3635
 20
405.5811
 11
696.3635
 21
405.0811
  0
LINE
  8
0_00
  6
CONTINUOUS
 62
4
 10
697.5635
 20
403.0811
 11
680.2635
 21
403.0811
  0
LINE
  8
0_00
  6
CONTINUOUS
 62
4
 10
698.9635
 20
401.6811
 11
678.8635
 21
401.6811
  0
LINE
  8
0_00
  6
CONTINUOUS
 62
4
 10
679.7635
 20
405.0811
 11
679.7635
 21
403.5811
  0
LINE
  8
0_00
  6
CONTINUOUS
 62
4
 10
681.3635
 20
405.0811
 11
679.7635
 21
405.0811
  0
LINE
  8
0_00
  6
CONTINUOUS
 62
4
 10
678.3635
 20
404.0811
 11
678.3635
 21
402.1811
  0
LINE
  8
0_00
  6
CONTINUOUS
 62
4
 10
677.8635
 20
404.5811
 11
673.9635
 21
404.5811
  0
LINE
  8
0_00
  6
CONTINUOUS
 62
4
 10
673.8635
 20
406.0811
 11
681.3635
 21
406.0811
  0
LINE
  8
0_00
  6
CONTINUOUS
 62
4
 10
696.8635
 20
406.0811
 11
702.3635
 21
406.0811
  0
LINE
  8
0_00
  6
CONTINUOUS
 62
4
 10
701.7635
 20
391.0933
 11
570.7706
 21
391.0933
  0
LINE
  8
0_00
  6
CONTINUOUS
 62
4
 10
700.3635
 20
392.4933
 11
570.7706
 21
392.4933
  0
LINE
  8
0_00
  6
CONTINUOUS
 62
4
 10
568.3706
 20
416.4318
 11
568.3706
 21
389.7931
  0
LINE
  8
0_00
  6
CONTINUOUS
 62
4
 10
569.7706
 20
416.4318
 11
569.7706
 21
393.4933
  0
LINE
  8
0_00
  6
CONTINUOUS
 62
4
 10
569.7706
 20
390.0933
 11
569.7706
 21
389.7935
  0
LINE
  8
0_00
  6
CONTINUOUS
 62
4
 10
594.7706
 20
429.8933
 11
594.7706
 21
418.5933
  0
LINE
  8
0_00
  6
CONTINUOUS
 62
4
 10
571.0132
 20
419.4105
 11
593.3706
 21
422.0933
  0
LINE
  8
0_00
  6
CONTINUOUS
 62
4
 10
571.1800
 20
418.0204
 11
593.3706
 21
420.6833
  0
LINE
  8
0_00
  6
CONTINUOUS
 62
4
 10
593.3706
 20
429.8933
 11
593.3706
 21
422.0933
  0
LINE
  8
0_00
  6
CONTINUOUS
 62
4
 10
593.3706
 20
420.6833
 11
593.3706
 21
418.9685
  0
LINE
  8
0_00
  6
CONTINUOUS
 62
4
 10
594.7706
 20
418.5933
 11
593.3706
 21
418.9685
  0
LINE
  8
0_00
  6
CONTINUOUS
 62
2
 10
593.3641
 20
427.7700
 11
587.0079
 21
421.4139
  0
LINE
  8
0_00
  6
CONTINUOUS
 62
2
 10
586.9229
 20
433.5571
 11
593.3595
 21
427.1204
  0
LINE
  8
0_00
  6
CONTINUOUS
 62
2
 10
591.0133
 20
432.2950
 11
592.0974
 21
431.2109
  0
LINE
  8
0_00
  6
CONTINUOUS
 62
2
 10
585.0819
 20
421.8224
 11
584.2595
 21
421.0000
  0
LINE
  8
0_00
  6
CONTINUOUS
 62
6
 10
565.3706
 20
419.0682
 11
529.0000
 21
419.0682
  0
LINE
  8
0_00
  6
CONTINUOUS
 62
6
 10
532.0000
 20
419.0682
 11
532.0000
 21
389.0682
  0
LINE
  8
0_00
  6
CONTINUOUS
 62
6
 10
532.0000
 20
419.0682
 11
530.9604
 21
414.1775
  0
LINE
  8
0_00
  6
CONTINUOUS
 62
6
 10
532.0000
 20
419.0682
 11
533.0396
 21
414.1775
  0
LINE
  8
0_00
  6
CONTINUOUS
 62
6
 10
532.0000
 20
389.0682
 11
533.0396
 21
393.9590
  0
LINE
  8
0_00
  6
CONTINUOUS
 62
6
 10
532.0000
 20
389.0682
 11
530.9604
 21
393.9590
  0
LINE
  8
0_00
  6
CONTINUOUS
 62
6
 10
568.3706
 20
382.7714
 11
568.3706
 21
343.0371
  0
LINE
  8
0_00
  6
CONTINUOUS
 62
6
 10
703.3706
 20
382.7714
 11
703.3706
 21
343.0371
  0
LINE
  8
0_00
  6
CONTINUOUS
 62
6
 10
568.3706
 20
346.0371
 11
703.3706
 21
346.0371
  0
LINE
  8
0_00
  6
CONTINUOUS
 62
6
 10
568.3706
 20
346.0371
 11
573.2614
 21
344.9976
  0
LINE
  8
0_00
  6
CONTINUOUS
 62
6
 10
568.3706
 20
346.0371
 11
573.2614
 21
347.0767
  0
LINE
  8
0_00
  6
CONTINUOUS
 62
6
 10
703.3706
 20
346.0371
 11
698.4799
 21
347.0767
  0
LINE
  8
0_00
  6
CONTINUOUS
 62
6
 10
703.3706
 20
346.0371
 11
698.4799
 21
344.9976
  0
LINE
  8
0_00
  6
CONTINUOUS
 62
6
 10
635.8706
 20
452.1545
 11
635.8706
 21
548.9822
  0
LINE
  8
0_00
  6
CONTINUOUS
 62
6
 10
568.3706
 20
517.9822
 11
568.3706
 21
548.9822
  0
LINE
  8
0_00
  6
CONTINUOUS
 62
6
 10
568.3706
 20
545.9822
 11
635.8706
 21
545.9822
  0
LINE
  8
0_00
  6
CONTINUOUS
 62
6
 10
568.3706
 20
545.9822
 11
573.2614
 21
544.9427
  0
LINE
  8
0_00
  6
CONTINUOUS
 62
6
 10
568.3706
 20
545.9822
 11
573.2614
 21
547.0219
  0
LINE
  8
0_00
  6
CONTINUOUS
 62
6
 10
635.8706
 20
545.9822
 11
630.9799
 21
547.0219
  0
LINE
  8
0_00
  6
CONTINUOUS
 62
6
 10
635.8706
 20
545.9822
 11
630.9799
 21
544.9427
  0
LINE
  8
0_00
  6
CONTINUOUS
 62
6
 10
703.3706
 20
382.7714
 11
703.3706
 21
343.0371
  0
LINE
  8
0_00
  6
CONTINUOUS
 62
6
 10
688.3706
 20
346.0371
 11
703.3706
 21
346.0371
  0
LINE
  8
0_00
  6
CONTINUOUS
 62
6
 10
703.3706
 20
346.0371
 11
698.4799
 21
347.0767
  0
LINE
  8
0_00
  6
CONTINUOUS
 62
6
 10
703.3706
 20
346.0371
 11
698.4799
 21
344.9976
  0
LINE
  8
0_00
  6
CONTINUOUS
 62
6
 10
568.3706
 20
528.9274
 11
568.3706
 21
548.9822
  0
LINE
  8
0_00
  6
CONTINUOUS
 62
6
 10
568.3706
 20
531.9822
 11
588.3706
 21
531.9822
  0
LINE
  8
0_00
  6
CONTINUOUS
 62
6
 10
598.0111
 20
430.5932
 11
759.0000
 21
430.5932
  0
LINE
  8
0_00
  6
CONTINUOUS
 62
6
 10
726.1174
 20
427.5932
 11
759.0000
 21
427.5932
  0
LINE
  8
0_00
  6
CONTINUOUS
 62
6
 10
756.0000
 20
430.5932
 11
756.0000
 21
427.5932
  0
LINE
  8
0_00
  6
CONTINUOUS
 62
6
 10
756.0000
 20
449.5143
 11
756.0000
 21
430.5932
  0
LINE
  8
0_00
  6
CONTINUOUS
 62
6
 10
756.0000
 20
430.5932
 11
757.0396
 21
435.4839
  0
LINE
  8
0_00
  6
CONTINUOUS
 62
6
 10
756.0000
 20
430.5932
 11
754.9604
 21
435.4839
  0
LINE
  8
0_00
  6
CONTINUOUS
 62
6
 10
708.1700
 20
391.0932
 11
759.0000
 21
391.0932
  0
LINE
  8
0_00
  6
CONTINUOUS
 62
6
 10
682.3232
 20
427.5932
 11
726.5112
 21
427.5932
  0
LINE
  8
0_00
  6
CONTINUOUS
 62
6
 10
756.0000
 20
427.5932
 11
756.0000
 21
391.0932
  0
LINE
  8
0_00
  6
CONTINUOUS
 62
6
 10
756.0000
 20
427.5932
 11
754.9604
 21
422.7025
  0
LINE
  8
0_00
  6
CONTINUOUS
 62
6
 10
756.0000
 20
427.5932
 11
757.0396
 21
422.7025
  0
LINE
  8
0_00
  6
CONTINUOUS
 62
6
 10
756.0000
 20
391.0932
 11
757.0396
 21
395.9839
  0
LINE
  8
0_00
  6
CONTINUOUS
 62
6
 10
756.0000
 20
391.0932
 11
754.9604
 21
395.9839
  0
LINE
  8
0_00
  6
CONTINUOUS
 62
6
 10
742.0000
 20
406.0932
 11
742.0000
 21
391.0932
  0
LINE
  8
0_00
  6
CONTINUOUS
 62
6
 10
565.9706
 20
389.0682
 11
515.0000
 21
389.0682
  0
LINE
  8
0_00
  6
CONTINUOUS
 62
6
 10
565.3706
 20
430.5682
 11
515.0000
 21
430.5682
  0
LINE
  8
0_00
  6
CONTINUOUS
 62
6
 10
518.0000
 20
430.5682
 11
518.0000
 21
389.0682
  0
LINE
  8
0_00
  6
CONTINUOUS
 62
6
 10
518.0000
 20
430.5682
 11
516.9604
 21
425.6775
  0
LINE
  8
0_00
  6
CONTINUOUS
 62
6
 10
518.0000
 20
430.5682
 11
519.0396
 21
425.6775
  0
LINE
  8
0_00
  6
CONTINUOUS
 62
6
 10
518.0000
 20
389.0682
 11
519.0396
 21
393.9590
  0
LINE
  8
0_00
  6
CONTINUOUS
 62
6
 10
518.0000
 20
389.0682
 11
516.9604
 21
393.9590
  0
LINE
  8
0_00
  6
CONTINUOUS
 62
6
 10
290.0761
 20
410.0311
 11
323.6127
 21
376.4945
  0
LINE
  8
0_00
  6
CONTINUOUS
 62
6
 10
290.0761
 20
410.0311
 11
292.7993
 21
405.8377
  0
LINE
  8
0_00
  6
CONTINUOUS
 62
6
 10
290.0761
 20
410.0311
 11
294.2694
 21
407.3079
  0
LINE
  8
0_00
  6
CONTINUOUS
 62
6
 10
323.6127
 20
376.4945
 11
372.8127
 21
376.4945
  0
LINE
  8
0_00
  6
CONTINUOUS
 62
6
 10
322.0000
 20
422.1032
 11
322.0000
 21
410.0311
  0
LINE
  8
0_00
  6
CONTINUOUS
 62
6
 10
322.0000
 20
410.0311
 11
323.0396
 21
414.9218
  0
LINE
  8
0_00
  6
CONTINUOUS
 62
6
 10
322.0000
 20
410.0311
 11
320.9604
 21
414.9218
  0
LINE
  8
0_00
  6
CONTINUOUS
 62
6
 10
322.0000
 20
385.3894
 11
322.0000
 21
395.0311
  0
LINE
  8
0_00
  6
CONTINUOUS
 62
6
 10
322.0000
 20
395.0311
 11
320.9604
 21
390.1404
  0
LINE
  8
0_00
  6
CONTINUOUS
 62
6
 10
322.0000
 20
395.0311
 11
323.0396
 21
390.1404
  0
LINE
  8
0_00
  6
CONTINUOUS
 62
6
 10
742.0000
 20
379.5574
 11
742.0000
 21
391.0932
  0
LINE
  8
0_00
  6
CONTINUOUS
 62
6
 10
742.0000
 20
391.0932
 11
740.9604
 21
386.2025
  0
LINE
  8
0_00
  6
CONTINUOUS
 62
6
 10
742.0000
 20
391.0932
 11
743.0396
 21
386.2025
  0
LINE
  8
0_00
  6
CONTINUOUS
 62
6
 10
742.0000
 20
418.0027
 11
742.0000
 21
406.0932
  0
LINE
  8
0_00
  6
CONTINUOUS
 62
6
 10
742.0000
 20
406.0932
 11
743.0396
 21
410.9839
  0
LINE
  8
0_00
  6
CONTINUOUS
 62
6
 10
742.0000
 20
406.0932
 11
740.9604
 21
410.9839
  0
LINE
  8
0_00
  6
CONTINUOUS
 62
6
 10
713.5743
 20
406.3182
 11
744.2910
 21
375.6015
  0
LINE
  8
0_00
  6
CONTINUOUS
 62
6
 10
713.5743
 20
406.3182
 11
716.2975
 21
402.1249
  0
LINE
  8
0_00
  6
CONTINUOUS
 62
6
 10
713.5743
 20
406.3182
 11
717.7677
 21
403.5950
  0
LINE
  8
0_00
  6
CONTINUOUS
 62
6
 10
744.2910
 20
375.6015
 11
793.4911
 21
375.6015
  0
LINE
  8
0_00
  6
CONTINUOUS
 62
6
 10
550.2184
 20
531.9822
 11
568.3706
 21
531.9822
  0
LINE
  8
0_00
  6
CONTINUOUS
 62
6
 10
568.3706
 20
531.9822
 11
563.4799
 21
533.0219
  0
LINE
  8
0_00
  6
CONTINUOUS
 62
6
 10
568.3706
 20
531.9822
 11
563.4799
 21
530.9427
  0
LINE
  8
0_00
  6
CONTINUOUS
 62
4
 10
167.9304
 20
255.5311
 11
167.9304
 21
194.5311
  0
LINE
  8
0_00
  6
CONTINUOUS
 62
4
 10
167.9304
 20
194.5311
 11
176.9304
 21
185.5311
  0
LINE
  8
0_00
  6
CONTINUOUS
 62
4
 10
292.9304
 20
194.5311
 11
283.9304
 21
185.5311
  0
LINE
  8
0_00
  6
CONTINUOUS
 62
4
 10
233.9304
 20
179.5311
 11
298.9304
 21
179.5311
  0
LINE
  8
0_00
  6
CONTINUOUS
 62
4
 10
283.9304
 20
185.5311
 11
176.9304
 21
185.5311
  0
LINE
  8
0_00
  6
CONTINUOUS
 62
4
 10
298.9304
 20
244.5311
 11
298.9304
 21
179.5311
  0
LINE
  8
0_00
  6
CONTINUOUS
 62
4
 10
292.9304
 20
238.5311
 11
292.9304
 21
191.5311
  0
LINE
  8
0_00
  6
CONTINUOUS
 62
2
 10
248.5751
 20
185.5311
 11
292.9304
 21
229.8864
  0
LINE
  8
0_00
  6
CONTINUOUS
 62
2
 10
213.2197
 20
185.5311
 11
283.2197
 21
255.5311
  0
LINE
  8
0_00
  6
CONTINUOUS
 62
2
 10
177.8644
 20
185.5311
 11
247.8644
 21
255.5311
  0
LINE
  8
0_00
  6
CONTINUOUS
 62
2
 10
167.9304
 20
210.9524
 11
212.5091
 21
255.5311
  0
LINE
  8
0_00
  6
CONTINUOUS
 62
2
 10
245.7467
 20
185.5311
 11
292.9304
 21
232.7149
  0
LINE
  8
0_00
  6
CONTINUOUS
 62
2
 10
210.3913
 20
185.5311
 11
280.3913
 21
255.5311
  0
LINE
  8
0_00
  6
CONTINUOUS
 62
2
 10
175.9832
 20
186.4783
 11
245.0360
 21
255.5311
  0
LINE
  8
0_00
  6
CONTINUOUS
 62
2
 10
167.9304
 20
213.7809
 11
209.6806
 21
255.5311
  0
LINE
  8
0_00
  6
CONTINUOUS
 62
4
 10
239.9304
 20
185.5311
 11
286.9304
 21
185.5311
  0
LINE
  8
0_00
  6
CONTINUOUS
 62
4
 10
292.9304
 20
255.5311
 11
292.9304
 21
194.5311
  0
LINE
  8
0_00
  6
CENTER1
 62
6
 10
246.9304
 20
205.2267
 11
246.9304
 21
169.2256
  0
LINE
  8
0_00
  6
CONTINUOUS
 62
2
 10
242.9291
 20
174.8311
 11
242.7804
 21
176.5311
  0
LINE
  8
0_00
  6
CONTINUOUS
 62
2
 10
250.9317
 20
174.8311
 11
251.0804
 21
176.5311
  0
LINE
  8
0_00
  6
DASHED
 62
2
 10
246.9304
 20
201.5311
 11
244.8907
 21
199.9680
  0
LINE
  8
0_00
  6
DASHED
 62
2
 10
246.9304
 20
201.5311
 11
248.9304
 21
199.9984
  0
LINE
  8
0_00
  6
DASHED
 62
2
 10
246.9304
 20
201.5311
 11
244.9304
 21
196.7111
  0
LINE
  8
0_00
  6
DASHED
 62
2
 10
244.9304
 20
196.7111
 11
248.9304
 21
197.7829
  0
LINE
  8
0_00
  6
DASHED
 62
2
 10
244.9304
 20
176.5311
 11
244.9304
 21
199.9680
  0
LINE
  8
0_00
  6
DASHED
 62
2
 10
245.4804
 20
176.5311
 11
245.4804
 21
196.8585
  0
LINE
  8
0_00
  6
CONTINUOUS
 62
2
 10
251.0804
 20
176.5311
 11
242.7804
 21
176.5311
  0
LINE
  8
0_00
  6
CONTINUOUS
 62
2
 10
242.9291
 20
174.8311
 11
250.9317
 21
174.8311
  0
LINE
  8
0_00
  6
DASHED
 62
2
 10
248.9304
 20
176.5311
 11
248.9304
 21
199.9984
  0
LINE
  8
0_00
  6
DASHED
 62
2
 10
248.3804
 20
176.5311
 11
248.3804
 21
197.6355
  0
LINE
  8
0_00
  6
CONTINUOUS
 62
2
 10
183.7012
 20
184.6523
 11
181.6483
 21
182.5994
  0
LINE
  8
0_00
  6
CONTINUOUS
 62
2
 10
187.3849
 20
185.5075
 11
180.7931
 21
178.9157
  0
LINE
  8
0_00
  6
CONTINUOUS
 62
2
 10
189.5863
 20
184.8806
 11
181.4200
 21
176.7143
  0
LINE
  8
0_00
  6
CONTINUOUS
 62
2
 10
191.2164
 20
183.6822
 11
182.6184
 21
175.0842
  0
LINE
  8
0_00
  6
CONTINUOUS
 62
2
 10
184.2344
 20
184.9398
 11
192.3391
 21
176.8351
  0
LINE
  8
0_00
  6
CONTINUOUS
 62
2
 10
182.5731
 20
183.7727
 11
191.1720
 21
175.1737
  0
LINE
  8
0_00
  6
CONTINUOUS
 62
2
 10
181.3902
 20
182.1271
 11
189.5264
 21
173.9909
  0
LINE
  8
0_00
  6
CONTINUOUS
 62
2
 10
180.7863
 20
179.9026
 11
187.3019
 21
173.3870
  0
LINE
  8
0_00
  6
CONTINUOUS
 62
2
 10
181.8070
 20
176.0535
 11
183.4529
 21
174.4077
  0
LINE
  8
0_00
  6
CONTINUOUS
 62
2
 10
192.3678
 20
182.0052
 11
184.2954
 21
173.9328
  0
LINE
  8
0_00
  6
CONTINUOUS
 62
2
 10
169.6884
 20
192.7731
 11
168.9021
 21
191.9868
  0
LINE
  8
0_00
  6
CONTINUOUS
 62
2
 10
171.8097
 20
190.6518
 11
169.8257
 21
188.6677
  0
LINE
  8
0_00
  6
CONTINUOUS
 62
2
 10
173.9311
 20
188.5305
 11
170.4256
 21
185.0250
  0
LINE
  8
0_00
  6
CONTINUOUS
 62
2
 10
176.0524
 20
186.4091
 11
170.6114
 21
180.9681
  0
LINE
  8
0_00
  6
CONTINUOUS
 62
2
 10
179.4170
 20
185.5311
 11
170.2087
 21
176.3229
  0
LINE
  8
0_00
  6
CONTINUOUS
 62
2
 10
183.6596
 20
185.5311
 11
168.7891
 21
170.6606
  0
LINE
  8
0_00
  6
CONTINUOUS
 62
2
 10
180.8480
 20
178.4768
 11
174.1769
 21
171.8058
  0
LINE
  8
0_00
  6
CONTINUOUS
 62
2
 10
182.1756
 20
175.5618
 11
178.9981
 21
172.3843
  0
LINE
  8
0_00
  6
CONTINUOUS
 62
2
 10
167.9304
 20
246.3078
 11
177.1537
 21
255.5311
  0
LINE
  8
0_00
  6
CONTINUOUS
 62
2
 10
167.9304
 20
249.1362
 11
174.3253
 21
255.5311
  0
LINE
  8
0_00
  6
CONTINUOUS
 62
6
 10
296.9079
 20
239.0501
 11
313.6891
 21
255.8313
  0
LINE
  8
0_00
  6
CONTINUOUS
 62
6
 10
296.9079
 20
239.0501
 11
301.1012
 21
241.7733
  0
LINE
  8
0_00
  6
CONTINUOUS
 62
6
 10
296.9079
 20
239.0501
 11
299.6311
 21
243.2435
  0
LINE
  8
0_00
  6
CONTINUOUS
 62
6
 10
313.6891
 20
255.8313
 11
401.2891
 21
255.8313
  0
LINE
  8
0_00
  6
CONTINUOUS
 62
6
 10
248.9304
 20
191.0702
 11
270.0891
 21
212.2289
  0
LINE
  8
0_00
  6
CONTINUOUS
 62
6
 10
248.9304
 20
191.0702
 11
253.1238
 21
193.7934
  0
LINE
  8
0_00
  6
CONTINUOUS
 62
6
 10
248.9304
 20
191.0702
 11
251.6536
 21
195.2635
  0
LINE
  8
0_00
  6
CONTINUOUS
 62
6
 10
270.0891
 20
212.2289
 11
362.8891
 21
212.2289
  0
LINE
  8
0_00
  6
CONTINUOUS
 62
6
 10
169.4233
 20
142.7382
 11
150.6747
 21
123.9896
  0
LINE
  8
0_00
  6
CONTINUOUS
 62
6
 10
169.4233
 20
142.7382
 11
165.2300
 21
140.0150
  0
LINE
  8
0_00
  6
CONTINUOUS
 62
6
 10
169.4233
 20
142.7382
 11
166.7001
 21
138.5448
  0
LINE
  8
0_00
  6
CONTINUOUS
 62
6
 10
150.6747
 20
123.9896
 11
111.0747
 21
123.9896
  0
LINE
  8
0_00
  6
CONTINUOUS
 62
6
 10
206.1304
 20
148.2311
 11
169.2239
 21
111.3245
  0
LINE
  8
0_00
  6
CONTINUOUS
 62
6
 10
206.1304
 20
148.2311
 11
201.9371
 21
145.5079
  0
LINE
  8
0_00
  6
CONTINUOUS
 62
6
 10
206.1304
 20
148.2311
 11
203.4072
 21
144.0378
  0
LINE
  8
0_00
  6
CONTINUOUS
 62
6
 10
169.2239
 20
111.3245
 11
105.6239
 21
111.3245
  0
LINE
  8
0_00
  6
CONTINUOUS
 62
6
 10
169.8257
 20
188.6677
 11
150.2518
 21
208.2415
  0
LINE
  8
0_00
  6
CONTINUOUS
 62
6
 10
169.8257
 20
188.6677
 11
167.1024
 21
192.8611
  0
LINE
  8
0_00
  6
CONTINUOUS
 62
6
 10
169.8257
 20
188.6677
 11
165.6323
 21
191.3909
  0
LINE
  8
0_00
  6
CONTINUOUS
 62
6
 10
150.2518
 20
208.2415
 11
62.6518
 21
208.2415
  0
LINE
  8
0_00
  6
CONTINUOUS
 62
4
 10
302.9233
 20
157.0439
 11
302.9233
 21
144.6562
  0
LINE
  8
0_00
  6
CONTINUOUS
 62
4
 10
272.9233
 20
157.5439
 11
272.9233
 21
156.5439
  0
LINE
  8
0_00
  6
CONTINUOUS
 62
4
 10
301.5233
 20
156.1439
 11
301.5233
 21
146.0562
  0
LINE
  8
0_00
  6
CONTINUOUS
 62
4
 10
299.0233
 20
156.6439
 11
301.0233
 21
156.6439
  0
LINE
  8
0_00
  6
CONTINUOUS
 62
4
 10
299.0233
 20
156.6439
 11
299.0233
 21
154.1439
  0
LINE
  8
0_00
  6
CONTINUOUS
 62
4
 10
297.6233
 20
157.0439
 11
297.6233
 21
155.5439
  0
LINE
  8
0_00
  6
CONTINUOUS
 62
4
 10
295.9233
 20
157.0439
 11
297.6233
 21
157.0439
  0
LINE
  8
0_00
  6
CONTINUOUS
 62
4
 10
295.9233
 20
157.5439
 11
295.9233
 21
157.0439
  0
LINE
  8
0_00
  6
CONTINUOUS
 62
4
 10
297.1233
 20
155.0439
 11
279.8233
 21
155.0439
  0
LINE
  8
0_00
  6
CONTINUOUS
 62
4
 10
298.5233
 20
153.6439
 11
278.4233
 21
153.6439
  0
LINE
  8
0_00
  6
CONTINUOUS
 62
4
 10
279.3233
 20
157.0439
 11
279.3233
 21
155.5439
  0
LINE
  8
0_00
  6
CONTINUOUS
 62
4
 10
280.9233
 20
157.0439
 11
279.3233
 21
157.0439
  0
LINE
  8
0_00
  6
CONTINUOUS
 62
4
 10
277.9233
 20
156.0439
 11
277.9233
 21
154.1439
  0
LINE
  8
0_00
  6
CONTINUOUS
 62
4
 10
277.4233
 20
156.5439
 11
273.5233
 21
156.5439
  0
LINE
  8
0_00
  6
CONTINUOUS
 62
4
 10
273.4233
 20
158.0439
 11
280.9233
 21
158.0439
  0
LINE
  8
0_00
  6
CONTINUOUS
 62
4
 10
296.4233
 20
158.0439
 11
301.9233
 21
158.0439
  0
LINE
  8
0_00
  6
CONTINUOUS
 62
4
 10
301.3233
 20
143.0562
 11
170.3304
 21
143.0562
  0
LINE
  8
0_00
  6
CONTINUOUS
 62
4
 10
299.9233
 20
144.4562
 11
170.3304
 21
144.4562
  0
LINE
  8
0_00
  6
CONTINUOUS
 62
4
 10
167.9304
 20
168.3947
 11
167.9304
 21
141.7560
  0
LINE
  8
0_00
  6
CONTINUOUS
 62
4
 10
169.3304
 20
168.3947
 11
169.3304
 21
145.4562
  0
LINE
  8
0_00
  6
CONTINUOUS
 62
4
 10
169.3304
 20
142.0562
 11
169.3304
 21
141.7564
  0
LINE
  8
0_00
  6
CONTINUOUS
 62
4
 10
194.3304
 20
181.8562
 11
194.3304
 21
170.5562
  0
LINE
  8
0_00
  6
CONTINUOUS
 62
4
 10
170.5730
 20
171.3733
 11
192.9304
 21
174.0562
  0
LINE
  8
0_00
  6
CONTINUOUS
 62
4
 10
170.7398
 20
169.9833
 11
192.9304
 21
172.6461
  0
LINE
  8
0_00
  6
CONTINUOUS
 62
4
 10
192.9304
 20
181.8562
 11
192.9304
 21
174.0562
  0
LINE
  8
0_00
  6
CONTINUOUS
 62
4
 10
192.9304
 20
172.6461
 11
192.9304
 21
170.9313
  0
LINE
  8
0_00
  6
CONTINUOUS
 62
4
 10
194.3304
 20
170.5562
 11
192.9304
 21
170.9313
  0
LINE
  8
0_00
  6
CONTINUOUS
 62
2
 10
192.9239
 20
179.7328
 11
186.5678
 21
173.3767
  0
LINE
  8
0_00
  6
CONTINUOUS
 62
2
 10
186.4826
 20
185.5200
 11
192.9193
 21
179.0833
  0
LINE
  8
0_00
  6
CONTINUOUS
 62
2
 10
190.5731
 20
184.2579
 11
191.6572
 21
183.1738
  0
LINE
  8
0_00
  6
CONTINUOUS
 62
2
 10
184.6417
 20
173.7853
 11
183.8193
 21
172.9629
  0
LINE
  8
0_00
  6
CONTINUOUS
 62
6
 10
164.9304
 20
171.0311
 11
123.0000
 21
171.0311
  0
LINE
  8
0_00
  6
CONTINUOUS
 62
6
 10
126.0000
 20
171.0311
 11
126.0000
 21
141.0311
  0
LINE
  8
0_00
  6
CONTINUOUS
 62
6
 10
126.0000
 20
171.0311
 11
124.9604
 21
166.1404
  0
LINE
  8
0_00
  6
CONTINUOUS
 62
6
 10
126.0000
 20
171.0311
 11
127.0396
 21
166.1404
  0
LINE
  8
0_00
  6
CONTINUOUS
 62
6
 10
126.0000
 20
141.0311
 11
127.0396
 21
145.9218
  0
LINE
  8
0_00
  6
CONTINUOUS
 62
6
 10
126.0000
 20
141.0311
 11
124.9604
 21
145.9218
  0
LINE
  8
0_00
  6
CONTINUOUS
 62
6
 10
167.9304
 20
134.7343
 11
167.9304
 21
95.0000
  0
LINE
  8
0_00
  6
CONTINUOUS
 62
6
 10
302.9304
 20
134.7343
 11
302.9304
 21
95.0000
  0
LINE
  8
0_00
  6
CONTINUOUS
 62
6
 10
167.9304
 20
98.0000
 11
302.9304
 21
98.0000
  0
LINE
  8
0_00
  6
CONTINUOUS
 62
6
 10
167.9304
 20
98.0000
 11
172.8212
 21
96.9604
  0
LINE
  8
0_00
  6
CONTINUOUS
 62
6
 10
167.9304
 20
98.0000
 11
172.8212
 21
99.0396
  0
LINE
  8
0_00
  6
CONTINUOUS
 62
6
 10
302.9304
 20
98.0000
 11
298.0397
 21
99.0396
  0
LINE
  8
0_00
  6
CONTINUOUS
 62
6
 10
302.9304
 20
98.0000
 11
298.0397
 21
96.9604
  0
LINE
  8
0_00
  6
CONTINUOUS
 62
6
 10
246.9304
 20
218.1174
 11
246.9304
 21
297.0000
  0
LINE
  8
0_00
  6
CONTINUOUS
 62
6
 10
167.9304
 20
269.9451
 11
167.9304
 21
297.0000
  0
LINE
  8
0_00
  6
CONTINUOUS
 62
6
 10
167.9304
 20
294.0000
 11
246.9304
 21
294.0000
  0
LINE
  8
0_00
  6
CONTINUOUS
 62
6
 10
167.9304
 20
294.0000
 11
172.8212
 21
292.9604
  0
LINE
  8
0_00
  6
CONTINUOUS
 62
6
 10
167.9304
 20
294.0000
 11
172.8212
 21
295.0396
  0
LINE
  8
0_00
  6
CONTINUOUS
 62
6
 10
246.9304
 20
294.0000
 11
242.0397
 21
295.0396
  0
LINE
  8
0_00
  6
CONTINUOUS
 62
6
 10
246.9304
 20
294.0000
 11
242.0397
 21
292.9604
  0
LINE
  8
0_00
  6
CONTINUOUS
 62
6
 10
302.9304
 20
134.7343
 11
302.9304
 21
95.0000
  0
LINE
  8
0_00
  6
CONTINUOUS
 62
6
 10
287.9304
 20
98.0000
 11
302.9304
 21
98.0000
  0
LINE
  8
0_00
  6
CONTINUOUS
 62
6
 10
302.9304
 20
98.0000
 11
298.0397
 21
99.0396
  0
LINE
  8
0_00
  6
CONTINUOUS
 62
6
 10
302.9304
 20
98.0000
 11
298.0397
 21
96.9604
  0
LINE
  8
0_00
  6
CONTINUOUS
 62
6
 10
167.9304
 20
269.9451
 11
167.9304
 21
283.0000
  0
LINE
  8
0_00
  6
CONTINUOUS
 62
6
 10
167.9304
 20
280.0000
 11
187.9304
 21
280.0000
  0
LINE
  8
0_00
  6
CONTINUOUS
 62
6
 10
201.5603
 20
182.5561
 11
368.0711
 21
182.5561
  0
LINE
  8
0_00
  6
CONTINUOUS
 62
6
 10
307.7299
 20
179.5561
 11
368.0711
 21
179.5561
  0
LINE
  8
0_00
  6
CONTINUOUS
 62
6
 10
364.0000
 20
182.5562
 11
364.0000
 21
179.5562
  0
LINE
  8
0_00
  6
CONTINUOUS
 62
6
 10
364.0000
 20
201.4772
 11
364.0000
 21
182.5562
  0
LINE
  8
0_00
  6
CONTINUOUS
 62
6
 10
364.0000
 20
182.5562
 11
365.0396
 21
187.4469
  0
LINE
  8
0_00
  6
CONTINUOUS
 62
6
 10
364.0000
 20
182.5562
 11
362.9604
 21
187.4469
  0
LINE
  8
0_00
  6
CONTINUOUS
 62
6
 10
364.0000
 20
179.5562
 11
364.0000
 21
143.0562
  0
LINE
  8
0_00
  6
CONTINUOUS
 62
6
 10
364.0000
 20
179.5562
 11
362.9604
 21
174.6655
  0
LINE
  8
0_00
  6
CONTINUOUS
 62
6
 10
364.0000
 20
179.5562
 11
365.0396
 21
174.6655
  0
LINE
  8
0_00
  6
CONTINUOUS
 62
6
 10
364.0000
 20
143.0562
 11
365.0396
 21
147.9469
  0
LINE
  8
0_00
  6
CONTINUOUS
 62
6
 10
364.0000
 20
143.0562
 11
362.9604
 21
147.9469
  0
LINE
  8
0_00
  6
CONTINUOUS
 62
6
 10
165.5304
 20
141.0311
 11
109.0000
 21
141.0311
  0
LINE
  8
0_00
  6
CONTINUOUS
 62
6
 10
164.9304
 20
182.5311
 11
109.0000
 21
182.5311
  0
LINE
  8
0_00
  6
CONTINUOUS
 62
6
 10
112.0000
 20
182.5311
 11
112.0000
 21
141.0311
  0
LINE
  8
0_00
  6
CONTINUOUS
 62
6
 10
112.0000
 20
182.5311
 11
110.9605
 21
177.6404
  0
LINE
  8
0_00
  6
CONTINUOUS
 62
6
 10
112.0000
 20
182.5311
 11
113.0396
 21
177.6404
  0
LINE
  8
0_00
  6
CONTINUOUS
 62
6
 10
112.0000
 20
141.0311
 11
113.0396
 21
145.9218
  0
LINE
  8
0_00
  6
CONTINUOUS
 62
6
 10
112.0000
 20
141.0311
 11
110.9605
 21
145.9218
  0
LINE
  8
0_00
  6
CONTINUOUS
 62
6
 10
149.7782
 20
280.0000
 11
167.9304
 21
280.0000
  0
LINE
  8
0_00
  6
CONTINUOUS
 62
6
 10
167.9304
 20
280.0000
 11
163.0397
 21
281.0396
  0
LINE
  8
0_00
  6
CONTINUOUS
 62
6
 10
167.9304
 20
280.0000
 11
163.0397
 21
278.9604
  0
LINE
  8
0_00
  6
CENTER1
 62
6
 10
230.4304
 20
269.4437
 11
230.4304
 21
169.2256
  0
LINE
  8
0_00
  6
CONTINUOUS
 62
4
 10
535.8105
 20
240.5367
 11
535.8105
 21
179.5367
  0
LINE
  8
0_00
  6
CONTINUOUS
 62
4
 10
535.8105
 20
179.5367
 11
544.8105
 21
170.5367
  0
LINE
  8
0_00
  6
CONTINUOUS
 62
4
 10
635.8104
 20
179.5367
 11
626.8104
 21
170.5367
  0
LINE
  8
0_00
  6
CONTINUOUS
 62
4
 10
576.8104
 20
164.5367
 11
641.8104
 21
164.5367
  0
LINE
  8
0_00
  6
CONTINUOUS
 62
4
 10
626.8104
 20
170.5367
 11
544.8105
 21
170.5367
  0
LINE
  8
0_00
  6
CONTINUOUS
 62
4
 10
641.8104
 20
229.5367
 11
641.8104
 21
164.5367
  0
LINE
  8
0_00
  6
CONTINUOUS
 62
4
 10
635.8104
 20
179.5367
 11
635.8104
 21
176.5367
  0
LINE
  8
0_00
  6
CONTINUOUS
 62
2
 10
591.4551
 20
170.5367
 11
635.8104
 21
214.8921
  0
LINE
  8
0_00
  6
CONTINUOUS
 62
2
 10
556.0998
 20
170.5367
 11
626.0998
 21
240.5367
  0
LINE
  8
0_00
  6
CONTINUOUS
 62
2
 10
535.8105
 20
185.6028
 11
592.2106
 21
240.5367
  0
LINE
  8
0_00
  6
CONTINUOUS
 62
2
 10
535.8105
 20
220.9581
 11
555.3891
 21
240.5367
  0
LINE
  8
0_00
  6
CONTINUOUS
 62
2
 10
588.6267
 20
170.5367
 11
635.8104
 21
217.7205
  0
LINE
  8
0_00
  6
CONTINUOUS
 62
2
 10
553.2714
 20
170.5367
 11
623.2714
 21
240.5367
  0
LINE
  8
0_00
  6
CONTINUOUS
 62
2
 10
535.8105
 20
188.4312
 11
587.9160
 21
240.5367
  0
LINE
  8
0_00
  6
CONTINUOUS
 62
2
 10
535.8105
 20
223.7865
 11
552.5607
 21
240.5367
  0
LINE
  8
0_00
  6
CONTINUOUS
 62
4
 10
626.8104
 20
170.5367
 11
629.8104
 21
170.5367
  0
LINE
  8
0_00
  6
CONTINUOUS
 62
4
 10
635.8104
 20
240.5367
 11
635.8104
 21
179.5367
  0
LINE
  8
0_00
  6
CENTER1
 62
6
 10
605.8104
 20
189.2323
 11
605.8104
 21
153.2312
  0
LINE
  8
0_00
  6
CONTINUOUS
 62
2
 10
601.8092
 20
158.8367
 11
601.6605
 21
160.5367
  0
LINE
  8
0_00
  6
CONTINUOUS
 62
2
 10
609.8117
 20
158.8367
 11
609.9604
 21
160.5367
  0
LINE
  8
0_00
  6
DASHED
 62
2
 10
605.8104
 20
185.5367
 11
603.7708
 21
183.9736
  0
LINE
  8
0_00
  6
DASHED
 62
2
 10
605.8104
 20
185.5367
 11
607.8104
 21
184.0040
  0
LINE
  8
0_00
  6
DASHED
 62
2
 10
605.8104
 20
185.5367
 11
603.8104
 21
180.7167
  0
LINE
  8
0_00
  6
DASHED
 62
2
 10
603.8104
 20
180.7167
 11
607.8104
 21
181.7885
  0
LINE
  8
0_00
  6
DASHED
 62
2
 10
603.8104
 20
160.5367
 11
603.8104
 21
183.9736
  0
LINE
  8
0_00
  6
DASHED
 62
2
 10
604.3605
 20
160.5367
 11
604.3605
 21
180.8641
  0
LINE
  8
0_00
  6
CONTINUOUS
 62
2
 10
609.9604
 20
160.5367
 11
601.6605
 21
160.5367
  0
LINE
  8
0_00
  6
CONTINUOUS
 62
2
 10
601.8092
 20
158.8367
 11
609.8117
 21
158.8367
  0
LINE
  8
0_00
  6
DASHED
 62
2
 10
607.8104
 20
160.5367
 11
607.8104
 21
184.0040
  0
LINE
  8
0_00
  6
DASHED
 62
2
 10
607.2604
 20
160.5367
 11
607.2604
 21
181.6412
  0
LINE
  8
0_00
  6
CONTINUOUS
 62
2
 10
604.8104
 20
143.0367
 11
691.0033
 21
143.0367
  0
LINE
  8
0_00
  6
CONTINUOUS
 62
2
 10
595.8104
 20
151.0367
 11
691.0033
 21
151.0367
  0
LINE
  8
0_00
  6
CONTINUOUS
 62
2
 10
691.0033
 20
149.0367
 11
595.8104
 21
149.0367
  0
LINE
  8
0_00
  6
CONTINUOUS
 62
2
 10
691.0033
 20
147.0367
 11
595.8104
 21
147.0367
  0
LINE
  8
0_00
  6
CONTINUOUS
 62
2
 10
691.0033
 20
145.0367
 11
595.8104
 21
145.0367
  0
LINE
  8
0_00
  6
CONTINUOUS
 62
2
 10
595.8104
 20
143.0367
 11
595.8104
 21
151.0367
  0
LINE
  8
0_00
  6
CONTINUOUS
 62
2
 10
549.3940
 20
170.2991
 11
541.5776
 21
162.4827
  0
LINE
  8
0_00
  6
CONTINUOUS
 62
2
 10
551.3121
 20
169.3888
 11
542.4879
 21
160.5646
  0
LINE
  8
0_00
  6
CONTINUOUS
 62
2
 10
552.7481
 20
167.9964
 11
543.8803
 21
159.1286
  0
LINE
  8
0_00
  6
CONTINUOUS
 62
2
 10
553.7099
 20
166.1297
 11
545.7469
 21
158.1668
  0
LINE
  8
0_00
  6
CONTINUOUS
 62
2
 10
553.9789
 20
163.5704
 11
548.3063
 21
157.8977
  0
LINE
  8
0_00
  6
CONTINUOUS
 62
2
 10
548.7570
 20
170.4745
 11
553.9108
 21
165.3206
  0
LINE
  8
0_00
  6
CONTINUOUS
 62
2
 10
546.0724
 20
170.3306
 11
553.8043
 21
162.5987
  0
LINE
  8
0_00
  6
CONTINUOUS
 62
2
 10
544.1256
 20
169.4489
 11
552.9227
 21
160.6519
  0
LINE
  8
0_00
  6
CONTINUOUS
 62
2
 10
542.6660
 20
168.0801
 11
551.5538
 21
159.1923
  0
LINE
  8
0_00
  6
CONTINUOUS
 62
2
 10
541.6771
 20
166.2406
 11
549.7378
 21
158.1799
  0
LINE
  8
0_00
  6
CONTINUOUS
 62
2
 10
554.0104
 20
160.7735
 11
551.6190
 21
158.3819
  0
LINE
  8
0_00
  6
CONTINUOUS
 62
2
 10
537.5684
 20
177.7787
 11
536.7822
 21
176.9925
  0
LINE
  8
0_00
  6
CONTINUOUS
 62
2
 10
539.6898
 20
175.6574
 11
537.7057
 21
173.6733
  0
LINE
  8
0_00
  6
CONTINUOUS
 62
2
 10
541.8111
 20
173.5361
 11
538.3057
 21
170.0307
  0
LINE
  8
0_00
  6
CONTINUOUS
 62
2
 10
543.9324
 20
171.4148
 11
538.4914
 21
165.9738
  0
LINE
  8
0_00
  6
CONTINUOUS
 62
2
 10
547.2850
 20
170.5247
 11
538.0887
 21
161.3285
  0
LINE
  8
0_00
  6
CONTINUOUS
 62
2
 10
542.1338
 20
161.1309
 11
536.6692
 21
155.6663
  0
LINE
  8
0_00
  6
CONTINUOUS
 62
2
 10
544.1699
 20
158.9243
 11
542.2479
 21
157.0023
  0
LINE
  8
0_00
  6
CONTINUOUS
 62
2
 10
547.3621
 20
157.8740
 11
547.2393
 21
157.7511
  0
LINE
  8
0_00
  6
CENTER1
 62
6
 10
585.8104
 20
255.0000
 11
585.8104
 21
156.9530
  0
LINE
  8
0_00
  6
CONTINUOUS
 62
6
 10
641.8104
 20
198.5500
 11
658.5916
 21
215.3312
  0
LINE
  8
0_00
  6
CONTINUOUS
 62
6
 10
641.8104
 20
198.5500
 11
646.0038
 21
201.2732
  0
LINE
  8
0_00
  6
CONTINUOUS
 62
6
 10
641.8104
 20
198.5500
 11
644.5337
 21
202.7434
  0
LINE
  8
0_00
  6
CONTINUOUS
 62
6
 10
658.5916
 20
215.3312
 11
746.1917
 21
215.3312
  0
LINE
  8
0_00
  6
CONTINUOUS
 62
6
 10
607.8104
 20
173.2704
 11
623.4691
 21
188.9290
  0
LINE
  8
0_00
  6
CONTINUOUS
 62
6
 10
607.8104
 20
173.2704
 11
612.0038
 21
175.9936
  0
LINE
  8
0_00
  6
CONTINUOUS
 62
6
 10
607.8104
 20
173.2704
 11
610.5337
 21
177.4637
  0
LINE
  8
0_00
  6
CONTINUOUS
 62
6
 10
623.4691
 20
188.9290
 11
701.2692
 21
188.9290
  0
LINE
  8
0_00
  6
CONTINUOUS
 62
6
 10
537.3033
 20
127.7438
 11
518.5547
 21
108.9952
  0
LINE
  8
0_00
  6
CONTINUOUS
 62
6
 10
537.3033
 20
127.7438
 11
533.1100
 21
125.0206
  0
LINE
  8
0_00
  6
CONTINUOUS
 62
6
 10
537.3033
 20
127.7438
 11
534.5801
 21
123.5505
  0
LINE
  8
0_00
  6
CONTINUOUS
 62
6
 10
518.5547
 20
108.9952
 11
478.9548
 21
108.9952
  0
LINE
  8
0_00
  6
CONTINUOUS
 62
6
 10
574.0104
 20
133.2367
 11
537.1039
 21
96.3302
  0
LINE
  8
0_00
  6
CONTINUOUS
 62
6
 10
574.0104
 20
133.2367
 11
569.8171
 21
130.5135
  0
LINE
  8
0_00
  6
CONTINUOUS
 62
6
 10
574.0104
 20
133.2367
 11
571.2872
 21
129.0434
  0
LINE
  8
0_00
  6
CONTINUOUS
 62
6
 10
537.1039
 20
96.3302
 11
473.5039
 21
96.3302
  0
LINE
  8
0_00
  6
CONTINUOUS
 62
6
 10
537.7057
 20
173.6733
 11
518.1318
 21
193.2472
  0
LINE
  8
0_00
  6
CONTINUOUS
 62
6
 10
537.7057
 20
173.6733
 11
534.9825
 21
177.8667
  0
LINE
  8
0_00
  6
CONTINUOUS
 62
6
 10
537.7057
 20
173.6733
 11
533.5123
 21
176.3965
  0
LINE
  8
0_00
  6
CONTINUOUS
 62
6
 10
518.1318
 20
193.2472
 11
430.5319
 21
193.2472
  0
LINE
  8
0_00
  6
CONTINUOUS
 62
6
 10
645.4561
 20
143.0367
 11
678.9927
 21
109.5001
  0
LINE
  8
0_00
  6
CONTINUOUS
 62
6
 10
645.4561
 20
143.0367
 11
648.1793
 21
138.8434
  0
LINE
  8
0_00
  6
CONTINUOUS
 62
6
 10
645.4561
 20
143.0367
 11
649.6495
 21
140.3135
  0
LINE
  8
0_00
  6
CONTINUOUS
 62
6
 10
678.9927
 20
109.5001
 11
728.1927
 21
109.5001
  0
LINE
  8
0_00
  6
CONTINUOUS
 62
6
 10
686.0000
 20
155.1089
 11
686.0000
 21
143.0367
  0
LINE
  8
0_00
  6
CONTINUOUS
 62
6
 10
686.0000
 20
143.0367
 11
687.0396
 21
147.9275
  0
LINE
  8
0_00
  6
CONTINUOUS
 62
6
 10
686.0000
 20
143.0367
 11
684.9604
 21
147.9275
  0
LINE
  8
0_00
  6
CONTINUOUS
 62
6
 10
686.0000
 20
118.3950
 11
686.0000
 21
128.0367
  0
LINE
  8
0_00
  6
CONTINUOUS
 62
6
 10
686.0000
 20
128.0367
 11
684.9604
 21
123.1460
  0
LINE
  8
0_00
  6
CONTINUOUS
 62
6
 10
686.0000
 20
128.0367
 11
687.0396
 21
123.1460
  0
LINE
  8
0_00
  6
CONTINUOUS
 62
4
 10
535.8105
 20
153.4490
 11
535.8105
 21
127.0367
  0
LINE
  8
0_00
  6
CONTINUOUS
 62
4
 10
557.0104
 20
166.0367
 11
557.0104
 21
156.1490
  0
LINE
  8
0_00
  6
CONTINUOUS
 62
4
 10
554.0104
 20
166.0367
 11
554.0104
 21
158.7367
  0
LINE
  8
0_00
  6
CONTINUOUS
 62
4
 10
554.0104
 20
158.7367
 11
538.3702
 21
156.4165
  0
LINE
  8
0_00
  6
CONTINUOUS
 62
4
 10
557.0104
 20
156.1490
 11
538.8105
 21
153.4490
  0
LINE
  8
0_00
  6
CONTINUOUS
 62
4
 10
538.8105
 20
153.4490
 11
538.8105
 21
130.0367
  0
LINE
  8
0_00
  6
CONTINUOUS
 62
4
 10
537.8105
 20
130.0367
 11
537.8105
 21
127.0367
  0
LINE
  8
0_00
  6
CONTINUOUS
 62
4
 10
537.8105
 20
130.0367
 11
605.8104
 21
130.0367
  0
LINE
  8
0_00
  6
CONTINUOUS
 62
4
 10
537.8105
 20
128.0367
 11
605.8104
 21
128.0367
  0
LINE
  8
0_00
  6
CONTINUOUS
 62
4
 10
605.8104
 20
141.0367
 11
605.8104
 21
128.0367
  0
LINE
  8
0_00
  6
CONTINUOUS
 62
4
 10
591.3104
 20
143.0367
 11
603.8104
 21
143.0367
  0
LINE
  8
0_00
  6
CONTINUOUS
 62
4
 10
603.8104
 20
130.0367
 11
603.8104
 21
141.0367
  0
LINE
  8
0_00
  6
CONTINUOUS
 62
4
 10
603.8104
 20
141.0367
 11
591.3104
 21
141.0367
  0
LINE
  8
0_00
  6
CONTINUOUS
 62
4
 10
591.3104
 20
143.0367
 11
591.3104
 21
141.0367
  0
LINE
  8
0_00
  6
CONTINUOUS
 62
2
 10
541.3574
 20
163.7319
 11
547.2057
 21
157.8837
  0
LINE
  8
0_00
  6
CENTER1
 62
6
 10
570.8104
 20
179.8921
 11
570.8104
 21
113.3712
  0
LINE
  8
0_00
  6
CONTINUOUS
 62
6
 10
566.0677
 20
252.0000
 11
592.1658
 21
252.0000
  0
LINE
  8
0_00
  6
CONTINUOUS
 62
6
 10
585.8104
 20
233.5853
 11
612.6395
 21
260.4144
  0
LINE
  8
0_00
  6
CONTINUOUS
 62
6
 10
585.8104
 20
233.5853
 11
590.0038
 21
236.3085
  0
LINE
  8
0_00
  6
CONTINUOUS
 62
6
 10
585.8104
 20
233.5853
 11
588.5337
 21
237.7786
  0
LINE
  8
0_00
  6
CONTINUOUS
 62
6
 10
612.6395
 20
260.4144
 11
671.4396
 21
260.4144
  0
LINE
  8
0_00
  6
CONTINUOUS
 62
6
 10
570.8104
 20
171.9808
 11
526.3500
 21
216.4412
  0
LINE
  8
0_00
  6
CONTINUOUS
 62
6
 10
570.8104
 20
171.9808
 11
568.0873
 21
176.1742
  0
LINE
  8
0_00
  6
CONTINUOUS
 62
6
 10
570.8104
 20
171.9808
 11
566.6171
 21
174.7040
  0
LINE
  8
0_00
  6
CONTINUOUS
 62
6
 10
526.3500
 20
216.4412
 11
496.3501
 21
216.4412
  0
LINE
  8
0_00
  6
CENTER1
 62
6
 10
781.7211
 20
309.2896
 11
781.7211
 21
245.3034
  0
LINE
  8
0_00
  6
CONTINUOUS
 62
2
 10
737.6340
 20
245.6447
 11
707.9026
 21
245.6447
  0
LINE
  8
0_00
  6
CONTINUOUS
 62
4
 10
727.5818
 20
255.6447
 11
707.9026
 21
255.6447
  0
LINE
  8
0_00
  6
CONTINUOUS
 62
4
 10
734.3937
 20
248.6447
 11
707.9026
 21
248.6447
  0
LINE
  8
0_00
  6
CONTINUOUS
 62
4
 10
734.3937
 20
248.6447
 11
727.5818
 21
255.6447
  0
LINE
  8
0_00
  6
CENTER1
 62
6
 10
774.6661
 20
250.6447
 11
788.8751
 21
250.6447
  0
LINE
  8
0_00
  6
CENTER1
 62
6
 10
730.8735
 20
252.1447
 11
704.0262
 21
252.1447
  0
LINE
  8
0_00
  6
CONTINUOUS
 62
2
 10
182.1884
 20
444.7731
 11
181.4021
 21
443.9869
  0
LINE
  8
0_00
  6
CONTINUOUS
 62
2
 10
184.3097
 20
442.6518
 11
182.3257
 21
440.6677
  0
LINE
  8
0_00
  6
CONTINUOUS
 62
2
 10
186.4311
 20
440.5305
 11
182.9256
 21
437.0251
  0
LINE
  8
0_00
  6
CONTINUOUS
 62
4
 10
109.6304
 20
519.3407
 11
130.4304
 21
519.3407
  0
LINE
  8
0_00
  6
CONTINUOUS
 62
4
 10
130.4304
 20
519.3407
 11
130.4304
 21
528.9407
  0
LINE
  8
0_00
  6
CONTINUOUS
 62
4
 10
109.6304
 20
528.9407
 11
130.4304
 21
528.9407
  0
LINE
  8
0_00
  6
CONTINUOUS
 62
4
 10
109.6304
 20
519.3407
 11
109.6304
 21
528.9407
  0
LINE
  8
0_00
  6
CONTINUOUS
 62
4
 10
330.4304
 20
519.3407
 11
351.2304
 21
519.3407
  0
LINE
  8
0_00
  6
CONTINUOUS
 62
4
 10
351.2304
 20
519.3407
 11
351.2304
 21
528.9407
  0
LINE
  8
0_00
  6
CONTINUOUS
 62
4
 10
330.4304
 20
528.9407
 11
351.2304
 21
528.9407
  0
LINE
  8
0_00
  6
CONTINUOUS
 62
4
 10
330.4304
 20
519.3407
 11
330.4304
 21
528.9407
  0
LINE
  8
0_00
  6
CONTINUOUS
 62
4
 10
497.5706
 20
515.3778
 11
518.3706
 21
515.3778
  0
LINE
  8
0_00
  6
CONTINUOUS
 62
4
 10
518.3706
 20
515.3778
 11
518.3706
 21
524.9778
  0
LINE
  8
0_00
  6
CONTINUOUS
 62
4
 10
497.5706
 20
524.9778
 11
518.3706
 21
524.9778
  0
LINE
  8
0_00
  6
CONTINUOUS
 62
4
 10
497.5706
 20
515.3778
 11
497.5706
 21
524.9778
  0
LINE
  8
0_00
  6
CONTINUOUS
 62
4
 10
718.3706
 20
515.3778
 11
739.1707
 21
515.3778
  0
LINE
  8
0_00
  6
CONTINUOUS
 62
4
 10
739.1707
 20
515.3778
 11
739.1707
 21
524.9778
  0
LINE
  8
0_00
  6
CONTINUOUS
 62
4
 10
718.3706
 20
524.9778
 11
739.1707
 21
524.9778
  0
LINE
  8
0_00
  6
CONTINUOUS
 62
4
 10
718.3706
 20
515.3778
 11
718.3706
 21
524.9778
  0
LINE
  8
0_00
  6
CONTINUOUS
 62
4
 10
109.6304
 20
283.3588
 11
130.4304
 21
283.3588
  0
LINE
  8
0_00
  6
CONTINUOUS
 62
4
 10
130.4304
 20
283.3588
 11
130.4304
 21
292.9588
  0
LINE
  8
0_00
  6
CONTINUOUS
 62
4
 10
109.6304
 20
292.9588
 11
130.4304
 21
292.9588
  0
LINE
  8
0_00
  6
CONTINUOUS
 62
4
 10
109.6304
 20
283.3588
 11
109.6304
 21
292.9588
  0
LINE
  8
0_00
  6
CONTINUOUS
 62
4
 10
330.4304
 20
283.3588
 11
351.2304
 21
283.3588
  0
LINE
  8
0_00
  6
CONTINUOUS
 62
4
 10
351.2304
 20
283.3588
 11
351.2304
 21
292.9588
  0
LINE
  8
0_00
  6
CONTINUOUS
 62
4
 10
330.4304
 20
292.9588
 11
351.2304
 21
292.9588
  0
LINE
  8
0_00
  6
CONTINUOUS
 62
4
 10
330.4304
 20
283.3588
 11
330.4304
 21
292.9588
  0
LINE
  8
0_00
  6
CONTINUOUS
 62
4
 10
495.0105
 20
288.9152
 11
515.8105
 21
288.9152
  0
LINE
  8
0_00
  6
CONTINUOUS
 62
4
 10
515.8105
 20
288.9152
 11
515.8105
 21
298.5151
  0
LINE
  8
0_00
  6
CONTINUOUS
 62
4
 10
495.0105
 20
298.5151
 11
515.8105
 21
298.5151
  0
LINE
  8
0_00
  6
CONTINUOUS
 62
4
 10
495.0105
 20
288.9152
 11
495.0105
 21
298.5151
  0
LINE
  8
0_00
  6
CONTINUOUS
 62
4
 10
655.8104
 20
288.9152
 11
676.6105
 21
288.9152
  0
LINE
  8
0_00
  6
CONTINUOUS
 62
4
 10
676.6105
 20
288.9152
 11
676.6105
 21
298.5151
  0
LINE
  8
0_00
  6
CONTINUOUS
 62
4
 10
655.8104
 20
298.5151
 11
676.6105
 21
298.5151
  0
LINE
  8
0_00
  6
CONTINUOUS
 62
4
 10
655.8104
 20
288.9152
 11
655.8104
 21
298.5151
  0
LINE
  8
0_00
  6
CONTINUOUS
 62
3
 10
364.9407
 20
64.8000
 11
364.9407
 21
24.8000
  0
LINE
  8
0_00
  6
CONTINUOUS
 62
7
 10
36.4603
 20
74.8000
 11
812.3407
 21
74.8000
  0
LINE
  8
0_00
  6
CONTINUOUS
 62
3
 10
812.3407
 20
567.8000
 11
812.3407
 21
576.8000
  0
LINE
  8
0_00
  6
CONTINUOUS
 62
7
 10
812.3407
 20
24.8000
 11
812.3407
 21
567.8000
  0
LINE
  8
0_00
  6
CONTINUOUS
 62
3
 10
36.4603
 20
567.8000
 11
36.4603
 21
576.8000
  0
LINE
  8
0_00
  6
CONTINUOUS
 62
7
 10
36.4603
 20
24.8000
 11
36.4603
 21
567.8000
  0
LINE
  8
0_00
  6
CONTINUOUS
 62
7
 10
36.4603
 20
567.8000
 11
812.3407
 21
567.8000
  0
LINE
  8
0_00
  6
CONTINUOUS
 62
7
 10
36.4603
 20
24.8000
 11
812.3407
 21
24.8000
  0
LINE
  8
0_00
  6
CONTINUOUS
 62
3
 10
26.4603
 20
14.8000
 11
26.4603
 21
576.8000
  0
LINE
  8
0_00
  6
CONTINUOUS
 62
3
 10
822.3407
 20
14.8000
 11
822.3407
 21
576.8000
  0
LINE
  8
0_00
  6
CONTINUOUS
 62
3
 10
26.4603
 20
576.8000
 11
822.3407
 21
576.8000
  0
LINE
  8
0_00
  6
CONTINUOUS
 62
3
 10
713.7407
 20
24.8000
 11
713.7407
 21
74.8000
  0
LINE
  8
0_00
  6
CONTINUOUS
 62
3
 10
36.4603
 20
64.8000
 11
541.8407
 21
64.8000
  0
LINE
  8
0_00
  6
CONTINUOUS
 62
7
 10
541.8407
 20
64.8000
 11
812.3407
 21
64.8000
  0
LINE
  8
0_00
  6
CONTINUOUS
 62
3
 10
713.7407
 20
44.8000
 11
812.3407
 21
44.8000
  0
LINE
  8
0_00
  6
CONTINUOUS
 62
3
 10
733.7407
 20
74.8000
 11
733.7407
 21
64.8000
  0
LINE
  8
0_00
  6
CONTINUOUS
 62
3
 10
541.8407
 20
24.8000
 11
541.8407
 21
64.8000
  0
LINE
  8
0_00
  6
CONTINUOUS
 62
7
 10
541.8407
 20
64.8000
 11
541.8407
 21
74.8000
  0
LINE
  8
0_00
  6
CONTINUOUS
 62
3
 10
557.8407
 20
64.8000
 11
557.8407
 21
74.8000
  0
LINE
  8
0_00
  6
CONTINUOUS
 62
3
 10
608.3407
 20
24.8000
 11
608.3407
 21
74.8000
  0
LINE
  8
0_00
  6
CONTINUOUS
 62
3
 10
669.7407
 20
64.8000
 11
669.7407
 21
74.8000
  0
LINE
  8
0_00
  6
CONTINUOUS
 62
3
 10
688.1407
 20
24.8000
 11
688.1407
 21
64.8000
  0
LINE
  8
0_00
  6
CONTINUOUS
 62
3
 10
663.9407
 20
24.8000
 11
663.9407
 21
64.8000
  0
LINE
  8
0_00
  6
CONTINUOUS
 62
3
 10
639.7407
 20
24.8000
 11
639.7407
 21
64.8000
  0
LINE
  8
0_00
  6
CONTINUOUS
 62
3
 10
312.4407
 20
24.8000
 11
312.4407
 21
74.8000
  0
LINE
  8
0_00
  6
CONTINUOUS
 62
3
 10
417.4407
 20
24.8000
 11
417.4407
 21
64.8000
  0
LINE
  8
0_00
  6
CONTINUOUS
 62
3
 10
36.4603
 20
54.8001
 11
312.4407
 21
54.8001
  0
LINE
  8
0_00
  6
CONTINUOUS
 62
3
 10
36.4603
 20
44.8000
 11
608.3407
 21
44.8000
  0
LINE
  8
0_00
  6
CONTINUOUS
 62
3
 10
116.4603
 20
34.8000
 11
312.4407
 21
34.8000
  0
LINE
  8
0_00
  6
CONTINUOUS
 62
7
 10
36.4603
 20
34.8000
 11
116.4603
 21
34.8000
  0
LINE
  8
0_00
  6
CONTINUOUS
 62
3
 10
545.3407
 20
567.8000
 11
545.3407
 21
576.8000
  0
LINE
  8
0_00
  6
CONTINUOUS
 62
3
 10
525.3407
 20
567.8000
 11
525.3407
 21
576.8000
  0
LINE
  8
0_00
  6
CONTINUOUS
 62
3
 10
136.4603
 20
567.8000
 11
136.4603
 21
576.8000
  0
LINE
  8
0_00
  6
CONTINUOUS
 62
3
 10
569.3407
 20
567.8000
 11
569.3407
 21
576.8000
  0
LINE
  8
0_00
  6
CONTINUOUS
 62
3
 10
610.3407
 20
567.8000
 11
610.3407
 21
576.8000
  0
LINE
  8
0_00
  6
CONTINUOUS
 62
3
 10
764.3407
 20
567.8000
 11
764.3407
 21
576.8000
  0
LINE
  8
0_00
  6
CONTINUOUS
 62
3
 10
76.4603
 20
74.8000
 11
76.4603
 21
24.8000
  0
LINE
  8
0_00
  6
CONTINUOUS
 62
7
 10
116.4603
 20
74.8000
 11
116.4603
 21
24.8000
  0
LINE
  8
0_00
  6
CONTINUOUS
 62
3
 10
579.8407
 20
44.8000
 11
579.8407
 21
64.8000
  0
LINE
  8
0_00
  6
CONTINUOUS
 62
3
 10
595.8407
 20
74.8000
 11
595.8407
 21
64.8000
  0
LINE
  8
0_00
  6
CONTINUOUS
 62
3
 10
608.3407
 20
54.8001
 11
713.7407
 21
54.8001
  0
LINE
  8
0_00
  6
CONTINUOUS
 62
3
 10
717.7407
 20
47.8000
 11
719.0406
 21
47.8000
  0
LINE
  8
0_00
  6
CONTINUOUS
 62
3
 10
719.0406
 20
47.8000
 11
719.0406
 21
60.8000
  0
LINE
  8
0_00
  6
CONTINUOUS
 62
3
 10
719.0406
 20
60.8000
 11
717.7407
 21
60.8000
  0
LINE
  8
0_00
  6
CONTINUOUS
 62
3
 10
717.7407
 20
47.8000
 11
717.7407
 21
60.8000
  0
LINE
  8
0_00
  6
CONTINUOUS
 62
3
 10
719.5607
 20
47.8000
 11
720.8607
 21
47.8000
  0
LINE
  8
0_00
  6
CONTINUOUS
 62
3
 10
720.8607
 20
47.8000
 11
720.8607
 21
60.8000
  0
LINE
  8
0_00
  6
CONTINUOUS
 62
3
 10
720.8607
 20
60.8000
 11
719.5607
 21
60.8000
  0
LINE
  8
0_00
  6
CONTINUOUS
 62
3
 10
719.5607
 20
47.8000
 11
719.5607
 21
60.8000
  0
LINE
  8
0_00
  6
CONTINUOUS
 62
3
 10
721.3807
 20
47.8000
 11
722.6807
 21
47.8000
  0
LINE
  8
0_00
  6
CONTINUOUS
 62
3
 10
722.6807
 20
47.8000
 11
722.6807
 21
60.8000
  0
LINE
  8
0_00
  6
CONTINUOUS
 62
3
 10
722.6807
 20
60.8000
 11
721.3807
 21
60.8000
  0
LINE
  8
0_00
  6
CONTINUOUS
 62
3
 10
721.3807
 20
47.8000
 11
721.3807
 21
60.8000
  0
LINE
  8
0_00
  6
CONTINUOUS
 62
3
 10
723.2007
 20
47.8000
 11
724.5007
 21
47.8000
  0
LINE
  8
0_00
  6
CONTINUOUS
 62
3
 10
724.5007
 20
60.8000
 11
723.2007
 21
60.8000
  0
LINE
  8
0_00
  6
CONTINUOUS
 62
3
 10
723.2007
 20
47.8000
 11
723.2007
 21
60.8000
  0
LINE
  8
0_00
  6
CONTINUOUS
 62
3
 10
728.2708
 20
47.8000
 11
733.3407
 21
47.8000
  0
LINE
  8
0_00
  6
CONTINUOUS
 62
3
 10
733.3407
 20
47.8000
 11
733.3407
 21
48.9700
  0
LINE
  8
0_00
  6
CONTINUOUS
 62
3
 10
733.3407
 20
48.9700
 11
728.2708
 21
48.9700
  0
LINE
  8
0_00
  6
CONTINUOUS
 62
3
 10
728.2708
 20
48.9700
 11
728.2708
 21
47.8000
  0
LINE
  8
0_00
  6
CONTINUOUS
 62
3
 10
728.2708
 20
49.4900
 11
733.3407
 21
49.4900
  0
LINE
  8
0_00
  6
CONTINUOUS
 62
3
 10
733.3407
 20
49.4900
 11
733.3407
 21
50.6600
  0
LINE
  8
0_00
  6
CONTINUOUS
 62
3
 10
733.3407
 20
50.6600
 11
728.2708
 21
50.6600
  0
LINE
  8
0_00
  6
CONTINUOUS
 62
3
 10
728.2708
 20
50.6600
 11
728.2708
 21
49.4900
  0
LINE
  8
0_00
  6
CONTINUOUS
 62
3
 10
728.2708
 20
51.1800
 11
733.3407
 21
51.1800
  0
LINE
  8
0_00
  6
CONTINUOUS
 62
3
 10
733.3407
 20
51.1800
 11
733.3407
 21
52.3500
  0
LINE
  8
0_00
  6
CONTINUOUS
 62
3
 10
733.3407
 20
52.3500
 11
728.2708
 21
52.3500
  0
LINE
  8
0_00
  6
CONTINUOUS
 62
3
 10
728.2708
 20
52.3500
 11
728.2708
 21
51.1800
  0
LINE
  8
0_00
  6
CONTINUOUS
 62
3
 10
728.2708
 20
52.8700
 11
733.3407
 21
52.8700
  0
LINE
  8
0_00
  6
CONTINUOUS
 62
3
 10
733.3407
 20
52.8700
 11
733.3407
 21
54.0400
  0
LINE
  8
0_00
  6
CONTINUOUS
 62
3
 10
733.3407
 20
54.0400
 11
728.2708
 21
54.0400
  0
LINE
  8
0_00
  6
CONTINUOUS
 62
3
 10
728.2708
 20
54.0400
 11
728.2708
 21
52.8700
  0
LINE
  8
0_00
  6
CONTINUOUS
 62
3
 10
728.2708
 20
54.5600
 11
733.3407
 21
54.5600
  0
LINE
  8
0_00
  6
CONTINUOUS
 62
3
 10
733.3407
 20
54.5600
 11
733.3407
 21
55.7300
  0
LINE
  8
0_00
  6
CONTINUOUS
 62
3
 10
733.3407
 20
55.7300
 11
728.2708
 21
55.7300
  0
LINE
  8
0_00
  6
CONTINUOUS
 62
3
 10
728.2708
 20
55.7300
 11
728.2708
 21
54.5600
  0
LINE
  8
0_00
  6
CONTINUOUS
 62
3
 10
728.2708
 20
56.2500
 11
733.3407
 21
56.2500
  0
LINE
  8
0_00
  6
CONTINUOUS
 62
3
 10
733.3407
 20
56.2500
 11
733.3407
 21
57.4200
  0
LINE
  8
0_00
  6
CONTINUOUS
 62
3
 10
733.3407
 20
57.4200
 11
728.2708
 21
57.4200
  0
LINE
  8
0_00
  6
CONTINUOUS
 62
3
 10
728.2708
 20
57.4200
 11
728.2708
 21
56.2500
  0
LINE
  8
0_00
  6
CONTINUOUS
 62
3
 10
728.2708
 20
57.9401
 11
733.3407
 21
57.9401
  0
LINE
  8
0_00
  6
CONTINUOUS
 62
3
 10
733.3407
 20
57.9401
 11
733.3407
 21
59.1100
  0
LINE
  8
0_00
  6
CONTINUOUS
 62
3
 10
733.3407
 20
59.1100
 11
728.2708
 21
59.1100
  0
LINE
  8
0_00
  6
CONTINUOUS
 62
3
 10
728.2708
 20
59.1100
 11
728.2708
 21
57.9401
  0
LINE
  8
0_00
  6
CONTINUOUS
 62
3
 10
728.2708
 20
59.6301
 11
733.3407
 21
59.6301
  0
LINE
  8
0_00
  6
CONTINUOUS
 62
3
 10
733.3407
 20
59.6301
 11
733.3407
 21
60.8000
  0
LINE
  8
0_00
  6
CONTINUOUS
 62
3
 10
733.3407
 20
60.8000
 11
728.2708
 21
60.8000
  0
LINE
  8
0_00
  6
CONTINUOUS
 62
3
 10
728.2708
 20
60.8000
 11
728.2708
 21
59.6301
  0
LINE
  8
0_00
  6
CONTINUOUS
 62
3
 10
725.0208
 20
47.8000
 11
725.0208
 21
51.3750
  0
LINE
  8
0_00
  6
CONTINUOUS
 62
3
 10
725.8917
 20
48.5150
 11
725.8917
 21
51.3750
  0
LINE
  8
0_00
  6
CONTINUOUS
 62
3
 10
725.0208
 20
47.8000
 11
726.4507
 21
47.8000
  0
LINE
  8
0_00
  6
CONTINUOUS
 62
3
 10
725.8917
 20
48.5150
 11
726.4507
 21
48.5150
  0
LINE
  8
0_00
  6
CONTINUOUS
 62
3
 10
726.4033
 20
53.2037
 11
726.9707
 21
52.0900
  0
LINE
  8
0_00
  6
CONTINUOUS
 62
3
 10
727.2941
 20
55.0302
 11
726.4032
 21
53.2037
  0
LINE
  8
0_00
  6
CONTINUOUS
 62
3
 10
724.5007
 20
56.9001
 11
724.5007
 21
60.8000
  0
LINE
  8
0_00
  6
CONTINUOUS
 62
3
 10
724.5007
 20
56.9001
 11
726.1257
 21
56.9001
  0
LINE
  8
0_00
  6
CONTINUOUS
 62
3
 10
724.5007
 20
56.1200
 11
725.2222
 21
56.1200
  0
LINE
  8
0_00
  6
CONTINUOUS
 62
3
 10
724.5007
 20
52.0900
 11
726.9707
 21
52.0900
  0
LINE
  8
0_00
  6
CONTINUOUS
 62
3
 10
724.5007
 20
54.6407
 11
725.2223
 21
56.1201
  0
LINE
  8
0_00
  6
CONTINUOUS
 62
3
 10
724.5007
 20
54.6409
 11
724.5007
 21
56.1200
  0
LINE
  8
0_00
  6
CONTINUOUS
 62
3
 10
724.5007
 20
52.0900
 11
724.5007
 21
47.8000
  0
LINE
  8
0_00
  6
CONTINUOUS
 62
3
 10
717.9407
 20
60.8000
 11
717.9407
 21
47.8000
  0
LINE
  8
0_00
  6
CONTINUOUS
 62
3
 10
718.1407
 20
60.8000
 11
718.1407
 21
47.8000
  0
LINE
  8
0_00
  6
CONTINUOUS
 62
3
 10
718.3407
 20
60.8000
 11
718.3407
 21
47.8000
  0
LINE
  8
0_00
  6
CONTINUOUS
 62
3
 10
718.5406
 20
60.8000
 11
718.5406
 21
47.8000
  0
LINE
  8
0_00
  6
CONTINUOUS
 62
3
 10
718.7407
 20
60.8000
 11
718.7407
 21
47.8000
  0
LINE
  8
0_00
  6
CONTINUOUS
 62
3
 10
719.7607
 20
60.8000
 11
719.7607
 21
47.8000
  0
LINE
  8
0_00
  6
CONTINUOUS
 62
3
 10
719.9607
 20
60.8000
 11
719.9607
 21
47.8000
  0
LINE
  8
0_00
  6
CONTINUOUS
 62
3
 10
720.1606
 20
60.8000
 11
720.1606
 21
47.8000
  0
LINE
  8
0_00
  6
CONTINUOUS
 62
3
 10
720.3607
 20
60.8000
 11
720.3607
 21
47.8000
  0
LINE
  8
0_00
  6
CONTINUOUS
 62
3
 10
720.5607
 20
60.8000
 11
720.5607
 21
47.8000
  0
LINE
  8
0_00
  6
CONTINUOUS
 62
3
 10
720.7607
 20
60.8000
 11
720.7607
 21
47.8000
  0
LINE
  8
0_00
  6
CONTINUOUS
 62
3
 10
721.5807
 20
60.8000
 11
721.5807
 21
47.8000
  0
LINE
  8
0_00
  6
CONTINUOUS
 62
3
 10
721.7808
 20
60.8000
 11
721.7808
 21
47.8000
  0
LINE
  8
0_00
  6
CONTINUOUS
 62
3
 10
721.9807
 20
60.8000
 11
721.9807
 21
47.8000
  0
LINE
  8
0_00
  6
CONTINUOUS
 62
3
 10
722.1807
 20
60.8000
 11
722.1807
 21
47.8000
  0
LINE
  8
0_00
  6
CONTINUOUS
 62
3
 10
722.3807
 20
60.8000
 11
722.3807
 21
47.8000
  0
LINE
  8
0_00
  6
CONTINUOUS
 62
3
 10
722.5807
 20
60.8000
 11
722.5807
 21
47.8000
  0
LINE
  8
0_00
  6
CONTINUOUS
 62
3
 10
728.2708
 20
48.0000
 11
733.3407
 21
48.0000
  0
LINE
  8
0_00
  6
CONTINUOUS
 62
3
 10
728.2708
 20
48.2001
 11
733.3407
 21
48.2001
  0
LINE
  8
0_00
  6
CONTINUOUS
 62
3
 10
728.2708
 20
48.4000
 11
733.3407
 21
48.4000
  0
LINE
  8
0_00
  6
CONTINUOUS
 62
3
 10
728.2708
 20
48.6000
 11
733.3407
 21
48.6000
  0
LINE
  8
0_00
  6
CONTINUOUS
 62
3
 10
728.2708
 20
48.8000
 11
733.3407
 21
48.8000
  0
LINE
  8
0_00
  6
CONTINUOUS
 62
3
 10
728.2708
 20
49.6900
 11
733.3407
 21
49.6900
  0
LINE
  8
0_00
  6
CONTINUOUS
 62
3
 10
728.2708
 20
49.8901
 11
733.3407
 21
49.8901
  0
LINE
  8
0_00
  6
CONTINUOUS
 62
3
 10
728.2708
 20
50.0900
 11
733.3407
 21
50.0900
  0
LINE
  8
0_00
  6
CONTINUOUS
 62
3
 10
728.2708
 20
50.2900
 11
733.3407
 21
50.2900
  0
LINE
  8
0_00
  6
CONTINUOUS
 62
3
 10
728.2708
 20
50.4900
 11
733.3407
 21
50.4900
  0
LINE
  8
0_00
  6
CONTINUOUS
 62
3
 10
728.2708
 20
51.3801
 11
733.3407
 21
51.3801
  0
LINE
  8
0_00
  6
CONTINUOUS
 62
3
 10
728.2708
 20
51.5801
 11
733.3407
 21
51.5801
  0
LINE
  8
0_00
  6
CONTINUOUS
 62
3
 10
728.2708
 20
51.7800
 11
733.3407
 21
51.7800
  0
LINE
  8
0_00
  6
CONTINUOUS
 62
3
 10
728.2708
 20
51.9800
 11
733.3407
 21
51.9800
  0
LINE
  8
0_00
  6
CONTINUOUS
 62
3
 10
728.2708
 20
52.1800
 11
733.3407
 21
52.1800
  0
LINE
  8
0_00
  6
CONTINUOUS
 62
3
 10
728.2708
 20
53.0701
 11
733.3407
 21
53.0701
  0
LINE
  8
0_00
  6
CONTINUOUS
 62
3
 10
728.2708
 20
53.2701
 11
733.3407
 21
53.2701
  0
LINE
  8
0_00
  6
CONTINUOUS
 62
3
 10
728.2708
 20
53.4700
 11
733.3407
 21
53.4700
  0
LINE
  8
0_00
  6
CONTINUOUS
 62
3
 10
728.2708
 20
53.6700
 11
733.3407
 21
53.6700
  0
LINE
  8
0_00
  6
CONTINUOUS
 62
3
 10
728.2708
 20
53.8700
 11
733.3407
 21
53.8700
  0
LINE
  8
0_00
  6
CONTINUOUS
 62
3
 10
728.2708
 20
54.7601
 11
733.3407
 21
54.7601
  0
LINE
  8
0_00
  6
CONTINUOUS
 62
3
 10
728.2708
 20
54.9601
 11
733.3407
 21
54.9601
  0
LINE
  8
0_00
  6
CONTINUOUS
 62
3
 10
728.2708
 20
55.1600
 11
733.3407
 21
55.1600
  0
LINE
  8
0_00
  6
CONTINUOUS
 62
3
 10
728.2708
 20
55.3600
 11
733.3407
 21
55.3600
  0
LINE
  8
0_00
  6
CONTINUOUS
 62
3
 10
728.2708
 20
55.5600
 11
733.3407
 21
55.5600
  0
LINE
  8
0_00
  6
CONTINUOUS
 62
3
 10
733.3407
 20
56.4501
 11
728.2708
 21
56.4501
  0
LINE
  8
0_00
  6
CONTINUOUS
 62
3
 10
733.3407
 20
56.6501
 11
728.2708
 21
56.6501
  0
LINE
  8
0_00
  6
CONTINUOUS
 62
3
 10
733.3407
 20
56.8500
 11
728.2708
 21
56.8500
  0
LINE
  8
0_00
  6
CONTINUOUS
 62
3
 10
733.3407
 20
57.0500
 11
728.2708
 21
57.0500
  0
LINE
  8
0_00
  6
CONTINUOUS
 62
3
 10
733.3407
 20
57.2500
 11
728.2708
 21
57.2500
  0
LINE
  8
0_00
  6
CONTINUOUS
 62
3
 10
728.2708
 20
58.1401
 11
733.3407
 21
58.1401
  0
LINE
  8
0_00
  6
CONTINUOUS
 62
3
 10
728.2708
 20
58.3401
 11
733.3407
 21
58.3401
  0
LINE
  8
0_00
  6
CONTINUOUS
 62
3
 10
728.2708
 20
58.5400
 11
733.3407
 21
58.5400
  0
LINE
  8
0_00
  6
CONTINUOUS
 62
3
 10
728.2708
 20
58.7400
 11
733.3407
 21
58.7400
  0
LINE
  8
0_00
  6
CONTINUOUS
 62
3
 10
728.2708
 20
58.9400
 11
733.3407
 21
58.9400
  0
LINE
  8
0_00
  6
CONTINUOUS
 62
3
 10
728.2708
 20
59.8301
 11
733.3407
 21
59.8301
  0
LINE
  8
0_00
  6
CONTINUOUS
 62
3
 10
728.2708
 20
60.0301
 11
733.3407
 21
60.0301
  0
LINE
  8
0_00
  6
CONTINUOUS
 62
3
 10
728.2708
 20
60.2300
 11
733.3407
 21
60.2300
  0
LINE
  8
0_00
  6
CONTINUOUS
 62
3
 10
728.2708
 20
60.4300
 11
733.3407
 21
60.4300
  0
LINE
  8
0_00
  6
CONTINUOUS
 62
3
 10
728.2708
 20
60.6301
 11
733.3407
 21
60.6301
  0
LINE
  8
0_00
  6
CONTINUOUS
 62
3
 10
723.4006
 20
60.8000
 11
723.4006
 21
47.8000
  0
LINE
  8
0_00
  6
CONTINUOUS
 62
3
 10
723.6007
 20
60.8000
 11
723.6007
 21
47.8000
  0
LINE
  8
0_00
  6
CONTINUOUS
 62
3
 10
723.8007
 20
60.8000
 11
723.8007
 21
47.8000
  0
LINE
  8
0_00
  6
CONTINUOUS
 62
3
 10
724.0006
 20
60.8000
 11
724.0006
 21
47.8000
  0
LINE
  8
0_00
  6
CONTINUOUS
 62
3
 10
724.2007
 20
60.8000
 11
724.2007
 21
47.8000
  0
LINE
  8
0_00
  6
CONTINUOUS
 62
3
 10
724.4006
 20
60.8000
 11
724.4006
 21
47.8000
  0
LINE
  8
0_00
  6
CONTINUOUS
 62
3
 10
725.2207
 20
47.8000
 11
725.2207
 21
51.3750
  0
LINE
  8
0_00
  6
CONTINUOUS
 62
3
 10
725.4208
 20
47.8000
 11
725.4208
 21
51.3750
  0
LINE
  8
0_00
  6
CONTINUOUS
 62
3
 10
725.6207
 20
47.8000
 11
725.6207
 21
51.3750
  0
LINE
  8
0_00
  6
CONTINUOUS
 62
3
 10
725.8207
 20
47.8000
 11
725.8207
 21
51.3750
  0
LINE
  8
0_00
  6
CONTINUOUS
 62
3
 10
725.8917
 20
48.3150
 11
726.4507
 21
48.3150
  0
LINE
  8
0_00
  6
CONTINUOUS
 62
3
 10
725.8917
 20
48.1150
 11
726.4507
 21
48.1150
  0
LINE
  8
0_00
  6
CONTINUOUS
 62
3
 10
725.8917
 20
47.9150
 11
726.4507
 21
47.9150
  0
LINE
  8
0_00
  6
CONTINUOUS
 62
3
 10
726.8550
 20
52.3172
 11
724.5236
 21
52.3172
  0
LINE
  8
0_00
  6
CONTINUOUS
 62
3
 10
726.7355
 20
52.5518
 11
724.5236
 21
52.5518
  0
LINE
  8
0_00
  6
CONTINUOUS
 62
3
 10
726.5959
 20
52.8256
 11
724.5187
 21
52.8256
  0
LINE
  8
0_00
  6
CONTINUOUS
 62
3
 10
726.4803
 20
53.0524
 11
724.5162
 21
53.0524
  0
LINE
  8
0_00
  6
CONTINUOUS
 62
3
 10
727.3906
 20
55.6841
 11
726.1002
 21
53.0386
  0
LINE
  8
0_00
  6
CONTINUOUS
 62
3
 10
727.3264
 20
56.0089
 11
725.8738
 21
53.0306
  0
LINE
  8
0_00
  6
CONTINUOUS
 62
3
 10
727.2056
 20
56.2172
 11
725.6610
 21
53.0506
  0
LINE
  8
0_00
  6
CONTINUOUS
 62
3
 10
727.0686
 20
56.3929
 11
725.4303
 21
53.0339
  0
LINE
  8
0_00
  6
CONTINUOUS
 62
3
 10
726.9340
 20
56.5731
 11
725.2527
 21
53.1258
  0
LINE
  8
0_00
  6
CONTINUOUS
 62
3
 10
726.7581
 20
56.6684
 11
724.9939
 21
53.0516
  0
LINE
  8
0_00
  6
CONTINUOUS
 62
3
 10
726.5841
 20
56.7681
 11
724.7689
 21
53.0465
  0
LINE
  8
0_00
  6
CONTINUOUS
 62
3
 10
726.3777
 20
56.8012
 11
724.5591
 21
53.0725
  0
LINE
  8
0_00
  6
CONTINUOUS
 62
3
 10
726.1666
 20
56.8245
 11
724.4702
 21
53.3465
  0
LINE
  8
0_00
  6
CONTINUOUS
 62
3
 10
725.9583
 20
56.8535
 11
724.4886
 21
53.8405
  0
LINE
  8
0_00
  6
CONTINUOUS
 62
3
 10
725.7305
 20
56.8429
 11
724.4259
 21
54.1681
  0
LINE
  8
0_00
  6
CONTINUOUS
 62
3
 10
725.3284
 20
56.3201
 11
724.5007
 21
56.3201
  0
LINE
  8
0_00
  6
CONTINUOUS
 62
3
 10
725.4904
 20
56.5201
 11
724.5007
 21
56.5201
  0
LINE
  8
0_00
  6
CONTINUOUS
 62
3
 10
725.5664
 20
56.7200
 11
724.5007
 21
56.7200
  0
LINE
  8
0_00
  6
CONTINUOUS
 62
3
 10
530.8407
 20
568.3262
 11
539.8407
 21
568.3262
  0
LINE
  8
0_00
  6
CONTINUOUS
 62
3
 10
531.4457
 20
569.3739
 11
530.8407
 21
568.3262
  0
LINE
  8
0_00
  6
CONTINUOUS
 62
3
 10
533.9286
 20
573.6746
 11
535.3407
 21
576.1204
  0
LINE
  8
0_00
  6
CONTINUOUS
 62
3
 10
539.2358
 20
569.3739
 11
539.8407
 21
568.3262
  0
LINE
  8
0_00
  6
CONTINUOUS
 62
3
 10
536.7528
 20
573.6746
 11
535.3407
 21
576.1204
  0
LINE
  8
0_00
  6
CONTINUOUS
 62
6
 10
812.3407
 20
102.8000
 11
814.3407
 21
102.8000
  0
LINE
  8
0_00
  6
CONTINUOUS
 62
6
 10
812.3407
 20
116.8000
 11
814.3407
 21
116.8000
  0
LINE
  8
0_00
  6
CONTINUOUS
 62
6
 10
812.3407
 20
130.8000
 11
814.3407
 21
130.8000
  0
LINE
  8
0_00
  6
CONTINUOUS
 62
6
 10
812.3407
 20
144.8000
 11
814.3407
 21
144.8000
  0
LINE
  8
0_00
  6
CONTINUOUS
 62
6
 10
812.3407
 20
158.8000
 11
814.3407
 21
158.8000
  0
LINE
  8
0_00
  6
CONTINUOUS
 62
6
 10
812.3407
 20
172.8000
 11
814.3407
 21
172.8000
  0
LINE
  8
0_00
  6
CONTINUOUS
 62
6
 10
812.3407
 20
186.8000
 11
814.3407
 21
186.8000
  0
LINE
  8
0_00
  6
CONTINUOUS
 62
6
 10
812.3407
 20
200.8000
 11
814.3407
 21
200.8000
  0
LINE
  8
0_00
  6
CONTINUOUS
 62
6
 10
812.3407
 20
214.8001
 11
814.3407
 21
214.8001
  0
LINE
  8
0_00
  6
CONTINUOUS
 62
6
 10
812.3407
 20
228.8000
 11
814.3407
 21
228.8000
  0
LINE
  8
0_00
  6
CONTINUOUS
 62
6
 10
812.3407
 20
242.8000
 11
814.3407
 21
242.8000
  0
LINE
  8
0_00
  6
CONTINUOUS
 62
6
 10
812.3407
 20
256.8000
 11
814.3407
 21
256.8000
  0
LINE
  8
0_00
  6
CONTINUOUS
 62
6
 10
812.3407
 20
270.8000
 11
814.3407
 21
270.8000
  0
LINE
  8
0_00
  6
CONTINUOUS
 62
6
 10
812.3407
 20
284.8000
 11
814.3407
 21
284.8000
  0
LINE
  8
0_00
  6
CONTINUOUS
 62
6
 10
812.3407
 20
298.8000
 11
814.3407
 21
298.8000
  0
LINE
  8
0_00
  6
CONTINUOUS
 62
6
 10
812.3407
 20
312.8000
 11
814.3407
 21
312.8000
  0
LINE
  8
0_00
  6
CONTINUOUS
 62
3
 10
812.3407
 20
326.8000
 11
814.3407
 21
326.8000
  0
LINE
  8
0_00
  6
CONTINUOUS
 62
3
 10
812.3407
 20
555.8000
 11
814.3407
 21
555.8000
  0
LINE
  8
0_00
  6
CONTINUOUS
 62
3
 10
812.3407
 20
543.8000
 11
814.3407
 21
543.8000
  0
LINE
  8
0_00
  6
CONTINUOUS
 62
3
 10
812.3407
 20
531.8000
 11
814.3407
 21
531.8000
  0
LINE
  8
0_00
  6
CONTINUOUS
 62
3
 10
812.3407
 20
519.8000
 11
814.3407
 21
519.8000
  0
LINE
  8
0_00
  6
CONTINUOUS
 62
3
 10
812.3407
 20
507.8000
 11
814.3407
 21
507.8000
  0
LINE
  8
0_00
  6
CONTINUOUS
 62
3
 10
812.3407
 20
495.8001
 11
814.3407
 21
495.8001
  0
LINE
  8
0_00
  6
CONTINUOUS
 62
3
 10
812.3407
 20
340.8000
 11
814.3407
 21
340.8000
  0
LINE
  8
0_00
  6
CONTINUOUS
 62
3
 10
812.3407
 20
354.8000
 11
814.3407
 21
354.8000
  0
LINE
  8
0_00
  6
CONTINUOUS
 62
3
 10
812.3407
 20
368.8000
 11
814.3407
 21
368.8000
  0
LINE
  8
0_00
  6
CONTINUOUS
 62
3
 10
812.3407
 20
382.8000
 11
814.3407
 21
382.8000
  0
LINE
  8
0_00
  6
CONTINUOUS
 62
3
 10
812.3407
 20
396.8000
 11
814.3407
 21
396.8000
  0
LINE
  8
0_00
  6
CONTINUOUS
 62
3
 10
812.3407
 20
410.8000
 11
814.3407
 21
410.8000
  0
LINE
  8
0_00
  6
CONTINUOUS
 62
3
 10
812.3407
 20
424.8000
 11
814.3407
 21
424.8000
  0
LINE
  8
0_00
  6
CONTINUOUS
 62
3
 10
812.3407
 20
438.8000
 11
814.3407
 21
438.8000
  0
LINE
  8
0_00
  6
CONTINUOUS
 62
3
 10
812.3407
 20
452.8000
 11
814.3407
 21
452.8000
  0
LINE
  8
0_00
  6
CONTINUOUS
 62
3
 10
812.3407
 20
466.8001
 11
814.3407
 21
466.8001
  0
LINE
  8
0_00
  6
CONTINUOUS
 62
3
 10
812.3407
 20
480.8001
 11
814.3407
 21
480.8001
  0
LINE
  8
0_00
  6
CENTER1
 62
3
 10
587.3607
 20
48.8000
 11
587.3607
 21
60.8000
  0
LINE
  8
0_00
  6
CONTINUOUS
 62
4
 10
594.3607
 20
52.3000
 11
594.3607
 21
57.3000
  0
LINE
  8
0_00
  6
CONTINUOUS
 62
4
 10
603.3607
 20
50.8000
 11
603.3607
 21
58.8000
  0
LINE
  8
0_00
  6
CONTINUOUS
 62
4
 10
594.3607
 20
57.3000
 11
603.3607
 21
58.8000
  0
LINE
  8
0_00
  6
CONTINUOUS
 62
4
 10
594.3607
 20
52.3000
 11
603.3607
 21
50.8000
  0
LINE
  8
0_00
  6
CENTER1
 62
3
 10
581.3607
 20
54.8000
 11
604.9037
 21
54.8000
  0
LINE
  8
0_00
  6
CONTINUOUS
 62
3
 10
794.3407
 20
24.8000
 11
794.3407
 21
44.8000
  0
LINE
  8
0_00
  6
CONTINUOUS
 62
3
 10
26.4603
 20
14.8000
 11
822.3407
 21
14.8000
  0
LINE
  8
0_00
  6
CONTINUOUS
 62
3
 10
788.3407
 20
576.8000
 11
788.3407
 21
567.8000
  0
LINE
  8
0_00
  6
CONTINUOUS
 62
3
 10
0.0000
 20
295.8000
 11
26.4603
 21
295.8000
  0
LINE
  8
0_00
  6
CONTINUOUS
 62
3
 10
417.4407
 20
14.8000
 11
417.4407
 21
0.0000
  0
LINE
  8
0_00
  6
CONTINUOUS
 62
3
 10
417.4407
 20
576.8000
 11
417.4407
 21
594.0000
  0
LINE
  8
0_00
  6
CONTINUOUS
 62
3
 10
822.3407
 20
295.8000
 11
840.0000
 21
295.8000
  0
LINE
  8
0_00
  6
CONTINUOUS
 62
4
 10
235.4304
 20
431.5311
 11
270.4304
 21
431.5311
  0
LINE
  8
0_00
  6
CONTINUOUS
 62
4
 10
270.4304
 20
431.5311
 11
270.4304
 21
429.5311
  0
LINE
  8
0_00
  6
CONTINUOUS
 62
4
 10
235.4304
 20
427.5311
 11
235.4304
 21
409.0311
  0
LINE
  8
0_00
  6
CONTINUOUS
 62
4
 10
229.2303
 20
398.0355
 11
237.0730
 21
408.5518
  0
LINE
  8
0_00
  6
CONTINUOUS
 62
4
 10
236.4304
 20
409.0311
 11
236.8324
 21
409.0311
  0
LINE
  8
0_00
  6
CONTINUOUS
 62
4
 10
233.0025
 20
406.4391
 11
230.6879
 21
403.3354
  0
LINE
  8
0_00
  6
CONTINUOUS
 62
4
 10
233.3971
 20
407.7279
 11
232.4337
 21
428.3914
  0
LINE
  8
0_00
  6
CONTINUOUS
 62
4
 10
211.1304
 20
400.2311
 11
226.1304
 21
400.2311
  0
LINE
  8
0_00
  6
CONTINUOUS
 62
4
 10
210.1620
 20
402.5311
 11
229.0846
 21
402.5311
  0
LINE
  8
0_00
  6
CONTINUOUS
 62
4
 10
226.6304
 20
399.7311
 11
226.6304
 21
398.2311
  0
LINE
  8
0_00
  6
CONTINUOUS
 62
4
 10
224.6304
 20
398.2311
 11
224.6304
 21
397.2311
  0
LINE
  8
0_00
  6
CONTINUOUS
 62
4
 10
210.6304
 20
399.7311
 11
210.6304
 21
398.2311
  0
LINE
  8
0_00
  6
CONTINUOUS
 62
4
 10
212.6304
 20
398.2311
 11
212.6304
 21
397.2311
  0
LINE
  8
0_00
  6
CONTINUOUS
 62
4
 10
210.0158
 20
397.2311
 11
212.6304
 21
397.2311
  0
LINE
  8
0_00
  6
CONTINUOUS
 62
4
 10
224.6304
 20
397.2311
 11
227.6270
 21
397.2311
  0
LINE
  8
0_00
  6
CONTINUOUS
 62
4
 10
224.6304
 20
398.2311
 11
226.6304
 21
398.2311
  0
LINE
  8
0_00
  6
CONTINUOUS
 62
4
 10
210.6304
 20
398.2311
 11
212.6304
 21
398.2311
  0
LINE
  8
0_00
  6
CONTINUOUS
 62
4
 10
201.6304
 20
429.9311
 11
201.6304
 21
421.9311
  0
LINE
  8
0_00
  6
CONTINUOUS
 62
4
 10
203.6304
 20
429.9311
 11
203.6304
 21
420.4311
  0
LINE
  8
0_00
  6
CONTINUOUS
 62
4
 10
208.1434
 20
398.5280
 11
199.4615
 21
421.6493
  0
LINE
  8
0_00
  6
CONTINUOUS
 62
4
 10
201.6304
 20
421.9311
 11
200.0463
 21
422.3113
  0
LINE
  8
0_00
  6
CONTINUOUS
 62
4
 10
202.9649
 20
419.9311
 11
203.1304
 21
419.9311
  0
LINE
  8
0_00
  6
CONTINUOUS
 62
4
 10
202.4968
 20
419.2553
 11
208.2897
 21
403.8280
  0
LINE
  8
0_00
  6
CONTINUOUS
 62
4
 10
250.4304
 20
428.8311
 11
250.1304
 21
428.5311
  0
LINE
  8
0_00
  6
CONTINUOUS
 62
4
 10
250.4304
 20
428.8311
 11
250.7304
 21
428.5311
  0
LINE
  8
0_00
  6
CONTINUOUS
 62
4
 10
236.4304
 20
428.5311
 11
250.1304
 21
428.5311
  0
LINE
  8
0_00
  6
CONTINUOUS
 62
4
 10
250.7304
 20
428.5311
 11
269.4304
 21
428.5311
  0
LINE
  8
0_00
  6
CONTINUOUS
 62
6
 10
177.4304
 20
423.0311
 11
137.0000
 21
423.0311
  0
LINE
  8
0_00
  6
CONTINUOUS
 62
6
 10
140.0000
 20
423.0311
 11
140.0000
 21
393.0311
  0
LINE
  8
0_00
  6
CONTINUOUS
 62
6
 10
140.0000
 20
423.0311
 11
138.9604
 21
418.1404
  0
LINE
  8
0_00
  6
CONTINUOUS
 62
6
 10
140.0000
 20
423.0311
 11
141.0396
 21
418.1404
  0
LINE
  8
0_00
  6
CONTINUOUS
 62
6
 10
140.0000
 20
393.0311
 11
141.0396
 21
397.9218
  0
LINE
  8
0_00
  6
CONTINUOUS
 62
6
 10
140.0000
 20
393.0311
 11
138.9604
 21
397.9218
  0
LINE
  8
0_00
  6
CONTINUOUS
 62
6
 10
180.4304
 20
386.7343
 11
180.4304
 21
347.0000
  0
LINE
  8
0_00
  6
CONTINUOUS
 62
6
 10
250.4304
 20
386.7343
 11
250.4304
 21
347.0000
  0
LINE
  8
0_00
  6
CONTINUOUS
 62
6
 10
180.4304
 20
350.0000
 11
250.4304
 21
350.0000
  0
LINE
  8
0_00
  6
CONTINUOUS
 62
6
 10
180.4304
 20
350.0000
 11
185.3212
 21
348.9604
  0
LINE
  8
0_00
  6
CONTINUOUS
 62
6
 10
180.4304
 20
350.0000
 11
185.3212
 21
351.0396
  0
LINE
  8
0_00
  6
CONTINUOUS
 62
6
 10
250.4304
 20
350.0000
 11
245.5397
 21
351.0396
  0
LINE
  8
0_00
  6
CONTINUOUS
 62
6
 10
250.4304
 20
350.0000
 11
245.5397
 21
348.9604
  0
LINE
  8
0_00
  6
CONTINUOUS
 62
6
 10
250.4304
 20
470.1173
 11
250.4304
 21
549.0000
  0
LINE
  8
0_00
  6
CONTINUOUS
 62
6
 10
180.4304
 20
514.9451
 11
180.4304
 21
549.0000
  0
LINE
  8
0_00
  6
CONTINUOUS
 62
6
 10
180.4304
 20
546.0000
 11
250.4304
 21
546.0000
  0
LINE
  8
0_00
  6
CONTINUOUS
 62
6
 10
180.4304
 20
546.0000
 11
185.3212
 21
544.9604
  0
LINE
  8
0_00
  6
CONTINUOUS
 62
6
 10
180.4304
 20
546.0000
 11
185.3212
 21
547.0396
  0
LINE
  8
0_00
  6
CONTINUOUS
 62
6
 10
250.4304
 20
546.0000
 11
245.5397
 21
547.0396
  0
LINE
  8
0_00
  6
CONTINUOUS
 62
6
 10
250.4304
 20
546.0000
 11
245.5397
 21
544.9604
  0
LINE
  8
0_00
  6
CONTINUOUS
 62
6
 10
250.4304
 20
386.7343
 11
250.4304
 21
347.0000
  0
LINE
  8
0_00
  6
CONTINUOUS
 62
6
 10
270.4304
 20
422.0155
 11
270.4304
 21
347.0000
  0
LINE
  8
0_00
  6
CONTINUOUS
 62
6
 10
250.4304
 20
350.0000
 11
270.4304
 21
350.0000
  0
LINE
  8
0_00
  6
CONTINUOUS
 62
6
 10
301.6304
 20
350.0000
 11
270.4304
 21
350.0000
  0
LINE
  8
0_00
  6
CONTINUOUS
 62
6
 10
270.4304
 20
350.0000
 11
275.3212
 21
348.9604
  0
LINE
  8
0_00
  6
CONTINUOUS
 62
6
 10
270.4304
 20
350.0000
 11
275.3212
 21
351.0396
  0
LINE
  8
0_00
  6
CONTINUOUS
 62
6
 10
240.4304
 20
350.0000
 11
250.4304
 21
350.0000
  0
LINE
  8
0_00
  6
CONTINUOUS
 62
6
 10
250.4304
 20
350.0000
 11
245.5397
 21
351.0396
  0
LINE
  8
0_00
  6
CONTINUOUS
 62
6
 10
250.4304
 20
350.0000
 11
245.5397
 21
348.9604
  0
LINE
  8
0_00
  6
CONTINUOUS
 62
6
 10
200.4304
 20
447.4080
 11
200.4304
 21
535.0000
  0
LINE
  8
0_00
  6
CONTINUOUS
 62
6
 10
180.4304
 20
514.9451
 11
180.4304
 21
535.0000
  0
LINE
  8
0_00
  6
CONTINUOUS
 62
6
 10
180.4304
 20
532.0000
 11
200.4304
 21
532.0000
  0
LINE
  8
0_00
  6
CONTINUOUS
 62
6
 10
231.6304
 20
532.0000
 11
200.4304
 21
532.0000
  0
LINE
  8
0_00
  6
CONTINUOUS
 62
6
 10
200.4304
 20
532.0000
 11
205.3212
 21
530.9604
  0
LINE
  8
0_00
  6
CONTINUOUS
 62
6
 10
200.4304
 20
532.0000
 11
205.3212
 21
533.0396
  0
LINE
  8
0_00
  6
CONTINUOUS
 62
6
 10
170.4304
 20
532.0000
 11
180.4304
 21
532.0000
  0
LINE
  8
0_00
  6
CONTINUOUS
 62
6
 10
180.4304
 20
532.0000
 11
175.5397
 21
533.0396
  0
LINE
  8
0_00
  6
CONTINUOUS
 62
6
 10
180.4304
 20
532.0000
 11
175.5397
 21
530.9604
  0
LINE
  8
0_00
  6
CONTINUOUS
 62
6
 10
212.7830
 20
434.5311
 11
339.0000
 21
434.5311
  0
LINE
  8
0_00
  6
CONTINUOUS
 62
6
 10
296.1772
 20
431.5311
 11
339.0000
 21
431.5311
  0
LINE
  8
0_00
  6
CONTINUOUS
 62
6
 10
336.0000
 20
434.5311
 11
336.0000
 21
431.5311
  0
LINE
  8
0_00
  6
CONTINUOUS
 62
6
 10
336.0000
 20
453.4521
 11
336.0000
 21
434.5311
  0
LINE
  8
0_00
  6
CONTINUOUS
 62
6
 10
336.0000
 20
434.5311
 11
337.0396
 21
439.4218
  0
LINE
  8
0_00
  6
CONTINUOUS
 62
6
 10
336.0000
 20
434.5311
 11
334.9604
 21
439.4218
  0
LINE
  8
0_00
  6
CONTINUOUS
 62
6
 10
261.3738
 20
395.0311
 11
339.0000
 21
395.0311
  0
LINE
  8
0_00
  6
CONTINUOUS
 62
6
 10
299.1772
 20
431.5311
 11
339.0000
 21
431.5311
  0
LINE
  8
0_00
  6
CONTINUOUS
 62
6
 10
336.0000
 20
431.5311
 11
336.0000
 21
395.0311
  0
LINE
  8
0_00
  6
CONTINUOUS
 62
6
 10
336.0000
 20
431.5311
 11
334.9604
 21
426.6404
  0
LINE
  8
0_00
  6
CONTINUOUS
 62
6
 10
336.0000
 20
431.5311
 11
337.0396
 21
426.6404
  0
LINE
  8
0_00
  6
CONTINUOUS
 62
6
 10
336.0000
 20
395.0311
 11
337.0396
 21
399.9218
  0
LINE
  8
0_00
  6
CONTINUOUS
 62
6
 10
336.0000
 20
395.0311
 11
334.9604
 21
399.9218
  0
LINE
  8
0_00
  6
CONTINUOUS
 62
6
 10
252.4304
 20
395.0311
 11
325.0000
 21
395.0311
  0
LINE
  8
0_00
  6
CONTINUOUS
 62
6
 10
322.0000
 20
410.0311
 11
322.0000
 21
395.0311
  0
LINE
  8
0_00
  6
CONTINUOUS
 62
6
 10
178.0304
 20
393.0311
 11
123.0000
 21
393.0311
  0
LINE
  8
0_00
  6
CONTINUOUS
 62
6
 10
177.4304
 20
434.5311
 11
123.0000
 21
434.5311
  0
LINE
  8
0_00
  6
CONTINUOUS
 62
6
 10
126.0000
 20
434.5311
 11
126.0000
 21
393.0311
  0
LINE
  8
0_00
  6
CONTINUOUS
 62
6
 10
126.0000
 20
434.5311
 11
124.9604
 21
429.6404
  0
LINE
  8
0_00
  6
CONTINUOUS
 62
6
 10
126.0000
 20
434.5311
 11
127.0396
 21
429.6404
  0
LINE
  8
0_00
  6
CONTINUOUS
 62
6
 10
126.0000
 20
393.0311
 11
127.0396
 21
397.9218
  0
LINE
  8
0_00
  6
CONTINUOUS
 62
6
 10
126.0000
 20
393.0311
 11
124.9604
 21
397.9218
  0
LINE
  8
0_00
  6
CONTINUOUS
 62
4
 10
621.2706
 20
427.5682
 11
671.3706
 21
427.5682
  0
LINE
  8
0_00
  6
CONTINUOUS
 62
4
 10
674.3706
 20
424.5682
 11
674.3706
 21
407.4682
  0
LINE
  8
0_00
  6
CONTINUOUS
 62
4
 10
671.3706
 20
408.8682
 11
671.3706
 21
403.0682
  0
LINE
  8
0_00
  6
CONTINUOUS
 62
4
 10
673.6706
 20
407.1682
 11
674.0706
 21
407.1682
  0
LINE
  8
0_00
  6
CONTINUOUS
 62
4
 10
673.3706
 20
406.8682
 11
673.3706
 21
404.7682
  0
LINE
  8
0_00
  6
CONTINUOUS
 62
4
 10
674.3706
 20
404.7682
 11
675.4282
 21
404.7682
  0
LINE
  8
0_00
  6
CONTINUOUS
 62
4
 10
671.5588
 20
393.9407
 11
675.7069
 21
404.3572
  0
LINE
  8
0_00
  6
CONTINUOUS
 62
4
 10
673.1868
 20
402.0833
 11
670.1652
 21
394.4957
  0
LINE
  8
0_00
  6
CONTINUOUS
 62
4
 10
672.7223
 20
402.7682
 11
671.6706
 21
402.7682
  0
LINE
  8
0_00
  6
CONTINUOUS
 62
4
 10
671.6706
 20
409.1682
 11
672.3706
 21
409.1682
  0
LINE
  8
0_00
  6
CONTINUOUS
 62
4
 10
672.3706
 20
409.1682
 11
671.4313
 21
423.6330
  0
LINE
  8
0_00
  6
CONTINUOUS
 62
4
 10
594.7706
 20
426.5933
 11
594.7706
 21
418.5933
  0
LINE
  8
0_00
  6
CONTINUOUS
 62
4
 10
618.2706
 20
424.5682
 11
618.2706
 21
400.4682
  0
LINE
  8
0_00
  6
CONTINUOUS
 62
4
 10
620.3018
 20
394.4361
 11
621.2395
 21
423.6004
  0
LINE
  8
0_00
  6
CONTINUOUS
 62
4
 10
602.7706
 20
396.4682
 11
617.7706
 21
396.4682
  0
LINE
  8
0_00
  6
CONTINUOUS
 62
4
 10
602.2827
 20
398.4682
 11
616.2706
 21
398.4682
  0
LINE
  8
0_00
  6
CONTINUOUS
 62
4
 10
618.2706
 20
395.9682
 11
618.2706
 21
394.4682
  0
LINE
  8
0_00
  6
CONTINUOUS
 62
4
 10
602.2706
 20
395.9682
 11
602.2706
 21
394.4682
  0
LINE
  8
0_00
  6
CONTINUOUS
 62
4
 10
616.2706
 20
394.4682
 11
616.2706
 21
393.4682
  0
LINE
  8
0_00
  6
CONTINUOUS
 62
4
 10
604.2706
 20
394.4682
 11
604.2706
 21
393.4682
  0
LINE
  8
0_00
  6
CONTINUOUS
 62
4
 10
619.3022
 20
393.4682
 11
616.2706
 21
393.4682
  0
LINE
  8
0_00
  6
CONTINUOUS
 62
4
 10
604.2706
 20
393.4682
 11
601.7432
 21
393.4682
  0
LINE
  8
0_00
  6
CONTINUOUS
 62
4
 10
602.2706
 20
394.4682
 11
604.2706
 21
394.4682
  0
LINE
  8
0_00
  6
CONTINUOUS
 62
4
 10
616.2706
 20
394.4682
 11
618.2706
 21
394.4682
  0
LINE
  8
0_00
  6
CONTINUOUS
 62
4
 10
599.8334
 20
394.8743
 11
592.5318
 21
418.3534
  0
LINE
  8
0_00
  6
CONTINUOUS
 62
4
 10
595.3753
 20
415.9449
 11
600.3729
 21
399.8743
  0
LINE
  8
0_00
  6
CONTINUOUS
 62
4
 10
594.7706
 20
418.5933
 11
593.1260
 21
418.9880
  0
LINE
  8
0_00
  6
CONTINUOUS
 62
4
 10
595.8528
 20
416.5934
 11
596.2706
 21
416.5934
  0
LINE
  8
0_00
  6
CONTINUOUS
 62
4
 10
596.7706
 20
426.5933
 11
596.7706
 21
417.0933
  0
LINE
  8
0_00
  6
CONTINUOUS
 62
4
 10
635.8706
 20
424.8682
 11
635.5706
 21
424.5682
  0
LINE
  8
0_00
  6
CONTINUOUS
 62
4
 10
635.8706
 20
424.8682
 11
636.1706
 21
424.5682
  0
LINE
  8
0_00
  6
CONTINUOUS
 62
4
 10
622.2390
 20
424.5682
 11
635.5706
 21
424.5682
  0
LINE
  8
0_00
  6
CONTINUOUS
 62
4
 10
636.1706
 20
424.5682
 11
670.4335
 21
424.5682
  0
LINE
  8
0_00
  6
CONTINUOUS
 62
6
 10
593.3706
 20
432.3124
 11
593.3706
 21
534.9822
  0
LINE
  8
0_00
  6
CONTINUOUS
 62
6
 10
568.3706
 20
516.6246
 11
568.3706
 21
534.9822
  0
LINE
  8
0_00
  6
CONTINUOUS
 62
6
 10
568.3706
 20
531.9822
 11
593.3706
 21
531.9822
  0
LINE
  8
0_00
  6
CONTINUOUS
 62
6
 10
624.5706
 20
531.9822
 11
593.3706
 21
531.9822
  0
LINE
  8
0_00
  6
CONTINUOUS
 62
6
 10
593.3706
 20
531.9822
 11
598.2614
 21
530.9427
  0
LINE
  8
0_00
  6
CONTINUOUS
 62
6
 10
593.3706
 20
531.9822
 11
598.2614
 21
533.0219
  0
LINE
  8
0_00
  6
CONTINUOUS
 62
4
 10
220.8304
 20
179.5311
 11
270.9304
 21
179.5311
  0
LINE
  8
0_00
  6
CONTINUOUS
 62
4
 10
273.9304
 20
176.5311
 11
273.9304
 21
159.4311
  0
LINE
  8
0_00
  6
CONTINUOUS
 62
4
 10
270.9304
 20
160.8311
 11
270.9304
 21
155.0311
  0
LINE
  8
0_00
  6
CONTINUOUS
 62
4
 10
273.2304
 20
159.1311
 11
273.6304
 21
159.1311
  0
LINE
  8
0_00
  6
CONTINUOUS
 62
4
 10
272.9304
 20
158.8311
 11
272.9304
 21
156.7311
  0
LINE
  8
0_00
  6
CONTINUOUS
 62
4
 10
273.9304
 20
156.7311
 11
274.9880
 21
156.7311
  0
LINE
  8
0_00
  6
CONTINUOUS
 62
4
 10
271.1186
 20
145.9036
 11
275.2668
 21
156.3201
  0
LINE
  8
0_00
  6
CONTINUOUS
 62
4
 10
272.7466
 20
154.0461
 11
269.7250
 21
146.4586
  0
LINE
  8
0_00
  6
CONTINUOUS
 62
4
 10
272.2821
 20
154.7311
 11
271.2304
 21
154.7311
  0
LINE
  8
0_00
  6
CONTINUOUS
 62
4
 10
271.2304
 20
161.1311
 11
271.9304
 21
161.1311
  0
LINE
  8
0_00
  6
CONTINUOUS
 62
4
 10
271.9304
 20
161.1311
 11
270.9911
 21
175.5959
  0
LINE
  8
0_00
  6
CONTINUOUS
 62
4
 10
194.3304
 20
178.5562
 11
194.3304
 21
170.5562
  0
LINE
  8
0_00
  6
CONTINUOUS
 62
4
 10
217.8304
 20
176.5311
 11
217.8304
 21
152.4311
  0
LINE
  8
0_00
  6
CONTINUOUS
 62
4
 10
219.8615
 20
146.3990
 11
220.7993
 21
175.5632
  0
LINE
  8
0_00
  6
CONTINUOUS
 62
4
 10
202.3304
 20
148.4311
 11
217.3304
 21
148.4311
  0
LINE
  8
0_00
  6
CONTINUOUS
 62
4
 10
201.8425
 20
150.4311
 11
215.8304
 21
150.4311
  0
LINE
  8
0_00
  6
CONTINUOUS
 62
4
 10
217.8304
 20
147.9311
 11
217.8304
 21
146.4311
  0
LINE
  8
0_00
  6
CONTINUOUS
 62
4
 10
201.8304
 20
147.9311
 11
201.8304
 21
146.4311
  0
LINE
  8
0_00
  6
CONTINUOUS
 62
4
 10
215.8304
 20
146.4311
 11
215.8304
 21
145.4311
  0
LINE
  8
0_00
  6
CONTINUOUS
 62
4
 10
203.8304
 20
146.4311
 11
203.8304
 21
145.4311
  0
LINE
  8
0_00
  6
CONTINUOUS
 62
4
 10
218.8621
 20
145.4311
 11
215.8304
 21
145.4311
  0
LINE
  8
0_00
  6
CONTINUOUS
 62
4
 10
203.8304
 20
145.4311
 11
201.3029
 21
145.4311
  0
LINE
  8
0_00
  6
CONTINUOUS
 62
4
 10
201.8304
 20
146.4311
 11
203.8304
 21
146.4311
  0
LINE
  8
0_00
  6
CONTINUOUS
 62
4
 10
215.8304
 20
146.4311
 11
217.8304
 21
146.4311
  0
LINE
  8
0_00
  6
CONTINUOUS
 62
4
 10
199.3932
 20
146.8372
 11
192.0916
 21
170.3163
  0
LINE
  8
0_00
  6
CONTINUOUS
 62
4
 10
194.9351
 20
167.9077
 11
199.9327
 21
151.8372
  0
LINE
  8
0_00
  6
CONTINUOUS
 62
4
 10
194.3304
 20
170.5562
 11
192.6858
 21
170.9509
  0
LINE
  8
0_00
  6
CONTINUOUS
 62
4
 10
195.4126
 20
168.5562
 11
195.8304
 21
168.5562
  0
LINE
  8
0_00
  6
CONTINUOUS
 62
4
 10
196.3304
 20
178.5562
 11
196.3304
 21
169.0562
  0
LINE
  8
0_00
  6
CONTINUOUS
 62
4
 10
235.4304
 20
176.8311
 11
235.1304
 21
176.5311
  0
LINE
  8
0_00
  6
CONTINUOUS
 62
4
 10
235.4304
 20
176.8311
 11
235.7304
 21
176.5311
  0
LINE
  8
0_00
  6
CONTINUOUS
 62
4
 10
221.7988
 20
176.5311
 11
235.1304
 21
176.5311
  0
LINE
  8
0_00
  6
CONTINUOUS
 62
4
 10
235.7304
 20
176.5311
 11
269.9933
 21
176.5311
  0
LINE
  8
0_00
  6
CONTINUOUS
 62
6
 10
192.9304
 20
198.2753
 11
192.9304
 21
283.0000
  0
LINE
  8
0_00
  6
CONTINUOUS
 62
6
 10
167.9304
 20
268.5875
 11
167.9304
 21
283.0000
  0
LINE
  8
0_00
  6
CONTINUOUS
 62
6
 10
167.9304
 20
280.0000
 11
192.9304
 21
280.0000
  0
LINE
  8
0_00
  6
CONTINUOUS
 62
6
 10
224.1304
 20
280.0000
 11
192.9304
 21
280.0000
  0
LINE
  8
0_00
  6
CONTINUOUS
 62
6
 10
192.9304
 20
280.0000
 11
197.8212
 21
278.9604
  0
LINE
  8
0_00
  6
CONTINUOUS
 62
6
 10
192.9304
 20
280.0000
 11
197.8212
 21
281.0396
  0
LINE
  8
0_00
  6
CONTINUOUS
 62
4
 10
300.8233
 20
244.5439
 11
302.7233
 21
244.5439
  0
LINE
  8
0_00
  6
CONTINUOUS
 62
4
 10
303.2233
 20
244.0439
 11
303.2233
 21
159.0439
  0
LINE
  8
0_00
  6
CONTINUOUS
 62
4
 10
295.2233
 20
155.5439
 11
295.3091
 21
155.5439
  0
LINE
  8
0_00
  6
CONTINUOUS
 62
4
 10
296.2233
 20
157.5439
 11
296.2233
 21
156.5439
  0
LINE
  8
0_00
  6
CONTINUOUS
 62
4
 10
296.7233
 20
158.0439
 11
302.2233
 21
158.0439
  0
LINE
  8
0_00
  6
CONTINUOUS
 62
4
 10
295.2233
 20
158.6439
 11
295.2233
 21
155.5439
  0
LINE
  8
0_00
  6
CONTINUOUS
 62
4
 10
295.7233
 20
159.1439
 11
301.6233
 21
159.1439
  0
LINE
  8
0_00
  6
CONTINUOUS
 62
4
 10
302.1233
 20
159.6439
 11
302.1233
 21
178.5862
  0
LINE
  8
0_00
  6
CONTINUOUS
 62
4
 10
296.2233
 20
156.5439
 11
296.7233
 21
156.5439
  0
LINE
  8
0_00
  6
CONTINUOUS
 62
4
 10
282.4233
 20
159.9413
 11
282.4233
 21
155.5439
  0
LINE
  8
0_00
  6
CONTINUOUS
 62
4
 10
281.4233
 20
155.5439
 11
280.4233
 21
155.5439
  0
LINE
  8
0_00
  6
CONTINUOUS
 62
4
 10
280.4233
 20
156.5439
 11
280.9233
 21
156.5439
  0
LINE
  8
0_00
  6
CONTINUOUS
 62
4
 10
280.9233
 20
158.0439
 11
279.6566
 21
158.0439
  0
LINE
  8
0_00
  6
CONTINUOUS
 62
4
 10
281.4233
 20
157.5439
 11
281.4233
 21
157.0439
  0
LINE
  8
0_00
  6
CONTINUOUS
 62
4
 10
279.4463
 20
158.5579
 11
300.6280
 21
179.3744
  0
LINE
  8
0_00
  6
CONTINUOUS
 62
4
 10
282.4233
 20
159.9413
 11
301.6130
 21
178.8002
  0
LINE
  8
0_00
  6
CONTINUOUS
 62
4
 10
302.1233
 20
243.3439
 11
302.1233
 21
182.9405
  0
LINE
  8
0_00
  6
CONTINUOUS
 62
4
 10
300.8233
 20
243.3439
 11
302.1233
 21
243.3439
  0
LINE
  8
0_00
  6
CONTINUOUS
 62
6
 10
307.7299
 20
143.0562
 11
381.0000
 21
143.0562
  0
LINE
  8
0_00
  6
CONTINUOUS
 62
6
 10
305.7233
 20
244.5439
 11
381.0000
 21
244.5439
  0
LINE
  8
0_00
  6
CONTINUOUS
 62
6
 10
378.0000
 20
244.5439
 11
378.0000
 21
143.0562
  0
LINE
  8
0_00
  6
CONTINUOUS
 62
6
 10
378.0000
 20
244.5439
 11
376.9604
 21
239.6532
  0
LINE
  8
0_00
  6
CONTINUOUS
 62
6
 10
378.0000
 20
244.5439
 11
379.0396
 21
239.6532
  0
LINE
  8
0_00
  6
CONTINUOUS
 62
6
 10
378.0000
 20
143.0562
 11
379.0396
 21
147.9469
  0
LINE
  8
0_00
  6
CONTINUOUS
 62
6
 10
378.0000
 20
143.0562
 11
376.9604
 21
147.9469
  0
LINE
  8
0_00
  6
CONTINUOUS
 62
6
 10
532.8105
 20
156.0367
 11
501.0000
 21
156.0367
  0
LINE
  8
0_00
  6
CONTINUOUS
 62
6
 10
504.0000
 20
156.0367
 11
504.0000
 21
126.0367
  0
LINE
  8
0_00
  6
CONTINUOUS
 62
6
 10
504.0000
 20
156.0367
 11
502.9604
 21
151.1460
  0
LINE
  8
0_00
  6
CONTINUOUS
 62
6
 10
504.0000
 20
156.0367
 11
505.0396
 21
151.1460
  0
LINE
  8
0_00
  6
CONTINUOUS
 62
6
 10
504.0000
 20
126.0367
 11
505.0396
 21
130.9275
  0
LINE
  8
0_00
  6
CONTINUOUS
 62
6
 10
504.0000
 20
126.0367
 11
502.9604
 21
130.9275
  0
LINE
  8
0_00
  6
CONTINUOUS
 62
6
 10
535.8105
 20
119.7399
 11
535.8105
 21
95.0000
  0
LINE
  8
0_00
  6
CONTINUOUS
 62
6
 10
605.8104
 20
119.7399
 11
605.8104
 21
95.0000
  0
LINE
  8
0_00
  6
CONTINUOUS
 62
6
 10
535.8105
 20
98.0000
 11
605.8104
 21
98.0000
  0
LINE
  8
0_00
  6
CONTINUOUS
 62
6
 10
535.8105
 20
98.0000
 11
540.7012
 21
96.9604
  0
LINE
  8
0_00
  6
CONTINUOUS
 62
6
 10
535.8105
 20
98.0000
 11
540.7012
 21
99.0396
  0
LINE
  8
0_00
  6
CONTINUOUS
 62
6
 10
605.8104
 20
98.0000
 11
600.9197
 21
99.0396
  0
LINE
  8
0_00
  6
CONTINUOUS
 62
6
 10
605.8104
 20
98.0000
 11
600.9197
 21
96.9604
  0
LINE
  8
0_00
  6
CONTINUOUS
 62
6
 10
605.8104
 20
203.1230
 11
605.8104
 21
283.0000
  0
LINE
  8
0_00
  6
CONTINUOUS
 62
6
 10
535.8105
 20
244.7456
 11
535.8105
 21
283.0000
  0
LINE
  8
0_00
  6
CONTINUOUS
 62
6
 10
535.8105
 20
280.0000
 11
605.8104
 21
280.0000
  0
LINE
  8
0_00
  6
CONTINUOUS
 62
6
 10
535.8105
 20
280.0000
 11
540.7012
 21
278.9604
  0
LINE
  8
0_00
  6
CONTINUOUS
 62
6
 10
535.8105
 20
280.0000
 11
540.7012
 21
281.0396
  0
LINE
  8
0_00
  6
CONTINUOUS
 62
6
 10
605.8104
 20
280.0000
 11
600.9197
 21
281.0396
  0
LINE
  8
0_00
  6
CONTINUOUS
 62
6
 10
605.8104
 20
280.0000
 11
600.9197
 21
278.9604
  0
LINE
  8
0_00
  6
CONTINUOUS
 62
6
 10
605.8104
 20
119.7399
 11
605.8104
 21
95.0000
  0
LINE
  8
0_00
  6
CONTINUOUS
 62
6
 10
625.8104
 20
155.0211
 11
625.8104
 21
95.0000
  0
LINE
  8
0_00
  6
CONTINUOUS
 62
6
 10
605.8104
 20
98.0000
 11
625.8104
 21
98.0000
  0
LINE
  8
0_00
  6
CONTINUOUS
 62
6
 10
657.0104
 20
98.0000
 11
625.8104
 21
98.0000
  0
LINE
  8
0_00
  6
CONTINUOUS
 62
6
 10
625.8104
 20
98.0000
 11
630.7012
 21
96.9604
  0
LINE
  8
0_00
  6
CONTINUOUS
 62
6
 10
625.8104
 20
98.0000
 11
630.7012
 21
99.0396
  0
LINE
  8
0_00
  6
CONTINUOUS
 62
6
 10
595.8104
 20
98.0000
 11
605.8104
 21
98.0000
  0
LINE
  8
0_00
  6
CONTINUOUS
 62
6
 10
605.8104
 20
98.0000
 11
600.9197
 21
99.0396
  0
LINE
  8
0_00
  6
CONTINUOUS
 62
6
 10
605.8104
 20
98.0000
 11
600.9197
 21
96.9604
  0
LINE
  8
0_00
  6
CONTINUOUS
 62
6
 10
554.0104
 20
180.4136
 11
554.0104
 21
269.0000
  0
LINE
  8
0_00
  6
CONTINUOUS
 62
6
 10
535.8105
 20
248.9451
 11
535.8105
 21
269.0000
  0
LINE
  8
0_00
  6
CONTINUOUS
 62
6
 10
535.8105
 20
266.0000
 11
554.0104
 21
266.0000
  0
LINE
  8
0_00
  6
CONTINUOUS
 62
6
 10
581.0104
 20
266.0000
 11
554.0104
 21
266.0000
  0
LINE
  8
0_00
  6
CONTINUOUS
 62
6
 10
554.0104
 20
266.0000
 11
558.9012
 21
264.9604
  0
LINE
  8
0_00
  6
CONTINUOUS
 62
6
 10
554.0104
 20
266.0000
 11
558.9012
 21
267.0396
  0
LINE
  8
0_00
  6
CONTINUOUS
 62
6
 10
525.8105
 20
266.0000
 11
535.8105
 21
266.0000
  0
LINE
  8
0_00
  6
CONTINUOUS
 62
6
 10
535.8105
 20
266.0000
 11
530.9197
 21
267.0396
  0
LINE
  8
0_00
  6
CONTINUOUS
 62
6
 10
535.8105
 20
266.0000
 11
530.9197
 21
264.9604
  0
LINE
  8
0_00
  6
CONTINUOUS
 62
6
 10
568.1631
 20
167.5367
 11
703.0000
 21
167.5367
  0
LINE
  8
0_00
  6
CONTINUOUS
 62
6
 10
651.5573
 20
164.5367
 11
703.0000
 21
164.5367
  0
LINE
  8
0_00
  6
CONTINUOUS
 62
6
 10
700.0000
 20
167.5367
 11
700.0000
 21
164.5367
  0
LINE
  8
0_00
  6
CONTINUOUS
 62
6
 10
700.0000
 20
186.4578
 11
700.0000
 21
167.5367
  0
LINE
  8
0_00
  6
CONTINUOUS
 62
6
 10
700.0000
 20
167.5367
 11
701.0396
 21
172.4275
  0
LINE
  8
0_00
  6
CONTINUOUS
 62
6
 10
700.0000
 20
167.5367
 11
698.9604
 21
172.4275
  0
LINE
  8
0_00
  6
CONTINUOUS
 62
6
 10
616.7538
 20
128.0367
 11
703.0000
 21
128.0367
  0
LINE
  8
0_00
  6
CONTINUOUS
 62
6
 10
654.5573
 20
164.5367
 11
703.0000
 21
164.5367
  0
LINE
  8
0_00
  6
CONTINUOUS
 62
6
 10
700.0000
 20
164.5367
 11
700.0000
 21
128.0367
  0
LINE
  8
0_00
  6
CONTINUOUS
 62
6
 10
700.0000
 20
164.5367
 11
698.9604
 21
159.6460
  0
LINE
  8
0_00
  6
CONTINUOUS
 62
6
 10
700.0000
 20
164.5367
 11
701.0396
 21
159.6460
  0
LINE
  8
0_00
  6
CONTINUOUS
 62
6
 10
700.0000
 20
128.0367
 11
701.0396
 21
132.9275
  0
LINE
  8
0_00
  6
CONTINUOUS
 62
6
 10
700.0000
 20
128.0367
 11
698.9604
 21
132.9275
  0
LINE
  8
0_00
  6
CONTINUOUS
 62
6
 10
613.3102
 20
128.0367
 11
689.0000
 21
128.0367
  0
LINE
  8
0_00
  6
CONTINUOUS
 62
6
 10
686.0000
 20
143.0367
 11
686.0000
 21
128.0367
  0
LINE
  8
0_00
  6
CONTINUOUS
 62
6
 10
533.4105
 20
126.0367
 11
487.0000
 21
126.0367
  0
LINE
  8
0_00
  6
CONTINUOUS
 62
6
 10
532.8105
 20
167.5367
 11
487.0000
 21
167.5367
  0
LINE
  8
0_00
  6
CONTINUOUS
 62
6
 10
490.0000
 20
167.5367
 11
490.0000
 21
126.0367
  0
LINE
  8
0_00
  6
CONTINUOUS
 62
6
 10
490.0000
 20
167.5367
 11
488.9604
 21
162.6460
  0
LINE
  8
0_00
  6
CONTINUOUS
 62
6
 10
490.0000
 20
167.5367
 11
491.0396
 21
162.6460
  0
LINE
  8
0_00
  6
CONTINUOUS
 62
6
 10
490.0000
 20
126.0367
 11
491.0396
 21
130.9275
  0
LINE
  8
0_00
  6
CONTINUOUS
 62
6
 10
490.0000
 20
126.0367
 11
488.9604
 21
130.9275
  0
LINE
  8
0_00
  6
CONTINUOUS
 62
4
 10
575.0104
 20
164.5367
 11
624.0104
 21
164.5367
  0
LINE
  8
0_00
  6
CONTINUOUS
 62
4
 10
590.5104
 20
160.5367
 11
624.0104
 21
160.5367
  0
LINE
  8
0_00
  6
CONTINUOUS
 62
4
 10
563.4898
 20
131.0367
 11
573.0104
 21
131.0367
  0
LINE
  8
0_00
  6
CONTINUOUS
 62
4
 10
557.0104
 20
164.5367
 11
557.0104
 21
147.3701
  0
LINE
  8
0_00
  6
CONTINUOUS
 62
4
 10
559.0104
 20
164.5367
 11
559.0104
 21
140.9283
  0
LINE
  8
0_00
  6
CONTINUOUS
 62
4
 10
624.0104
 20
162.5367
 11
575.0104
 21
162.5367
  0
LINE
  8
0_00
  6
CONTINUOUS
 62
4
 10
575.0104
 20
133.0367
 11
575.0104
 21
162.5367
  0
LINE
  8
0_00
  6
CONTINUOUS
 62
4
 10
573.0104
 20
162.5367
 11
573.0104
 21
133.0367
  0
LINE
  8
0_00
  6
CONTINUOUS
 62
4
 10
563.4898
 20
133.0367
 11
573.0104
 21
133.0367
  0
LINE
  8
0_00
  6
CONTINUOUS
 62
4
 10
561.5774
 20
132.4513
 11
554.5104
 21
155.5367
  0
LINE
  8
0_00
  6
CONTINUOUS
 62
4
 10
556.4229
 20
156.1222
 11
554.5104
 21
155.5367
  0
LINE
  8
0_00
  6
CONTINUOUS
 62
4
 10
557.0104
 20
164.5367
 11
559.0104
 21
164.5367
  0
LINE
  8
0_00
  6
CONTINUOUS
 62
4
 10
590.5104
 20
160.5367
 11
590.5104
 21
138.4830
  0
LINE
  8
0_00
  6
CONTINUOUS
 62
4
 10
588.5104
 20
160.5367
 11
588.5104
 21
135.0285
  0
LINE
  8
0_00
  6
CONTINUOUS
 62
4
 10
580.5104
 20
133.0367
 11
580.5104
 21
131.0367
  0
LINE
  8
0_00
  6
CONTINUOUS
 62
4
 10
580.5104
 20
131.0367
 11
587.3574
 21
131.0367
  0
LINE
  8
0_00
  6
CONTINUOUS
 62
4
 10
589.0882
 20
132.0347
 11
594.0104
 21
140.5367
  0
LINE
  8
0_00
  6
CONTINUOUS
 62
4
 10
592.2796
 20
141.5388
 11
587.3574
 21
133.0367
  0
LINE
  8
0_00
  6
CONTINUOUS
 62
4
 10
592.2796
 20
141.5388
 11
594.0104
 21
140.5367
  0
LINE
  8
0_00
  6
CONTINUOUS
 62
4
 10
587.3574
 20
133.0367
 11
580.5104
 21
133.0367
  0
LINE
  8
0_00
  6
DASHED
 62
2
 10
590.5104
 20
138.4830
 11
590.5104
 21
134.4913
  0
LINE
  8
0_00
  6
CONTINUOUS
 62
4
 10
557.0104
 20
154.2027
 11
556.4229
 21
156.1222
  0
LINE
  8
0_00
  6
DASHED
 62
2
 10
559.0104
 20
147.6693
 11
557.0104
 21
154.2027
  0
LINE
  8
0_00
  6
CONTINUOUS
 62
4
 10
563.4898
 20
133.0367
 11
559.0104
 21
147.6693
  0
LINE
  8
0_00
  6
CONTINUOUS
 62
4
 10
557.0104
 20
156.0367
 11
559.0104
 21
156.0367
  0
LINE
  8
0_00
  6
CONTINUOUS
 62
4
 10
588.5104
 20
142.5515
 11
590.5104
 21
142.5515
  0
LINE
  8
0_00
  6
CONTINUOUS
 62
6
 10
570.8104
 20
189.3703
 11
570.8104
 21
255.0000
  0
LINE
  8
0_00
  6
CONTINUOUS
 62
6
 10
585.8104
 20
249.6059
 11
585.8104
 21
255.0000
  0
LINE
  8
0_00
  6
CONTINUOUS
 62
6
 10
570.8104
 20
252.0000
 11
585.8104
 21
252.0000
  0
LINE
  8
0_00
  6
CONTINUOUS
 62
6
 10
595.8104
 20
252.0000
 11
585.8104
 21
252.0000
  0
LINE
  8
0_00
  6
CONTINUOUS
 62
6
 10
585.8104
 20
252.0000
 11
590.7012
 21
250.9604
  0
LINE
  8
0_00
  6
CONTINUOUS
 62
6
 10
585.8104
 20
252.0000
 11
590.7012
 21
253.0396
  0
LINE
  8
0_00
  6
CONTINUOUS
 62
6
 10
560.8104
 20
252.0000
 11
570.8104
 21
252.0000
  0
LINE
  8
0_00
  6
CONTINUOUS
 62
6
 10
570.8104
 20
252.0000
 11
565.9197
 21
253.0396
  0
LINE
  8
0_00
  6
CONTINUOUS
 62
6
 10
570.8104
 20
252.0000
 11
565.9197
 21
250.9604
  0
LINE
  8
0_00
  6
CONTINUOUS
 62
6
 10
535.8105
 20
248.9451
 11
535.8105
 21
297.0000
  0
LINE
  8
0_00
  6
CONTINUOUS
 62
6
 10
535.8105
 20
294.0000
 11
635.8104
 21
294.0000
  0
LINE
  8
0_00
  6
CONTINUOUS
 62
6
 10
535.8105
 20
294.0000
 11
540.7012
 21
292.9604
  0
LINE
  8
0_00
  6
CONTINUOUS
 62
6
 10
535.8105
 20
294.0000
 11
540.7012
 21
295.0396
  0
LINE
  8
0_00
  6
CONTINUOUS
 62
6
 10
635.8104
 20
294.0000
 11
630.9197
 21
295.0396
  0
LINE
  8
0_00
  6
CONTINUOUS
 62
6
 10
635.8104
 20
294.0000
 11
630.9197
 21
292.9604
  0
LINE
  8
0_00
  6
CONTINUOUS
 62
6
 10
635.8104
 20
244.7456
 11
635.8104
 21
255.7070
  0
LINE
  8
0_00
  6
CONTINUOUS
 62
6
 10
635.8104
 20
270.6623
 11
635.8104
 21
297.0000
  0
LINE
  8
0_00
  6
CONTINUOUS
 62
6
 10
701.0262
 20
252.1447
 11
688.4553
 21
252.1447
  0
LINE
  8
0_00
  6
CONTINUOUS
 62
6
 10
758.9031
 20
301.5144
 11
688.4553
 21
301.5144
  0
LINE
  8
0_00
  6
CONTINUOUS
 62
6
 10
691.4553
 20
301.5144
 11
691.4553
 21
252.1447
  0
LINE
  8
0_00
  6
CONTINUOUS
 62
6
 10
691.4553
 20
301.5144
 11
690.4157
 21
296.6236
  0
LINE
  8
0_00
  6
CONTINUOUS
 62
6
 10
691.4553
 20
301.5144
 11
692.4949
 21
296.6236
  0
LINE
  8
0_00
  6
CONTINUOUS
 62
6
 10
691.4553
 20
252.1447
 11
692.4949
 21
257.0354
  0
LINE
  8
0_00
  6
CONTINUOUS
 62
6
 10
691.4553
 20
252.1447
 11
690.4157
 21
257.0354
  0
LINE
  8
0_00
  6
CONTINUOUS
 62
6
 10
730.8735
 20
240.9519
 11
730.8735
 21
229.4907
  0
LINE
  8
0_00
  6
CONTINUOUS
 62
6
 10
730.8735
 20
232.4907
 11
805.5605
 21
232.4907
  0
LINE
  8
0_00
  6
CONTINUOUS
 62
6
 10
730.8735
 20
232.4907
 11
735.7643
 21
231.4512
  0
LINE
  8
0_00
  6
CONTINUOUS
 62
6
 10
730.8735
 20
232.4907
 11
735.7643
 21
233.5303
  0
LINE
  8
0_00
  6
CONTINUOUS
 62
6
 10
781.7211
 20
250.6447
 11
801.8560
 21
297.3599
  0
LINE
  8
0_00
  6
CONTINUOUS
 62
6
 10
801.8560
 20
297.3599
 11
798.9655
 21
293.2801
  0
LINE
  8
0_00
  6
CONTINUOUS
 62
6
 10
801.8560
 20
297.3599
 11
800.8748
 21
292.4571
  0
LINE
  8
0_00
  6
CONTINUOUS
 62
4
 10
749.5682
 20
217.2868
 11
808.3682
 21
217.2868
  0
ARC
  8
0_00
  6
CONTINUOUS
 62
4
 10
227.4304
 20
431.5311
 40
6.0000
 50
90.0000
 51
180.0000
  0
ARC
  8
0_00
  6
CONTINUOUS
 62
4
 10
286.4304
 20
490.5311
 40
6.0000
 50
90.0000
 51
180.0000
  0
ARC
  8
0_00
  6
CONTINUOUS
 62
4
 10
274.4304
 20
443.5311
 40
6.0000
 50
270.0000
 51
360.0000
  0
ARC
  8
0_00
  6
CONTINUOUS
 62
4
 10
235.7304
 20
408.8311
 40
0.3000
 50
180.0000
 51
360.0000
  0
ARC
  8
0_00
  6
CONTINUOUS
 62
4
 10
235.9304
 20
409.5311
 40
0.5000
 50
90.0000
 51
180.0000
  0
ARC
  8
0_00
  6
CONTINUOUS
 62
4
 10
181.0304
 20
393.6311
 40
0.6000
 50
180.0184
 51
360.0000
  0
ARC
  8
0_00
  6
CONTINUOUS
 62
4
 10
182.6304
 20
397.2311
 40
1.0000
 50
180.0000
 51
270.0000
  0
ARC
  8
0_00
  6
CONTINUOUS
 62
4
 10
182.6304
 20
394.0311
 40
1.0000
 50
90.0000
 51
180.0000
  0
ARC
  8
0_00
  6
CONTINUOUS
 62
4
 10
183.4304
 20
420.4475
 40
1.8000
 50
98.5308
 51
180.0000
  0
ARC
  8
0_00
  6
CONTINUOUS
 62
4
 10
183.4304
 20
420.4475
 40
3.0000
 50
98.5308
 51
180.0000
  0
ARC
  8
0_00
  6
CONTINUOUS
 62
4
 10
199.9304
 20
424.2371
 40
0.5000
 50
0.0000
 51
98.5308
  0
ARC
  8
0_00
  6
CONTINUOUS
 62
4
 10
199.4304
 20
426.8923
 40
1.0000
 50
278.5308
 51
360.0000
  0
ARC
  8
0_00
  6
CONTINUOUS
 62
4
 10
201.0304
 20
433.9311
 40
0.6000
 50
0.0000
 51
180.0000
  0
ARC
  8
0_00
  6
CONTINUOUS
 62
4
 10
248.2304
 20
397.2311
 40
1.0000
 50
270.0000
 51
360.0000
  0
ARC
  8
0_00
  6
CONTINUOUS
 62
4
 10
249.4304
 20
396.0311
 40
1.0000
 50
270.0000
 51
360.0000
  0
ARC
  8
0_00
  6
CONTINUOUS
 62
2
 10
250.4304
 20
436.4374
 40
10.4063
 50
247.3871
 51
292.6129
  0
ARC
  8
0_00
  6
CONTINUOUS
 62
4
 10
248.2304
 20
407.8311
 40
1.0000
 50
0.0000
 51
90.0000
  0
ARC
  8
0_00
  6
CONTINUOUS
 62
4
 10
249.4304
 20
409.0311
 40
1.0000
 50
0.0000
 51
90.0000
  0
CIRCLE
  8
0_00
  6
CONTINUOUS
 62
4
 10
194.2516
 20
431.3522
 40
6.1789
  0
ARC
  8
0_00
  6
CONTINUOUS
 62
2
 10
150.0997
 20
433.4893
 40
33.0158
 50
340.5278
 51
383.2670
  0
ARC
  8
0_00
  6
CONTINUOUS
 62
4
 10
615.3706
 20
427.5682
 40
6.0000
 50
90.0000
 51
180.0000
  0
ARC
  8
0_00
  6
CONTINUOUS
 62
4
 10
674.3706
 20
486.5682
 40
6.0000
 50
90.0000
 51
180.0000
  0
ARC
  8
0_00
  6
CONTINUOUS
 62
4
 10
662.3706
 20
439.5682
 40
6.0000
 50
270.0000
 51
360.0000
  0
ARC
  8
0_00
  6
CONTINUOUS
 62
2
 10
635.8706
 20
432.4746
 40
10.4063
 50
247.3871
 51
292.6129
  0
ARC
  8
0_00
  6
CONTINUOUS
 62
2
 10
538.0399
 20
429.5264
 40
33.0158
 50
340.5278
 51
383.2670
  0
ARC
  8
0_00
  6
CONTINUOUS
 62
4
 10
673.6635
 20
404.5811
 40
0.3000
 50
180.0000
 51
360.0000
  0
ARC
  8
0_00
  6
CONTINUOUS
 62
4
 10
673.8635
 20
405.5811
 40
0.5000
 50
90.0000
 51
180.0000
  0
ARC
  8
0_00
  6
CONTINUOUS
 62
4
 10
677.8635
 20
404.0811
 40
0.5000
 50
0.0000
 51
90.0000
  0
ARC
  8
0_00
  6
CONTINUOUS
 62
4
 10
678.8635
 20
402.1811
 40
0.5000
 50
180.0000
 51
270.0000
  0
ARC
  8
0_00
  6
CONTINUOUS
 62
4
 10
680.2635
 20
403.5811
 40
0.5000
 50
180.0000
 51
270.0000
  0
ARC
  8
0_00
  6
CONTINUOUS
 62
4
 10
681.3635
 20
405.5811
 40
0.5000
 50
270.0000
 51
450.0000
  0
ARC
  8
0_00
  6
CONTINUOUS
 62
4
 10
697.5635
 20
403.5811
 40
0.5000
 50
270.0000
 51
360.0000
  0
ARC
  8
0_00
  6
CONTINUOUS
 62
4
 10
698.9635
 20
402.1811
 40
0.5000
 50
270.0000
 51
360.0000
  0
ARC
  8
0_00
  6
CONTINUOUS
 62
4
 10
696.8635
 20
405.5811
 40
0.5000
 50
90.0000
 51
180.0000
  0
ARC
  8
0_00
  6
CONTINUOUS
 62
4
 10
701.4635
 20
404.1811
 40
0.5000
 50
0.0000
 51
90.0000
  0
ARC
  8
0_00
  6
CONTINUOUS
 62
4
 10
702.3635
 20
405.0811
 40
1.0000
 50
0.0000
 51
90.0000
  0
ARC
  8
0_00
  6
CONTINUOUS
 62
4
 10
569.0706
 20
389.7933
 40
0.7000
 50
180.0158
 51
360.0158
  0
ARC
  8
0_00
  6
CONTINUOUS
 62
4
 10
570.7706
 20
393.4933
 40
1.0000
 50
180.0000
 51
270.0000
  0
ARC
  8
0_00
  6
CONTINUOUS
 62
4
 10
570.7706
 20
390.0933
 40
1.0000
 50
90.0000
 51
180.0000
  0
ARC
  8
0_00
  6
CONTINUOUS
 62
4
 10
594.0706
 20
429.8933
 40
0.7000
 50
0.0000
 51
180.0000
  0
ARC
  8
0_00
  6
CONTINUOUS
 62
4
 10
571.3706
 20
416.4318
 40
3.0000
 50
96.8428
 51
180.0000
  0
ARC
  8
0_00
  6
CONTINUOUS
 62
4
 10
571.3706
 20
416.4318
 40
1.6000
 50
96.8428
 51
180.0000
  0
ARC
  8
0_00
  6
CONTINUOUS
 62
4
 10
700.3635
 20
394.0933
 40
1.6000
 50
270.0000
 51
360.0000
  0
ARC
  8
0_00
  6
CONTINUOUS
 62
4
 10
701.7635
 20
392.6933
 40
1.6000
 50
270.0000
 51
360.0000
  0
CIRCLE
  8
0_00
  6
CONTINUOUS
 62
4
 10
587.2902
 20
427.4878
 40
6.0805
  0
ARC
  8
0_00
  6
CONTINUOUS
 62
4
 10
239.9304
 20
179.5311
 40
6.0000
 50
90.0000
 51
180.0000
  0
ARC
  8
0_00
  6
CONTINUOUS
 62
4
 10
298.9304
 20
238.5311
 40
6.0000
 50
90.0000
 51
180.0000
  0
ARC
  8
0_00
  6
CONTINUOUS
 62
4
 10
286.9304
 20
191.5311
 40
6.0000
 50
270.0000
 51
360.0000
  0
ARC
  8
0_00
  6
CONTINUOUS
 62
2
 10
246.9304
 20
184.4374
 40
10.4063
 50
247.3871
 51
292.6129
  0
ARC
  8
0_00
  6
CONTINUOUS
 62
2
 10
137.5997
 20
181.4893
 40
33.0158
 50
340.5278
 51
383.2670
  0
ARC
  8
0_00
  6
CONTINUOUS
 62
4
 10
273.2233
 20
156.5439
 40
0.3000
 50
180.0000
 51
360.0000
  0
ARC
  8
0_00
  6
CONTINUOUS
 62
4
 10
273.4233
 20
157.5439
 40
0.5000
 50
90.0000
 51
180.0000
  0
ARC
  8
0_00
  6
CONTINUOUS
 62
4
 10
277.4233
 20
156.0439
 40
0.5000
 50
0.0000
 51
90.0000
  0
ARC
  8
0_00
  6
CONTINUOUS
 62
4
 10
278.4233
 20
154.1439
 40
0.5000
 50
180.0000
 51
270.0000
  0
ARC
  8
0_00
  6
CONTINUOUS
 62
4
 10
279.8233
 20
155.5439
 40
0.5000
 50
180.0000
 51
270.0000
  0
ARC
  8
0_00
  6
CONTINUOUS
 62
4
 10
280.9233
 20
157.5439
 40
0.5000
 50
270.0000
 51
450.0000
  0
ARC
  8
0_00
  6
CONTINUOUS
 62
4
 10
297.1233
 20
155.5439
 40
0.5000
 50
270.0000
 51
360.0000
  0
ARC
  8
0_00
  6
CONTINUOUS
 62
4
 10
298.5233
 20
154.1439
 40
0.5000
 50
270.0000
 51
360.0000
  0
ARC
  8
0_00
  6
CONTINUOUS
 62
4
 10
296.4233
 20
157.5439
 40
0.5000
 50
90.0000
 51
180.0000
  0
ARC
  8
0_00
  6
CONTINUOUS
 62
4
 10
301.0233
 20
156.1439
 40
0.5000
 50
0.0000
 51
90.0000
  0
ARC
  8
0_00
  6
CONTINUOUS
 62
4
 10
301.9233
 20
157.0439
 40
1.0000
 50
0.0000
 51
90.0000
  0
ARC
  8
0_00
  6
CONTINUOUS
 62
4
 10
168.6304
 20
141.7562
 40
0.7000
 50
180.0158
 51
360.0158
  0
ARC
  8
0_00
  6
CONTINUOUS
 62
4
 10
170.3304
 20
145.4562
 40
1.0000
 50
180.0000
 51
270.0000
  0
ARC
  8
0_00
  6
CONTINUOUS
 62
4
 10
170.3304
 20
142.0562
 40
1.0000
 50
90.0000
 51
180.0000
  0
ARC
  8
0_00
  6
CONTINUOUS
 62
4
 10
193.6304
 20
181.8562
 40
0.7000
 50
0.0000
 51
180.0000
  0
ARC
  8
0_00
  6
CONTINUOUS
 62
4
 10
170.9304
 20
168.3947
 40
3.0000
 50
96.8428
 51
180.0000
  0
ARC
  8
0_00
  6
CONTINUOUS
 62
4
 10
170.9304
 20
168.3947
 40
1.6000
 50
96.8428
 51
180.0000
  0
ARC
  8
0_00
  6
CONTINUOUS
 62
4
 10
299.9233
 20
146.0562
 40
1.6000
 50
270.0000
 51
360.0000
  0
ARC
  8
0_00
  6
CONTINUOUS
 62
4
 10
301.3233
 20
144.6562
 40
1.6000
 50
270.0000
 51
360.0000
  0
CIRCLE
  8
0_00
  6
CONTINUOUS
 62
4
 10
186.8500
 20
179.4506
 40
6.0805
  0
ARC
  8
0_00
  6
CONTINUOUS
 62
4
 10
582.8104
 20
164.5367
 40
6.0000
 50
90.0000
 51
180.0000
  0
ARC
  8
0_00
  6
CONTINUOUS
 62
4
 10
641.8104
 20
223.5367
 40
6.0000
 50
90.0000
 51
180.0000
  0
ARC
  8
0_00
  6
CONTINUOUS
 62
4
 10
629.8104
 20
176.5367
 40
6.0000
 50
270.0000
 51
360.0000
  0
CIRCLE
  8
0_00
  6
CONTINUOUS
 62
2
 10
535.8105
 20
239.0758
 40
0.1000
  0
ARC
  8
0_00
  6
CONTINUOUS
 62
2
 10
605.8104
 20
168.4431
 40
10.4063
 50
247.3871
 51
292.6129
  0
ARC
  8
0_00
  6
CONTINUOUS
 62
2
 10
505.4797
 20
166.4949
 40
33.0158
 50
340.5278
 51
383.2670
  0
ARC
  8
0_00
  6
CONTINUOUS
 62
4
 10
538.8105
 20
153.4490
 40
3.0000
 50
98.4384
 51
180.0000
  0
ARC
  8
0_00
  6
CONTINUOUS
 62
4
 10
555.5104
 20
166.0367
 40
1.5000
 50
0.0000
 51
180.0000
  0
ARC
  8
0_00
  6
CONTINUOUS
 62
4
 10
536.8105
 20
127.0367
 40
1.0000
 50
180.0000
 51
360.0000
  0
ARC
  8
0_00
  6
CONTINUOUS
 62
4
 10
603.8104
 20
141.0367
 40
2.0000
 50
0.0000
 51
90.0000
  0
CIRCLE
  8
0_00
  6
CONTINUOUS
 62
4
 10
547.6752
 20
164.2015
 40
6.3353
  0
ARC
  8
0_00
  6
CONTINUOUS
 62
2
 10
781.7211
 20
250.6447
 40
44.3697
 50
60.0000
 51
186.4704
  0
ARC
  8
0_00
  6
CONTINUOUS
 62
4
 10
781.7211
 20
250.6447
 40
47.3697
 50
60.0000
 51
182.4198
  0
ARC
  8
0_00
  6
CONTINUOUS
 62
4
 10
781.7211
 20
250.6447
 40
54.3697
 50
60.0000
 51
174.7234
  0
ARC
  8
0_00
  6
CENTER1
 62
6
 10
781.7211
 20
250.6447
 40
50.8697
 50
56.9349
 51
178.3103
  0
ARC
  8
0_00
  6
CONTINUOUS
 62
3
 10
726.4507
 20
48.1575
 40
0.3575
 50
270.0000
 51
450.0000
  0
ARC
  8
0_00
  6
CONTINUOUS
 62
3
 10
725.4562
 20
51.3750
 40
0.4355
 50
0.0000
 51
180.0000
  0
ARC
  8
0_00
  6
CONTINUOUS
 62
3
 10
726.1257
 20
55.6000
 40
1.3000
 50
333.9999
 51
450.0000
  0
CIRCLE
  8
0_00
  6
CONTINUOUS
 62
3
 10
726.7107
 20
58.2000
 40
1.0400
  0
ARC
  8
0_00
  6
CONTINUOUS
 62
3
 10
725.5208
 20
51.3750
 40
0.3000
 50
0.0000
 51
180.0000
  0
ARC
  8
0_00
  6
CONTINUOUS
 62
3
 10
725.5208
 20
51.3750
 40
0.1000
 50
0.0000
 51
180.0000
  0
ARC
  8
0_00
  6
CONTINUOUS
 62
3
 10
726.4507
 20
48.1150
 40
0.2000
 50
270.0000
 51
450.0000
  0
CIRCLE
  8
0_00
  6
CONTINUOUS
 62
3
 10
726.7107
 20
58.2000
 40
0.8830
  0
CIRCLE
  8
0_00
  6
CONTINUOUS
 62
3
 10
726.7107
 20
58.2000
 40
0.6837
  0
CIRCLE
  8
0_00
  6
CONTINUOUS
 62
3
 10
726.7107
 20
58.2000
 40
0.4684
  0
CIRCLE
  8
0_00
  6
CONTINUOUS
 62
3
 10
726.7107
 20
58.2000
 40
0.2293
  0
CIRCLE
  8
0_00
  6
CONTINUOUS
 62
3
 10
726.7107
 20
58.2000
 40
0.1133
  0
CIRCLE
  8
0_00
  6
CONTINUOUS
 62
4
 10
587.3607
 20
54.8000
 40
2.5000
  0
CIRCLE
  8
0_00
  6
CONTINUOUS
 62
4
 10
587.3607
 20
54.8000
 40
4.0000
  0
ARC
  8
0_00
  6
CONTINUOUS
 62
4
 10
236.8324
 20
408.7311
 40
0.3000
 50
323.2858
 51
450.0000
  0
ARC
  8
0_00
  6
CONTINUOUS
 62
4
 10
235.9304
 20
409.0311
 40
0.5000
 50
180.0000
 51
360.0000
  0
ARC
  8
0_00
  6
CONTINUOUS
 62
4
 10
235.4304
 20
428.5311
 40
3.0000
 50
90.0000
 51
182.6694
  0
ARC
  8
0_00
  6
CONTINUOUS
 62
4
 10
199.9296
 20
421.8251
 40
0.5000
 50
76.5043
 51
200.5809
  0
ARC
  8
0_00
  6
CONTINUOUS
 62
4
 10
202.6304
 20
429.9311
 40
1.0000
 50
0.0000
 51
180.0000
  0
ARC
  8
0_00
  6
CONTINUOUS
 62
4
 10
210.1620
 20
404.5311
 40
2.0000
 50
200.5809
 51
270.0000
  0
ARC
  8
0_00
  6
CONTINUOUS
 62
4
 10
210.0158
 20
399.2311
 40
2.0000
 50
200.5809
 51
270.0000
  0
ARC
  8
0_00
  6
CONTINUOUS
 62
4
 10
227.6270
 20
399.2311
 40
2.0000
 50
270.0000
 51
323.2858
  0
ARC
  8
0_00
  6
CONTINUOUS
 62
4
 10
229.0846
 20
404.5311
 40
2.0000
 50
270.0000
 51
323.2858
  0
ARC
  8
0_00
  6
CONTINUOUS
 62
4
 10
202.9649
 20
419.4311
 40
0.5000
 50
90.0000
 51
200.5809
  0
ARC
  8
0_00
  6
CONTINUOUS
 62
4
 10
203.1304
 20
420.4311
 40
0.5000
 50
270.0000
 51
360.0000
  0
ARC
  8
0_00
  6
CONTINUOUS
 62
4
 10
211.1304
 20
399.7311
 40
0.5000
 50
90.0000
 51
180.0000
  0
ARC
  8
0_00
  6
CONTINUOUS
 62
4
 10
226.1304
 20
399.7311
 40
0.5000
 50
0.0000
 51
90.0000
  0
ARC
  8
0_00
  6
CONTINUOUS
 62
4
 10
236.4304
 20
427.5311
 40
1.0000
 50
90.0000
 51
180.0000
  0
ARC
  8
0_00
  6
CONTINUOUS
 62
4
 10
269.4304
 20
429.5311
 40
1.0000
 50
270.0000
 51
360.0000
  0
ARC
  8
0_00
  6
CONTINUOUS
 62
4
 10
231.3993
 20
407.6348
 40
2.0000
 50
323.2858
 51
362.6694
  0
ARC
  8
0_00
  6
CONTINUOUS
 62
4
 10
675.4282
 20
404.4682
 40
0.3000
 50
338.2861
 51
450.0000
  0
ARC
  8
0_00
  6
CONTINUOUS
 62
4
 10
673.8706
 20
404.7682
 40
0.5000
 50
180.0000
 51
360.0000
  0
ARC
  8
0_00
  6
CONTINUOUS
 62
4
 10
670.8620
 20
394.2182
 40
0.7500
 50
158.2867
 51
338.2855
  0
ARC
  8
0_00
  6
CONTINUOUS
 62
4
 10
671.6706
 20
403.0682
 40
0.3000
 50
180.0000
 51
270.0000
  0
ARC
  8
0_00
  6
CONTINUOUS
 62
4
 10
672.7223
 20
402.2682
 40
0.5000
 50
338.2861
 51
450.0000
  0
ARC
  8
0_00
  6
CONTINUOUS
 62
4
 10
673.6706
 20
406.8682
 40
0.3000
 50
90.0000
 51
180.0000
  0
ARC
  8
0_00
  6
CONTINUOUS
 62
4
 10
674.0706
 20
407.4682
 40
0.3000
 50
270.0000
 51
360.0000
  0
ARC
  8
0_00
  6
CONTINUOUS
 62
4
 10
671.6706
 20
408.8682
 40
0.3000
 50
90.0000
 51
180.0000
  0
ARC
  8
0_00
  6
CONTINUOUS
 62
4
 10
670.4335
 20
423.5682
 40
1.0000
 50
3.7153
 51
90.0000
  0
ARC
  8
0_00
  6
CONTINUOUS
 62
4
 10
671.3706
 20
424.5682
 40
3.0000
 50
0.0000
 51
90.0000
  0
ARC
  8
0_00
  6
CONTINUOUS
 62
4
 10
595.7706
 20
426.5933
 40
1.0000
 50
0.0000
 51
180.0000
  0
ARC
  8
0_00
  6
CONTINUOUS
 62
4
 10
596.2706
 20
417.0933
 40
0.5000
 50
270.0000
 51
360.0000
  0
ARC
  8
0_00
  6
CONTINUOUS
 62
4
 10
595.8528
 20
416.0933
 40
0.5000
 50
90.0000
 51
197.2747
  0
ARC
  8
0_00
  6
CONTINUOUS
 62
4
 10
593.0093
 20
418.5019
 40
0.5000
 50
76.5043
 51
197.2747
  0
ARC
  8
0_00
  6
CONTINUOUS
 62
4
 10
602.7706
 20
395.9682
 40
0.5000
 50
90.0000
 51
180.0000
  0
ARC
  8
0_00
  6
CONTINUOUS
 62
4
 10
617.7706
 20
395.9682
 40
0.5000
 50
0.0000
 51
90.0000
  0
ARC
  8
0_00
  6
CONTINUOUS
 62
4
 10
602.2827
 20
400.4682
 40
2.0000
 50
197.2747
 51
270.0000
  0
ARC
  8
0_00
  6
CONTINUOUS
 62
4
 10
616.2706
 20
400.4682
 40
2.0000
 50
270.0000
 51
360.0000
  0
ARC
  8
0_00
  6
CONTINUOUS
 62
4
 10
601.7432
 20
395.4682
 40
2.0000
 50
197.2747
 51
270.0000
  0
ARC
  8
0_00
  6
CONTINUOUS
 62
4
 10
619.3022
 20
394.4682
 40
1.0000
 50
270.0000
 51
358.1583
  0
ARC
  8
0_00
  6
CONTINUOUS
 62
4
 10
622.2390
 20
423.5682
 40
1.0000
 50
90.0000
 51
178.1583
  0
ARC
  8
0_00
  6
CONTINUOUS
 62
4
 10
621.2706
 20
424.5682
 40
3.0000
 50
90.0000
 51
180.0000
  0
ARC
  8
0_00
  6
CONTINUOUS
 62
4
 10
274.9880
 20
156.4311
 40
0.3000
 50
338.2861
 51
450.0000
  0
ARC
  8
0_00
  6
CONTINUOUS
 62
4
 10
273.4304
 20
156.7311
 40
0.5000
 50
180.0000
 51
360.0000
  0
ARC
  8
0_00
  6
CONTINUOUS
 62
4
 10
270.4218
 20
146.1811
 40
0.7500
 50
158.2867
 51
338.2855
  0
ARC
  8
0_00
  6
CONTINUOUS
 62
4
 10
271.2304
 20
155.0311
 40
0.3000
 50
180.0000
 51
270.0000
  0
ARC
  8
0_00
  6
CONTINUOUS
 62
4
 10
272.2821
 20
154.2311
 40
0.5000
 50
338.2861
 51
450.0000
  0
ARC
  8
0_00
  6
CONTINUOUS
 62
4
 10
273.2304
 20
158.8311
 40
0.3000
 50
90.0000
 51
180.0000
  0
ARC
  8
0_00
  6
CONTINUOUS
 62
4
 10
273.6304
 20
159.4311
 40
0.3000
 50
270.0000
 51
360.0000
  0
ARC
  8
0_00
  6
CONTINUOUS
 62
4
 10
271.2304
 20
160.8311
 40
0.3000
 50
90.0000
 51
180.0000
  0
ARC
  8
0_00
  6
CONTINUOUS
 62
4
 10
269.9933
 20
175.5311
 40
1.0000
 50
3.7153
 51
90.0000
  0
ARC
  8
0_00
  6
CONTINUOUS
 62
4
 10
270.9304
 20
176.5311
 40
3.0000
 50
0.0000
 51
90.0000
  0
ARC
  8
0_00
  6
CONTINUOUS
 62
4
 10
195.3304
 20
178.5562
 40
1.0000
 50
0.0000
 51
180.0000
  0
ARC
  8
0_00
  6
CONTINUOUS
 62
4
 10
195.8304
 20
169.0562
 40
0.5000
 50
270.0000
 51
360.0000
  0
ARC
  8
0_00
  6
CONTINUOUS
 62
4
 10
195.4126
 20
168.0562
 40
0.5000
 50
90.0000
 51
197.2747
  0
ARC
  8
0_00
  6
CONTINUOUS
 62
4
 10
192.5691
 20
170.4647
 40
0.5000
 50
76.5043
 51
197.2747
  0
ARC
  8
0_00
  6
CONTINUOUS
 62
4
 10
202.3304
 20
147.9311
 40
0.5000
 50
90.0000
 51
180.0000
  0
ARC
  8
0_00
  6
CONTINUOUS
 62
4
 10
217.3304
 20
147.9311
 40
0.5000
 50
0.0000
 51
90.0000
  0
ARC
  8
0_00
  6
CONTINUOUS
 62
4
 10
201.8425
 20
152.4311
 40
2.0000
 50
197.2747
 51
270.0000
  0
ARC
  8
0_00
  6
CONTINUOUS
 62
4
 10
215.8304
 20
152.4311
 40
2.0000
 50
270.0000
 51
360.0000
  0
ARC
  8
0_00
  6
CONTINUOUS
 62
4
 10
201.3029
 20
147.4311
 40
2.0000
 50
197.2747
 51
270.0000
  0
ARC
  8
0_00
  6
CONTINUOUS
 62
4
 10
218.8621
 20
146.4311
 40
1.0000
 50
270.0000
 51
358.1583
  0
ARC
  8
0_00
  6
CONTINUOUS
 62
4
 10
221.7988
 20
175.5311
 40
1.0000
 50
90.0000
 51
178.1583
  0
ARC
  8
0_00
  6
CONTINUOUS
 62
4
 10
220.8304
 20
176.5311
 40
3.0000
 50
90.0000
 51
180.0000
  0
ARC
  8
0_00
  6
CONTINUOUS
 62
4
 10
295.3091
 20
157.0439
 40
1.5000
 50
269.9999
 51
340.5288
  0
ARC
  8
0_00
  6
CONTINUOUS
 62
4
 10
281.9233
 20
155.5439
 40
0.5000
 50
180.0000
 51
360.0000
  0
ARC
  8
0_00
  6
CONTINUOUS
 62
4
 10
280.4233
 20
156.0439
 40
0.5000
 50
90.0000
 51
269.9998
  0
ARC
  8
0_00
  6
CONTINUOUS
 62
4
 10
280.9233
 20
157.0439
 40
0.5000
 50
270.0000
 51
360.0000
  0
ARC
  8
0_00
  6
CONTINUOUS
 62
4
 10
280.9233
 20
157.5439
 40
0.5000
 50
0.0000
 51
90.0000
  0
ARC
  8
0_00
  6
CONTINUOUS
 62
4
 10
279.6566
 20
158.3439
 40
0.3000
 50
134.5018
 51
270.0000
  0
ARC
  8
0_00
  6
CONTINUOUS
 62
4
 10
301.8233
 20
178.5862
 40
0.3000
 50
0.0000
 51
134.5018
  0
ARC
  8
0_00
  6
CONTINUOUS
 62
4
 10
297.1233
 20
182.9405
 40
5.0000
 50
314.5018
 51
360.0000
  0
ARC
  8
0_00
  6
CONTINUOUS
 62
4
 10
296.7233
 20
157.5439
 40
0.5000
 50
90.0000
 51
180.0000
  0
ARC
  8
0_00
  6
CONTINUOUS
 62
4
 10
295.7233
 20
158.6439
 40
0.5000
 50
90.0000
 51
180.0000
  0
ARC
  8
0_00
  6
CONTINUOUS
 62
4
 10
301.6233
 20
159.6439
 40
0.5000
 50
270.0000
 51
360.0000
  0
ARC
  8
0_00
  6
CONTINUOUS
 62
4
 10
302.2233
 20
159.0439
 40
1.0000
 50
270.0000
 51
360.0000
  0
ARC
  8
0_00
  6
CONTINUOUS
 62
4
 10
300.8233
 20
243.9439
 40
0.6000
 50
90.0000
 51
270.0000
  0
ARC
  8
0_00
  6
CONTINUOUS
 62
4
 10
302.7233
 20
244.0439
 40
0.5000
 50
0.0000
 51
90.0000
  0
ARC
  8
0_00
  6
CONTINUOUS
 62
4
 10
575.0104
 20
162.5367
 40
2.0000
 50
90.0000
 51
180.0000
  0
ARC
  8
0_00
  6
CONTINUOUS
 62
4
 10
590.5104
 20
160.5367
 40
2.0000
 50
90.0000
 51
180.0000
  0
ARC
  8
0_00
  6
CONTINUOUS
 62
4
 10
573.0104
 20
133.0367
 40
2.0000
 50
270.0000
 51
360.0000
  0
ARC
  8
0_00
  6
CONTINUOUS
 62
4
 10
563.4898
 20
133.0367
 40
2.0000
 50
197.0205
 51
270.0000
  0
ARC
  8
0_00
  6
CONTINUOUS
 62
4
 10
587.3574
 20
133.0367
 40
2.0000
 50
270.0000
 51
329.9314
  0
ARC
  8
0_00
  6
CONTINUOUS
 62
4
 10
624.0104
 20
162.5367
 40
2.0000
 50
270.0000
 51
450.0000
  0
TEXT
  8
15_0F
 62
7
 10
549.4407
 20
46.8000
 40
5.00
 41
1.00
 50
0.0000
  1
１
  0
TEXT
  8
15_0F
 62
7
 10
568.4407
 20
46.8000
 40
5.00
 41
1.00
 50
0.0000
  1
２
  0
TEXT
  8
15_0F
 62
7
 10
469.5407
 20
49.8000
 40
5.00
 41
1.00
 50
0.0000
  1
納まり図
  0
TEXT
  8
15_0F
 62
7
 10
329.1407
 20
27.8000
 40
5.00
 41
1.00
 50
0.0000
  1
鉄骨造ＡＬＣ壁
  0
TEXT
  8
15_0F
 62
7
 10
336.3407
 20
47.8000
 40
5.00
 41
1.00
 50
0.0000
  1
低・中層
  0
TEXT
  8
15_0F
 62
7
 10
388.8407
 20
47.8000
 40
5.00
 41
1.00
 50
0.0000
  1
下端見切
  0
TEXT
  8
15_0F
 62
7
 10
387.9073
 20
27.8000
 40
5.00
 41
1.00
 50
0.0000
  1
ＯＵ型
  0
TEXT
  8
0_00
 62
7
 10
445.5407
 20
29.8000
 40
5.00
 41
1.00
 50
0.0000
  1
下端見切７０、１３５納まり図
  0
TEXT
  8
0_00
 62
7
 10
306.2116
 20
498.3255
 40
5.00
 41
1.00
 50
0.0000
  1
通しアングル　６５×６５×ｔ６以上
  0
TEXT
  8
0_00
 62
7
 10
332.9406
 20
490.4398
 40
5.00
 41
1.00
 50
0.0000
  1
（別途手配）
  0
TEXT
  8
0_00
 62
7
 10
290.0891
 20
461.9234
 40
5.00
 41
1.00
 50
0.0000
  1
ドリルねじ　φ４×２５
  0
TEXT
  8
0_00
 62
7
 10
131.3747
 20
376.9896
 40
5.00
 41
1.00
 50
0.0000
  1
下端見切７０
  0
TEXT
  8
0_00
 62
7
 10
125.9239
 20
364.3245
 40
5.00
 41
1.00
 50
0.0000
  1
下端見切ブラケット７０
  0
TEXT
  8
0_00
 62
7
 10
78.1518
 20
461.2415
 40
5.00
 41
1.00
 50
0.0000
  1
バックアップ材装着後コーキング処理
  0
TEXT
  8
0_00
 62
7
 10
104.8808
 20
453.3557
 40
5.00
 41
1.00
 50
0.0000
  1
（別途手配）
  0
TEXT
  8
0_00
 62
7
 10
694.1517
 20
494.3627
 40
5.00
 41
1.00
 50
0.0000
  1
通しアングル　６５×６５×ｔ６以上
  0
TEXT
  8
0_00
 62
7
 10
720.8807
 20
486.4769
 40
5.00
 41
1.00
 50
0.0000
  1
（別途手配）
  0
TEXT
  8
0_00
 62
7
 10
678.0293
 20
457.9605
 40
5.00
 41
1.00
 50
0.0000
  1
ドリルねじ　φ４×２５
  0
TEXT
  8
0_00
 62
7
 10
514.5149
 20
373.0267
 40
5.00
 41
1.00
 50
0.0000
  1
下端見切１３５
  0
TEXT
  8
0_00
 62
7
 10
509.0640
 20
360.3617
 40
5.00
 41
1.00
 50
0.0000
  1
下端見切ブラケット１３５
  0
TEXT
  8
0_00
 62
7
 10
466.0920
 20
457.2786
 40
5.00
 41
1.00
 50
0.0000
  1
バックアップ材装着後コーキング処理
  0
TEXT
  8
0_00
 62
7
 10
492.8210
 20
449.3928
 40
5.00
 41
1.00
 50
0.0000
  1
（別途手配）
  0
TEXT
  8
0_00
 62
7
 10
531.0000
 20
399.2682
 40
4.50
 41
0.75
 50
90.0000
  1
30
  0
TEXT
  8
0_00
 62
7
 10
628.6706
 20
347.0371
 40
4.50
 41
0.75
 50
0.0000
  1
135
  0
TEXT
  8
0_00
 62
7
 10
592.5206
 20
546.9822
 40
4.50
 41
0.75
 50
0.0000
  1
67.5
  0
TEXT
  8
0_00
 62
7
 10
755.0000
 20
436.0622
 40
4.50
 41
0.75
 50
90.0000
  1
(3)
  0
TEXT
  8
0_00
 62
7
 10
755.0000
 20
399.7432
 40
4.50
 41
0.75
 50
90.0000
  1
36.5
  0
TEXT
  8
0_00
 62
7
 10
741.0000
 20
393.5487
 40
4.50
 41
0.75
 50
90.0000
  1
15
  0
TEXT
  8
0_00
 62
7
 10
517.0000
 20
400.2182
 40
4.50
 41
0.75
 50
90.0000
  1
41.5
  0
TEXT
  8
0_00
 62
7
 10
326.6127
 20
377.4945
 40
5.00
 41
1.00
 50
0.0000
  1
軒天井（別途手配）
  0
TEXT
  8
0_00
 62
7
 10
747.2910
 20
376.6015
 40
5.00
 41
1.00
 50
0.0000
  1
軒天井（別途手配）
  0
TEXT
  8
0_00
 62
7
 10
316.6891
 20
256.8313
 40
5.00
 41
1.00
 50
0.0000
  1
通しアングル　６５×６５×ｔ６以上
  0
TEXT
  8
0_00
 62
7
 10
343.8422
 20
248.3431
 40
5.00
 41
1.00
 50
0.0000
  1
（別途手配）
  0
TEXT
  8
0_00
 62
7
 10
307.0891
 20
213.2289
 40
5.00
 41
1.00
 50
0.0000
  1
ドリルねじ　φ４×２５
  0
TEXT
  8
0_00
 62
7
 10
114.0747
 20
124.9896
 40
5.00
 41
1.00
 50
0.0000
  1
下端見切１３５
  0
TEXT
  8
0_00
 62
7
 10
108.6239
 20
112.3245
 40
5.00
 41
1.00
 50
0.0000
  1
下端見切ブラケット１３５
  0
TEXT
  8
0_00
 62
7
 10
65.6518
 20
209.2415
 40
5.00
 41
1.00
 50
0.0000
  1
バックアップ材装着後コーキング処理
  0
TEXT
  8
0_00
 62
7
 10
92.3808
 20
201.3557
 40
5.00
 41
1.00
 50
0.0000
  1
（別途手配）
  0
TEXT
  8
0_00
 62
7
 10
125.0000
 20
151.2311
 40
4.50
 41
0.75
 50
90.0000
  1
30
  0
TEXT
  8
0_00
 62
7
 10
228.2304
 20
99.0000
 40
4.50
 41
0.75
 50
0.0000
  1
135
  0
TEXT
  8
0_00
 62
7
 10
202.6304
 20
295.0000
 40
4.50
 41
0.75
 50
0.0000
  1
79
  0
TEXT
  8
0_00
 62
7
 10
363.0000
 20
188.0251
 40
4.50
 41
0.75
 50
90.0000
  1
(3)
  0
TEXT
  8
0_00
 62
7
 10
363.0000
 20
151.7062
 40
4.50
 41
0.75
 50
90.0000
  1
36.5
  0
TEXT
  8
0_00
 62
7
 10
111.0000
 20
152.1811
 40
4.50
 41
0.75
 50
90.0000
  1
41.5
  0
TEXT
  8
0_00
 62
7
 10
661.5916
 20
216.3312
 40
5.00
 41
1.00
 50
0.0000
  1
通しアングル　６５×６５×ｔ６以上
  0
TEXT
  8
0_00
 62
7
 10
688.3206
 20
208.4454
 40
5.00
 41
1.00
 50
0.0000
  1
（別途手配）
  0
TEXT
  8
0_00
 62
7
 10
645.4691
 20
189.9290
 40
5.00
 41
1.00
 50
0.0000
  1
ドリルねじ　φ４×２５
  0
TEXT
  8
0_00
 62
7
 10
481.9548
 20
109.9952
 40
5.00
 41
1.00
 50
0.0000
  1
R下端見切７０
  0
TEXT
  8
0_00
 62
7
 10
476.5039
 20
97.3302
 40
5.00
 41
1.00
 50
0.0000
  1
Ｒ下端見切ブラケット７０
  0
TEXT
  8
0_00
 62
7
 10
433.5318
 20
194.2472
 40
5.00
 41
1.00
 50
0.0000
  1
バックアップ材装着後コーキング処理
  0
TEXT
  8
0_00
 62
7
 10
460.2608
 20
186.3614
 40
5.00
 41
1.00
 50
0.0000
  1
（別途手配）
  0
TEXT
  8
0_00
 62
7
 10
681.9927
 20
110.5001
 40
5.00
 41
1.00
 50
0.0000
  1
軒天井（別途手配）
  0
TEXT
  8
0_00
 62
7
 10
615.6395
 20
261.4144
 40
5.00
 41
1.00
 50
0.0000
  1
躯体芯（アングル除く）
  0
TEXT
  8
0_00
 62
7
 10
499.3501
 20
217.4412
 40
5.00
 41
1.00
 50
0.0000
  1
下端見切芯
  0
TEXT
  8
0_00
 62
2
 10
110.4304
 20
520.1407
 40
8.00
 41
1.00
 50
0.0000
  1
屋外側
  0
TEXT
  8
0_00
 62
2
 10
331.2304
 20
520.1407
 40
8.00
 41
1.00
 50
0.0000
  1
建物側
  0
TEXT
  8
0_00
 62
2
 10
498.3706
 20
516.1778
 40
8.00
 41
1.00
 50
0.0000
  1
屋外側
  0
TEXT
  8
0_00
 62
2
 10
719.1707
 20
516.1778
 40
8.00
 41
1.00
 50
0.0000
  1
建物側
  0
TEXT
  8
0_00
 62
2
 10
110.4304
 20
284.1588
 40
8.00
 41
1.00
 50
0.0000
  1
屋外側
  0
TEXT
  8
0_00
 62
2
 10
331.2304
 20
284.1588
 40
8.00
 41
1.00
 50
0.0000
  1
建物側
  0
TEXT
  8
0_00
 62
2
 10
495.8105
 20
289.7151
 40
8.00
 41
1.00
 50
0.0000
  1
屋外側
  0
TEXT
  8
0_00
 62
2
 10
656.6105
 20
289.7151
 40
8.00
 41
1.00
 50
0.0000
  1
建物側
  0
TEXT
  8
0_00
 62
7
 10
46.8603
 20
26.8000
 40
5.00
 41
1.00
 50
0.0000
  1
適用製品
  0
TEXT
  8
0_00
 62
7
 10
86.8603
 20
26.8000
 40
5.00
 41
1.00
 50
0.0000
  1
適用日付
  0
TEXT
  8
0_00
 62
7
 10
119.0603
 20
66.8000
 40
5.00
 41
1.00
 50
0.0000
  1
記事
  0
TEXT
  8
0_00
 62
7
 10
315.0407
 20
56.8000
 40
5.00
 41
1.00
 50
0.0000
  1
階層仕様
  0
TEXT
  8
0_00
 62
7
 10
315.0407
 20
36.8000
 40
5.00
 41
1.00
 50
0.0000
  1
適用躯体
  0
TEXT
  8
0_00
 62
7
 10
420.0407
 20
56.8000
 40
5.00
 41
1.00
 50
0.0000
  1
名　称
  0
TEXT
  8
0_00
 62
7
 10
420.0407
 20
36.8000
 40
5.00
 41
1.00
 50
0.0000
  1
図　名
  0
TEXT
  8
0_00
 62
7
 10
543.2912
 20
66.8305
 40
5.00
 41
1.00
 50
0.0000
  1
Ｎｏ．
  0
TEXT
  8
0_00
 62
7
 10
749.0407
 20
66.8000
 40
5.00
 41
1.00
 50
0.0000
  1
適　　　　　　　　用
  0
TEXT
  8
0_00
 62
7
 10
718.9407
 20
66.8000
 40
5.00
 41
1.00
 50
0.0000
  1
個数
  0
TEXT
  8
0_00
 62
7
 10
682.1407
 20
66.8000
 40
5.00
 41
1.00
 50
0.0000
  1
材　　質
  0
TEXT
  8
0_00
 62
7
 10
617.4407
 20
66.8000
 40
5.00
 41
1.00
 50
0.0000
  1
部　　　品　　　名
  0
TEXT
  8
0_00
 62
7
 10
597.2907
 20
66.8000
 40
5.00
 41
1.00
 50
0.0000
  1
品番
  0
TEXT
  8
0_00
 62
7
 10
567.2407
 20
66.8000
 40
5.00
 41
1.00
 50
0.0000
  1
図　　番
  0
TEXT
  8
0_00
 62
7
 10
544.4407
 20
56.8000
 40
5.00
 41
1.00
 50
0.0000
  1
尺度
  0
TEXT
  8
0_00
 62
7
 10
544.4407
 20
36.8000
 40
5.00
 41
1.00
 50
0.0000
  1
日付
  0
TEXT
  8
0_00
 62
7
 10
618.9294
 20
56.8000
 40
5.00
 41
1.00
 50
0.0000
  1
承認
  0
TEXT
  8
0_00
 62
7
 10
647.0406
 20
56.8000
 40
5.00
 41
1.00
 50
0.0000
  1
検図
  0
TEXT
  8
0_00
 62
7
 10
671.2407
 20
56.8000
 40
5.00
 41
1.00
 50
0.0000
  1
設計
  0
TEXT
  8
0_00
 62
7
 10
696.1407
 20
56.8000
 40
5.00
 41
1.00
 50
0.0000
  1
製図
  0
TEXT
  8
0_00
 62
7
 10
716.3407
 20
36.8000
 40
5.00
 41
1.00
 50
0.0000
  1
図番
  0
TEXT
  8
0_00
 62
2
 10
735.9479
 20
49.4900
 40
8.00
 41
1.00
 50
0.0000
  1
文化シヤッター株式会社
  0
TEXT
  8
0_00
 62
7
 10
133.8603
 20
575.3000
 40
5.00
 41
1.00
 50
180.0000
  1
図番
  0
TEXT
  8
0_00
 62
7
 10
532.7007
 20
569.3446
 40
4.00
 41
1.00
 50
0.0000
  1
ＮＯ
  0
TEXT
  8
0_00
 62
7
 10
550.1407
 20
569.3000
 40
5.00
 41
1.00
 50
0.0000
  1
個　数
  0
TEXT
  8
0_00
 62
7
 10
580.2407
 20
569.3000
 40
5.00
 41
1.00
 50
0.0000
  1
日　　付
  0
TEXT
  8
0_00
 62
7
 10
656.1407
 20
569.3000
 40
5.00
 41
1.00
 50
0.0000
  1
訂　　　正　　　記　　　事
  0
TEXT
  8
0_00
 62
7
 10
558.9407
 20
46.8000
 40
4.50
 41
0.75
 50
0.0000
  1
:
  0
TEXT
  8
0_00
 62
7
 10
758.5808
 20
17.8000
 40
4.00
 41
1.00
 50
0.0000
  1
ＪＩＳ　Ａ－３
  0
TEXT
  8
0_00
 62
7
 10
786.3323
 20
17.7988
 40
4.00
 41
1.00
 50
0.0000
  1
（２９７×４２０）
  0
TEXT
  8
0_00
 62
7
 10
768.7407
 20
569.3000
 40
5.00
 41
1.00
 50
0.0000
  1
担　当
  0
TEXT
  8
0_00
 62
7
 10
792.7407
 20
569.3000
 40
5.00
 41
1.00
 50
0.0000
  1
承　認
  0
TEXT
  8
0_00
 62
7
 10
367.5407
 20
56.8000
 40
5.00
 41
1.00
 50
0.0000
  1
機種名
  0
TEXT
  8
0_00
 62
7
 10
367.5407
 20
36.8000
 40
5.00
 41
1.00
 50
0.0000
  1
型　式
  0
TEXT
  8
0_00
 62
7
 10
139.0000
 20
403.2311
 40
4.50
 41
0.75
 50
90.0000
  1
30
  0
TEXT
  8
0_00
 62
7
 10
210.6304
 20
351.0000
 40
4.50
 41
0.75
 50
0.0000
  1
70
  0
TEXT
  8
0_00
 62
7
 10
210.6304
 20
547.0000
 40
4.50
 41
0.75
 50
0.0000
  1
70
  0
TEXT
  8
0_00
 62
7
 10
279.4304
 20
351.0000
 40
4.50
 41
0.75
 50
0.0000
  1
(20)
  0
TEXT
  8
0_00
 62
7
 10
209.4304
 20
533.0000
 40
4.50
 41
0.75
 50
0.0000
  1
(20)
  0
TEXT
  8
0_00
 62
7
 10
335.0000
 20
440.0000
 40
4.50
 41
0.75
 50
90.0000
  1
(3)
  0
TEXT
  8
0_00
 62
7
 10
335.0000
 20
403.6811
 40
4.50
 41
0.75
 50
90.0000
  1
36.5
  0
TEXT
  8
0_00
 62
7
 10
321.0000
 20
397.0002
 40
4.50
 41
0.75
 50
90.0000
  1
15
  0
TEXT
  8
0_00
 62
7
 10
125.0000
 20
404.1811
 40
4.50
 41
0.75
 50
90.0000
  1
41.5
  0
TEXT
  8
0_00
 62
7
 10
602.3706
 20
532.9822
 40
4.50
 41
0.75
 50
0.0000
  1
(25)
  0
TEXT
  8
0_00
 62
7
 10
201.9304
 20
281.0000
 40
4.50
 41
0.75
 50
0.0000
  1
(25)
  0
TEXT
  8
0_00
 62
7
 10
377.0000
 20
181.8001
 40
4.50
 41
0.75
 50
90.0000
  1
101.5
  0
TEXT
  8
0_00
 62
7
 10
503.0000
 20
136.2367
 40
4.50
 41
0.75
 50
90.0000
  1
30
  0
TEXT
  8
0_00
 62
7
 10
566.0104
 20
99.0000
 40
4.50
 41
0.75
 50
0.0000
  1
70
  0
TEXT
  8
0_00
 62
7
 10
566.0104
 20
281.0000
 40
4.50
 41
0.75
 50
0.0000
  1
70
  0
TEXT
  8
0_00
 62
7
 10
634.8104
 20
99.0000
 40
4.50
 41
0.75
 50
0.0000
  1
(20)
  0
TEXT
  8
0_00
 62
7
 10
558.8104
 20
267.0000
 40
4.50
 41
0.75
 50
0.0000
  1
(18)
  0
TEXT
  8
0_00
 62
7
 10
699.0000
 20
173.0056
 40
4.50
 41
0.75
 50
90.0000
  1
(3)
  0
TEXT
  8
0_00
 62
7
 10
699.0000
 20
136.6867
 40
4.50
 41
0.75
 50
90.0000
  1
36.5
  0
TEXT
  8
0_00
 62
7
 10
685.0000
 20
130.0058
 40
4.50
 41
0.75
 50
90.0000
  1
15
  0
TEXT
  8
0_00
 62
7
 10
489.0000
 20
137.1867
 40
4.50
 41
0.75
 50
90.0000
  1
41.5
  0
TEXT
  8
0_00
 62
7
 10
561.1153
 20
254.8451
 40
5.00
 41
1.00
 50
0.0000
  1
（Ｄ／２－３５）
  0
TEXT
  8
0_00
 62
7
 10
571.4105
 20
295.0000
 40
5.00
 41
1.00
 50
0.0000
  1
躯体寸法：Ｄ
  0
TEXT
  8
0_00
 62
7
 10
690.4553
 20
274.4295
 40
5.00
 41
1.00
 50
90.0000
  1
Ｙ
  0
TEXT
  8
0_00
 62
7
 10
780.9197
 20
233.4908
 40
5.00
 41
1.00
 50
0.0000
  1
Ｘ
  0
TEXT
  8
0_00
 62
7
 10
787.9595
 20
267.6449
 40
4.50
 41
0.75
 50
66.6834
  1
(R)
  0
TEXT
  8
0_00
 62
7
 10
750.1682
 20
217.8868
 40
5.00
 41
1.00
 50
0.0000
  1
※５００≦Ｒ≦１００００
  0
POINT
  8
0_00
 62
4
 10
557.0104
 20
156.1490
  0
POINT
  8
0_00
 62
2
 10
16.0603
 20
9.9994
  0
POINT
  8
0_00
 62
2
 10
16.0603
 20
9.9994
  0
POINT
  8
0_00
 62
2
 10
56.4603
 20
39.8000
  0
POINT
  8
0_00
 62
2
 10
56.4603
 20
49.8000
  0
POINT
  8
0_00
 62
2
 10
56.4603
 20
59.8000
  0
POINT
  8
0_00
 62
2
 10
56.4603
 20
69.8000
  0
POINT
  8
0_00
 62
2
 10
345.9407
 20
50.8000
  0
POINT
  8
0_00
 62
2
 10
345.9407
 20
30.8000
  0
POINT
  8
0_00
 62
2
 10
479.1407
 20
52.8000
  0
POINT
  8
0_00
 62
2
 10
479.1407
 20
32.8000
  0
POINT
  8
0_00
 62
2
 10
731.8407
 20
34.8000
  0
POINT
  8
0_00
 62
2
 10
676.0406
 20
39.8000
  0
POINT
  8
0_00
 62
2
 10
96.4603
 20
39.8000
  0
POINT
  8
0_00
 62
2
 10
96.4603
 20
49.8000
  0
POINT
  8
0_00
 62
2
 10
96.4603
 20
59.8000
  0
POINT
  8
0_00
 62
2
 10
96.4603
 20
69.8000
  0
POINT
  8
0_00
 62
2
 10
570.8407
 20
49.8000
  0
POINT
  8
0_00
 62
2
 10
551.8407
 20
49.8000
  0
POINT
  8
0_00
 62
2
 10
136.4603
 20
69.8000
  0
POINT
  8
0_00
 62
2
 10
136.4603
 20
59.8000
  0
POINT
  8
0_00
 62
2
 10
136.4603
 20
49.8000
  0
POINT
  8
0_00
 62
2
 10
136.4603
 20
39.8000
  0
POINT
  8
0_00
 62
2
 10
136.4603
 20
29.8001
  0
POINT
  8
0_00
 62
2
 10
700.9407
 20
39.8000
  0
POINT
  8
0_00
 62
2
 10
56.4603
 20
29.8001
  0
POINT
  8
0_00
 62
2
 10
96.4603
 20
29.8001
  0
POINT
  8
0_00
 62
2
 10
116.4603
 20
572.3000
  0
POINT
  8
0_00
 62
2
 10
575.0907
 20
32.8000
  0
POINT
  8
0_00
 62
2
 10
398.4407
 20
50.8000
  0
POINT
  8
0_00
 62
2
 10
398.4407
 20
30.8000
  0
ENDSEC
  0
EOF
