999
  
  0
SECTION
  2
HEADER
  9
$EXTMIN
 10
0
 20
0
  9
$EXTMAX
 10
1260
 20
888
  9
$LTSCALE
 40
3.00
  9
$PDMODE
 70
33
  9
$PDSIZE
 40
1.80
  0
ENDSEC
  0
SECTION
  2
TABLES
  0
TABLE
  2
LTYPE
 70
9
  0
LTYPE
  2
CONTINUOUS
 70
64
  3
実線
 72
65
 73
0
 40
0.00
  0
LTYPE
  2
DASHED
 70
64
  3
__  __  __  __  __  __  __ 
 72
65
 73
2
 40
1.00
 49
0.50
 49
-0.50
  0
LTYPE
  2
HIDDEN1
 70
64
  3
____    ____    ____    ___
 72
65
 73
2
 40
2.20
 49
1.20
 49
-1.00
  0
LTYPE
  2
HIDDEN2
 70
64
  3
______  ______  ______  ___
 72
65
 73
2
 40
4.50
 49
3.50
 49
-1.00
  0
LTYPE
  2
CENTER1
 70
64
  3
_______ _ _______ _ _______
 72
65
 73
4
 40
20.00
 49
17.00
 49
-1.00
 49
1.00
 49
-1.00
  0
LTYPE
  2
CENTER2
 70
64
  3
___________  __  __________
 72
65
 73
4
 40
40.00
 49
34.00
 49
-2.00
 49
2.00
 49
-2.00
  0
LTYPE
  2
PHANTOM1
 70
64
  3
______ _ _ ______ _ _ _____
 72
65
 73
6
 40
20.00
 49
15.00
 49
-1.00
 49
1.00
 49
-1.00
 49
1.00
 49
-1.00
  0
LTYPE
  2
PHANTOM2
 70
64
  3
__________  _  _  _________
 72
65
 73
6
 40
40.00
 49
30.00
 49
-2.00
 49
2.00
 49
-2.00
 49
2.00
 49
-2.00
  0
LTYPE
  2
DOT
 70
64
  3
 .  .  .  .  .  .  .  .  . 
 72
65
 73
2
 40
1.00
 49
0.00
 49
-1.00
  0
ENDTAB
  0
TABLE
  2
STYLE
 70
1
  0
STYLE
  2
STANDARD
 70
64
 40
0.0
 41
1.0
 42
0.0
 50
0.0
 71
0
  3
ROMANS
  4
BIGFONT
  0
ENDTAB
  0
TABLE
  2
LAYER
 70
8
  0
LAYER
  2
        _00
 70
64
 62
7
  6
CONTINUOUS
  0
LAYER
  2
2_02
 70
64
 62
7
  6
CONTINUOUS
  0
LAYER
  2
3_03
 70
64
 62
7
  6
CONTINUOUS
  0
LAYER
  2
11_0B
 70
64
 62
7
  6
CONTINUOUS
  0
LAYER
  2
12_0C
 70
64
 62
7
  6
CONTINUOUS
  0
LAYER
  2
13_0D
 70
64
 62
7
  6
CONTINUOUS
  0
LAYER
  2
14_0E
 70
64
 62
7
  6
CONTINUOUS
  0
LAYER
  2
15_0F
 70
64
 62
7
  6
CONTINUOUS
  0
ENDTAB
  0
ENDSEC
  0
SECTION
  2
ENTITIES
  0
LINE
  8
        _00
  6
DASHED
 62
2
 10
246.7000
 20
501.3066
 11
246.7000
 21
476.3066
  0
LINE
  8
        _00
  6
DASHED
 62
2
 10
203.7000
 20
501.3066
 11
203.7000
 21
476.3066
  0
LINE
  8
        _00
  6
CENTER1
 62
6
 10
250.2000
 20
482.8143
 11
250.2000
 21
418.0706
  0
LINE
  8
        _00
  6
CONTINUOUS
 62
2
 10
241.7000
 20
475.8066
 11
258.7000
 21
475.8066
  0
LINE
  8
        _00
  6
CONTINUOUS
 62
2
 10
241.7000
 20
473.8066
 11
258.7000
 21
473.8066
  0
LINE
  8
        _00
  6
CONTINUOUS
 62
2
 10
258.7000
 20
475.8066
 11
258.7000
 21
473.8066
  0
LINE
  8
        _00
  6
CONTINUOUS
 62
2
 10
241.7000
 20
475.8066
 11
241.7000
 21
473.8066
  0
LINE
  8
        _00
  6
DASHED
 62
2
 10
244.9602
 20
472.7384
 11
246.0285
 21
473.8066
  0
LINE
  8
        _00
  6
DASHED
 62
2
 10
246.8568
 20
471.8066
 11
248.8569
 21
473.8066
  0
LINE
  8
        _00
  6
DASHED
 62
2
 10
249.6853
 20
471.8066
 11
251.6853
 21
473.8066
  0
LINE
  8
        _00
  6
DASHED
 62
2
 10
252.5137
 20
471.8066
 11
254.5137
 21
473.8066
  0
LINE
  8
        _00
  6
DASHED
 62
2
 10
255.3421
 20
471.8066
 11
255.2926
 21
471.7570
  0
LINE
  8
        _00
  6
DASHED
 62
2
 10
252.7000
 20
475.8066
 11
252.7000
 21
430.1367
  0
LINE
  8
        _00
  6
CONTINUOUS
 62
2
 10
244.3000
 20
475.8066
 11
256.1000
 21
475.8066
  0
LINE
  8
        _00
  6
CONTINUOUS
 62
2
 10
256.1000
 20
476.1543
 11
256.1000
 21
475.8066
  0
LINE
  8
        _00
  6
DASHED
 62
2
 10
251.9500
 20
475.8066
 11
251.9500
 21
428.8377
  0
LINE
  8
        _00
  6
DASHED
 62
2
 10
247.7000
 20
475.8066
 11
247.7000
 21
430.1367
  0
LINE
  8
        _00
  6
CONTINUOUS
 62
2
 10
244.3000
 20
476.1543
 11
244.3000
 21
475.8066
  0
LINE
  8
        _00
  6
DASHED
 62
2
 10
248.4500
 20
475.8066
 11
248.4500
 21
428.8377
  0
LINE
  8
        _00
  6
DASHED
 62
2
 10
250.2000
 20
425.8066
 11
247.7000
 21
430.1367
  0
LINE
  8
        _00
  6
CONTINUOUS
 62
2
 10
244.3000
 20
476.1543
 11
256.1000
 21
476.1543
  0
LINE
  8
        _00
  6
CENTER1
 62
6
 10
200.2000
 20
482.8143
 11
200.2000
 21
418.0706
  0
LINE
  8
        _00
  6
CONTINUOUS
 62
4
 10
290.2000
 20
466.3065
 11
160.2000
 21
466.3065
  0
LINE
  8
        _00
  6
CONTINUOUS
 62
4
 10
160.2000
 20
466.3065
 11
150.2000
 21
456.3066
  0
LINE
  8
        _00
  6
CONTINUOUS
 62
4
 10
150.2000
 20
391.1036
 11
150.2000
 21
456.3066
  0
LINE
  8
        _00
  6
CONTINUOUS
 62
4
 10
284.2000
 20
455.3066
 11
166.2000
 21
455.3066
  0
LINE
  8
        _00
  6
CONTINUOUS
 62
4
 10
166.2000
 20
391.1036
 11
166.2000
 21
455.3066
  0
LINE
  8
        _00
  6
CONTINUOUS
 62
4
 10
290.2000
 20
466.3065
 11
300.2000
 21
456.3066
  0
LINE
  8
        _00
  6
CONTINUOUS
 62
4
 10
300.2000
 20
429.6458
 11
300.2000
 21
456.3066
  0
LINE
  8
        _00
  6
CONTINUOUS
 62
4
 10
284.2000
 20
429.6458
 11
284.2000
 21
455.3066
  0
LINE
  8
        _00
  6
CENTER1
 62
6
 10
571.4383
 20
355.2564
 11
571.4383
 21
245.1677
  0
LINE
  8
        _00
  6
CENTER1
 62
6
 10
969.8160
 20
318.2827
 11
1009.4084
 21
318.2827
  0
LINE
  8
        _00
  6
CENTER1
 62
6
 10
979.8092
 20
326.4307
 11
979.8092
 21
274.1347
  0
LINE
  8
        _00
  6
CENTER1
 62
6
 10
964.0708
 20
282.2827
 11
1009.4084
 21
282.2827
  0
LINE
  8
14_0E
  6
CONTINUOUS
 62
6
 10
150.2000
 20
350.7105
 11
150.2000
 21
345.5000
  0
LINE
  8
14_0E
  6
CONTINUOUS
 62
6
 10
200.2000
 20
406.6120
 11
200.2000
 21
348.5000
  0
LINE
  8
14_0E
  6
CONTINUOUS
 62
6
 10
200.2000
 20
350.7105
 11
200.2000
 21
345.5000
  0
LINE
  8
14_0E
  6
CONTINUOUS
 62
6
 10
150.2000
 20
348.5000
 11
200.2000
 21
348.5000
  0
LINE
  8
14_0E
  6
CONTINUOUS
 62
6
 10
150.2000
 20
348.5000
 11
157.5361
 21
346.9407
  0
LINE
  8
14_0E
  6
CONTINUOUS
 62
6
 10
150.2000
 20
348.5000
 11
157.5361
 21
350.0593
  0
LINE
  8
14_0E
  6
CONTINUOUS
 62
6
 10
200.2000
 20
348.5000
 11
192.8639
 21
350.0593
  0
LINE
  8
14_0E
  6
CONTINUOUS
 62
6
 10
200.2000
 20
348.5000
 11
192.8639
 21
346.9407
  0
LINE
  8
14_0E
  6
CONTINUOUS
 62
6
 10
250.2000
 20
406.6120
 11
250.2000
 21
345.5000
  0
LINE
  8
14_0E
  6
CONTINUOUS
 62
6
 10
200.2000
 20
348.5000
 11
250.2000
 21
348.5000
  0
LINE
  8
14_0E
  6
CONTINUOUS
 62
6
 10
200.2000
 20
348.5000
 11
207.5361
 21
346.9407
  0
LINE
  8
14_0E
  6
CONTINUOUS
 62
6
 10
200.2000
 20
348.5000
 11
207.5361
 21
350.0593
  0
LINE
  8
14_0E
  6
CONTINUOUS
 62
6
 10
250.2000
 20
348.5000
 11
242.8639
 21
350.0593
  0
LINE
  8
14_0E
  6
CONTINUOUS
 62
6
 10
250.2000
 20
348.5000
 11
242.8639
 21
346.9407
  0
LINE
  8
        _00
  6
DASHED
 62
2
 10
252.7000
 20
430.1367
 11
250.2000
 21
425.8066
  0
LINE
  8
        _00
  6
DASHED
 62
2
 10
245.1000
 20
471.8066
 11
255.3000
 21
471.8066
  0
LINE
  8
        _00
  6
DASHED
 62
2
 10
253.4500
 20
471.8066
 11
253.4500
 21
466.3065
  0
LINE
  8
        _00
  6
DASHED
 62
2
 10
246.9500
 20
471.8066
 11
246.9500
 21
466.3065
  0
LINE
  8
        _00
  6
DASHED
 62
2
 10
255.3000
 20
471.8066
 11
255.6000
 21
473.8066
  0
LINE
  8
        _00
  6
DASHED
 62
2
 10
245.1000
 20
471.8066
 11
244.8000
 21
473.8066
  0
LINE
  8
        _00
  6
DASHED
 62
2
 10
246.7000
 20
476.3066
 11
203.7000
 21
476.3066
  0
LINE
  8
        _00
  6
CONTINUOUS
 62
2
 10
191.7000
 20
475.8066
 11
208.7000
 21
475.8066
  0
LINE
  8
        _00
  6
CONTINUOUS
 62
2
 10
191.7000
 20
473.8066
 11
208.7000
 21
473.8066
  0
LINE
  8
        _00
  6
CONTINUOUS
 62
2
 10
208.7000
 20
475.8066
 11
208.7000
 21
473.8066
  0
LINE
  8
        _00
  6
CONTINUOUS
 62
2
 10
191.7000
 20
475.8066
 11
191.7000
 21
473.8066
  0
LINE
  8
        _00
  6
DASHED
 62
2
 10
194.9602
 20
472.7384
 11
196.0284
 21
473.8066
  0
LINE
  8
        _00
  6
DASHED
 62
2
 10
196.8568
 20
471.8066
 11
198.8568
 21
473.8066
  0
LINE
  8
        _00
  6
DASHED
 62
2
 10
199.6853
 20
471.8066
 11
201.6853
 21
473.8066
  0
LINE
  8
        _00
  6
DASHED
 62
2
 10
202.5137
 20
471.8066
 11
204.5137
 21
473.8066
  0
LINE
  8
        _00
  6
DASHED
 62
2
 10
205.3421
 20
471.8066
 11
205.2926
 21
471.7570
  0
LINE
  8
        _00
  6
DASHED
 62
2
 10
202.7000
 20
475.8066
 11
202.7000
 21
430.1367
  0
LINE
  8
        _00
  6
CONTINUOUS
 62
2
 10
194.3000
 20
475.8066
 11
206.1000
 21
475.8066
  0
LINE
  8
        _00
  6
CONTINUOUS
 62
2
 10
206.1000
 20
476.1543
 11
206.1000
 21
475.8066
  0
LINE
  8
        _00
  6
DASHED
 62
2
 10
201.9500
 20
475.8066
 11
201.9500
 21
428.8377
  0
LINE
  8
        _00
  6
DASHED
 62
2
 10
197.7000
 20
475.8066
 11
197.7000
 21
430.1367
  0
LINE
  8
        _00
  6
CONTINUOUS
 62
2
 10
194.3000
 20
476.1543
 11
194.3000
 21
475.8066
  0
LINE
  8
        _00
  6
DASHED
 62
2
 10
198.4500
 20
475.8066
 11
198.4500
 21
428.8377
  0
LINE
  8
        _00
  6
DASHED
 62
2
 10
200.2000
 20
425.8066
 11
197.7000
 21
430.1367
  0
LINE
  8
        _00
  6
CONTINUOUS
 62
2
 10
194.3000
 20
476.1543
 11
206.1000
 21
476.1543
  0
LINE
  8
        _00
  6
DASHED
 62
2
 10
202.7000
 20
430.1367
 11
200.2000
 21
425.8066
  0
LINE
  8
        _00
  6
DASHED
 62
2
 10
195.1000
 20
471.8066
 11
205.3000
 21
471.8066
  0
LINE
  8
        _00
  6
DASHED
 62
2
 10
203.4500
 20
471.8066
 11
203.4500
 21
466.3065
  0
LINE
  8
        _00
  6
DASHED
 62
2
 10
196.9500
 20
471.8066
 11
196.9500
 21
466.3065
  0
LINE
  8
        _00
  6
DASHED
 62
2
 10
205.3000
 20
471.8066
 11
205.6000
 21
473.8066
  0
LINE
  8
        _00
  6
DASHED
 62
2
 10
195.1000
 20
471.8066
 11
194.8000
 21
473.8066
  0
LINE
  8
        _00
  6
CENTER1
 62
6
 10
1000.8092
 20
326.4307
 11
1000.8092
 21
274.1347
  0
LINE
  8
        _00
  6
CENTER1
 62
6
 10
260.5675
 20
493.8066
 11
190.7128
 21
493.8066
  0
LINE
  8
        _00
  6
CONTINUOUS
 62
4
 10
203.7000
 20
501.3066
 11
203.7000
 21
620.3066
  0
LINE
  8
        _00
  6
CONTINUOUS
 62
4
 10
246.7000
 20
501.3066
 11
246.7000
 21
620.3066
  0
LINE
  8
        _00
  6
CENTER1
 62
6
 10
225.2000
 20
678.9785
 11
225.2000
 21
380.9149
  0
LINE
  8
        _00
  6
CENTER1
 62
6
 10
480.1317
 20
300.2827
 11
651.2961
 21
300.2827
  0
LINE
  8
        _00
  6
CENTER1
 62
6
 10
677.6044
 20
300.2827
 11
1092.7588
 21
300.2827
  0
LINE
  8
        _00
  6
CONTINUOUS
 62
4
 10
990.0092
 20
334.2827
 11
990.6093
 21
334.2827
  0
LINE
  8
        _00
  6
CONTINUOUS
 62
4
 10
990.3092
 20
335.9827
 11
990.3092
 21
334.2827
  0
LINE
  8
        _00
  6
CONTINUOUS
 62
4
 10
990.6093
 20
336.2827
 11
990.6093
 21
334.2827
  0
LINE
  8
        _00
  6
CONTINUOUS
 62
4
 10
990.0092
 20
336.2827
 11
990.0092
 21
334.2827
  0
LINE
  8
        _00
  6
CONTINUOUS
 62
4
 10
990.0092
 20
266.2827
 11
990.6093
 21
266.2827
  0
LINE
  8
        _00
  6
CONTINUOUS
 62
4
 10
990.3092
 20
264.5827
 11
990.3092
 21
266.2827
  0
LINE
  8
        _00
  6
CONTINUOUS
 62
4
 10
990.6093
 20
264.2827
 11
990.6093
 21
266.2827
  0
LINE
  8
        _00
  6
CONTINUOUS
 62
4
 10
990.0092
 20
264.2827
 11
990.0092
 21
266.2827
  0
LINE
  8
        _00
  6
CONTINUOUS
 62
4
 10
990.3092
 20
335.9827
 11
990.0092
 21
336.2827
  0
LINE
  8
        _00
  6
CONTINUOUS
 62
4
 10
990.6093
 20
336.2827
 11
990.3092
 21
335.9827
  0
LINE
  8
        _00
  6
CONTINUOUS
 62
4
 10
958.8092
 20
336.2827
 11
990.0092
 21
336.2827
  0
LINE
  8
        _00
  6
CONTINUOUS
 62
4
 10
990.6093
 20
336.2827
 11
1021.8092
 21
336.2827
  0
LINE
  8
        _00
  6
CONTINUOUS
 62
4
 10
990.3092
 20
264.5827
 11
990.0092
 21
264.2827
  0
LINE
  8
        _00
  6
CONTINUOUS
 62
4
 10
990.6093
 20
264.2827
 11
990.3092
 21
264.5827
  0
LINE
  8
        _00
  6
CONTINUOUS
 62
4
 10
958.8092
 20
264.2827
 11
990.0092
 21
264.2827
  0
LINE
  8
        _00
  6
CONTINUOUS
 62
4
 10
990.6093
 20
264.2827
 11
1021.8092
 21
264.2827
  0
LINE
  8
        _00
  6
CONTINUOUS
 62
4
 10
990.3092
 20
328.8833
 11
990.3092
 21
271.6821
  0
LINE
  8
        _00
  6
DASHED
 62
2
 10
207.2000
 20
622.8066
 11
207.2000
 21
617.0835
  0
LINE
  8
        _00
  6
CONTINUOUS
 62
4
 10
237.5000
 20
622.3066
 11
225.5000
 21
622.3066
  0
LINE
  8
        _00
  6
CONTINUOUS
 62
4
 10
237.5000
 20
622.3066
 11
237.9000
 21
620.8066
  0
LINE
  8
        _00
  6
CONTINUOUS
 62
4
 10
243.2000
 20
621.1066
 11
242.9000
 21
620.8066
  0
LINE
  8
        _00
  6
CONTINUOUS
 62
4
 10
243.2000
 20
621.1066
 11
243.5000
 21
620.8066
  0
LINE
  8
        _00
  6
CONTINUOUS
 62
4
 10
207.2000
 20
621.1066
 11
207.5000
 21
620.8066
  0
LINE
  8
        _00
  6
CONTINUOUS
 62
4
 10
207.2000
 20
621.1066
 11
206.9000
 21
620.8066
  0
LINE
  8
15_0F
  6
CONTINUOUS
 62
4
 10
202.7000
 20
620.3066
 11
247.7000
 21
620.3066
  0
LINE
  8
        _00
  6
CENTER1
 62
6
 10
207.2000
 20
627.6891
 11
207.2000
 21
588.7812
  0
LINE
  8
        _00
  6
CONTINUOUS
 62
4
 10
606.6076
 20
556.5687
 11
1169.1076
 21
556.5687
  0
LINE
  8
        _00
  6
CENTER1
 62
6
 10
617.8576
 20
716.6194
 11
617.8576
 21
676.5093
  0
LINE
  8
        _00
  6
CONTINUOUS
 62
2
 10
827.4174
 20
727.6025
 11
827.4174
 21
672.7516
  0
LINE
  8
        _00
  6
CONTINUOUS
 62
2
 10
827.4174
 20
727.6025
 11
811.6280
 21
727.6025
  0
LINE
  8
        _00
  6
CONTINUOUS
 62
2
 10
811.6280
 20
727.6025
 11
818.9641
 21
726.0432
  0
LINE
  8
        _00
  6
CONTINUOUS
 62
2
 10
811.6280
 20
727.6025
 11
818.9641
 21
729.1619
  0
LINE
  8
        _00
  6
CONTINUOUS
 62
2
 10
827.4174
 20
672.7516
 11
811.6280
 21
672.7516
  0
LINE
  8
        _00
  6
CONTINUOUS
 62
2
 10
811.6280
 20
672.7516
 11
818.9641
 21
671.1923
  0
LINE
  8
        _00
  6
CONTINUOUS
 62
2
 10
811.6280
 20
672.7516
 11
818.9641
 21
674.3109
  0
LINE
  8
        _00
  6
CONTINUOUS
 62
2
 10
774.8282
 20
689.9807
 11
887.7312
 21
689.9807
  0
LINE
  8
        _00
  6
CONTINUOUS
 62
2
 10
887.7312
 20
689.9807
 11
887.7312
 21
708.7536
  0
LINE
  8
        _00
  6
CENTER1
 62
6
 10
1157.8576
 20
716.6194
 11
1157.8576
 21
676.5093
  0
LINE
  8
        _00
  6
CONTINUOUS
 62
2
 10
774.8282
 20
689.9807
 11
774.8282
 21
667.0028
  0
LINE
  8
        _00
  6
CONTINUOUS
 62
2
 10
774.8282
 20
667.0028
 11
776.3875
 21
674.3389
  0
LINE
  8
        _00
  6
CONTINUOUS
 62
2
 10
774.8282
 20
667.0028
 11
773.2688
 21
674.3389
  0
LINE
  8
        _00
  6
CENTER1
 62
6
 10
655.3577
 20
716.6194
 11
655.3577
 21
676.5093
  0
LINE
  8
        _00
  6
CENTER1
 62
6
 10
1120.3576
 20
716.6194
 11
1120.3576
 21
676.5093
  0
LINE
  8
        _00
  6
CENTER1
 62
6
 10
965.3577
 20
716.6194
 11
965.3577
 21
676.5093
  0
LINE
  8
        _00
  6
CENTER1
 62
6
 10
810.3576
 20
716.6194
 11
810.3576
 21
676.5093
  0
LINE
  8
15_0F
  6
CONTINUOUS
 62
2
 10
887.7312
 20
708.7536
 11
992.5682
 21
708.7536
  0
LINE
  8
        _00
  6
CONTINUOUS
 62
2
 10
992.5682
 20
708.7536
 11
992.5682
 21
667.0028
  0
LINE
  8
        _00
  6
CONTINUOUS
 62
2
 10
992.5682
 20
667.0028
 11
994.1276
 21
674.3389
  0
LINE
  8
        _00
  6
CONTINUOUS
 62
2
 10
992.5682
 20
667.0028
 11
991.0089
 21
674.3389
  0
LINE
  8
        _00
  6
CONTINUOUS
 62
4
 10
1161.0827
 20
704.7235
 11
1161.0827
 21
687.0685
  0
LINE
  8
        _00
  6
CONTINUOUS
 62
4
 10
1154.6326
 20
704.7235
 11
1154.6326
 21
687.0685
  0
LINE
  8
3_03
  6
CONTINUOUS
 62
4
 10
1153.2827
 20
711.9234
 11
1157.7621
 21
711.9234
  0
LINE
  8
3_03
  6
CONTINUOUS
 62
4
 10
1162.3576
 20
704.7235
 11
1153.2827
 21
704.7235
  0
LINE
  8
3_03
  6
CONTINUOUS
 62
4
 10
1153.2076
 20
704.7685
 11
1153.2076
 21
711.8484
  0
LINE
  8
3_03
  6
CONTINUOUS
 62
4
 10
1162.4326
 20
710.7270
 11
1162.4326
 21
704.7985
  0
LINE
  8
        _00
  6
CONTINUOUS
 62
4
 10
622.5076
 20
704.7685
 11
1153.2076
 21
704.7685
  0
LINE
  8
        _00
  6
CONTINUOUS
 62
4
 10
622.5076
 20
711.8184
 11
1153.2076
 21
711.8184
  0
LINE
  8
        _00
  6
CONTINUOUS
 62
4
 10
1122.4576
 20
704.7685
 11
1122.4576
 21
687.0685
  0
LINE
  8
        _00
  6
CONTINUOUS
 62
4
 10
1118.2577
 20
704.7685
 11
1118.2577
 21
687.0685
  0
LINE
  8
        _00
  6
CONTINUOUS
 62
4
 10
967.4576
 20
704.7685
 11
967.4576
 21
687.0685
  0
LINE
  8
        _00
  6
CONTINUOUS
 62
4
 10
963.2577
 20
704.7685
 11
963.2577
 21
687.0685
  0
LINE
  8
        _00
  6
CONTINUOUS
 62
4
 10
614.6326
 20
704.7235
 11
614.6326
 21
687.0685
  0
LINE
  8
        _00
  6
CONTINUOUS
 62
4
 10
621.0827
 20
704.7235
 11
621.0827
 21
687.0685
  0
LINE
  8
3_03
  6
CONTINUOUS
 62
4
 10
622.4326
 20
711.9234
 11
617.9531
 21
711.9234
  0
LINE
  8
3_03
  6
CONTINUOUS
 62
4
 10
613.3577
 20
704.7235
 11
622.4326
 21
704.7235
  0
LINE
  8
3_03
  6
CONTINUOUS
 62
4
 10
622.5076
 20
704.7685
 11
622.5076
 21
711.8484
  0
LINE
  8
3_03
  6
CONTINUOUS
 62
4
 10
613.2827
 20
710.7270
 11
613.2827
 21
704.7985
  0
LINE
  8
        _00
  6
CONTINUOUS
 62
4
 10
653.2576
 20
704.7685
 11
653.2576
 21
687.0685
  0
LINE
  8
        _00
  6
CONTINUOUS
 62
4
 10
657.4577
 20
704.7685
 11
657.4577
 21
687.0685
  0
LINE
  8
        _00
  6
CONTINUOUS
 62
4
 10
808.2577
 20
704.7685
 11
808.2577
 21
687.0685
  0
LINE
  8
        _00
  6
CONTINUOUS
 62
4
 10
812.4576
 20
704.7685
 11
812.4576
 21
687.0685
  0
LINE
  8
        _00
  6
CONTINUOUS
 62
4
 10
608.3476
 20
681.8185
 11
1167.3677
 21
681.8185
  0
LINE
  8
        _00
  6
CONTINUOUS
 62
4
 10
658.1326
 20
681.8185
 11
661.9577
 21
681.8185
  0
LINE
  8
        _00
  6
CONTINUOUS
 62
4
 10
655.3577
 20
681.8185
 11
648.7576
 21
681.8185
  0
LINE
  8
        _00
  6
CONTINUOUS
 62
4
 10
662.1077
 20
682.3435
 11
662.1077
 21
681.9685
  0
LINE
  8
        _00
  6
CONTINUOUS
 62
4
 10
662.1077
 20
681.9685
 11
661.9577
 21
681.8185
  0
LINE
  8
        _00
  6
CONTINUOUS
 62
4
 10
657.7576
 20
681.8185
 11
661.9577
 21
681.8185
  0
LINE
  8
        _00
  6
CONTINUOUS
 62
4
 10
649.2077
 20
682.9435
 11
661.5076
 21
682.9435
  0
LINE
  8
        _00
  6
CONTINUOUS
 62
4
 10
652.7919
 20
687.0685
 11
657.9234
 21
687.0685
  0
LINE
  8
        _00
  6
CONTINUOUS
 62
4
 10
648.6076
 20
681.9685
 11
662.1077
 21
681.9685
  0
LINE
  8
        _00
  6
CONTINUOUS
 62
4
 10
657.7576
 20
681.9685
 11
657.7576
 21
681.8185
  0
LINE
  8
        _00
  6
CONTINUOUS
 62
4
 10
648.6076
 20
682.3435
 11
648.6076
 21
681.9685
  0
LINE
  8
        _00
  6
CONTINUOUS
 62
4
 10
648.6076
 20
681.9685
 11
648.7576
 21
681.8185
  0
LINE
  8
        _00
  6
CONTINUOUS
 62
4
 10
652.9576
 20
681.8185
 11
648.7576
 21
681.8185
  0
LINE
  8
        _00
  6
CONTINUOUS
 62
4
 10
652.9576
 20
681.9685
 11
652.9576
 21
681.8185
  0
LINE
  8
        _00
  6
CONTINUOUS
 62
4
 10
658.4023
 20
683.3608
 11
658.1478
 21
686.8598
  0
LINE
  8
        _00
  6
CONTINUOUS
 62
4
 10
652.3130
 20
683.3608
 11
652.5675
 21
686.8598
  0
LINE
  8
        _00
  6
CONTINUOUS
 62
2
 10
649.2077
 20
683.2435
 11
651.7576
 21
683.2435
  0
LINE
  8
        _00
  6
CONTINUOUS
 62
2
 10
649.2077
 20
682.9435
 11
651.7576
 21
682.9435
  0
LINE
  8
        _00
  6
CONTINUOUS
 62
2
 10
651.7576
 20
683.2435
 11
651.7576
 21
682.9435
  0
LINE
  8
        _00
  6
CONTINUOUS
 62
2
 10
649.2077
 20
683.2435
 11
649.2077
 21
682.9435
  0
LINE
  8
        _00
  6
CONTINUOUS
 62
2
 10
649.5977
 20
683.2435
 11
651.3677
 21
683.2435
  0
LINE
  8
        _00
  6
CONTINUOUS
 62
2
 10
651.3677
 20
683.2956
 11
651.3677
 21
683.2435
  0
LINE
  8
        _00
  6
CONTINUOUS
 62
2
 10
649.5977
 20
683.2956
 11
649.5977
 21
683.2435
  0
LINE
  8
        _00
  6
CONTINUOUS
 62
2
 10
649.5977
 20
683.2956
 11
651.3677
 21
683.2956
  0
LINE
  8
        _00
  6
CONTINUOUS
 62
2
 10
658.9577
 20
683.2435
 11
661.5076
 21
683.2435
  0
LINE
  8
        _00
  6
CONTINUOUS
 62
2
 10
658.9577
 20
682.9435
 11
661.5076
 21
682.9435
  0
LINE
  8
        _00
  6
CONTINUOUS
 62
2
 10
661.5076
 20
683.2435
 11
661.5076
 21
682.9435
  0
LINE
  8
        _00
  6
CONTINUOUS
 62
2
 10
658.9577
 20
683.2435
 11
658.9577
 21
682.9435
  0
LINE
  8
        _00
  6
CONTINUOUS
 62
2
 10
659.3477
 20
683.2435
 11
661.1177
 21
683.2435
  0
LINE
  8
        _00
  6
CONTINUOUS
 62
2
 10
661.1177
 20
683.2956
 11
661.1177
 21
683.2435
  0
LINE
  8
        _00
  6
CONTINUOUS
 62
2
 10
659.3477
 20
683.2956
 11
659.3477
 21
683.2435
  0
LINE
  8
        _00
  6
CONTINUOUS
 62
2
 10
659.3477
 20
683.2956
 11
661.1177
 21
683.2956
  0
LINE
  8
        _00
  6
CONTINUOUS
 62
4
 10
813.1327
 20
681.8185
 11
816.9576
 21
681.8185
  0
LINE
  8
        _00
  6
CONTINUOUS
 62
4
 10
810.3576
 20
681.8185
 11
803.7576
 21
681.8185
  0
LINE
  8
        _00
  6
CONTINUOUS
 62
4
 10
817.1077
 20
682.3435
 11
817.1077
 21
681.9685
  0
LINE
  8
        _00
  6
CONTINUOUS
 62
4
 10
817.1077
 20
681.9685
 11
816.9576
 21
681.8185
  0
LINE
  8
        _00
  6
CONTINUOUS
 62
4
 10
812.7577
 20
681.8185
 11
816.9576
 21
681.8185
  0
LINE
  8
        _00
  6
CONTINUOUS
 62
4
 10
804.2076
 20
682.9435
 11
816.5076
 21
682.9435
  0
LINE
  8
        _00
  6
CONTINUOUS
 62
4
 10
807.7919
 20
687.0685
 11
812.9234
 21
687.0685
  0
LINE
  8
        _00
  6
CONTINUOUS
 62
4
 10
803.6077
 20
681.9685
 11
817.1077
 21
681.9685
  0
LINE
  8
        _00
  6
CONTINUOUS
 62
4
 10
812.7577
 20
681.9685
 11
812.7577
 21
681.8185
  0
LINE
  8
        _00
  6
CONTINUOUS
 62
4
 10
803.6077
 20
682.3435
 11
803.6077
 21
681.9685
  0
LINE
  8
        _00
  6
CONTINUOUS
 62
4
 10
803.6077
 20
681.9685
 11
803.7576
 21
681.8185
  0
LINE
  8
        _00
  6
CONTINUOUS
 62
4
 10
807.9576
 20
681.8185
 11
803.7576
 21
681.8185
  0
LINE
  8
        _00
  6
CONTINUOUS
 62
4
 10
807.9576
 20
681.9685
 11
807.9576
 21
681.8185
  0
LINE
  8
        _00
  6
CONTINUOUS
 62
4
 10
813.4023
 20
683.3608
 11
813.1478
 21
686.8598
  0
LINE
  8
        _00
  6
CONTINUOUS
 62
4
 10
807.3130
 20
683.3608
 11
807.5674
 21
686.8598
  0
LINE
  8
        _00
  6
CONTINUOUS
 62
2
 10
804.2076
 20
683.2435
 11
806.7577
 21
683.2435
  0
LINE
  8
        _00
  6
CONTINUOUS
 62
2
 10
804.2076
 20
682.9435
 11
806.7577
 21
682.9435
  0
LINE
  8
        _00
  6
CONTINUOUS
 62
2
 10
806.7577
 20
683.2435
 11
806.7577
 21
682.9435
  0
LINE
  8
        _00
  6
CONTINUOUS
 62
2
 10
804.2076
 20
683.2435
 11
804.2076
 21
682.9435
  0
LINE
  8
        _00
  6
CONTINUOUS
 62
2
 10
804.5977
 20
683.2435
 11
806.3676
 21
683.2435
  0
LINE
  8
        _00
  6
CONTINUOUS
 62
2
 10
806.3676
 20
683.2956
 11
806.3676
 21
683.2435
  0
LINE
  8
        _00
  6
CONTINUOUS
 62
2
 10
804.5977
 20
683.2956
 11
804.5977
 21
683.2435
  0
LINE
  8
        _00
  6
CONTINUOUS
 62
2
 10
804.5977
 20
683.2956
 11
806.3676
 21
683.2956
  0
LINE
  8
        _00
  6
CONTINUOUS
 62
2
 10
813.9576
 20
683.2435
 11
816.5076
 21
683.2435
  0
LINE
  8
        _00
  6
CONTINUOUS
 62
2
 10
813.9576
 20
682.9435
 11
816.5076
 21
682.9435
  0
LINE
  8
        _00
  6
CONTINUOUS
 62
2
 10
816.5076
 20
683.2435
 11
816.5076
 21
682.9435
  0
LINE
  8
        _00
  6
CONTINUOUS
 62
2
 10
813.9576
 20
683.2435
 11
813.9576
 21
682.9435
  0
LINE
  8
        _00
  6
CONTINUOUS
 62
2
 10
814.3477
 20
683.2435
 11
816.1176
 21
683.2435
  0
LINE
  8
        _00
  6
CONTINUOUS
 62
2
 10
816.1176
 20
683.2956
 11
816.1176
 21
683.2435
  0
LINE
  8
        _00
  6
CONTINUOUS
 62
2
 10
814.3477
 20
683.2956
 11
814.3477
 21
683.2435
  0
LINE
  8
        _00
  6
CONTINUOUS
 62
2
 10
814.3477
 20
683.2956
 11
816.1176
 21
683.2956
  0
LINE
  8
        _00
  6
CONTINUOUS
 62
4
 10
968.1326
 20
681.8185
 11
971.9576
 21
681.8185
  0
LINE
  8
        _00
  6
CONTINUOUS
 62
4
 10
965.3577
 20
681.8185
 11
958.7577
 21
681.8185
  0
LINE
  8
        _00
  6
CONTINUOUS
 62
4
 10
972.1077
 20
682.3435
 11
972.1077
 21
681.9685
  0
LINE
  8
        _00
  6
CONTINUOUS
 62
4
 10
972.1077
 20
681.9685
 11
971.9576
 21
681.8185
  0
LINE
  8
        _00
  6
CONTINUOUS
 62
4
 10
967.7577
 20
681.8185
 11
971.9576
 21
681.8185
  0
LINE
  8
        _00
  6
CONTINUOUS
 62
4
 10
959.2076
 20
682.9435
 11
971.5077
 21
682.9435
  0
LINE
  8
        _00
  6
CONTINUOUS
 62
4
 10
962.7919
 20
687.0685
 11
967.9234
 21
687.0685
  0
LINE
  8
        _00
  6
CONTINUOUS
 62
4
 10
958.6077
 20
681.9685
 11
972.1077
 21
681.9685
  0
LINE
  8
        _00
  6
CONTINUOUS
 62
4
 10
967.7577
 20
681.9685
 11
967.7577
 21
681.8185
  0
LINE
  8
        _00
  6
CONTINUOUS
 62
4
 10
958.6077
 20
682.3435
 11
958.6077
 21
681.9685
  0
LINE
  8
        _00
  6
CONTINUOUS
 62
4
 10
958.6077
 20
681.9685
 11
958.7577
 21
681.8185
  0
LINE
  8
        _00
  6
CONTINUOUS
 62
4
 10
962.9577
 20
681.8185
 11
958.7577
 21
681.8185
  0
LINE
  8
        _00
  6
CONTINUOUS
 62
4
 10
962.9577
 20
681.9685
 11
962.9577
 21
681.8185
  0
LINE
  8
        _00
  6
CONTINUOUS
 62
4
 10
968.4023
 20
683.3608
 11
968.1478
 21
686.8598
  0
LINE
  8
        _00
  6
CONTINUOUS
 62
4
 10
962.3130
 20
683.3608
 11
962.5675
 21
686.8598
  0
LINE
  8
        _00
  6
CONTINUOUS
 62
2
 10
959.2076
 20
683.2435
 11
961.7577
 21
683.2435
  0
LINE
  8
        _00
  6
CONTINUOUS
 62
2
 10
959.2076
 20
682.9435
 11
961.7577
 21
682.9435
  0
LINE
  8
        _00
  6
CONTINUOUS
 62
2
 10
961.7577
 20
683.2435
 11
961.7577
 21
682.9435
  0
LINE
  8
        _00
  6
CONTINUOUS
 62
2
 10
959.2076
 20
683.2435
 11
959.2076
 21
682.9435
  0
LINE
  8
        _00
  6
CONTINUOUS
 62
2
 10
959.5976
 20
683.2435
 11
961.3677
 21
683.2435
  0
LINE
  8
        _00
  6
CONTINUOUS
 62
2
 10
961.3677
 20
683.2956
 11
961.3677
 21
683.2435
  0
LINE
  8
        _00
  6
CONTINUOUS
 62
2
 10
959.5976
 20
683.2956
 11
959.5976
 21
683.2435
  0
LINE
  8
        _00
  6
CONTINUOUS
 62
2
 10
959.5976
 20
683.2956
 11
961.3677
 21
683.2956
  0
LINE
  8
        _00
  6
CONTINUOUS
 62
2
 10
968.9576
 20
683.2435
 11
971.5077
 21
683.2435
  0
LINE
  8
        _00
  6
CONTINUOUS
 62
2
 10
968.9576
 20
682.9435
 11
971.5077
 21
682.9435
  0
LINE
  8
        _00
  6
CONTINUOUS
 62
2
 10
971.5077
 20
683.2435
 11
971.5077
 21
682.9435
  0
LINE
  8
        _00
  6
CONTINUOUS
 62
2
 10
968.9576
 20
683.2435
 11
968.9576
 21
682.9435
  0
LINE
  8
        _00
  6
CONTINUOUS
 62
2
 10
969.3476
 20
683.2435
 11
971.1177
 21
683.2435
  0
LINE
  8
        _00
  6
CONTINUOUS
 62
2
 10
971.1177
 20
683.2956
 11
971.1177
 21
683.2435
  0
LINE
  8
        _00
  6
CONTINUOUS
 62
2
 10
969.3476
 20
683.2956
 11
969.3476
 21
683.2435
  0
LINE
  8
        _00
  6
CONTINUOUS
 62
2
 10
969.3476
 20
683.2956
 11
971.1177
 21
683.2956
  0
LINE
  8
        _00
  6
CONTINUOUS
 62
4
 10
1123.1327
 20
681.8185
 11
1126.9577
 21
681.8185
  0
LINE
  8
        _00
  6
CONTINUOUS
 62
4
 10
1120.3576
 20
681.8185
 11
1113.7577
 21
681.8185
  0
LINE
  8
        _00
  6
CONTINUOUS
 62
4
 10
1127.1076
 20
682.3435
 11
1127.1076
 21
681.9685
  0
LINE
  8
        _00
  6
CONTINUOUS
 62
4
 10
1127.1076
 20
681.9685
 11
1126.9577
 21
681.8185
  0
LINE
  8
        _00
  6
CONTINUOUS
 62
4
 10
1122.7577
 20
681.8185
 11
1126.9577
 21
681.8185
  0
LINE
  8
        _00
  6
CONTINUOUS
 62
4
 10
1114.2077
 20
682.9435
 11
1126.5077
 21
682.9435
  0
LINE
  8
        _00
  6
CONTINUOUS
 62
4
 10
1117.7919
 20
687.0685
 11
1122.9233
 21
687.0685
  0
LINE
  8
        _00
  6
CONTINUOUS
 62
4
 10
1113.6077
 20
681.9685
 11
1127.1076
 21
681.9685
  0
LINE
  8
        _00
  6
CONTINUOUS
 62
4
 10
1122.7577
 20
681.9685
 11
1122.7577
 21
681.8185
  0
LINE
  8
        _00
  6
CONTINUOUS
 62
4
 10
1113.6077
 20
682.3435
 11
1113.6077
 21
681.9685
  0
LINE
  8
        _00
  6
CONTINUOUS
 62
4
 10
1113.6077
 20
681.9685
 11
1113.7577
 21
681.8185
  0
LINE
  8
        _00
  6
CONTINUOUS
 62
4
 10
1117.9576
 20
681.8185
 11
1113.7577
 21
681.8185
  0
LINE
  8
        _00
  6
CONTINUOUS
 62
4
 10
1117.9576
 20
681.9685
 11
1117.9576
 21
681.8185
  0
LINE
  8
        _00
  6
CONTINUOUS
 62
4
 10
1123.4024
 20
683.3608
 11
1123.1478
 21
686.8598
  0
LINE
  8
        _00
  6
CONTINUOUS
 62
4
 10
1117.3130
 20
683.3608
 11
1117.5675
 21
686.8598
  0
LINE
  8
        _00
  6
CONTINUOUS
 62
2
 10
1114.2077
 20
683.2435
 11
1116.7577
 21
683.2435
  0
LINE
  8
        _00
  6
CONTINUOUS
 62
2
 10
1114.2077
 20
682.9435
 11
1116.7577
 21
682.9435
  0
LINE
  8
        _00
  6
CONTINUOUS
 62
2
 10
1116.7577
 20
683.2435
 11
1116.7577
 21
682.9435
  0
LINE
  8
        _00
  6
CONTINUOUS
 62
2
 10
1114.2077
 20
683.2435
 11
1114.2077
 21
682.9435
  0
LINE
  8
        _00
  6
CONTINUOUS
 62
2
 10
1114.5977
 20
683.2435
 11
1116.3677
 21
683.2435
  0
LINE
  8
        _00
  6
CONTINUOUS
 62
2
 10
1116.3677
 20
683.2956
 11
1116.3677
 21
683.2435
  0
LINE
  8
        _00
  6
CONTINUOUS
 62
2
 10
1114.5977
 20
683.2956
 11
1114.5977
 21
683.2435
  0
LINE
  8
        _00
  6
CONTINUOUS
 62
2
 10
1114.5977
 20
683.2956
 11
1116.3677
 21
683.2956
  0
LINE
  8
        _00
  6
CONTINUOUS
 62
2
 10
1123.9576
 20
683.2435
 11
1126.5077
 21
683.2435
  0
LINE
  8
        _00
  6
CONTINUOUS
 62
2
 10
1123.9576
 20
682.9435
 11
1126.5077
 21
682.9435
  0
LINE
  8
        _00
  6
CONTINUOUS
 62
2
 10
1126.5077
 20
683.2435
 11
1126.5077
 21
682.9435
  0
LINE
  8
        _00
  6
CONTINUOUS
 62
2
 10
1123.9576
 20
683.2435
 11
1123.9576
 21
682.9435
  0
LINE
  8
        _00
  6
CONTINUOUS
 62
2
 10
1124.3476
 20
683.2435
 11
1126.1177
 21
683.2435
  0
LINE
  8
        _00
  6
CONTINUOUS
 62
2
 10
1126.1177
 20
683.2956
 11
1126.1177
 21
683.2435
  0
LINE
  8
        _00
  6
CONTINUOUS
 62
2
 10
1124.3476
 20
683.2956
 11
1124.3476
 21
683.2435
  0
LINE
  8
        _00
  6
CONTINUOUS
 62
2
 10
1124.3476
 20
683.2956
 11
1126.1177
 21
683.2956
  0
LINE
  8
        _00
  6
CONTINUOUS
 62
6
 10
1175.3874
 20
681.8185
 11
1206.5040
 21
681.8185
  0
LINE
  8
14_0E
  6
CONTINUOUS
 62
6
 10
150.2000
 20
383.9036
 11
150.2000
 21
364.4014
  0
LINE
  8
14_0E
  6
CONTINUOUS
 62
6
 10
150.2000
 20
350.7105
 11
150.2000
 21
344.0742
  0
LINE
  8
        _00
  6
CONTINUOUS
 62
4
 10
606.6076
 20
556.5687
 11
606.6076
 21
680.0785
  0
LINE
  8
        _00
  6
CONTINUOUS
 62
4
 10
608.3476
 20
681.8185
 11
606.6076
 21
680.0785
  0
LINE
  8
        _00
  6
CONTINUOUS
 62
6
 10
606.6076
 20
680.0785
 11
1169.1076
 21
680.0785
  0
LINE
  8
        _00
  6
CONTINUOUS
 62
4
 10
1169.1076
 20
556.5687
 11
1169.1076
 21
680.0785
  0
LINE
  8
        _00
  6
CONTINUOUS
 62
4
 10
1167.3677
 20
681.8185
 11
1169.1076
 21
680.0785
  0
LINE
  8
3_03
  6
CONTINUOUS
 62
2
 10
655.3577
 20
686.0433
 11
655.3080
 21
686.0624
  0
LINE
  8
3_03
  6
CONTINUOUS
 62
2
 10
655.3577
 20
686.0433
 11
655.4072
 21
686.0624
  0
LINE
  8
3_03
  6
CONTINUOUS
 62
2
 10
655.3080
 20
686.0624
 11
655.1804
 21
686.1855
  0
LINE
  8
3_03
  6
CONTINUOUS
 62
2
 10
655.4073
 20
686.0624
 11
655.4072
 21
686.0625
  0
LINE
  8
3_03
  6
CONTINUOUS
 62
2
 10
655.4072
 20
686.0625
 11
655.5347
 21
686.1856
  0
LINE
  8
3_03
  6
CONTINUOUS
 62
2
 10
655.2578
 20
685.9435
 11
655.2388
 21
685.9931
  0
LINE
  8
3_03
  6
CONTINUOUS
 62
2
 10
655.2578
 20
685.9435
 11
655.2388
 21
685.8939
  0
LINE
  8
3_03
  6
CONTINUOUS
 62
2
 10
655.2388
 20
685.9931
 11
655.1155
 21
686.1208
  0
LINE
  8
3_03
  6
CONTINUOUS
 62
2
 10
655.2388
 20
685.8938
 11
655.2386
 21
685.8939
  0
LINE
  8
3_03
  6
CONTINUOUS
 62
2
 10
655.2386
 20
685.8939
 11
655.1155
 21
685.7664
  0
LINE
  8
3_03
  6
CONTINUOUS
 62
2
 10
655.4575
 20
685.9435
 11
655.4766
 21
685.8938
  0
LINE
  8
3_03
  6
CONTINUOUS
 62
2
 10
655.4575
 20
685.9435
 11
655.4765
 21
685.9931
  0
LINE
  8
3_03
  6
CONTINUOUS
 62
2
 10
655.4766
 20
685.8938
 11
655.5997
 21
685.7662
  0
LINE
  8
3_03
  6
CONTINUOUS
 62
2
 10
655.4766
 20
685.9931
 11
655.4766
 21
685.9931
  0
LINE
  8
3_03
  6
CONTINUOUS
 62
2
 10
655.4766
 20
685.9931
 11
655.5998
 21
686.1206
  0
LINE
  8
3_03
  6
CONTINUOUS
 62
2
 10
655.3577
 20
685.8436
 11
655.4073
 21
685.8246
  0
LINE
  8
3_03
  6
CONTINUOUS
 62
2
 10
655.3577
 20
685.8436
 11
655.3081
 21
685.8246
  0
LINE
  8
3_03
  6
CONTINUOUS
 62
2
 10
655.4073
 20
685.8246
 11
655.5348
 21
685.7014
  0
LINE
  8
3_03
  6
CONTINUOUS
 62
2
 10
655.3080
 20
685.8246
 11
655.3081
 21
685.8245
  0
LINE
  8
3_03
  6
CONTINUOUS
 62
2
 10
655.3081
 20
685.8245
 11
655.1805
 21
685.7013
  0
LINE
  8
        _00
  6
CONTINUOUS
 62
4
 10
240.2000
 20
466.3065
 11
260.2000
 21
466.3065
  0
LINE
  8
        _00
  6
CONTINUOUS
 62
4
 10
260.2000
 20
466.3065
 11
261.2000
 21
467.3066
  0
LINE
  8
        _00
  6
CONTINUOUS
 62
4
 10
261.2000
 20
469.8066
 11
261.2000
 21
467.3066
  0
LINE
  8
        _00
  6
CONTINUOUS
 62
4
 10
189.2000
 20
467.8065
 11
261.2000
 21
467.8065
  0
LINE
  8
        _00
  6
CONTINUOUS
 62
4
 10
240.2000
 20
467.8065
 11
240.2000
 21
466.3065
  0
LINE
  8
        _00
  6
CONTINUOUS
 62
4
 10
210.2000
 20
466.3065
 11
190.2000
 21
466.3065
  0
LINE
  8
        _00
  6
CONTINUOUS
 62
4
 10
190.2000
 20
466.3065
 11
189.2000
 21
467.3066
  0
LINE
  8
        _00
  6
CONTINUOUS
 62
4
 10
189.2000
 20
469.8066
 11
189.2000
 21
467.3066
  0
LINE
  8
        _00
  6
CONTINUOUS
 62
4
 10
198.6649
 20
501.3066
 11
251.7350
 21
501.3066
  0
LINE
  8
        _00
  6
CONTINUOUS
 62
4
 10
210.2000
 20
467.8065
 11
210.2000
 21
466.3065
  0
LINE
  8
        _00
  6
CONTINUOUS
 62
4
 10
193.2000
 20
473.8066
 11
257.2000
 21
473.8066
  0
LINE
  8
        _00
  6
CONTINUOUS
 62
4
 10
252.2337
 20
500.8428
 11
253.8979
 21
477.9605
  0
LINE
  8
        _00
  6
CONTINUOUS
 62
4
 10
198.1663
 20
500.8428
 11
196.5021
 21
477.9605
  0
LINE
  8
        _00
  6
CONTINUOUS
 62
2
 10
620.3327
 20
683.2435
 11
622.8826
 21
683.2435
  0
LINE
  8
        _00
  6
CONTINUOUS
 62
2
 10
620.3327
 20
682.9435
 11
622.8826
 21
682.9435
  0
LINE
  8
        _00
  6
CONTINUOUS
 62
2
 10
622.8826
 20
683.2435
 11
622.8826
 21
682.9435
  0
LINE
  8
        _00
  6
CONTINUOUS
 62
2
 10
620.3327
 20
683.2435
 11
620.3327
 21
682.9435
  0
LINE
  8
        _00
  6
CONTINUOUS
 62
2
 10
620.7227
 20
683.2435
 11
622.4927
 21
683.2435
  0
LINE
  8
        _00
  6
CONTINUOUS
 62
2
 10
622.4927
 20
683.2956
 11
622.4927
 21
683.2435
  0
LINE
  8
        _00
  6
CONTINUOUS
 62
2
 10
620.7227
 20
683.2956
 11
620.7227
 21
683.2435
  0
LINE
  8
        _00
  6
CONTINUOUS
 62
2
 10
620.7227
 20
683.2956
 11
622.4927
 21
683.2956
  0
LINE
  8
        _00
  6
CONTINUOUS
 62
2
 10
612.8326
 20
683.2435
 11
615.3826
 21
683.2435
  0
LINE
  8
        _00
  6
CONTINUOUS
 62
2
 10
612.8326
 20
682.9435
 11
615.3826
 21
682.9435
  0
LINE
  8
        _00
  6
CONTINUOUS
 62
2
 10
615.3826
 20
683.2435
 11
615.3826
 21
682.9435
  0
LINE
  8
        _00
  6
CONTINUOUS
 62
2
 10
612.8326
 20
683.2435
 11
612.8326
 21
682.9435
  0
LINE
  8
        _00
  6
CONTINUOUS
 62
2
 10
613.2226
 20
683.2435
 11
614.9927
 21
683.2435
  0
LINE
  8
        _00
  6
CONTINUOUS
 62
2
 10
614.9927
 20
683.2956
 11
614.9927
 21
683.2435
  0
LINE
  8
        _00
  6
CONTINUOUS
 62
2
 10
613.2226
 20
683.2956
 11
613.2226
 21
683.2435
  0
LINE
  8
        _00
  6
CONTINUOUS
 62
2
 10
613.2226
 20
683.2956
 11
614.9927
 21
683.2956
  0
LINE
  8
        _00
  6
CONTINUOUS
 62
4
 10
620.1077
 20
681.8185
 11
623.1076
 21
681.8185
  0
LINE
  8
        _00
  6
CONTINUOUS
 62
4
 10
623.1076
 20
681.8185
 11
623.2576
 21
681.9685
  0
LINE
  8
        _00
  6
CONTINUOUS
 62
4
 10
623.2576
 20
682.3435
 11
623.2576
 21
681.9685
  0
LINE
  8
        _00
  6
CONTINUOUS
 62
4
 10
612.4577
 20
682.0435
 11
623.2576
 21
682.0435
  0
LINE
  8
        _00
  6
CONTINUOUS
 62
4
 10
620.1077
 20
682.0435
 11
620.1077
 21
681.8185
  0
LINE
  8
        _00
  6
CONTINUOUS
 62
4
 10
615.6077
 20
681.8185
 11
612.6077
 21
681.8185
  0
LINE
  8
        _00
  6
CONTINUOUS
 62
4
 10
612.6077
 20
681.8185
 11
612.4577
 21
681.9685
  0
LINE
  8
        _00
  6
CONTINUOUS
 62
4
 10
612.4577
 20
682.3435
 11
612.4577
 21
681.9685
  0
LINE
  8
        _00
  6
CONTINUOUS
 62
4
 10
613.8774
 20
687.0685
 11
621.8379
 21
687.0685
  0
LINE
  8
        _00
  6
CONTINUOUS
 62
4
 10
615.6077
 20
682.0435
 11
615.6077
 21
681.8185
  0
LINE
  8
        _00
  6
CONTINUOUS
 62
4
 10
613.0576
 20
682.9435
 11
622.6577
 21
682.9435
  0
LINE
  8
        _00
  6
CONTINUOUS
 62
4
 10
621.9127
 20
686.9989
 11
622.1624
 21
683.5666
  0
LINE
  8
        _00
  6
CONTINUOUS
 62
4
 10
613.8026
 20
686.9989
 11
613.5530
 21
683.5666
  0
LINE
  8
        _00
  6
CONTINUOUS
 62
2
 10
1155.3825
 20
683.2435
 11
1152.8327
 21
683.2435
  0
LINE
  8
        _00
  6
CONTINUOUS
 62
2
 10
1155.3825
 20
682.9435
 11
1152.8327
 21
682.9435
  0
LINE
  8
        _00
  6
CONTINUOUS
 62
2
 10
1152.8327
 20
683.2435
 11
1152.8327
 21
682.9435
  0
LINE
  8
        _00
  6
CONTINUOUS
 62
2
 10
1155.3825
 20
683.2435
 11
1155.3825
 21
682.9435
  0
LINE
  8
        _00
  6
CONTINUOUS
 62
2
 10
1154.9927
 20
683.2435
 11
1153.2227
 21
683.2435
  0
LINE
  8
        _00
  6
CONTINUOUS
 62
2
 10
1153.2227
 20
683.2956
 11
1153.2227
 21
683.2435
  0
LINE
  8
        _00
  6
CONTINUOUS
 62
2
 10
1154.9927
 20
683.2956
 11
1154.9927
 21
683.2435
  0
LINE
  8
        _00
  6
CONTINUOUS
 62
2
 10
1154.9927
 20
683.2956
 11
1153.2227
 21
683.2956
  0
LINE
  8
        _00
  6
CONTINUOUS
 62
2
 10
1162.8826
 20
683.2435
 11
1160.3326
 21
683.2435
  0
LINE
  8
        _00
  6
CONTINUOUS
 62
2
 10
1162.8826
 20
682.9435
 11
1160.3326
 21
682.9435
  0
LINE
  8
        _00
  6
CONTINUOUS
 62
2
 10
1160.3326
 20
683.2435
 11
1160.3326
 21
682.9435
  0
LINE
  8
        _00
  6
CONTINUOUS
 62
2
 10
1162.8826
 20
683.2435
 11
1162.8826
 21
682.9435
  0
LINE
  8
        _00
  6
CONTINUOUS
 62
2
 10
1162.4927
 20
683.2435
 11
1160.7226
 21
683.2435
  0
LINE
  8
        _00
  6
CONTINUOUS
 62
2
 10
1160.7226
 20
683.2956
 11
1160.7226
 21
683.2435
  0
LINE
  8
        _00
  6
CONTINUOUS
 62
2
 10
1162.4927
 20
683.2956
 11
1162.4927
 21
683.2435
  0
LINE
  8
        _00
  6
CONTINUOUS
 62
2
 10
1162.4927
 20
683.2956
 11
1160.7226
 21
683.2956
  0
LINE
  8
        _00
  6
CONTINUOUS
 62
4
 10
1155.6076
 20
681.8185
 11
1152.6076
 21
681.8185
  0
LINE
  8
        _00
  6
CONTINUOUS
 62
4
 10
1152.6076
 20
681.8185
 11
1152.4577
 21
681.9685
  0
LINE
  8
        _00
  6
CONTINUOUS
 62
4
 10
1152.4577
 20
682.3435
 11
1152.4577
 21
681.9685
  0
LINE
  8
        _00
  6
CONTINUOUS
 62
4
 10
1163.2576
 20
682.0435
 11
1152.4577
 21
682.0435
  0
LINE
  8
        _00
  6
CONTINUOUS
 62
4
 10
1155.6076
 20
682.0435
 11
1155.6076
 21
681.8185
  0
LINE
  8
        _00
  6
CONTINUOUS
 62
4
 10
1160.1077
 20
681.8185
 11
1163.1077
 21
681.8185
  0
LINE
  8
        _00
  6
CONTINUOUS
 62
4
 10
1163.1077
 20
681.8185
 11
1163.2576
 21
681.9685
  0
LINE
  8
        _00
  6
CONTINUOUS
 62
4
 10
1163.2576
 20
682.3435
 11
1163.2576
 21
681.9685
  0
LINE
  8
        _00
  6
CONTINUOUS
 62
4
 10
1161.8379
 20
687.0685
 11
1153.8774
 21
687.0685
  0
LINE
  8
        _00
  6
CONTINUOUS
 62
4
 10
1160.1077
 20
682.0435
 11
1160.1077
 21
681.8185
  0
LINE
  8
        _00
  6
CONTINUOUS
 62
4
 10
1162.6577
 20
682.9435
 11
1153.0576
 21
682.9435
  0
LINE
  8
        _00
  6
CONTINUOUS
 62
4
 10
1153.8026
 20
686.9989
 11
1153.5530
 21
683.5666
  0
LINE
  8
        _00
  6
CONTINUOUS
 62
4
 10
1161.9127
 20
686.9989
 11
1162.1624
 21
683.5666
  0
LINE
  8
        _00
  6
CONTINUOUS
 62
2
 10
203.4578
 20
455.3066
 11
166.2000
 21
418.0488
  0
LINE
  8
        _00
  6
CONTINUOUS
 62
2
 10
199.2152
 20
455.3066
 11
166.2000
 21
422.2914
  0
LINE
  8
        _00
  6
CONTINUOUS
 62
2
 10
194.9725
 20
455.3066
 11
166.2000
 21
426.5340
  0
LINE
  8
        _00
  6
CONTINUOUS
 62
2
 10
282.6538
 20
455.3066
 11
218.4508
 21
391.1036
  0
LINE
  8
        _00
  6
CONTINUOUS
 62
2
 10
278.2000
 20
455.0954
 11
214.2081
 21
391.1036
  0
LINE
  8
        _00
  6
CONTINUOUS
 62
2
 10
274.1685
 20
455.3066
 11
209.9655
 21
391.1036
  0
LINE
  8
        _00
  6
CONTINUOUS
 62
4
 10
129.0000
 20
741.4345
 11
160.2000
 21
741.4345
  0
LINE
  8
        _00
  6
CONTINUOUS
 62
4
 10
160.2000
 20
741.4345
 11
160.2000
 21
755.8345
  0
LINE
  8
        _00
  6
CONTINUOUS
 62
4
 10
129.0000
 20
755.8345
 11
160.2000
 21
755.8345
  0
LINE
  8
        _00
  6
CONTINUOUS
 62
4
 10
129.0000
 20
741.4345
 11
129.0000
 21
755.8345
  0
LINE
  8
        _00
  6
CONTINUOUS
 62
4
 10
290.2000
 20
741.4345
 11
321.4000
 21
741.4345
  0
LINE
  8
        _00
  6
CONTINUOUS
 62
4
 10
321.4000
 20
741.4345
 11
321.4000
 21
755.8345
  0
LINE
  8
        _00
  6
CONTINUOUS
 62
4
 10
290.2000
 20
755.8345
 11
321.4000
 21
755.8345
  0
LINE
  8
        _00
  6
CONTINUOUS
 62
4
 10
290.2000
 20
741.4345
 11
290.2000
 21
755.8345
  0
LINE
  8
15_0F
  6
CONTINUOUS
 62
6
 10
251.0721
 20
678.9007
 11
310.4721
 21
678.9007
  0
LINE
  8
15_0F
  6
CONTINUOUS
 62
6
 10
239.0132
 20
665.8328
 11
251.0721
 21
678.9007
  0
LINE
  8
15_0F
  6
CONTINUOUS
 62
6
 10
239.0132
 20
665.8328
 11
245.1343
 21
670.1666
  0
LINE
  8
15_0F
  6
CONTINUOUS
 62
6
 10
239.0132
 20
665.8328
 11
242.8423
 21
672.2816
  0
LINE
  8
        _00
  6
CENTER1
 62
6
 10
386.6492
 20
674.4418
 11
386.6492
 21
556.7022
  0
LINE
  8
        _00
  6
CONTINUOUS
 62
4
 10
365.1492
 20
567.4964
 11
365.1492
 21
630.0505
  0
LINE
  8
        _00
  6
CONTINUOUS
 62
4
 10
408.1492
 20
567.4964
 11
408.1492
 21
630.0505
  0
LINE
  8
        _00
  6
CONTINUOUS
 62
4
 10
386.6492
 20
632.3506
 11
386.3492
 21
632.0505
  0
LINE
  8
        _00
  6
CONTINUOUS
 62
4
 10
386.6492
 20
632.3506
 11
386.9492
 21
632.0505
  0
LINE
  8
14_0E
  6
CONTINUOUS
 62
4
 10
399.7254
 20
633.6601
 11
390.6492
 21
634.0505
  0
LINE
  8
        _00
  6
CONTINUOUS
 62
4
 10
386.6492
 20
632.3506
 11
386.9492
 21
632.0505
  0
LINE
  8
        _00
  6
CONTINUOUS
 62
4
 10
386.6492
 20
632.3506
 11
386.3492
 21
632.0505
  0
LINE
  8
14_0E
  6
CONTINUOUS
 62
4
 10
373.5731
 20
633.6601
 11
382.6492
 21
634.0505
  0
LINE
  8
        _00
  6
CONTINUOUS
 62
4
 10
390.6492
 20
634.0505
 11
382.6492
 21
634.0505
  0
LINE
  8
        _00
  6
CONTINUOUS
 62
4
 10
402.1492
 20
632.2505
 11
407.1492
 21
632.2505
  0
LINE
  8
        _00
  6
CONTINUOUS
 62
4
 10
401.8493
 20
632.0505
 11
400.6615
 21
632.0505
  0
LINE
  8
        _00
  6
CONTINUOUS
 62
4
 10
402.1492
 20
632.2505
 11
401.8493
 21
632.0505
  0
LINE
  8
        _00
  6
CONTINUOUS
 62
4
 10
400.0036
 20
633.4332
 11
400.2735
 21
632.3535
  0
LINE
  8
        _00
  6
CONTINUOUS
 62
4
 10
371.1492
 20
632.2505
 11
366.1492
 21
632.2505
  0
LINE
  8
        _00
  6
CONTINUOUS
 62
4
 10
366.1492
 20
632.2505
 11
365.8493
 21
632.0505
  0
LINE
  8
        _00
  6
CONTINUOUS
 62
4
 10
371.4492
 20
632.0505
 11
372.6370
 21
632.0505
  0
LINE
  8
        _00
  6
CONTINUOUS
 62
4
 10
371.1492
 20
632.2505
 11
371.4492
 21
632.0505
  0
LINE
  8
        _00
  6
CONTINUOUS
 62
4
 10
373.2949
 20
633.4332
 11
373.0250
 21
632.3535
  0
LINE
  8
15_0F
  6
CONTINUOUS
 62
4
 10
364.1492
 20
630.0505
 11
409.1492
 21
630.0505
  0
LINE
  8
15_0F
  6
CONTINUOUS
 62
4
 10
409.1492
 20
630.5506
 11
409.1492
 21
630.0505
  0
LINE
  8
15_0F
  6
CONTINUOUS
 62
4
 10
364.1492
 20
630.5506
 11
364.1492
 21
630.0505
  0
LINE
  8
15_0F
  6
CONTINUOUS
 62
6
 10
393.1912
 20
661.9542
 11
407.5685
 21
677.5344
  0
LINE
  8
15_0F
  6
CONTINUOUS
 62
6
 10
393.1912
 20
661.9542
 11
399.3123
 21
666.2881
  0
LINE
  8
15_0F
  6
CONTINUOUS
 62
6
 10
393.1912
 20
661.9542
 11
397.0203
 21
668.4031
  0
LINE
  8
15_0F
  6
CONTINUOUS
 62
6
 10
407.5685
 20
677.5344
 11
471.9685
 21
677.5344
  0
LINE
  8
15_0F
  6
CONTINUOUS
 62
4
 10
202.7000
 20
620.8066
 11
202.7000
 21
620.3066
  0
LINE
  8
15_0F
  6
CONTINUOUS
 62
4
 10
247.7000
 20
620.8066
 11
247.7000
 21
620.3066
  0
LINE
  8
        _00
  6
CONTINUOUS
 62
4
 10
243.5000
 20
620.8066
 11
252.6000
 21
620.8066
  0
LINE
  8
        _00
  6
CONTINUOUS
 62
4
 10
255.2000
 20
658.8286
 11
255.1999
 21
620.1304
  0
LINE
  8
        _00
  6
CONTINUOUS
 62
4
 10
253.7999
 20
632.4304
 11
253.8000
 21
658.8090
  0
LINE
  8
        _00
  6
CONTINUOUS
 62
4
 10
253.7999
 20
620.1304
 11
253.7999
 21
623.1805
  0
LINE
  8
        _00
  6
CONTINUOUS
 62
4
 10
195.2006
 20
658.8235
 11
195.2007
 21
620.1253
  0
LINE
  8
        _00
  6
CONTINUOUS
 62
4
 10
196.6006
 20
658.8039
 11
196.6007
 21
632.4090
  0
LINE
  8
        _00
  6
CONTINUOUS
 62
4
 10
196.6001
 20
623.1805
 11
196.6001
 21
620.1304
  0
LINE
  8
        _00
  6
CONTINUOUS
 62
4
 10
225.2000
 20
622.6066
 11
224.9000
 21
622.3066
  0
LINE
  8
        _00
  6
CONTINUOUS
 62
4
 10
237.5000
 20
622.3066
 11
225.5000
 21
622.3066
  0
LINE
  8
        _00
  6
CONTINUOUS
 62
4
 10
225.2000
 20
622.6066
 11
225.5000
 21
622.3066
  0
LINE
  8
14_0E
  6
CONTINUOUS
 62
4
 10
238.2762
 20
623.9162
 11
229.2000
 21
624.3066
  0
LINE
  8
        _00
  6
CONTINUOUS
 62
4
 10
237.9000
 20
620.8066
 11
242.9000
 21
620.8066
  0
LINE
  8
        _00
  6
CONTINUOUS
 62
4
 10
237.5000
 20
622.3066
 11
237.9000
 21
620.8066
  0
LINE
  8
        _00
  6
CONTINUOUS
 62
4
 10
240.7000
 20
622.5066
 11
245.7000
 21
622.5066
  0
LINE
  8
        _00
  6
CONTINUOUS
 62
4
 10
243.5000
 20
620.8066
 11
252.6000
 21
620.8066
  0
LINE
  8
        _00
  6
CONTINUOUS
 62
4
 10
243.2000
 20
621.1066
 11
242.9000
 21
620.8066
  0
LINE
  8
        _00
  6
CONTINUOUS
 62
4
 10
243.2000
 20
621.1066
 11
243.5000
 21
620.8066
  0
LINE
  8
        _00
  6
CONTINUOUS
 62
4
 10
250.5278
 20
622.3066
 11
246.0000
 21
622.3066
  0
LINE
  8
        _00
  6
CONTINUOUS
 62
4
 10
245.7000
 20
622.5066
 11
246.0000
 21
622.3066
  0
LINE
  8
        _00
  6
CONTINUOUS
 62
4
 10
240.4000
 20
622.3066
 11
239.2123
 21
622.3066
  0
LINE
  8
        _00
  6
CONTINUOUS
 62
4
 10
240.7000
 20
622.5066
 11
240.4000
 21
622.3066
  0
LINE
  8
        _00
  6
CONTINUOUS
 62
4
 10
238.5543
 20
623.6892
 11
238.8243
 21
622.6096
  0
LINE
  8
        _00
  6
CONTINUOUS
 62
4
 10
225.2000
 20
622.6066
 11
225.5000
 21
622.3066
  0
LINE
  8
        _00
  6
CONTINUOUS
 62
4
 10
212.9000
 20
622.3066
 11
224.9000
 21
622.3066
  0
LINE
  8
        _00
  6
CONTINUOUS
 62
4
 10
225.2000
 20
622.6066
 11
224.9000
 21
622.3066
  0
LINE
  8
14_0E
  6
CONTINUOUS
 62
4
 10
212.1238
 20
623.9162
 11
221.2000
 21
624.3066
  0
LINE
  8
        _00
  6
CONTINUOUS
 62
4
 10
212.5000
 20
620.8066
 11
207.5000
 21
620.8066
  0
LINE
  8
        _00
  6
CONTINUOUS
 62
4
 10
212.9000
 20
622.3066
 11
212.5000
 21
620.8066
  0
LINE
  8
        _00
  6
CONTINUOUS
 62
4
 10
209.7000
 20
622.5066
 11
204.7000
 21
622.5066
  0
LINE
  8
        _00
  6
CONTINUOUS
 62
4
 10
206.9000
 20
620.8066
 11
197.8000
 21
620.8066
  0
LINE
  8
        _00
  6
CONTINUOUS
 62
4
 10
207.2000
 20
621.1066
 11
207.5000
 21
620.8066
  0
LINE
  8
        _00
  6
CONTINUOUS
 62
4
 10
207.2000
 20
621.1066
 11
206.9000
 21
620.8066
  0
LINE
  8
        _00
  6
CONTINUOUS
 62
4
 10
199.8722
 20
622.3066
 11
204.4000
 21
622.3066
  0
LINE
  8
        _00
  6
CONTINUOUS
 62
4
 10
204.7000
 20
622.5066
 11
204.4000
 21
622.3066
  0
LINE
  8
        _00
  6
CONTINUOUS
 62
4
 10
210.0000
 20
622.3066
 11
211.1877
 21
622.3066
  0
LINE
  8
        _00
  6
CONTINUOUS
 62
4
 10
209.7000
 20
622.5066
 11
210.0000
 21
622.3066
  0
LINE
  8
        _00
  6
CONTINUOUS
 62
4
 10
211.8457
 20
623.6892
 11
211.5757
 21
622.6096
  0
LINE
  8
        _00
  6
CONTINUOUS
 62
4
 10
229.2000
 20
624.3066
 11
221.2000
 21
624.3066
  0
LINE
  8
        _00
  6
CONTINUOUS
 62
4
 10
252.6000
 20
620.8066
 11
253.6000
 21
621.8066
  0
LINE
  8
        _00
  6
CONTINUOUS
 62
4
 10
253.6000
 20
621.8066
 11
253.6000
 21
623.1066
  0
LINE
  8
        _00
  6
CONTINUOUS
 62
4
 10
253.6000
 20
622.3066
 11
253.6000
 21
621.8066
  0
LINE
  8
        _00
  6
CONTINUOUS
 62
4
 10
252.6195
 20
625.1845
 11
253.4761
 21
625.2595
  0
LINE
  8
        _00
  6
CONTINUOUS
 62
4
 10
251.5128
 20
626.1919
 11
252.3509
 21
626.2652
  0
LINE
  8
        _00
  6
CONTINUOUS
 62
4
 10
250.6000
 20
625.1957
 11
250.6000
 21
624.7628
  0
LINE
  8
14_0E
  6
CONTINUOUS
 62
4
 10
253.7439
 20
625.6187
 11
252.6584
 21
630.9066
  0
LINE
  8
        _00
  6
CONTINUOUS
 62
4
 10
251.9122
 20
630.0658
 11
252.6186
 21
626.6244
  0
LINE
  8
        _00
  6
CONTINUOUS
 62
4
 10
252.5979
 20
630.9066
 11
252.6584
 21
630.9066
  0
LINE
  8
        _00
  6
CONTINUOUS
 62
4
 10
197.8000
 20
620.8066
 11
196.8000
 21
621.8066
  0
LINE
  8
        _00
  6
CONTINUOUS
 62
4
 10
196.8000
 20
621.8066
 11
196.8000
 21
623.1066
  0
LINE
  8
        _00
  6
CONTINUOUS
 62
4
 10
196.8000
 20
622.3066
 11
196.8000
 21
621.8066
  0
LINE
  8
        _00
  6
CONTINUOUS
 62
4
 10
197.7805
 20
625.1845
 11
196.9239
 21
625.2595
  0
LINE
  8
        _00
  6
CONTINUOUS
 62
4
 10
198.8871
 20
626.1919
 11
198.0491
 21
626.2652
  0
LINE
  8
        _00
  6
CONTINUOUS
 62
4
 10
199.8000
 20
625.1957
 11
199.8000
 21
624.7628
  0
LINE
  8
        _00
  6
CONTINUOUS
 62
4
 10
196.6561
 20
625.6187
 11
197.7416
 21
630.9066
  0
LINE
  8
        _00
  6
CONTINUOUS
 62
4
 10
198.4878
 20
630.0658
 11
197.7813
 21
626.6244
  0
LINE
  8
        _00
  6
CONTINUOUS
 62
4
 10
197.8021
 20
630.9066
 11
197.7416
 21
630.9066
  0
LINE
  8
        _00
  6
CONTINUOUS
 62
4
 10
253.7999
 20
628.2304
 11
253.7999
 21
630.6304
  0
LINE
  8
        _00
  6
CONTINUOUS
 62
4
 10
251.0999
 20
631.0304
 11
253.3999
 21
631.0304
  0
LINE
  8
        _00
  6
CONTINUOUS
 62
4
 10
250.7999
 20
632.0304
 11
253.3999
 21
632.0304
  0
LINE
  8
        _00
  6
CONTINUOUS
 62
4
 10
250.2999
 20
631.5303
 11
250.2999
 21
630.4304
  0
LINE
  8
        _00
  6
CONTINUOUS
 62
4
 10
251.0999
 20
631.0304
 11
251.0999
 21
630.8303
  0
LINE
  8
        _00
  6
CONTINUOUS
 62
4
 10
252.7194
 20
625.1359
 11
253.4348
 21
625.1985
  0
LINE
  8
        _00
  6
CONTINUOUS
 62
4
 10
253.7921
 20
625.6761
 11
253.3253
 21
627.9908
  0
LINE
  8
        _00
  6
CONTINUOUS
 62
4
 10
253.5213
 20
628.2304
 11
253.7999
 21
628.2304
  0
LINE
  8
        _00
  6
CONTINUOUS
 62
4
 10
196.6001
 20
628.2304
 11
196.6001
 21
630.6304
  0
LINE
  8
        _00
  6
CONTINUOUS
 62
4
 10
199.3001
 20
631.0304
 11
197.0001
 21
631.0304
  0
LINE
  8
        _00
  6
CONTINUOUS
 62
4
 10
199.6001
 20
632.0304
 11
197.0001
 21
632.0304
  0
LINE
  8
        _00
  6
CONTINUOUS
 62
4
 10
200.1001
 20
631.5303
 11
200.1001
 21
630.4304
  0
LINE
  8
        _00
  6
CONTINUOUS
 62
4
 10
199.3001
 20
631.0304
 11
199.3001
 21
630.8303
  0
LINE
  8
        _00
  6
CONTINUOUS
 62
4
 10
197.6806
 20
625.1359
 11
196.9652
 21
625.1985
  0
LINE
  8
        _00
  6
CONTINUOUS
 62
4
 10
196.6080
 20
625.6761
 11
197.0747
 21
627.9908
  0
LINE
  8
        _00
  6
CONTINUOUS
 62
4
 10
196.8787
 20
628.2304
 11
196.6001
 21
628.2304
  0
LINE
  8
        _00
  6
CONTINUOUS
 62
4
 10
203.7000
 20
620.8066
 11
212.5000
 21
620.8066
  0
LINE
  8
        _00
  6
CONTINUOUS
 62
4
 10
237.9000
 20
620.8066
 11
246.7000
 21
620.8066
  0
LINE
  8
12_0C
  6
DASHED
 62
2
 10
205.2000
 20
602.3265
 11
205.7000
 21
597.9447
  0
LINE
  8
12_0C
  6
DASHED
 62
2
 10
209.2000
 20
602.3265
 11
208.7000
 21
597.9447
  0
LINE
  8
12_0C
  6
DASHED
 62
2
 10
205.7000
 20
592.5066
 11
208.7000
 21
592.5066
  0
LINE
  8
12_0C
  6
DASHED
 62
2
 10
209.2000
 20
602.3265
 11
205.7000
 21
597.9447
  0
LINE
  8
12_0C
  6
DASHED
 62
2
 10
208.7000
 20
620.5066
 11
208.7000
 21
592.5066
  0
LINE
  8
12_0C
  6
DASHED
 62
2
 10
208.7000
 20
622.5066
 11
208.7000
 21
620.5066
  0
LINE
  8
12_0C
  6
DASHED
 62
2
 10
209.2000
 20
620.5066
 11
209.2000
 21
602.3265
  0
LINE
  8
12_0C
  6
DASHED
 62
2
 10
209.2000
 20
622.5066
 11
209.2000
 21
620.5066
  0
LINE
  8
12_0C
  6
DASHED
 62
2
 10
205.7000
 20
620.5066
 11
205.7000
 21
592.5066
  0
LINE
  8
12_0C
  6
DASHED
 62
2
 10
205.7000
 20
622.5066
 11
205.7000
 21
620.5066
  0
LINE
  8
12_0C
  6
DASHED
 62
2
 10
205.2000
 20
620.5066
 11
205.2000
 21
602.3265
  0
LINE
  8
12_0C
  6
DASHED
 62
2
 10
205.2000
 20
622.5066
 11
205.2000
 21
620.5066
  0
LINE
  8
12_0C
  6
CONTINUOUS
 62
2
 10
210.7000
 20
623.4765
 11
210.7000
 21
622.5066
  0
LINE
  8
12_0C
  6
CONTINUOUS
 62
2
 10
203.7000
 20
623.4765
 11
203.7000
 21
622.5066
  0
LINE
  8
12_0C
  6
CONTINUOUS
 62
2
 10
203.7000
 20
622.5066
 11
210.7000
 21
622.5066
  0
LINE
  8
        _00
  6
DASHED
 62
2
 10
243.2000
 20
622.8066
 11
243.2000
 21
617.0835
  0
LINE
  8
        _00
  6
CENTER1
 62
6
 10
243.2000
 20
627.6891
 11
243.2000
 21
588.7812
  0
LINE
  8
12_0C
  6
DASHED
 62
2
 10
241.2000
 20
602.3265
 11
241.7000
 21
597.9447
  0
LINE
  8
12_0C
  6
DASHED
 62
2
 10
245.2000
 20
602.3265
 11
244.7000
 21
597.9447
  0
LINE
  8
12_0C
  6
DASHED
 62
2
 10
241.7000
 20
592.5066
 11
244.7000
 21
592.5066
  0
LINE
  8
12_0C
  6
DASHED
 62
2
 10
245.2000
 20
602.3265
 11
241.7000
 21
597.9447
  0
LINE
  8
12_0C
  6
DASHED
 62
2
 10
244.7000
 20
620.5066
 11
244.7000
 21
592.5066
  0
LINE
  8
12_0C
  6
DASHED
 62
2
 10
244.7000
 20
622.5066
 11
244.7000
 21
620.5066
  0
LINE
  8
12_0C
  6
DASHED
 62
2
 10
245.2000
 20
620.5066
 11
245.2000
 21
602.3265
  0
LINE
  8
12_0C
  6
DASHED
 62
2
 10
245.2000
 20
622.5066
 11
245.2000
 21
620.5066
  0
LINE
  8
12_0C
  6
DASHED
 62
2
 10
241.7000
 20
620.5066
 11
241.7000
 21
592.5066
  0
LINE
  8
12_0C
  6
DASHED
 62
2
 10
241.7000
 20
622.5066
 11
241.7000
 21
620.5066
  0
LINE
  8
12_0C
  6
DASHED
 62
2
 10
241.2000
 20
620.5066
 11
241.2000
 21
602.3265
  0
LINE
  8
12_0C
  6
DASHED
 62
2
 10
241.2000
 20
622.5066
 11
241.2000
 21
620.5066
  0
LINE
  8
12_0C
  6
CONTINUOUS
 62
2
 10
246.7000
 20
623.4765
 11
246.7000
 21
622.5066
  0
LINE
  8
12_0C
  6
CONTINUOUS
 62
2
 10
239.7000
 20
623.4765
 11
239.7000
 21
622.5066
  0
LINE
  8
12_0C
  6
CONTINUOUS
 62
2
 10
239.7000
 20
622.5066
 11
246.7000
 21
622.5066
  0
LINE
  8
        _00
  6
CENTER1
 62
6
 10
404.6492
 20
637.4331
 11
404.6492
 21
598.5251
  0
LINE
  8
12_0C
  6
DASHED
 62
2
 10
402.6492
 20
630.2505
 11
402.6492
 21
612.0706
  0
LINE
  8
        _00
  6
DASHED
 62
2
 10
404.6492
 20
632.5505
 11
404.6492
 21
626.8275
  0
LINE
  8
12_0C
  6
DASHED
 62
2
 10
402.6492
 20
612.0706
 11
403.1493
 21
607.6887
  0
LINE
  8
12_0C
  6
DASHED
 62
2
 10
406.6492
 20
612.0706
 11
406.1492
 21
607.6887
  0
LINE
  8
12_0C
  6
DASHED
 62
2
 10
403.1493
 20
602.2505
 11
406.1492
 21
602.2505
  0
LINE
  8
12_0C
  6
DASHED
 62
2
 10
406.6492
 20
612.0706
 11
403.1493
 21
607.6887
  0
LINE
  8
12_0C
  6
DASHED
 62
2
 10
406.1492
 20
630.2505
 11
406.1492
 21
602.2505
  0
LINE
  8
12_0C
  6
DASHED
 62
2
 10
406.1492
 20
632.2505
 11
406.1492
 21
630.2505
  0
LINE
  8
12_0C
  6
DASHED
 62
2
 10
406.6492
 20
630.2505
 11
406.6492
 21
612.0706
  0
LINE
  8
12_0C
  6
DASHED
 62
2
 10
406.6492
 20
632.2505
 11
406.6492
 21
630.2505
  0
LINE
  8
12_0C
  6
DASHED
 62
2
 10
403.1493
 20
630.2505
 11
403.1493
 21
602.2505
  0
LINE
  8
12_0C
  6
DASHED
 62
2
 10
403.1493
 20
632.2505
 11
403.1493
 21
630.2505
  0
LINE
  8
12_0C
  6
DASHED
 62
2
 10
402.6492
 20
632.2505
 11
402.6492
 21
630.2505
  0
LINE
  8
12_0C
  6
CONTINUOUS
 62
2
 10
408.1492
 20
633.2206
 11
408.1492
 21
632.2505
  0
LINE
  8
12_0C
  6
CONTINUOUS
 62
2
 10
401.1492
 20
633.2206
 11
401.1492
 21
632.2505
  0
LINE
  8
12_0C
  6
CONTINUOUS
 62
2
 10
401.1492
 20
632.2505
 11
408.1492
 21
632.2505
  0
LINE
  8
        _00
  6
DASHED
 62
2
 10
368.6492
 20
632.5505
 11
368.6492
 21
626.8275
  0
LINE
  8
12_0C
  6
DASHED
 62
2
 10
366.6492
 20
612.0706
 11
367.1492
 21
607.6887
  0
LINE
  8
12_0C
  6
DASHED
 62
2
 10
370.6492
 20
612.0706
 11
370.1492
 21
607.6887
  0
LINE
  8
12_0C
  6
DASHED
 62
2
 10
367.1492
 20
602.2505
 11
370.1492
 21
602.2505
  0
LINE
  8
12_0C
  6
DASHED
 62
2
 10
370.6492
 20
612.0706
 11
367.1492
 21
607.6887
  0
LINE
  8
12_0C
  6
DASHED
 62
2
 10
370.1492
 20
630.2505
 11
370.1492
 21
602.2505
  0
LINE
  8
12_0C
  6
DASHED
 62
2
 10
370.1492
 20
632.2505
 11
370.1492
 21
630.2505
  0
LINE
  8
12_0C
  6
DASHED
 62
2
 10
370.6492
 20
630.2505
 11
370.6492
 21
612.0706
  0
LINE
  8
12_0C
  6
DASHED
 62
2
 10
370.6492
 20
632.2505
 11
370.6492
 21
630.2505
  0
LINE
  8
12_0C
  6
DASHED
 62
2
 10
367.1492
 20
630.2505
 11
367.1492
 21
602.2505
  0
LINE
  8
12_0C
  6
DASHED
 62
2
 10
367.1492
 20
632.2505
 11
367.1492
 21
630.2505
  0
LINE
  8
12_0C
  6
DASHED
 62
2
 10
366.6492
 20
630.2505
 11
366.6492
 21
612.0706
  0
LINE
  8
12_0C
  6
DASHED
 62
2
 10
366.6492
 20
632.2505
 11
366.6492
 21
630.2505
  0
LINE
  8
12_0C
  6
CONTINUOUS
 62
2
 10
372.1493
 20
633.2206
 11
372.1493
 21
632.2505
  0
LINE
  8
12_0C
  6
CONTINUOUS
 62
2
 10
365.1492
 20
633.2206
 11
365.1492
 21
632.2505
  0
LINE
  8
12_0C
  6
CONTINUOUS
 62
2
 10
365.1492
 20
632.2505
 11
372.1493
 21
632.2505
  0
LINE
  8
        _00
  6
CENTER1
 62
6
 10
368.6492
 20
637.4331
 11
368.6492
 21
598.5251
  0
LINE
  8
        _00
  6
CONTINUOUS
 62
4
 10
611.9383
 20
300.5827
 11
611.9383
 21
299.9827
  0
LINE
  8
        _00
  6
CONTINUOUS
 62
4
 10
613.6383
 20
300.2827
 11
611.9383
 21
300.2827
  0
LINE
  8
        _00
  6
CONTINUOUS
 62
4
 10
613.9383
 20
300.5827
 11
611.9383
 21
300.5827
  0
LINE
  8
        _00
  6
CONTINUOUS
 62
4
 10
613.9383
 20
299.9827
 11
611.9383
 21
299.9827
  0
LINE
  8
        _00
  6
CONTINUOUS
 62
4
 10
571.1383
 20
334.2827
 11
571.7383
 21
334.2827
  0
LINE
  8
        _00
  6
CONTINUOUS
 62
4
 10
571.4383
 20
335.9827
 11
571.4383
 21
334.2827
  0
LINE
  8
        _00
  6
CONTINUOUS
 62
4
 10
571.7383
 20
336.2827
 11
571.7383
 21
334.2827
  0
LINE
  8
        _00
  6
CONTINUOUS
 62
4
 10
571.1383
 20
336.2827
 11
571.1383
 21
334.2827
  0
LINE
  8
        _00
  6
CONTINUOUS
 62
4
 10
582.9383
 20
313.4827
 11
582.9383
 21
287.0827
  0
LINE
  8
        _00
  6
CONTINUOUS
 62
4
 10
579.4383
 20
313.4827
 11
579.4383
 21
287.0827
  0
LINE
  8
        _00
  6
CONTINUOUS
 62
4
 10
578.4383
 20
313.4827
 11
578.4383
 21
287.0827
  0
LINE
  8
        _00
  6
CONTINUOUS
 62
4
 10
581.9383
 20
314.4827
 11
579.4383
 21
314.4827
  0
LINE
  8
        _00
  6
CONTINUOUS
 62
4
 10
579.9383
 20
313.9827
 11
582.4383
 21
313.9827
  0
LINE
  8
        _00
  6
CONTINUOUS
 62
4
 10
581.9383
 20
286.0827
 11
579.4383
 21
286.0827
  0
LINE
  8
        _00
  6
CONTINUOUS
 62
4
 10
579.9383
 20
286.5827
 11
582.4383
 21
286.5827
  0
LINE
  8
        _00
  6
CONTINUOUS
 62
4
 10
558.9383
 20
322.2827
 11
583.9383
 21
322.2827
  0
LINE
  8
        _00
  6
CONTINUOUS
 62
4
 10
559.9383
 20
313.4827
 11
559.9383
 21
287.0827
  0
LINE
  8
        _00
  6
CONTINUOUS
 62
4
 10
563.4383
 20
313.4827
 11
563.4383
 21
287.0827
  0
LINE
  8
        _00
  6
CONTINUOUS
 62
4
 10
564.4383
 20
313.4827
 11
564.4383
 21
287.0827
  0
LINE
  8
        _00
  6
CONTINUOUS
 62
4
 10
560.9383
 20
314.4827
 11
563.4383
 21
314.4827
  0
LINE
  8
        _00
  6
CONTINUOUS
 62
4
 10
562.9383
 20
313.9827
 11
560.4383
 21
313.9827
  0
LINE
  8
        _00
  6
CONTINUOUS
 62
4
 10
560.9383
 20
286.0827
 11
563.4383
 21
286.0827
  0
LINE
  8
        _00
  6
CONTINUOUS
 62
4
 10
562.9383
 20
286.5827
 11
560.4383
 21
286.5827
  0
LINE
  8
        _00
  6
CONTINUOUS
 62
4
 10
571.1383
 20
266.2827
 11
571.7383
 21
266.2827
  0
LINE
  8
        _00
  6
CONTINUOUS
 62
4
 10
571.4383
 20
264.5827
 11
571.4383
 21
266.2827
  0
LINE
  8
        _00
  6
CONTINUOUS
 62
4
 10
571.7383
 20
264.2827
 11
571.7383
 21
266.2827
  0
LINE
  8
        _00
  6
CONTINUOUS
 62
4
 10
571.1383
 20
264.2827
 11
571.1383
 21
266.2827
  0
LINE
  8
        _00
  6
CONTINUOUS
 62
4
 10
530.9383
 20
300.5827
 11
530.9383
 21
299.9827
  0
LINE
  8
        _00
  6
CONTINUOUS
 62
4
 10
529.2383
 20
300.2827
 11
530.9383
 21
300.2827
  0
LINE
  8
        _00
  6
CONTINUOUS
 62
4
 10
528.9383
 20
300.5827
 11
530.9383
 21
300.5827
  0
LINE
  8
        _00
  6
CONTINUOUS
 62
4
 10
528.9383
 20
299.9827
 11
530.9383
 21
299.9827
  0
LINE
  8
        _00
  6
CONTINUOUS
 62
4
 10
613.6383
 20
300.2827
 11
613.9383
 21
300.5827
  0
LINE
  8
        _00
  6
CONTINUOUS
 62
4
 10
613.9383
 20
299.9827
 11
613.6383
 21
300.2827
  0
LINE
  8
        _00
  6
CONTINUOUS
 62
4
 10
613.9383
 20
325.2827
 11
613.9383
 21
300.5827
  0
LINE
  8
        _00
  6
CONTINUOUS
 62
4
 10
613.9383
 20
299.9827
 11
613.9383
 21
275.2827
  0
LINE
  8
        _00
  6
CONTINUOUS
 62
4
 10
529.2383
 20
300.2827
 11
528.9383
 21
300.5827
  0
LINE
  8
        _00
  6
CONTINUOUS
 62
4
 10
528.9383
 20
299.9827
 11
529.2383
 21
300.2827
  0
LINE
  8
        _00
  6
CONTINUOUS
 62
4
 10
528.9383
 20
325.2827
 11
528.9383
 21
300.5827
  0
LINE
  8
        _00
  6
CONTINUOUS
 62
4
 10
528.9383
 20
299.9827
 11
528.9383
 21
275.2827
  0
LINE
  8
        _00
  6
CONTINUOUS
 62
4
 10
571.4383
 20
335.9827
 11
571.1383
 21
336.2827
  0
LINE
  8
        _00
  6
CONTINUOUS
 62
4
 10
571.7383
 20
336.2827
 11
571.4383
 21
335.9827
  0
LINE
  8
        _00
  6
CONTINUOUS
 62
4
 10
539.9383
 20
336.2827
 11
571.1383
 21
336.2827
  0
LINE
  8
        _00
  6
CONTINUOUS
 62
4
 10
571.7383
 20
336.2827
 11
602.9383
 21
336.2827
  0
LINE
  8
        _00
  6
CONTINUOUS
 62
4
 10
571.4383
 20
264.5827
 11
571.1383
 21
264.2827
  0
LINE
  8
        _00
  6
CONTINUOUS
 62
4
 10
571.7383
 20
264.2827
 11
571.4383
 21
264.5827
  0
LINE
  8
        _00
  6
CONTINUOUS
 62
4
 10
539.9383
 20
264.2827
 11
571.1383
 21
264.2827
  0
LINE
  8
        _00
  6
CONTINUOUS
 62
4
 10
571.7383
 20
264.2827
 11
602.9383
 21
264.2827
  0
LINE
  8
        _00
  6
CONTINUOUS
 62
4
 10
585.9383
 20
320.2827
 11
585.9383
 21
280.2827
  0
LINE
  8
        _00
  6
CONTINUOUS
 62
4
 10
556.9383
 20
320.2827
 11
556.9383
 21
280.2827
  0
LINE
  8
        _00
  6
CONTINUOUS
 62
4
 10
558.9383
 20
327.2827
 11
583.9383
 21
327.2827
  0
LINE
  8
        _00
  6
CONTINUOUS
 62
4
 10
558.9383
 20
329.2827
 11
583.9383
 21
329.2827
  0
LINE
  8
        _00
  6
CONTINUOUS
 62
4
 10
590.9383
 20
320.2827
 11
590.9383
 21
280.2827
  0
LINE
  8
        _00
  6
CONTINUOUS
 62
4
 10
592.9383
 20
320.2827
 11
592.9383
 21
280.2827
  0
LINE
  8
        _00
  6
CONTINUOUS
 62
4
 10
551.9383
 20
320.2827
 11
551.9383
 21
280.2827
  0
LINE
  8
        _00
  6
CONTINUOUS
 62
4
 10
549.9383
 20
320.2827
 11
549.9383
 21
280.2827
  0
LINE
  8
        _00
  6
CONTINUOUS
 62
4
 10
558.9383
 20
278.2827
 11
583.9383
 21
278.2827
  0
LINE
  8
        _00
  6
CONTINUOUS
 62
4
 10
558.9383
 20
273.2827
 11
583.9383
 21
273.2827
  0
LINE
  8
        _00
  6
CONTINUOUS
 62
4
 10
558.9383
 20
271.2827
 11
583.9383
 21
271.2827
  0
LINE
  8
        _00
  6
CONTINUOUS
 62
4
 10
565.4383
 20
322.2827
 11
565.4383
 21
321.7827
  0
LINE
  8
        _00
  6
CONTINUOUS
 62
4
 10
577.4383
 20
322.2827
 11
577.4383
 21
321.7827
  0
LINE
  8
        _00
  6
CONTINUOUS
 62
4
 10
565.4383
 20
278.7827
 11
565.4383
 21
278.2827
  0
LINE
  8
        _00
  6
CONTINUOUS
 62
4
 10
577.4383
 20
278.7827
 11
577.4383
 21
278.2827
  0
LINE
  8
        _00
  6
CONTINUOUS
 62
4
 10
1085.0892
 20
328.8833
 11
794.2407
 21
328.8833
  0
LINE
  8
        _00
  6
CONTINUOUS
 62
2
 10
787.7730
 20
304.7455
 11
811.6611
 21
298.3448
  0
LINE
  8
        _00
  6
CONTINUOUS
 62
2
 10
806.1498
 20
295.1628
 11
782.2616
 21
301.5636
  0
LINE
  8
        _00
  6
CONTINUOUS
 62
2
 10
806.1498
 20
295.1628
 11
780.7267
 21
200.2827
  0
LINE
  8
        _00
  6
CONTINUOUS
 62
2
 10
785.3855
 20
200.2827
 11
811.6611
 21
298.3448
  0
LINE
  8
        _00
  6
CONTINUOUS
 62
2
 10
813.3721
 20
400.2827
 11
787.7730
 21
304.7455
  0
LINE
  8
        _00
  6
CONTINUOUS
 62
2
 10
808.7134
 20
400.2827
 11
782.2616
 21
301.5636
  0
LINE
  8
        _00
  6
CONTINUOUS
 62
4
 10
1085.0892
 20
325.6827
 11
793.3830
 21
325.6827
  0
LINE
  8
        _00
  6
CONTINUOUS
 62
4
 10
1085.0892
 20
313.5827
 11
790.1409
 21
313.5827
  0
LINE
  8
        _00
  6
CONTINUOUS
 62
6
 10
1085.0892
 20
304.2827
 11
789.5004
 21
304.2827
  0
LINE
  8
        _00
  6
CONTINUOUS
 62
4
 10
506.3813
 20
375.2827
 11
802.0147
 21
375.2827
  0
LINE
  8
        _00
  6
CONTINUOUS
 62
4
 10
806.6733
 20
375.2827
 11
1085.0892
 21
375.2827
  0
LINE
  8
        _00
  6
CONTINUOUS
 62
4
 10
506.3813
 20
365.2827
 11
799.3352
 21
365.2827
  0
LINE
  8
        _00
  6
CONTINUOUS
 62
4
 10
803.9939
 20
365.2827
 11
1085.0892
 21
365.2827
  0
LINE
  8
        _00
  6
CONTINUOUS
 62
4
 10
506.3813
 20
235.2827
 11
790.1050
 21
235.2827
  0
LINE
  8
        _00
  6
CONTINUOUS
 62
4
 10
794.7637
 20
235.2827
 11
1085.0892
 21
235.2827
  0
LINE
  8
        _00
  6
CONTINUOUS
 62
4
 10
506.3813
 20
225.2827
 11
787.4256
 21
225.2827
  0
LINE
  8
        _00
  6
CONTINUOUS
 62
4
 10
792.0842
 20
225.2827
 11
1085.0892
 21
225.2827
  0
LINE
  8
        _00
  6
CONTINUOUS
 62
4
 10
1085.0892
 20
320.7827
 11
1003.2587
 21
320.7827
  0
LINE
  8
        _00
  6
CONTINUOUS
 62
4
 10
1085.0892
 20
315.7827
 11
1003.2587
 21
315.7827
  0
LINE
  8
        _00
  6
CONTINUOUS
 62
4
 10
998.3598
 20
315.7827
 11
982.2587
 21
315.7827
  0
LINE
  8
        _00
  6
CONTINUOUS
 62
4
 10
977.3598
 20
315.7827
 11
790.7304
 21
315.7827
  0
LINE
  8
        _00
  6
CONTINUOUS
 62
4
 10
998.3598
 20
320.7827
 11
982.2587
 21
320.7827
  0
LINE
  8
        _00
  6
CONTINUOUS
 62
4
 10
977.3598
 20
320.7827
 11
792.0701
 21
320.7827
  0
LINE
  8
        _00
  6
CONTINUOUS
 62
4
 10
1085.0892
 20
271.6821
 11
804.5170
 21
271.6821
  0
LINE
  8
        _00
  6
CONTINUOUS
 62
4
 10
1085.0892
 20
274.8827
 11
805.3745
 21
274.8827
  0
LINE
  8
        _00
  6
CONTINUOUS
 62
4
 10
1085.0892
 20
286.9827
 11
808.6166
 21
286.9827
  0
LINE
  8
        _00
  6
CONTINUOUS
 62
4
 10
1085.0892
 20
279.7827
 11
1003.2587
 21
279.7827
  0
LINE
  8
        _00
  6
CONTINUOUS
 62
4
 10
1085.0892
 20
284.7827
 11
1003.2587
 21
284.7827
  0
LINE
  8
        _00
  6
CONTINUOUS
 62
4
 10
998.3598
 20
284.7827
 11
982.2587
 21
284.7827
  0
LINE
  8
        _00
  6
CONTINUOUS
 62
4
 10
977.3598
 20
284.7827
 11
808.0272
 21
284.7827
  0
LINE
  8
        _00
  6
CONTINUOUS
 62
4
 10
998.3598
 20
279.7827
 11
982.2587
 21
279.7827
  0
LINE
  8
        _00
  6
CONTINUOUS
 62
4
 10
977.3598
 20
279.7827
 11
806.6874
 21
279.7827
  0
LINE
  8
        _00
  6
CONTINUOUS
 62
6
 10
1085.0892
 20
296.2827
 11
811.1086
 21
296.2827
  0
LINE
  8
        _00
  6
CENTER1
 62
6
 10
990.3092
 20
355.2564
 11
990.3092
 21
328.8833
  0
LINE
  8
        _00
  6
CENTER1
 62
6
 10
990.3092
 20
271.6821
 11
990.3092
 21
245.1677
  0
LINE
  8
        _00
  6
CONTINUOUS
 62
6
 10
200.3066
 20
620.8066
 11
181.3821
 21
601.8821
  0
LINE
  8
        _00
  6
CONTINUOUS
 62
6
 10
200.3066
 20
620.8066
 11
194.0165
 21
616.7218
  0
LINE
  8
        _00
  6
CONTINUOUS
 62
6
 10
200.3066
 20
620.8066
 11
196.2217
 21
614.5166
  0
LINE
  8
        _00
  6
CONTINUOUS
 62
6
 10
181.3821
 20
601.8821
 11
143.5821
 21
601.8821
  0
LINE
  8
        _00
  6
CONTINUOUS
 62
6
 10
250.2502
 20
501.3066
 11
265.4571
 21
516.5135
  0
LINE
  8
        _00
  6
CONTINUOUS
 62
6
 10
250.2502
 20
501.3066
 11
256.5402
 21
505.3914
  0
LINE
  8
        _00
  6
CONTINUOUS
 62
6
 10
250.2502
 20
501.3066
 11
254.3349
 21
507.5966
  0
LINE
  8
        _00
  6
CONTINUOUS
 62
6
 10
265.4571
 20
516.5135
 11
360.8570
 21
516.5135
  0
LINE
  8
        _00
  6
CONTINUOUS
 62
6
 10
246.7000
 20
550.8678
 11
259.6444
 21
563.8123
  0
LINE
  8
        _00
  6
CONTINUOUS
 62
6
 10
246.7000
 20
550.8678
 11
252.9900
 21
554.9527
  0
LINE
  8
        _00
  6
CONTINUOUS
 62
6
 10
246.7000
 20
550.8678
 11
250.7848
 21
557.1578
  0
LINE
  8
        _00
  6
CONTINUOUS
 62
6
 10
259.6444
 20
563.8123
 11
326.2444
 21
563.8123
  0
LINE
  8
        _00
  6
CONTINUOUS
 62
6
 10
255.5183
 20
440.9799
 11
301.8014
 21
360.8151
  0
LINE
  8
        _00
  6
CONTINUOUS
 62
6
 10
255.5183
 20
440.9799
 11
257.8359
 21
433.8469
  0
LINE
  8
        _00
  6
CONTINUOUS
 62
6
 10
255.5183
 20
440.9799
 11
260.5368
 21
435.4063
  0
LINE
  8
        _00
  6
CONTINUOUS
 62
6
 10
301.8014
 20
360.8151
 11
382.8015
 21
360.8151
  0
LINE
  8
        _00
  6
CONTINUOUS
 62
6
 10
286.4526
 20
387.4002
 11
353.1983
 21
387.4002
  0
LINE
  8
        _00
  6
CONTINUOUS
 62
6
 10
270.2884
 20
415.3973
 11
353.9482
 21
415.3973
  0
LINE
  8
        _00
  6
CONTINUOUS
 62
6
 10
613.9383
 20
312.7666
 11
629.1729
 21
339.1537
  0
LINE
  8
        _00
  6
CONTINUOUS
 62
6
 10
613.9383
 20
312.7666
 11
618.9568
 21
318.3401
  0
LINE
  8
        _00
  6
CONTINUOUS
 62
6
 10
613.9383
 20
312.7666
 11
616.2559
 21
319.8995
  0
LINE
  8
        _00
  6
CONTINUOUS
 62
6
 10
629.1729
 20
339.1537
 11
724.5729
 21
339.1537
  0
LINE
  8
        _00
  6
CENTER1
 62
6
 10
515.9209
 20
674.0463
 11
515.9209
 21
556.7022
  0
LINE
  8
        _00
  6
CONTINUOUS
 62
6
 10
524.1499
 20
665.1145
 11
537.3081
 21
678.2728
  0
LINE
  8
        _00
  6
CONTINUOUS
 62
6
 10
524.1499
 20
665.1145
 11
530.4399
 21
669.1994
  0
LINE
  8
        _00
  6
CONTINUOUS
 62
6
 10
524.1499
 20
665.1145
 11
528.2347
 21
671.4046
  0
LINE
  8
        _00
  6
CONTINUOUS
 62
6
 10
537.3081
 20
678.2728
 11
596.7081
 21
678.2728
  0
LINE
  8
2_02
  6
CENTER1
 62
6
 10
515.9209
 20
551.8147
 11
515.9209
 21
671.6683
  0
LINE
  8
        _00
  6
CONTINUOUS
 62
4
 10
494.3157
 20
644.5315
 11
489.7559
 21
644.5312
  0
LINE
  8
        _00
  6
CONTINUOUS
 62
4
 10
494.0158
 20
643.5237
 11
494.0158
 21
642.7315
  0
LINE
  8
        _00
  6
CONTINUOUS
 62
4
 10
494.8157
 20
644.0315
 11
494.8158
 21
642.7315
  0
LINE
  8
        _00
  6
CONTINUOUS
 62
4
 10
488.8526
 20
628.5708
 11
488.9822
 21
629.2025
  0
LINE
  8
        _00
  6
CONTINUOUS
 62
4
 10
496.8265
 20
655.6869
 11
496.2637
 21
656.2495
  0
LINE
  8
        _00
  6
CONTINUOUS
 62
4
 10
497.5335
 20
656.3941
 11
496.9710
 21
656.9565
  0
LINE
  8
        _00
  6
CONTINUOUS
 62
4
 10
488.8221
 20
643.5319
 11
493.8081
 21
643.7235
  0
LINE
  8
        _00
  6
CONTINUOUS
 62
4
 10
488.1389
 20
638.4319
 11
488.2446
 21
638.4319
  0
LINE
  8
        _00
  6
CONTINUOUS
 62
4
 10
488.2403
 20
639.9319
 11
488.4723
 21
639.9319
  0
LINE
  8
        _00
  6
CONTINUOUS
 62
4
 10
488.6682
 20
639.6913
 11
488.4405
 21
638.5913
  0
LINE
  8
        _00
  6
CONTINUOUS
 62
4
 10
488.1332
 20
636.3311
 11
489.2434
 21
636.2341
  0
LINE
  8
        _00
  6
CONTINUOUS
 62
4
 10
537.5261
 20
644.5315
 11
542.0860
 21
644.5312
  0
LINE
  8
        _00
  6
CONTINUOUS
 62
4
 10
537.8261
 20
643.5237
 11
537.8260
 21
642.7315
  0
LINE
  8
        _00
  6
CONTINUOUS
 62
4
 10
537.0261
 20
644.0315
 11
537.0261
 21
642.7315
  0
LINE
  8
        _00
  6
CONTINUOUS
 62
4
 10
542.9892
 20
628.5708
 11
542.8596
 21
629.2025
  0
LINE
  8
        _00
  6
CONTINUOUS
 62
4
 10
535.0154
 20
655.6869
 11
535.5781
 21
656.2495
  0
LINE
  8
        _00
  6
CONTINUOUS
 62
4
 10
534.3083
 20
656.3941
 11
534.8665
 21
656.9522
  0
LINE
  8
        _00
  6
CONTINUOUS
 62
4
 10
543.0198
 20
643.5319
 11
538.0337
 21
643.7235
  0
LINE
  8
        _00
  6
CONTINUOUS
 62
4
 10
543.7029
 20
638.4319
 11
543.5972
 21
638.4319
  0
LINE
  8
        _00
  6
CONTINUOUS
 62
4
 10
543.6015
 20
639.9319
 11
543.3695
 21
639.9319
  0
LINE
  8
        _00
  6
CONTINUOUS
 62
4
 10
543.1736
 20
639.6913
 11
543.4014
 21
638.5913
  0
LINE
  8
        _00
  6
CONTINUOUS
 62
4
 10
543.7086
 20
636.3311
 11
542.5984
 21
636.2341
  0
LINE
  8
        _00
  6
CONTINUOUS
 62
4
 10
505.4209
 20
633.5066
 11
503.4209
 21
633.5066
  0
LINE
  8
        _00
  6
CONTINUOUS
 62
4
 10
505.4209
 20
633.5066
 11
505.4209
 21
632.7066
  0
LINE
  8
        _00
  6
CONTINUOUS
 62
4
 10
503.4209
 20
633.5066
 11
503.4209
 21
631.9066
  0
LINE
  8
        _00
  6
CONTINUOUS
 62
4
 10
526.4209
 20
633.5066
 11
528.4209
 21
633.5066
  0
LINE
  8
        _00
  6
CONTINUOUS
 62
4
 10
526.4209
 20
633.5066
 11
526.4209
 21
632.7066
  0
LINE
  8
        _00
  6
CONTINUOUS
 62
4
 10
528.4209
 20
633.5066
 11
528.4209
 21
631.9066
  0
LINE
  8
        _00
  6
CONTINUOUS
 62
4
 10
489.5209
 20
633.4066
 11
489.5209
 21
627.9019
  0
LINE
  8
        _00
  6
CONTINUOUS
 62
4
 10
542.3210
 20
633.4066
 11
542.3210
 21
627.9019
  0
LINE
  8
        _00
  6
CONTINUOUS
 62
4
 10
490.6209
 20
632.8065
 11
490.6209
 21
636.2982
  0
LINE
  8
        _00
  6
CONTINUOUS
 62
4
 10
541.2209
 20
632.8065
 11
541.2209
 21
636.2982
  0
LINE
  8
        _00
  6
CONTINUOUS
 62
4
 10
542.3210
 20
634.6065
 11
542.3210
 21
636.2065
  0
LINE
  8
        _00
  6
CONTINUOUS
 62
4
 10
542.9209
 20
634.6065
 11
542.3210
 21
634.6065
  0
LINE
  8
        _00
  6
CONTINUOUS
 62
4
 10
542.9209
 20
633.4066
 11
542.3210
 21
633.4066
  0
LINE
  8
        _00
  6
CONTINUOUS
 62
4
 10
515.9209
 20
608.6066
 11
515.6224
 21
608.3081
  0
LINE
  8
        _00
  6
CONTINUOUS
 62
4
 10
515.9209
 20
608.6066
 11
516.2194
 21
608.3081
  0
LINE
  8
        _00
  6
CONTINUOUS
 62
4
 10
491.1209
 20
632.3066
 11
495.1209
 21
632.3066
  0
LINE
  8
        _00
  6
CONTINUOUS
 62
4
 10
490.6209
 20
631.2066
 11
495.1209
 21
631.2066
  0
LINE
  8
        _00
  6
CONTINUOUS
 62
4
 10
536.4209
 20
630.8066
 11
495.4209
 21
630.8066
  0
LINE
  8
        _00
  6
CONTINUOUS
 62
4
 10
534.2210
 20
632.8065
 11
533.9209
 21
632.5066
  0
LINE
  8
        _00
  6
CONTINUOUS
 62
4
 10
536.4209
 20
632.8065
 11
534.2210
 21
632.8065
  0
LINE
  8
        _00
  6
CONTINUOUS
 62
4
 10
536.7209
 20
632.3066
 11
536.4209
 21
632.8065
  0
LINE
  8
        _00
  6
CONTINUOUS
 62
4
 10
533.6209
 20
632.8065
 11
533.9209
 21
632.5066
  0
LINE
  8
        _00
  6
CONTINUOUS
 62
4
 10
531.4209
 20
632.8065
 11
533.6209
 21
632.8065
  0
LINE
  8
        _00
  6
CONTINUOUS
 62
4
 10
540.7209
 20
632.3066
 11
536.7209
 21
632.3066
  0
LINE
  8
        _00
  6
CONTINUOUS
 62
4
 10
515.6209
 20
631.9066
 11
515.9209
 21
631.6066
  0
LINE
  8
        _00
  6
CONTINUOUS
 62
4
 10
516.2210
 20
631.9066
 11
515.9209
 21
631.6066
  0
LINE
  8
        _00
  6
CONTINUOUS
 62
4
 10
543.2645
 20
636.2892
 11
542.3210
 21
636.2065
  0
LINE
  8
        _00
  6
CONTINUOUS
 62
4
 10
542.1338
 20
637.2944
 11
542.6983
 21
637.3439
  0
LINE
  8
        _00
  6
CONTINUOUS
 62
4
 10
543.7107
 20
636.8877
 11
543.3516
 21
638.6372
  0
LINE
  8
        _00
  6
CONTINUOUS
 62
4
 10
542.4700
 20
638.4562
 11
542.6983
 21
637.3439
  0
LINE
  8
        _00
  6
CONTINUOUS
 62
4
 10
540.8209
 20
642.3356
 11
541.9893
 21
641.1673
  0
LINE
  8
        _00
  6
CONTINUOUS
 62
4
 10
540.2138
 20
641.6699
 11
541.3528
 21
640.5309
  0
LINE
  8
        _00
  6
CONTINUOUS
 62
4
 10
489.5209
 20
634.6065
 11
489.5209
 21
636.2065
  0
LINE
  8
        _00
  6
CONTINUOUS
 62
4
 10
488.9209
 20
634.6065
 11
489.5209
 21
634.6065
  0
LINE
  8
        _00
  6
CONTINUOUS
 62
4
 10
488.9209
 20
633.4066
 11
489.5209
 21
633.4066
  0
LINE
  8
        _00
  6
CONTINUOUS
 62
4
 10
488.5773
 20
636.2892
 11
489.5209
 21
636.2065
  0
LINE
  8
        _00
  6
CONTINUOUS
 62
4
 10
489.7081
 20
637.2944
 11
489.1435
 21
637.3439
  0
LINE
  8
        _00
  6
CONTINUOUS
 62
4
 10
488.1311
 20
636.8877
 11
488.4902
 21
638.6372
  0
LINE
  8
        _00
  6
CONTINUOUS
 62
4
 10
489.3718
 20
638.4562
 11
489.1435
 21
637.3439
  0
LINE
  8
        _00
  6
CONTINUOUS
 62
4
 10
491.0209
 20
642.3356
 11
489.8526
 21
641.1673
  0
LINE
  8
        _00
  6
CONTINUOUS
 62
4
 10
491.9209
 20
642.8566
 11
491.9209
 21
642.3771
  0
LINE
  8
        _00
  6
CONTINUOUS
 62
4
 10
491.0209
 20
642.8566
 11
491.0209
 21
642.3356
  0
LINE
  8
        _00
  6
CONTINUOUS
 62
4
 10
491.6280
 20
641.6699
 11
490.4890
 21
640.5309
  0
LINE
  8
        _00
  6
CONTINUOUS
 62
4
 10
516.2210
 20
631.9066
 11
527.4209
 21
631.9066
  0
LINE
  8
        _00
  6
CONTINUOUS
 62
4
 10
528.4209
 20
631.9066
 11
531.1209
 21
631.9066
  0
LINE
  8
        _00
  6
CONTINUOUS
 62
4
 10
500.7209
 20
631.9066
 11
503.4209
 21
631.9066
  0
LINE
  8
        _00
  6
CONTINUOUS
 62
4
 10
504.4209
 20
631.9066
 11
515.6209
 21
631.9066
  0
LINE
  8
        _00
  6
CONTINUOUS
 62
4
 10
539.9209
 20
642.8566
 11
539.9209
 21
642.3771
  0
LINE
  8
        _00
  6
CONTINUOUS
 62
4
 10
540.8209
 20
642.8566
 11
540.8209
 21
642.3356
  0
LINE
  8
15_0F
  6
CONTINUOUS
 62
4
 10
490.6209
 20
631.2066
 11
490.6209
 21
627.6072
  0
LINE
  8
        _00
  6
CONTINUOUS
 62
4
 10
541.2209
 20
631.2066
 11
536.7209
 21
631.2066
  0
LINE
  8
        _00
  6
CONTINUOUS
 62
4
 10
536.7209
 20
631.2066
 11
536.4209
 21
630.8066
  0
LINE
  8
15_0F
  6
CONTINUOUS
 62
4
 10
541.2209
 20
631.2066
 11
541.2209
 21
627.6072
  0
LINE
  8
        _00
  6
CONTINUOUS
 62
4
 10
531.1209
 20
631.9066
 11
531.4209
 21
632.8065
  0
LINE
  8
15_0F
  6
CONTINUOUS
 62
4
 10
504.4209
 20
632.7066
 11
505.4209
 21
632.7066
  0
LINE
  8
15_0F
  6
CONTINUOUS
 62
4
 10
504.4209
 20
632.7066
 11
504.4209
 21
631.9066
  0
LINE
  8
15_0F
  6
CONTINUOUS
 62
4
 10
527.4209
 20
632.7066
 11
526.4209
 21
632.7066
  0
LINE
  8
15_0F
  6
CONTINUOUS
 62
4
 10
527.4209
 20
632.7066
 11
527.4209
 21
631.9066
  0
LINE
  8
15_0F
  6
CONTINUOUS
 62
4
 10
489.5209
 20
627.9019
 11
489.0090
 21
627.0153
  0
LINE
  8
15_0F
  6
CONTINUOUS
 62
4
 10
490.6209
 20
627.6072
 11
490.1080
 21
626.7187
  0
LINE
  8
15_0F
  6
CONTINUOUS
 62
4
 10
542.3210
 20
627.9019
 11
542.8328
 21
627.0153
  0
LINE
  8
15_0F
  6
CONTINUOUS
 62
4
 10
541.2209
 20
627.6072
 11
541.7338
 21
626.7187
  0
LINE
  8
15_0F
  6
CONTINUOUS
 62
4
 10
508.8917
 20
610.3066
 11
522.9501
 21
610.3066
  0
LINE
  8
        _00
  6
CONTINUOUS
 62
4
 10
497.6209
 20
632.8065
 11
497.9209
 21
632.5066
  0
LINE
  8
        _00
  6
CONTINUOUS
 62
4
 10
495.4209
 20
632.8065
 11
497.6209
 21
632.8065
  0
LINE
  8
        _00
  6
CONTINUOUS
 62
4
 10
495.1209
 20
632.3066
 11
495.4209
 21
632.8065
  0
LINE
  8
        _00
  6
CONTINUOUS
 62
4
 10
498.2209
 20
632.8065
 11
497.9209
 21
632.5066
  0
LINE
  8
        _00
  6
CONTINUOUS
 62
4
 10
500.4209
 20
632.8065
 11
498.2209
 21
632.8065
  0
LINE
  8
        _00
  6
CONTINUOUS
 62
4
 10
495.1209
 20
631.2066
 11
495.4209
 21
630.8066
  0
LINE
  8
        _00
  6
CONTINUOUS
 62
4
 10
500.7209
 20
631.9066
 11
500.4209
 21
632.8065
  0
LINE
  8
12_0C
  6
DASHED
 62
2
 10
531.9210
 20
630.8066
 11
531.9210
 21
612.6266
  0
LINE
  8
        _00
  6
DASHED
 62
2
 10
533.9209
 20
633.1066
 11
533.9209
 21
627.3835
  0
LINE
  8
12_0C
  6
DASHED
 62
2
 10
531.9210
 20
612.6266
 11
532.4209
 21
608.2448
  0
LINE
  8
12_0C
  6
DASHED
 62
2
 10
535.9210
 20
612.6266
 11
535.4209
 21
608.2448
  0
LINE
  8
12_0C
  6
DASHED
 62
2
 10
532.4209
 20
602.8065
 11
535.4209
 21
602.8065
  0
LINE
  8
12_0C
  6
DASHED
 62
2
 10
535.9210
 20
612.6266
 11
532.4209
 21
608.2448
  0
LINE
  8
12_0C
  6
DASHED
 62
2
 10
535.4209
 20
630.8066
 11
535.4209
 21
602.8065
  0
LINE
  8
12_0C
  6
DASHED
 62
2
 10
535.4209
 20
632.8065
 11
535.4209
 21
630.8066
  0
LINE
  8
12_0C
  6
DASHED
 62
2
 10
535.9210
 20
630.8066
 11
535.9210
 21
612.6266
  0
LINE
  8
12_0C
  6
DASHED
 62
2
 10
535.9210
 20
632.8065
 11
535.9210
 21
630.8066
  0
LINE
  8
12_0C
  6
DASHED
 62
2
 10
532.4209
 20
630.8066
 11
532.4209
 21
602.8065
  0
LINE
  8
12_0C
  6
DASHED
 62
2
 10
532.4209
 20
632.8065
 11
532.4209
 21
630.8066
  0
LINE
  8
12_0C
  6
DASHED
 62
2
 10
531.9210
 20
632.8065
 11
531.9210
 21
630.8066
  0
LINE
  8
        _00
  6
DASHED
 62
2
 10
497.9209
 20
633.1066
 11
497.9209
 21
627.3835
  0
LINE
  8
12_0C
  6
DASHED
 62
2
 10
495.9210
 20
612.6266
 11
496.4209
 21
608.2448
  0
LINE
  8
12_0C
  6
DASHED
 62
2
 10
499.9210
 20
612.6266
 11
499.4209
 21
608.2448
  0
LINE
  8
12_0C
  6
DASHED
 62
2
 10
496.4209
 20
602.8065
 11
499.4209
 21
602.8065
  0
LINE
  8
12_0C
  6
DASHED
 62
2
 10
499.9210
 20
612.6266
 11
496.4209
 21
608.2448
  0
LINE
  8
12_0C
  6
DASHED
 62
2
 10
499.4209
 20
630.8066
 11
499.4209
 21
602.8065
  0
LINE
  8
12_0C
  6
DASHED
 62
2
 10
499.4209
 20
632.8065
 11
499.4209
 21
630.8066
  0
LINE
  8
12_0C
  6
DASHED
 62
2
 10
499.9210
 20
630.8066
 11
499.9210
 21
612.6266
  0
LINE
  8
12_0C
  6
DASHED
 62
2
 10
499.9210
 20
632.8065
 11
499.9210
 21
630.8066
  0
LINE
  8
12_0C
  6
DASHED
 62
2
 10
496.4209
 20
630.8066
 11
496.4209
 21
602.8065
  0
LINE
  8
12_0C
  6
DASHED
 62
2
 10
496.4209
 20
632.8065
 11
496.4209
 21
630.8066
  0
LINE
  8
12_0C
  6
DASHED
 62
2
 10
495.9210
 20
630.8066
 11
495.9210
 21
612.6266
  0
LINE
  8
12_0C
  6
DASHED
 62
2
 10
495.9210
 20
632.8065
 11
495.9210
 21
630.8066
  0
LINE
  8
        _00
  6
CENTER1
 62
6
 10
533.9209
 20
637.9891
 11
533.9209
 21
599.0812
  0
LINE
  8
        _00
  6
CENTER1
 62
6
 10
497.9209
 20
637.9891
 11
497.9209
 21
599.0812
  0
LINE
  8
12_0C
  6
CONTINUOUS
 62
2
 10
537.4210
 20
633.7766
 11
537.4210
 21
632.8065
  0
LINE
  8
12_0C
  6
CONTINUOUS
 62
2
 10
530.4210
 20
633.7766
 11
530.4210
 21
632.8065
  0
LINE
  8
12_0C
  6
CONTINUOUS
 62
2
 10
530.4210
 20
632.8065
 11
537.4210
 21
632.8065
  0
LINE
  8
12_0C
  6
CONTINUOUS
 62
2
 10
501.4210
 20
633.7766
 11
501.4210
 21
632.8065
  0
LINE
  8
12_0C
  6
CONTINUOUS
 62
2
 10
494.4209
 20
633.7766
 11
494.4209
 21
632.8065
  0
LINE
  8
12_0C
  6
CONTINUOUS
 62
2
 10
494.4209
 20
632.8065
 11
501.4210
 21
632.8065
  0
LINE
  8
        _00
  6
CONTINUOUS
 62
4
 10
537.4210
 20
567.4964
 11
537.4210
 21
617.8451
  0
LINE
  8
        _00
  6
CONTINUOUS
 62
4
 10
537.4210
 20
619.5258
 11
537.4210
 21
631.2066
  0
LINE
  8
        _00
  6
CONTINUOUS
 62
4
 10
494.4209
 20
567.4964
 11
494.4209
 21
617.8450
  0
LINE
  8
        _00
  6
CONTINUOUS
 62
4
 10
494.4209
 20
619.5256
 11
494.4209
 21
631.2066
  0
LINE
  8
        _00
  6
CONTINUOUS
 62
6
 10
539.4761
 20
620.3906
 11
552.3951
 21
607.4716
  0
LINE
  8
        _00
  6
CONTINUOUS
 62
6
 10
539.4761
 20
620.3906
 11
543.5609
 21
614.1005
  0
LINE
  8
        _00
  6
CONTINUOUS
 62
6
 10
539.4761
 20
620.3906
 11
545.7662
 21
616.3058
  0
LINE
  8
        _00
  6
CONTINUOUS
 62
6
 10
601.7941
 20
607.4716
 11
552.3951
 21
607.4716
  0
LINE
  8
        _00
  6
CONTINUOUS
 62
2
 10
978.7416
 20
320.0314
 11
979.4687
 21
319.3296
  0
LINE
  8
        _00
  6
CONTINUOUS
 62
2
 10
979.4687
 20
319.3296
 11
979.8092
 21
319.2054
  0
LINE
  8
        _00
  6
CONTINUOUS
 62
2
 10
979.8092
 20
319.2054
 11
980.1313
 21
319.3227
  0
LINE
  8
        _00
  6
CONTINUOUS
 62
2
 10
980.1313
 20
319.3227
 11
980.8815
 21
320.0291
  0
LINE
  8
        _00
  6
CONTINUOUS
 62
2
 10
978.0605
 20
319.3503
 11
978.7624
 21
318.6232
  0
LINE
  8
        _00
  6
CONTINUOUS
 62
2
 10
978.7624
 20
318.6232
 11
978.8866
 21
318.2827
  0
LINE
  8
        _00
  6
CONTINUOUS
 62
2
 10
978.8866
 20
318.2827
 11
978.7691
 21
317.9606
  0
LINE
  8
        _00
  6
CONTINUOUS
 62
2
 10
978.7691
 20
317.9606
 11
978.0629
 21
317.2105
  0
LINE
  8
        _00
  6
CONTINUOUS
 62
2
 10
981.5579
 20
317.2151
 11
980.8562
 21
317.9422
  0
LINE
  8
        _00
  6
CONTINUOUS
 62
2
 10
980.8562
 20
317.9422
 11
980.7318
 21
318.2827
  0
LINE
  8
        _00
  6
CONTINUOUS
 62
2
 10
980.7318
 20
318.2827
 11
980.8493
 21
318.6048
  0
LINE
  8
        _00
  6
CONTINUOUS
 62
2
 10
980.8493
 20
318.6048
 11
981.5556
 21
319.3549
  0
LINE
  8
        _00
  6
CONTINUOUS
 62
2
 10
980.8768
 20
316.5340
 11
980.1497
 21
317.2358
  0
LINE
  8
        _00
  6
CONTINUOUS
 62
2
 10
980.1497
 20
317.2358
 11
979.8092
 21
317.3600
  0
LINE
  8
        _00
  6
CONTINUOUS
 62
2
 10
979.8092
 20
317.3600
 11
979.4870
 21
317.2427
  0
LINE
  8
        _00
  6
CONTINUOUS
 62
2
 10
979.4870
 20
317.2427
 11
978.7370
 21
316.5363
  0
LINE
  8
        _00
  6
CONTINUOUS
 62
2
 10
999.7416
 20
320.0314
 11
1000.4687
 21
319.3296
  0
LINE
  8
        _00
  6
CONTINUOUS
 62
2
 10
1000.4687
 20
319.3296
 11
1000.8092
 21
319.2054
  0
LINE
  8
        _00
  6
CONTINUOUS
 62
2
 10
1000.8092
 20
319.2054
 11
1001.1313
 21
319.3227
  0
LINE
  8
        _00
  6
CONTINUOUS
 62
2
 10
1001.1313
 20
319.3227
 11
1001.8814
 21
320.0291
  0
LINE
  8
        _00
  6
CONTINUOUS
 62
2
 10
999.0605
 20
319.3503
 11
999.7623
 21
318.6232
  0
LINE
  8
        _00
  6
CONTINUOUS
 62
2
 10
999.7623
 20
318.6232
 11
999.8866
 21
318.2827
  0
LINE
  8
        _00
  6
CONTINUOUS
 62
2
 10
999.8866
 20
318.2827
 11
999.7691
 21
317.9606
  0
LINE
  8
        _00
  6
CONTINUOUS
 62
2
 10
999.7691
 20
317.9606
 11
999.0629
 21
317.2105
  0
LINE
  8
        _00
  6
CONTINUOUS
 62
2
 10
1002.5579
 20
317.2151
 11
1001.8562
 21
317.9422
  0
LINE
  8
        _00
  6
CONTINUOUS
 62
2
 10
1001.8562
 20
317.9422
 11
1001.7319
 21
318.2827
  0
LINE
  8
        _00
  6
CONTINUOUS
 62
2
 10
1001.7319
 20
318.2827
 11
1001.8493
 21
318.6048
  0
LINE
  8
        _00
  6
CONTINUOUS
 62
2
 10
1001.8493
 20
318.6048
 11
1002.5555
 21
319.3549
  0
LINE
  8
        _00
  6
CONTINUOUS
 62
2
 10
1001.8768
 20
316.5340
 11
1001.1497
 21
317.2358
  0
LINE
  8
        _00
  6
CONTINUOUS
 62
2
 10
1001.1497
 20
317.2358
 11
1000.8092
 21
317.3600
  0
LINE
  8
        _00
  6
CONTINUOUS
 62
2
 10
1000.8092
 20
317.3600
 11
1000.4870
 21
317.2427
  0
LINE
  8
        _00
  6
CONTINUOUS
 62
2
 10
1000.4870
 20
317.2427
 11
999.7370
 21
316.5363
  0
LINE
  8
        _00
  6
CONTINUOUS
 62
2
 10
978.7416
 20
280.5340
 11
979.4687
 21
281.2358
  0
LINE
  8
        _00
  6
CONTINUOUS
 62
2
 10
979.4687
 20
281.2358
 11
979.8092
 21
281.3600
  0
LINE
  8
        _00
  6
CONTINUOUS
 62
2
 10
979.8092
 20
281.3600
 11
980.1313
 21
281.2427
  0
LINE
  8
        _00
  6
CONTINUOUS
 62
2
 10
980.1313
 20
281.2427
 11
980.8815
 21
280.5363
  0
LINE
  8
        _00
  6
CONTINUOUS
 62
2
 10
978.0605
 20
281.2151
 11
978.7624
 21
281.9422
  0
LINE
  8
        _00
  6
CONTINUOUS
 62
2
 10
978.7624
 20
281.9422
 11
978.8866
 21
282.2827
  0
LINE
  8
        _00
  6
CONTINUOUS
 62
2
 10
978.8866
 20
282.2827
 11
978.7691
 21
282.6048
  0
LINE
  8
        _00
  6
CONTINUOUS
 62
2
 10
978.7691
 20
282.6048
 11
978.0629
 21
283.3549
  0
LINE
  8
        _00
  6
CONTINUOUS
 62
2
 10
981.5579
 20
283.3503
 11
980.8562
 21
282.6232
  0
LINE
  8
        _00
  6
CONTINUOUS
 62
2
 10
980.8562
 20
282.6232
 11
980.7318
 21
282.2827
  0
LINE
  8
        _00
  6
CONTINUOUS
 62
2
 10
980.7318
 20
282.2827
 11
980.8493
 21
281.9606
  0
LINE
  8
        _00
  6
CONTINUOUS
 62
2
 10
980.8493
 20
281.9606
 11
981.5556
 21
281.2105
  0
LINE
  8
        _00
  6
CONTINUOUS
 62
2
 10
980.8768
 20
284.0314
 11
980.1497
 21
283.3296
  0
LINE
  8
        _00
  6
CONTINUOUS
 62
2
 10
980.1497
 20
283.3296
 11
979.8092
 21
283.2054
  0
LINE
  8
        _00
  6
CONTINUOUS
 62
2
 10
979.8092
 20
283.2054
 11
979.4870
 21
283.3227
  0
LINE
  8
        _00
  6
CONTINUOUS
 62
2
 10
979.4870
 20
283.3227
 11
978.7370
 21
284.0291
  0
LINE
  8
        _00
  6
CONTINUOUS
 62
2
 10
999.7416
 20
280.5340
 11
1000.4687
 21
281.2358
  0
LINE
  8
        _00
  6
CONTINUOUS
 62
2
 10
1000.4687
 20
281.2358
 11
1000.8092
 21
281.3600
  0
LINE
  8
        _00
  6
CONTINUOUS
 62
2
 10
1000.8092
 20
281.3600
 11
1001.1313
 21
281.2427
  0
LINE
  8
        _00
  6
CONTINUOUS
 62
2
 10
1001.1313
 20
281.2427
 11
1001.8814
 21
280.5363
  0
LINE
  8
        _00
  6
CONTINUOUS
 62
2
 10
999.0605
 20
281.2151
 11
999.7623
 21
281.9422
  0
LINE
  8
        _00
  6
CONTINUOUS
 62
2
 10
999.7623
 20
281.9422
 11
999.8866
 21
282.2827
  0
LINE
  8
        _00
  6
CONTINUOUS
 62
2
 10
999.8866
 20
282.2827
 11
999.7691
 21
282.6048
  0
LINE
  8
        _00
  6
CONTINUOUS
 62
2
 10
999.7691
 20
282.6048
 11
999.0629
 21
283.3549
  0
LINE
  8
        _00
  6
CONTINUOUS
 62
2
 10
1002.5579
 20
283.3503
 11
1001.8562
 21
282.6232
  0
LINE
  8
        _00
  6
CONTINUOUS
 62
2
 10
1001.8562
 20
282.6232
 11
1001.7319
 21
282.2827
  0
LINE
  8
        _00
  6
CONTINUOUS
 62
2
 10
1001.7319
 20
282.2827
 11
1001.8493
 21
281.9606
  0
LINE
  8
        _00
  6
CONTINUOUS
 62
2
 10
1001.8493
 20
281.9606
 11
1002.5555
 21
281.2105
  0
LINE
  8
        _00
  6
CONTINUOUS
 62
2
 10
1001.8768
 20
284.0314
 11
1001.1497
 21
283.3296
  0
LINE
  8
        _00
  6
CONTINUOUS
 62
2
 10
1001.1497
 20
283.3296
 11
1000.8092
 21
283.2054
  0
LINE
  8
        _00
  6
CONTINUOUS
 62
2
 10
1000.8092
 20
283.2054
 11
1000.4870
 21
283.3227
  0
LINE
  8
        _00
  6
CONTINUOUS
 62
2
 10
1000.4870
 20
283.3227
 11
999.7370
 21
284.0291
  0
LINE
  8
11_0B
  6
DASHED
 62
2
 10
247.2000
 20
466.3065
 11
247.2000
 21
457.3568
  0
LINE
  8
11_0B
  6
DASHED
 62
2
 10
246.7261
 20
455.0051
 11
246.5923
 21
453.4755
  0
LINE
  8
11_0B
  6
DASHED
 62
2
 10
246.3993
 20
451.2693
 11
246.2655
 21
449.7398
  0
LINE
  8
11_0B
  6
DASHED
 62
2
 10
246.0725
 20
447.5336
 11
245.9387
 21
446.0040
  0
LINE
  8
11_0B
  6
DASHED
 62
2
 10
245.7456
 20
443.7979
 11
245.6118
 21
442.2683
  0
LINE
  8
11_0B
  6
DASHED
 62
2
 10
245.4188
 20
440.0621
 11
245.2986
 21
438.6879
  0
LINE
  8
11_0B
  6
DASHED
 62
2
 10
253.2000
 20
466.3065
 11
253.2000
 21
457.3568
  0
LINE
  8
11_0B
  6
DASHED
 62
2
 10
253.6739
 20
455.0051
 11
253.8077
 21
453.4755
  0
LINE
  8
11_0B
  6
DASHED
 62
2
 10
254.0007
 20
451.2693
 11
254.1345
 21
449.7398
  0
LINE
  8
11_0B
  6
DASHED
 62
2
 10
254.3275
 20
447.5336
 11
254.4613
 21
446.0040
  0
LINE
  8
11_0B
  6
DASHED
 62
2
 10
254.6544
 20
443.7979
 11
254.7882
 21
442.2683
  0
LINE
  8
11_0B
  6
DASHED
 62
2
 10
254.9812
 20
440.0621
 11
255.1014
 21
438.6879
  0
LINE
  8
11_0B
  6
DASHED
 62
2
 10
247.2000
 20
466.3065
 11
253.2000
 21
466.3065
  0
LINE
  8
11_0B
  6
DASHED
 62
2
 10
249.8250
 20
460.3066
 11
250.5750
 21
460.3066
  0
LINE
  8
11_0B
  6
DASHED
 62
2
 10
250.5750
 20
460.3066
 11
252.6668
 21
436.3979
  0
LINE
  8
11_0B
  6
DASHED
 62
2
 10
247.7333
 20
436.3979
 11
249.8250
 21
460.3066
  0
LINE
  8
11_0B
  6
DASHED
 62
2
 10
246.2390
 20
436.5287
 11
247.7333
 21
436.3979
  0
LINE
  8
11_0B
  6
DASHED
 62
2
 10
252.6668
 20
436.3979
 11
254.1610
 21
436.5287
  0
LINE
  8
11_0B
  6
DASHED
 62
2
 10
254.1610
 20
436.5287
 11
255.0610
 21
438.4585
  0
LINE
  8
11_0B
  6
DASHED
 62
2
 10
246.2390
 20
436.5287
 11
245.3391
 21
438.4585
  0
LINE
  8
11_0B
  6
DASHED
 62
2
 10
245.2881
 20
438.5678
 11
247.9031
 21
438.3391
  0
LINE
  8
11_0B
  6
DASHED
 62
2
 10
252.4969
 20
438.3391
 11
255.1119
 21
438.5678
  0
LINE
  8
11_0B
  6
DASHED
 62
2
 10
245.4188
 20
440.0621
 11
247.0625
 21
439.9183
  0
LINE
  8
11_0B
  6
DASHED
 62
2
 10
253.3375
 20
439.9183
 11
254.9812
 21
440.0621
  0
LINE
  8
11_0B
  6
DASHED
 62
2
 10
245.7456
 20
443.7979
 11
247.3894
 21
443.6541
  0
LINE
  8
11_0B
  6
DASHED
 62
2
 10
253.0106
 20
443.6541
 11
254.6544
 21
443.7979
  0
LINE
  8
11_0B
  6
DASHED
 62
2
 10
246.0725
 20
447.5336
 11
247.7162
 21
447.3898
  0
LINE
  8
11_0B
  6
DASHED
 62
2
 10
252.6838
 20
447.3898
 11
254.3275
 21
447.5336
  0
LINE
  8
11_0B
  6
DASHED
 62
2
 10
246.3993
 20
451.2693
 11
248.0430
 21
451.1255
  0
LINE
  8
11_0B
  6
DASHED
 62
2
 10
252.3570
 20
451.1255
 11
254.0007
 21
451.2693
  0
LINE
  8
11_0B
  6
DASHED
 62
2
 10
246.7261
 20
455.0051
 11
247.9216
 21
454.9005
  0
LINE
  8
11_0B
  6
DASHED
 62
2
 10
252.4784
 20
454.9005
 11
253.6739
 21
455.0051
  0
LINE
  8
11_0B
  6
DASHED
 62
2
 10
247.8945
 20
452.8699
 11
247.7442
 21
451.1516
  0
LINE
  8
11_0B
  6
DASHED
 62
2
 10
247.5677
 20
449.1341
 11
247.4174
 21
447.4159
  0
LINE
  8
11_0B
  6
DASHED
 62
2
 10
247.2408
 20
445.3984
 11
247.0905
 21
443.6802
  0
LINE
  8
11_0B
  6
DASHED
 62
2
 10
246.9140
 20
441.6627
 11
246.7637
 21
439.9444
  0
LINE
  8
11_0B
  6
DASHED
 62
2
 10
253.6363
 20
439.9444
 11
253.4860
 21
441.6627
  0
LINE
  8
11_0B
  6
DASHED
 62
2
 10
253.3095
 20
443.6802
 11
253.1591
 21
445.3984
  0
LINE
  8
11_0B
  6
DASHED
 62
2
 10
252.9827
 20
447.4159
 11
252.8323
 21
449.1341
  0
LINE
  8
11_0B
  6
DASHED
 62
2
 10
252.6558
 20
451.1516
 11
252.5055
 21
452.8699
  0
LINE
  8
11_0B
  6
DASHED
 62
2
 10
253.2878
 20
441.6096
 11
254.5670
 21
441.9524
  0
LINE
  8
11_0B
  6
DASHED
 62
2
 10
247.2338
 20
441.5770
 11
245.8331
 21
441.9524
  0
LINE
  8
11_0B
  6
DASHED
 62
2
 10
252.9609
 20
445.3453
 11
254.2401
 21
445.6881
  0
LINE
  8
11_0B
  6
DASHED
 62
2
 10
247.4390
 20
445.3453
 11
246.1599
 21
445.6881
  0
LINE
  8
11_0B
  6
DASHED
 62
2
 10
252.6341
 20
449.0810
 11
253.9133
 21
449.4238
  0
LINE
  8
11_0B
  6
DASHED
 62
2
 10
247.7659
 20
449.0810
 11
246.4867
 21
449.4238
  0
LINE
  8
11_0B
  6
DASHED
 62
2
 10
252.3073
 20
452.8168
 11
253.5865
 21
453.1595
  0
LINE
  8
11_0B
  6
DASHED
 62
2
 10
248.0927
 20
452.8168
 11
246.8135
 21
453.1595
  0
LINE
  8
11_0B
  6
DASHED
 62
2
 10
247.7721
 20
454.9135
 11
247.9740
 21
457.2204
  0
LINE
  8
11_0B
  6
DASHED
 62
2
 10
252.6278
 20
454.9135
 11
252.4260
 21
457.2204
  0
LINE
  8
11_0B
  6
DASHED
 62
2
 10
248.3139
 20
452.5009
 11
248.2055
 21
451.2618
  0
LINE
  8
11_0B
  6
DASHED
 62
2
 10
247.9871
 20
448.7651
 11
247.8787
 21
447.5261
  0
LINE
  8
11_0B
  6
DASHED
 62
2
 10
247.6603
 20
445.0294
 11
247.5519
 21
443.7904
  0
LINE
  8
11_0B
  6
DASHED
 62
2
 10
247.3444
 20
441.4191
 11
247.2250
 21
440.0547
  0
LINE
  8
11_0B
  6
DASHED
 62
2
 10
253.1750
 20
440.0547
 11
253.0666
 21
441.2937
  0
LINE
  8
11_0B
  6
DASHED
 62
2
 10
252.8481
 20
443.7904
 11
252.7397
 21
445.0294
  0
LINE
  8
11_0B
  6
DASHED
 62
2
 10
252.5213
 20
447.5261
 11
252.4129
 21
448.7651
  0
LINE
  8
11_0B
  6
DASHED
 62
2
 10
252.1945
 20
451.2618
 11
252.0861
 21
452.5009
  0
LINE
  8
11_0B
  6
DASHED
 62
2
 10
247.9998
 20
457.2157
 11
247.2000
 21
457.3568
  0
LINE
  8
11_0B
  6
DASHED
 62
2
 10
252.4002
 20
457.2157
 11
253.2000
 21
457.3568
  0
LINE
  8
11_0B
  6
DASHED
 62
2
 10
254.0007
 20
451.2693
 11
256.0926
 21
455.7556
  0
LINE
  8
11_0B
  6
DASHED
 62
2
 10
255.4129
 20
456.0725
 11
253.1380
 21
451.1938
  0
LINE
  8
11_0B
  6
DASHED
 62
2
 10
246.3993
 20
451.2693
 11
244.3073
 21
455.7556
  0
LINE
  8
11_0B
  6
DASHED
 62
2
 10
244.9871
 20
456.0725
 11
247.2621
 21
451.1938
  0
LINE
  8
11_0B
  6
DASHED
 62
2
 10
255.9475
 20
456.1542
 11
255.8116
 21
456.2176
  0
LINE
  8
11_0B
  6
DASHED
 62
2
 10
244.4525
 20
456.1542
 11
244.5884
 21
456.2176
  0
LINE
  8
11_0B
  6
DASHED
 62
2
 10
248.2466
 20
456.8942
 11
248.0841
 21
455.0368
  0
LINE
  8
11_0B
  6
DASHED
 62
2
 10
252.1534
 20
456.8942
 11
252.5055
 21
452.8699
  0
LINE
  8
11_0B
  6
DASHED
 62
2
 10
197.2000
 20
466.3065
 11
197.2000
 21
457.3568
  0
LINE
  8
11_0B
  6
DASHED
 62
2
 10
196.7261
 20
455.0051
 11
196.5923
 21
453.4755
  0
LINE
  8
11_0B
  6
DASHED
 62
2
 10
196.3993
 20
451.2693
 11
196.2655
 21
449.7398
  0
LINE
  8
11_0B
  6
DASHED
 62
2
 10
196.0725
 20
447.5336
 11
195.9386
 21
446.0040
  0
LINE
  8
11_0B
  6
DASHED
 62
2
 10
195.7456
 20
443.7979
 11
195.6118
 21
442.2683
  0
LINE
  8
11_0B
  6
DASHED
 62
2
 10
195.4188
 20
440.0621
 11
195.2986
 21
438.6879
  0
LINE
  8
11_0B
  6
DASHED
 62
2
 10
203.2000
 20
466.3065
 11
203.2000
 21
457.3568
  0
LINE
  8
11_0B
  6
DASHED
 62
2
 10
203.6739
 20
455.0051
 11
203.8077
 21
453.4755
  0
LINE
  8
11_0B
  6
DASHED
 62
2
 10
204.0007
 20
451.2693
 11
204.1345
 21
449.7398
  0
LINE
  8
11_0B
  6
DASHED
 62
2
 10
204.3275
 20
447.5336
 11
204.4613
 21
446.0040
  0
LINE
  8
11_0B
  6
DASHED
 62
2
 10
204.6544
 20
443.7979
 11
204.7882
 21
442.2683
  0
LINE
  8
11_0B
  6
DASHED
 62
2
 10
204.9812
 20
440.0621
 11
205.1014
 21
438.6879
  0
LINE
  8
11_0B
  6
DASHED
 62
2
 10
197.2000
 20
466.3065
 11
203.2000
 21
466.3065
  0
LINE
  8
11_0B
  6
DASHED
 62
2
 10
199.8250
 20
460.3066
 11
200.5750
 21
460.3066
  0
LINE
  8
11_0B
  6
DASHED
 62
2
 10
200.5750
 20
460.3066
 11
202.6667
 21
436.3979
  0
LINE
  8
11_0B
  6
DASHED
 62
2
 10
197.7333
 20
436.3979
 11
199.8250
 21
460.3066
  0
LINE
  8
11_0B
  6
DASHED
 62
2
 10
196.2390
 20
436.5287
 11
197.7333
 21
436.3979
  0
LINE
  8
11_0B
  6
DASHED
 62
2
 10
202.6667
 20
436.3979
 11
204.1610
 21
436.5287
  0
LINE
  8
11_0B
  6
DASHED
 62
2
 10
204.1610
 20
436.5287
 11
205.0610
 21
438.4585
  0
LINE
  8
11_0B
  6
DASHED
 62
2
 10
196.2390
 20
436.5287
 11
195.3390
 21
438.4585
  0
LINE
  8
11_0B
  6
DASHED
 62
2
 10
195.2881
 20
438.5678
 11
197.9031
 21
438.3391
  0
LINE
  8
11_0B
  6
DASHED
 62
2
 10
202.4969
 20
438.3391
 11
205.1119
 21
438.5678
  0
LINE
  8
11_0B
  6
DASHED
 62
2
 10
195.4188
 20
440.0621
 11
197.0625
 21
439.9183
  0
LINE
  8
11_0B
  6
DASHED
 62
2
 10
203.3375
 20
439.9183
 11
204.9812
 21
440.0621
  0
LINE
  8
11_0B
  6
DASHED
 62
2
 10
195.7456
 20
443.7979
 11
197.3894
 21
443.6541
  0
LINE
  8
11_0B
  6
DASHED
 62
2
 10
203.0106
 20
443.6541
 11
204.6544
 21
443.7979
  0
LINE
  8
11_0B
  6
DASHED
 62
2
 10
196.0725
 20
447.5336
 11
197.7162
 21
447.3898
  0
LINE
  8
11_0B
  6
DASHED
 62
2
 10
202.6838
 20
447.3898
 11
204.3275
 21
447.5336
  0
LINE
  8
11_0B
  6
DASHED
 62
2
 10
196.3993
 20
451.2693
 11
198.0430
 21
451.1255
  0
LINE
  8
11_0B
  6
DASHED
 62
2
 10
202.3570
 20
451.1255
 11
204.0007
 21
451.2693
  0
LINE
  8
11_0B
  6
DASHED
 62
2
 10
196.7261
 20
455.0051
 11
197.9216
 21
454.9005
  0
LINE
  8
11_0B
  6
DASHED
 62
2
 10
202.4784
 20
454.9005
 11
203.6739
 21
455.0051
  0
LINE
  8
11_0B
  6
DASHED
 62
2
 10
197.8945
 20
452.8699
 11
197.7442
 21
451.1516
  0
LINE
  8
11_0B
  6
DASHED
 62
2
 10
197.5677
 20
449.1341
 11
197.4174
 21
447.4159
  0
LINE
  8
11_0B
  6
DASHED
 62
2
 10
197.2408
 20
445.3984
 11
197.0905
 21
443.6802
  0
LINE
  8
11_0B
  6
DASHED
 62
2
 10
196.9140
 20
441.6627
 11
196.7637
 21
439.9444
  0
LINE
  8
11_0B
  6
DASHED
 62
2
 10
203.6363
 20
439.9444
 11
203.4860
 21
441.6627
  0
LINE
  8
11_0B
  6
DASHED
 62
2
 10
203.3095
 20
443.6802
 11
203.1591
 21
445.3984
  0
LINE
  8
11_0B
  6
DASHED
 62
2
 10
202.9827
 20
447.4159
 11
202.8323
 21
449.1341
  0
LINE
  8
11_0B
  6
DASHED
 62
2
 10
202.6558
 20
451.1516
 11
202.5055
 21
452.8699
  0
LINE
  8
11_0B
  6
DASHED
 62
2
 10
203.2878
 20
441.6096
 11
204.5669
 21
441.9524
  0
LINE
  8
11_0B
  6
DASHED
 62
2
 10
197.2338
 20
441.5770
 11
195.8330
 21
441.9524
  0
LINE
  8
11_0B
  6
DASHED
 62
2
 10
202.9609
 20
445.3453
 11
204.2401
 21
445.6881
  0
LINE
  8
11_0B
  6
DASHED
 62
2
 10
197.4391
 20
445.3453
 11
196.1599
 21
445.6881
  0
LINE
  8
11_0B
  6
DASHED
 62
2
 10
202.6341
 20
449.0810
 11
203.9133
 21
449.4238
  0
LINE
  8
11_0B
  6
DASHED
 62
2
 10
197.7659
 20
449.0810
 11
196.4867
 21
449.4238
  0
LINE
  8
11_0B
  6
DASHED
 62
2
 10
202.3073
 20
452.8168
 11
203.5865
 21
453.1595
  0
LINE
  8
11_0B
  6
DASHED
 62
2
 10
198.0927
 20
452.8168
 11
196.8135
 21
453.1595
  0
LINE
  8
11_0B
  6
DASHED
 62
2
 10
197.7721
 20
454.9135
 11
197.9740
 21
457.2204
  0
LINE
  8
11_0B
  6
DASHED
 62
2
 10
202.6279
 20
454.9135
 11
202.4260
 21
457.2204
  0
LINE
  8
11_0B
  6
DASHED
 62
2
 10
198.3139
 20
452.5009
 11
198.2055
 21
451.2618
  0
LINE
  8
11_0B
  6
DASHED
 62
2
 10
197.9871
 20
448.7651
 11
197.8787
 21
447.5261
  0
LINE
  8
11_0B
  6
DASHED
 62
2
 10
197.6603
 20
445.0294
 11
197.5519
 21
443.7904
  0
LINE
  8
11_0B
  6
DASHED
 62
2
 10
197.3444
 20
441.4191
 11
197.2250
 21
440.0547
  0
LINE
  8
11_0B
  6
DASHED
 62
2
 10
203.1749
 20
440.0547
 11
203.0666
 21
441.2937
  0
LINE
  8
11_0B
  6
DASHED
 62
2
 10
202.8482
 20
443.7904
 11
202.7397
 21
445.0294
  0
LINE
  8
11_0B
  6
DASHED
 62
2
 10
202.5213
 20
447.5261
 11
202.4129
 21
448.7651
  0
LINE
  8
11_0B
  6
DASHED
 62
2
 10
202.1945
 20
451.2618
 11
202.0861
 21
452.5009
  0
LINE
  8
11_0B
  6
DASHED
 62
2
 10
197.9998
 20
457.2157
 11
197.2000
 21
457.3568
  0
LINE
  8
11_0B
  6
DASHED
 62
2
 10
202.4002
 20
457.2157
 11
203.2000
 21
457.3568
  0
LINE
  8
11_0B
  6
DASHED
 62
2
 10
204.0007
 20
451.2693
 11
206.0927
 21
455.7556
  0
LINE
  8
11_0B
  6
DASHED
 62
2
 10
205.4129
 20
456.0725
 11
203.1380
 21
451.1938
  0
LINE
  8
11_0B
  6
DASHED
 62
2
 10
196.3993
 20
451.2693
 11
194.3073
 21
455.7556
  0
LINE
  8
11_0B
  6
DASHED
 62
2
 10
194.9871
 20
456.0725
 11
197.2621
 21
451.1938
  0
LINE
  8
11_0B
  6
DASHED
 62
2
 10
205.9475
 20
456.1542
 11
205.8116
 21
456.2176
  0
LINE
  8
11_0B
  6
DASHED
 62
2
 10
194.4525
 20
456.1542
 11
194.5884
 21
456.2176
  0
LINE
  8
11_0B
  6
DASHED
 62
2
 10
198.2466
 20
456.8942
 11
198.0841
 21
455.0368
  0
LINE
  8
11_0B
  6
DASHED
 62
2
 10
202.1534
 20
456.8942
 11
202.5055
 21
452.8699
  0
LINE
  8
        _00
  6
CONTINUOUS
 62
2
 10
559.9383
 20
321.7827
 11
571.1383
 21
321.7827
  0
LINE
  8
        _00
  6
CONTINUOUS
 62
2
 10
557.4383
 20
319.2827
 11
557.4383
 21
300.5827
  0
LINE
  8
        _00
  6
CONTINUOUS
 62
2
 10
571.4383
 20
321.4827
 11
571.1383
 21
321.7827
  0
LINE
  8
        _00
  6
CONTINUOUS
 62
2
 10
568.1383
 20
320.5827
 11
564.2281
 21
320.5827
  0
LINE
  8
        _00
  6
CONTINUOUS
 62
2
 10
557.7383
 20
300.2827
 11
557.4383
 21
300.5827
  0
LINE
  8
        _00
  6
CONTINUOUS
 62
2
 10
571.4383
 20
319.7827
 11
568.9383
 21
319.7827
  0
LINE
  8
        _00
  6
CONTINUOUS
 62
2
 10
568.1383
 20
320.5827
 11
568.9383
 21
319.7827
  0
LINE
  8
        _00
  6
CONTINUOUS
 62
2
 10
557.7383
 20
300.2827
 11
557.4383
 21
299.9827
  0
LINE
  8
        _00
  6
CONTINUOUS
 62
2
 10
557.7383
 20
300.2827
 11
557.4383
 21
300.5827
  0
LINE
  8
        _00
  6
CONTINUOUS
 62
2
 10
582.9383
 20
321.7827
 11
571.7383
 21
321.7827
  0
LINE
  8
        _00
  6
CONTINUOUS
 62
2
 10
585.4383
 20
319.2827
 11
585.4383
 21
300.5827
  0
LINE
  8
        _00
  6
CONTINUOUS
 62
2
 10
571.4383
 20
321.4827
 11
571.7383
 21
321.7827
  0
LINE
  8
        _00
  6
CONTINUOUS
 62
2
 10
574.7383
 20
320.5827
 11
578.6486
 21
320.5827
  0
LINE
  8
        _00
  6
CONTINUOUS
 62
2
 10
585.1383
 20
300.2827
 11
585.4383
 21
300.5827
  0
LINE
  8
        _00
  6
CONTINUOUS
 62
2
 10
571.4383
 20
319.7827
 11
573.9383
 21
319.7827
  0
LINE
  8
        _00
  6
CONTINUOUS
 62
2
 10
574.7383
 20
320.5827
 11
573.9383
 21
319.7827
  0
LINE
  8
        _00
  6
CONTINUOUS
 62
2
 10
585.1383
 20
300.2827
 11
585.4383
 21
299.9827
  0
LINE
  8
        _00
  6
CONTINUOUS
 62
2
 10
585.1383
 20
300.2827
 11
585.4383
 21
300.5827
  0
LINE
  8
        _00
  6
CONTINUOUS
 62
2
 10
559.9383
 20
278.7827
 11
571.1383
 21
278.7827
  0
LINE
  8
        _00
  6
CONTINUOUS
 62
2
 10
557.4383
 20
281.2827
 11
557.4383
 21
299.9827
  0
LINE
  8
        _00
  6
CONTINUOUS
 62
2
 10
571.4383
 20
279.0827
 11
571.1383
 21
278.7827
  0
LINE
  8
        _00
  6
CONTINUOUS
 62
2
 10
568.1383
 20
279.9827
 11
564.2281
 21
279.9827
  0
LINE
  8
        _00
  6
CONTINUOUS
 62
2
 10
557.7383
 20
300.2827
 11
557.4383
 21
299.9827
  0
LINE
  8
        _00
  6
CONTINUOUS
 62
2
 10
558.6383
 20
314.9930
 11
558.6383
 21
285.5725
  0
LINE
  8
        _00
  6
CONTINUOUS
 62
2
 10
571.4383
 20
280.7827
 11
568.9383
 21
280.7827
  0
LINE
  8
        _00
  6
CONTINUOUS
 62
2
 10
568.1383
 20
279.9827
 11
568.9383
 21
280.7827
  0
LINE
  8
        _00
  6
CONTINUOUS
 62
2
 10
557.7383
 20
300.2827
 11
557.4383
 21
300.5827
  0
LINE
  8
        _00
  6
CONTINUOUS
 62
2
 10
557.7383
 20
300.2827
 11
557.4383
 21
299.9827
  0
LINE
  8
        _00
  6
CONTINUOUS
 62
2
 10
582.9383
 20
278.7827
 11
571.7383
 21
278.7827
  0
LINE
  8
        _00
  6
CONTINUOUS
 62
2
 10
585.4383
 20
281.2827
 11
585.4383
 21
299.9827
  0
LINE
  8
        _00
  6
CONTINUOUS
 62
2
 10
571.4383
 20
279.0827
 11
571.7383
 21
278.7827
  0
LINE
  8
        _00
  6
CONTINUOUS
 62
2
 10
574.7383
 20
279.9827
 11
578.6486
 21
279.9827
  0
LINE
  8
        _00
  6
CONTINUOUS
 62
2
 10
585.1383
 20
300.2827
 11
585.4383
 21
299.9827
  0
LINE
  8
        _00
  6
CONTINUOUS
 62
2
 10
584.2383
 20
314.9930
 11
584.2383
 21
285.5725
  0
LINE
  8
        _00
  6
CONTINUOUS
 62
2
 10
571.4383
 20
280.7827
 11
573.9383
 21
280.7827
  0
LINE
  8
        _00
  6
CONTINUOUS
 62
2
 10
574.7383
 20
279.9827
 11
573.9383
 21
280.7827
  0
LINE
  8
        _00
  6
CONTINUOUS
 62
2
 10
585.1383
 20
300.2827
 11
585.4383
 21
300.5827
  0
LINE
  8
        _00
  6
CONTINUOUS
 62
2
 10
585.1383
 20
300.2827
 11
585.4383
 21
299.9827
  0
LINE
  8
        _00
  6
CONTINUOUS
 62
2
 10
583.5474
 20
318.8311
 11
583.8828
 21
319.1666
  0
LINE
  8
        _00
  6
CONTINUOUS
 62
2
 10
583.8828
 20
319.1666
 11
582.8222
 21
320.2272
  0
LINE
  8
        _00
  6
CONTINUOUS
 62
2
 10
582.8222
 20
320.2272
 11
582.4867
 21
319.8918
  0
LINE
  8
        _00
  6
CONTINUOUS
 62
2
 10
581.3898
 20
319.8918
 11
581.0544
 21
320.2272
  0
LINE
  8
        _00
  6
CONTINUOUS
 62
2
 10
581.0544
 20
320.2272
 11
579.9938
 21
319.1666
  0
LINE
  8
        _00
  6
CONTINUOUS
 62
2
 10
579.9938
 20
319.1666
 11
580.3292
 21
318.8311
  0
LINE
  8
        _00
  6
CONTINUOUS
 62
2
 10
582.4867
 20
316.6736
 11
582.8222
 21
316.3382
  0
LINE
  8
        _00
  6
CONTINUOUS
 62
2
 10
582.8222
 20
316.3382
 11
583.8828
 21
317.3988
  0
LINE
  8
        _00
  6
CONTINUOUS
 62
2
 10
583.8828
 20
317.3988
 11
583.5474
 21
317.7343
  0
LINE
  8
        _00
  6
CONTINUOUS
 62
2
 10
559.3292
 20
318.8311
 11
558.9938
 21
319.1666
  0
LINE
  8
        _00
  6
CONTINUOUS
 62
2
 10
558.9938
 20
319.1666
 11
560.0544
 21
320.2272
  0
LINE
  8
        _00
  6
CONTINUOUS
 62
2
 10
560.0544
 20
320.2272
 11
560.3899
 21
319.8918
  0
LINE
  8
        _00
  6
CONTINUOUS
 62
2
 10
561.4868
 20
319.8918
 11
561.8222
 21
320.2272
  0
LINE
  8
        _00
  6
CONTINUOUS
 62
2
 10
561.8222
 20
320.2272
 11
562.8828
 21
319.1666
  0
LINE
  8
        _00
  6
CONTINUOUS
 62
2
 10
562.8828
 20
319.1666
 11
562.5474
 21
318.8311
  0
LINE
  8
        _00
  6
CONTINUOUS
 62
2
 10
560.3899
 20
316.6736
 11
560.0544
 21
316.3382
  0
LINE
  8
        _00
  6
CONTINUOUS
 62
2
 10
560.0544
 20
316.3382
 11
558.9938
 21
317.3988
  0
LINE
  8
        _00
  6
CONTINUOUS
 62
2
 10
558.9938
 20
317.3988
 11
559.3292
 21
317.7343
  0
LINE
  8
        _00
  6
CONTINUOUS
 62
2
 10
583.5474
 20
281.7342
 11
583.8828
 21
281.3988
  0
LINE
  8
        _00
  6
CONTINUOUS
 62
2
 10
583.8828
 20
281.3988
 11
582.8222
 21
280.3382
  0
LINE
  8
        _00
  6
CONTINUOUS
 62
2
 10
582.8222
 20
280.3382
 11
582.4867
 21
280.6736
  0
LINE
  8
        _00
  6
CONTINUOUS
 62
2
 10
581.3898
 20
280.6736
 11
581.0544
 21
280.3382
  0
LINE
  8
        _00
  6
CONTINUOUS
 62
2
 10
581.0544
 20
280.3382
 11
579.9938
 21
281.3988
  0
LINE
  8
        _00
  6
CONTINUOUS
 62
2
 10
579.9938
 20
281.3988
 11
580.3292
 21
281.7342
  0
LINE
  8
        _00
  6
CONTINUOUS
 62
2
 10
582.4867
 20
283.8918
 11
582.8222
 21
284.2272
  0
LINE
  8
        _00
  6
CONTINUOUS
 62
2
 10
582.8222
 20
284.2272
 11
583.8828
 21
283.1666
  0
LINE
  8
        _00
  6
CONTINUOUS
 62
2
 10
583.8828
 20
283.1666
 11
583.5474
 21
282.8311
  0
LINE
  8
        _00
  6
CONTINUOUS
 62
2
 10
559.3292
 20
281.7342
 11
558.9938
 21
281.3988
  0
LINE
  8
        _00
  6
CONTINUOUS
 62
2
 10
558.9938
 20
281.3988
 11
560.0544
 21
280.3382
  0
LINE
  8
        _00
  6
CONTINUOUS
 62
2
 10
560.0544
 20
280.3382
 11
560.3899
 21
280.6736
  0
LINE
  8
        _00
  6
CONTINUOUS
 62
2
 10
561.4868
 20
280.6736
 11
561.8222
 21
280.3382
  0
LINE
  8
        _00
  6
CONTINUOUS
 62
2
 10
561.8222
 20
280.3382
 11
562.8828
 21
281.3988
  0
LINE
  8
        _00
  6
CONTINUOUS
 62
2
 10
562.8828
 20
281.3988
 11
562.5474
 21
281.7342
  0
LINE
  8
        _00
  6
CONTINUOUS
 62
2
 10
560.3899
 20
283.8918
 11
560.0544
 21
284.2272
  0
LINE
  8
        _00
  6
CONTINUOUS
 62
2
 10
560.0544
 20
284.2272
 11
558.9938
 21
283.1666
  0
LINE
  8
        _00
  6
CONTINUOUS
 62
2
 10
558.9938
 20
283.1666
 11
559.3292
 21
282.8311
  0
LINE
  8
        _00
  6
CENTER1
 62
6
 10
541.4383
 20
341.1230
 11
541.4383
 21
259.0533
  0
LINE
  8
        _00
  6
CENTER1
 62
6
 10
523.2133
 20
325.2827
 11
619.1566
 21
325.2827
  0
LINE
  8
        _00
  6
CENTER1
 62
6
 10
523.2133
 20
275.2827
 11
619.1566
 21
275.2827
  0
LINE
  8
        _00
  6
CENTER1
 62
6
 10
601.4383
 20
341.1230
 11
601.4383
 21
259.0533
  0
LINE
  8
        _00
  6
DASHED
 62
2
 10
567.4383
 20
326.7827
 11
575.4383
 21
326.7827
  0
LINE
  8
        _00
  6
DASHED
 62
2
 10
567.4383
 20
327.1827
 11
575.4383
 21
327.1827
  0
LINE
  8
        _00
  6
DASHED
 62
2
 10
575.4383
 20
326.7827
 11
575.4383
 21
327.1827
  0
LINE
  8
        _00
  6
DASHED
 62
2
 10
567.4383
 20
326.7827
 11
567.4383
 21
327.1827
  0
LINE
  8
        _00
  6
DASHED
 62
2
 10
569.4383
 20
326.7827
 11
569.4383
 21
319.7827
  0
LINE
  8
        _00
  6
CONTINUOUS
 62
2
 10
569.4383
 20
319.7827
 11
569.4383
 21
315.6027
  0
LINE
  8
        _00
  6
DASHED
 62
2
 10
569.9883
 20
326.7827
 11
569.9883
 21
319.7827
  0
LINE
  8
        _00
  6
CONTINUOUS
 62
2
 10
569.9883
 20
319.7827
 11
569.9883
 21
310.7827
  0
LINE
  8
        _00
  6
CONTINUOUS
 62
2
 10
569.9883
 20
310.7827
 11
572.8883
 21
310.7827
  0
LINE
  8
        _00
  6
CONTINUOUS
 62
2
 10
569.4383
 20
315.6027
 11
569.9883
 21
310.7827
  0
LINE
  8
        _00
  6
DASHED
 62
2
 10
573.4383
 20
326.7827
 11
573.4383
 21
319.7827
  0
LINE
  8
        _00
  6
CONTINUOUS
 62
2
 10
573.4383
 20
319.7827
 11
573.4383
 21
315.6027
  0
LINE
  8
        _00
  6
DASHED
 62
2
 10
572.8883
 20
326.7827
 11
572.8883
 21
319.7827
  0
LINE
  8
        _00
  6
CONTINUOUS
 62
2
 10
572.8883
 20
319.7827
 11
572.8883
 21
310.7827
  0
LINE
  8
        _00
  6
CONTINUOUS
 62
2
 10
573.4383
 20
315.6027
 11
572.8883
 21
310.7827
  0
LINE
  8
        _00
  6
DASHED
 62
2
 10
567.4383
 20
273.7827
 11
575.4383
 21
273.7827
  0
LINE
  8
        _00
  6
DASHED
 62
2
 10
567.4383
 20
273.3827
 11
575.4383
 21
273.3827
  0
LINE
  8
        _00
  6
DASHED
 62
2
 10
575.4383
 20
273.7827
 11
575.4383
 21
273.3827
  0
LINE
  8
        _00
  6
DASHED
 62
2
 10
567.4383
 20
273.7827
 11
567.4383
 21
273.3827
  0
LINE
  8
        _00
  6
DASHED
 62
2
 10
569.4383
 20
273.7827
 11
569.4383
 21
280.7827
  0
LINE
  8
        _00
  6
CONTINUOUS
 62
2
 10
569.4383
 20
280.7827
 11
569.4383
 21
284.9627
  0
LINE
  8
        _00
  6
DASHED
 62
2
 10
569.9883
 20
273.7827
 11
569.9883
 21
280.7827
  0
LINE
  8
        _00
  6
CONTINUOUS
 62
2
 10
569.9883
 20
280.7827
 11
569.9883
 21
289.7827
  0
LINE
  8
        _00
  6
CONTINUOUS
 62
2
 10
569.9883
 20
289.7827
 11
572.8883
 21
289.7827
  0
LINE
  8
        _00
  6
CONTINUOUS
 62
2
 10
569.4383
 20
284.9627
 11
569.9883
 21
289.7827
  0
LINE
  8
        _00
  6
DASHED
 62
2
 10
573.4383
 20
273.7827
 11
573.4383
 21
280.7827
  0
LINE
  8
        _00
  6
CONTINUOUS
 62
2
 10
573.4383
 20
280.7827
 11
573.4383
 21
284.9627
  0
LINE
  8
        _00
  6
DASHED
 62
2
 10
572.8883
 20
273.7827
 11
572.8883
 21
280.7827
  0
LINE
  8
        _00
  6
CONTINUOUS
 62
2
 10
572.8883
 20
280.7827
 11
572.8883
 21
289.7827
  0
LINE
  8
        _00
  6
CONTINUOUS
 62
2
 10
573.4383
 20
284.9627
 11
572.8883
 21
289.7827
  0
LINE
  8
        _00
  6
CONTINUOUS
 62
2
 10
602.7142
 20
327.3726
 11
601.8452
 21
326.5339
  0
LINE
  8
        _00
  6
CONTINUOUS
 62
2
 10
601.8452
 20
326.5339
 11
601.4383
 21
326.3854
  0
LINE
  8
        _00
  6
CONTINUOUS
 62
2
 10
601.4383
 20
326.3854
 11
601.0534
 21
326.5256
  0
LINE
  8
        _00
  6
CONTINUOUS
 62
2
 10
601.0534
 20
326.5256
 11
600.1569
 21
327.3699
  0
LINE
  8
        _00
  6
CONTINUOUS
 62
2
 10
603.5282
 20
326.5586
 11
602.6895
 21
325.6897
  0
LINE
  8
        _00
  6
CONTINUOUS
 62
2
 10
602.6895
 20
325.6897
 11
602.5410
 21
325.2827
  0
LINE
  8
        _00
  6
CONTINUOUS
 62
2
 10
602.5410
 20
325.2827
 11
602.6812
 21
324.8977
  0
LINE
  8
        _00
  6
CONTINUOUS
 62
2
 10
602.6812
 20
324.8977
 11
603.5255
 21
324.0013
  0
LINE
  8
        _00
  6
CONTINUOUS
 62
2
 10
599.3484
 20
324.0068
 11
600.1871
 21
324.8757
  0
LINE
  8
        _00
  6
CONTINUOUS
 62
2
 10
600.1871
 20
324.8757
 11
600.3356
 21
325.2827
  0
LINE
  8
        _00
  6
CONTINUOUS
 62
2
 10
600.3356
 20
325.2827
 11
600.1954
 21
325.6677
  0
LINE
  8
        _00
  6
CONTINUOUS
 62
2
 10
600.1954
 20
325.6677
 11
599.3512
 21
326.5641
  0
LINE
  8
        _00
  6
CONTINUOUS
 62
2
 10
600.1624
 20
323.1928
 11
601.0313
 21
324.0315
  0
LINE
  8
        _00
  6
CONTINUOUS
 62
2
 10
601.0313
 20
324.0315
 11
601.4383
 21
324.1800
  0
LINE
  8
        _00
  6
CONTINUOUS
 62
2
 10
601.4383
 20
324.1800
 11
601.8233
 21
324.0398
  0
LINE
  8
        _00
  6
CONTINUOUS
 62
2
 10
601.8233
 20
324.0398
 11
602.7197
 21
323.1955
  0
LINE
  8
        _00
  6
CONTINUOUS
 62
2
 10
542.7143
 20
327.3726
 11
541.8453
 21
326.5339
  0
LINE
  8
        _00
  6
CONTINUOUS
 62
2
 10
541.8453
 20
326.5339
 11
541.4383
 21
326.3854
  0
LINE
  8
        _00
  6
CONTINUOUS
 62
2
 10
541.4383
 20
326.3854
 11
541.0534
 21
326.5256
  0
LINE
  8
        _00
  6
CONTINUOUS
 62
2
 10
541.0534
 20
326.5256
 11
540.1568
 21
327.3699
  0
LINE
  8
        _00
  6
CONTINUOUS
 62
2
 10
543.5282
 20
326.5586
 11
542.6895
 21
325.6897
  0
LINE
  8
        _00
  6
CONTINUOUS
 62
2
 10
542.6895
 20
325.6897
 11
542.5410
 21
325.2827
  0
LINE
  8
        _00
  6
CONTINUOUS
 62
2
 10
542.5410
 20
325.2827
 11
542.6812
 21
324.8977
  0
LINE
  8
        _00
  6
CONTINUOUS
 62
2
 10
542.6812
 20
324.8977
 11
543.5255
 21
324.0013
  0
LINE
  8
        _00
  6
CONTINUOUS
 62
2
 10
539.3484
 20
324.0068
 11
540.1871
 21
324.8757
  0
LINE
  8
        _00
  6
CONTINUOUS
 62
2
 10
540.1871
 20
324.8757
 11
540.3356
 21
325.2827
  0
LINE
  8
        _00
  6
CONTINUOUS
 62
2
 10
540.3356
 20
325.2827
 11
540.1954
 21
325.6677
  0
LINE
  8
        _00
  6
CONTINUOUS
 62
2
 10
540.1954
 20
325.6677
 11
539.3511
 21
326.5641
  0
LINE
  8
        _00
  6
CONTINUOUS
 62
2
 10
540.1623
 20
323.1928
 11
541.0313
 21
324.0315
  0
LINE
  8
        _00
  6
CONTINUOUS
 62
2
 10
541.0313
 20
324.0315
 11
541.4383
 21
324.1800
  0
LINE
  8
        _00
  6
CONTINUOUS
 62
2
 10
541.4383
 20
324.1800
 11
541.8233
 21
324.0398
  0
LINE
  8
        _00
  6
CONTINUOUS
 62
2
 10
541.8233
 20
324.0398
 11
542.7198
 21
323.1955
  0
LINE
  8
        _00
  6
CONTINUOUS
 62
2
 10
602.7142
 20
277.3726
 11
601.8452
 21
276.5339
  0
LINE
  8
        _00
  6
CONTINUOUS
 62
2
 10
601.8452
 20
276.5339
 11
601.4383
 21
276.3854
  0
LINE
  8
        _00
  6
CONTINUOUS
 62
2
 10
601.4383
 20
276.3854
 11
601.0534
 21
276.5256
  0
LINE
  8
        _00
  6
CONTINUOUS
 62
2
 10
601.0534
 20
276.5256
 11
600.1569
 21
277.3698
  0
LINE
  8
        _00
  6
CONTINUOUS
 62
2
 10
603.5282
 20
276.5587
 11
602.6895
 21
275.6897
  0
LINE
  8
        _00
  6
CONTINUOUS
 62
2
 10
602.6895
 20
275.6897
 11
602.5410
 21
275.2827
  0
LINE
  8
        _00
  6
CONTINUOUS
 62
2
 10
602.5410
 20
275.2827
 11
602.6812
 21
274.8977
  0
LINE
  8
        _00
  6
CONTINUOUS
 62
2
 10
602.6812
 20
274.8977
 11
603.5255
 21
274.0013
  0
LINE
  8
        _00
  6
CONTINUOUS
 62
2
 10
599.3484
 20
274.0068
 11
600.1871
 21
274.8757
  0
LINE
  8
        _00
  6
CONTINUOUS
 62
2
 10
600.1871
 20
274.8757
 11
600.3356
 21
275.2827
  0
LINE
  8
        _00
  6
CONTINUOUS
 62
2
 10
600.3356
 20
275.2827
 11
600.1954
 21
275.6677
  0
LINE
  8
        _00
  6
CONTINUOUS
 62
2
 10
600.1954
 20
275.6677
 11
599.3512
 21
276.5641
  0
LINE
  8
        _00
  6
CONTINUOUS
 62
2
 10
600.1624
 20
273.1928
 11
601.0313
 21
274.0315
  0
LINE
  8
        _00
  6
CONTINUOUS
 62
2
 10
601.0313
 20
274.0315
 11
601.4383
 21
274.1800
  0
LINE
  8
        _00
  6
CONTINUOUS
 62
2
 10
601.4383
 20
274.1800
 11
601.8233
 21
274.0398
  0
LINE
  8
        _00
  6
CONTINUOUS
 62
2
 10
601.8233
 20
274.0398
 11
602.7197
 21
273.1956
  0
LINE
  8
        _00
  6
CONTINUOUS
 62
2
 10
542.7143
 20
277.3726
 11
541.8453
 21
276.5339
  0
LINE
  8
        _00
  6
CONTINUOUS
 62
2
 10
541.8453
 20
276.5339
 11
541.4383
 21
276.3854
  0
LINE
  8
        _00
  6
CONTINUOUS
 62
2
 10
541.4383
 20
276.3854
 11
541.0534
 21
276.5256
  0
LINE
  8
        _00
  6
CONTINUOUS
 62
2
 10
541.0534
 20
276.5256
 11
540.1568
 21
277.3698
  0
LINE
  8
        _00
  6
CONTINUOUS
 62
2
 10
543.5282
 20
276.5587
 11
542.6895
 21
275.6897
  0
LINE
  8
        _00
  6
CONTINUOUS
 62
2
 10
542.6895
 20
275.6897
 11
542.5410
 21
275.2827
  0
LINE
  8
        _00
  6
CONTINUOUS
 62
2
 10
542.5410
 20
275.2827
 11
542.6812
 21
274.8977
  0
LINE
  8
        _00
  6
CONTINUOUS
 62
2
 10
542.6812
 20
274.8977
 11
543.5255
 21
274.0013
  0
LINE
  8
        _00
  6
CONTINUOUS
 62
2
 10
539.3484
 20
274.0068
 11
540.1871
 21
274.8757
  0
LINE
  8
        _00
  6
CONTINUOUS
 62
2
 10
540.1871
 20
274.8757
 11
540.3356
 21
275.2827
  0
LINE
  8
        _00
  6
CONTINUOUS
 62
2
 10
540.3356
 20
275.2827
 11
540.1954
 21
275.6677
  0
LINE
  8
        _00
  6
CONTINUOUS
 62
2
 10
540.1954
 20
275.6677
 11
539.3511
 21
276.5641
  0
LINE
  8
        _00
  6
CONTINUOUS
 62
2
 10
540.1623
 20
273.1928
 11
541.0313
 21
274.0315
  0
LINE
  8
        _00
  6
CONTINUOUS
 62
2
 10
541.0313
 20
274.0315
 11
541.4383
 21
274.1800
  0
LINE
  8
        _00
  6
CONTINUOUS
 62
2
 10
541.4383
 20
274.1800
 11
541.8233
 21
274.0398
  0
LINE
  8
        _00
  6
CONTINUOUS
 62
2
 10
541.8233
 20
274.0398
 11
542.7198
 21
273.1956
  0
LINE
  8
12_0C
  6
DASHED
 62
2
 10
198.7000
 20
489.8066
 11
198.7000
 21
497.8066
  0
LINE
  8
12_0C
  6
DASHED
 62
2
 10
198.3000
 20
489.8066
 11
198.3000
 21
497.8066
  0
LINE
  8
12_0C
  6
DASHED
 62
2
 10
198.7000
 20
497.8066
 11
198.3000
 21
497.8066
  0
LINE
  8
12_0C
  6
DASHED
 62
2
 10
198.7000
 20
489.8066
 11
198.3000
 21
489.8066
  0
LINE
  8
        _00
  6
DASHED
 62
2
 10
198.7000
 20
491.8066
 11
209.8800
 21
491.8066
  0
LINE
  8
12_0C
  6
DASHED
 62
2
 10
198.7000
 20
492.3566
 11
214.7000
 21
492.3566
  0
LINE
  8
12_0C
  6
DASHED
 62
2
 10
214.7000
 20
492.3566
 11
214.7000
 21
495.2566
  0
LINE
  8
12_0C
  6
DASHED
 62
2
 10
209.8800
 20
491.8066
 11
214.7000
 21
492.3566
  0
LINE
  8
        _00
  6
DASHED
 62
2
 10
198.7000
 20
495.8066
 11
209.8800
 21
495.8066
  0
LINE
  8
12_0C
  6
DASHED
 62
2
 10
198.7000
 20
495.2566
 11
214.7000
 21
495.2566
  0
LINE
  8
12_0C
  6
DASHED
 62
2
 10
209.8800
 20
495.8066
 11
214.7000
 21
495.2566
  0
LINE
  8
12_0C
  6
DASHED
 62
2
 10
251.7000
 20
489.8066
 11
251.7000
 21
497.8066
  0
LINE
  8
12_0C
  6
DASHED
 62
2
 10
252.1000
 20
489.8066
 11
252.1000
 21
497.8066
  0
LINE
  8
12_0C
  6
DASHED
 62
2
 10
251.7000
 20
497.8066
 11
252.1000
 21
497.8066
  0
LINE
  8
12_0C
  6
DASHED
 62
2
 10
251.7000
 20
489.8066
 11
252.1000
 21
489.8066
  0
LINE
  8
        _00
  6
DASHED
 62
2
 10
251.7000
 20
491.8066
 11
240.5200
 21
491.8066
  0
LINE
  8
12_0C
  6
DASHED
 62
2
 10
251.7000
 20
492.3566
 11
235.7000
 21
492.3566
  0
LINE
  8
12_0C
  6
DASHED
 62
2
 10
235.7000
 20
492.3566
 11
235.7000
 21
495.2566
  0
LINE
  8
12_0C
  6
DASHED
 62
2
 10
240.5200
 20
491.8066
 11
235.7000
 21
492.3566
  0
LINE
  8
        _00
  6
DASHED
 62
2
 10
251.7000
 20
495.8066
 11
240.5200
 21
495.8066
  0
LINE
  8
12_0C
  6
DASHED
 62
2
 10
251.7000
 20
495.2566
 11
235.7000
 21
495.2566
  0
LINE
  8
12_0C
  6
DASHED
 62
2
 10
240.5200
 20
495.8066
 11
235.7000
 21
495.2566
  0
LINE
  8
15_0F
  6
CONTINUOUS
 62
2
 10
226.0500
 20
622.3066
 11
224.0500
 21
620.3066
  0
LINE
  8
15_0F
  6
CONTINUOUS
 62
2
 10
221.8074
 20
622.3066
 11
219.8074
 21
620.3066
  0
LINE
  8
15_0F
  6
CONTINUOUS
 62
2
 10
217.5647
 20
622.3066
 11
215.5647
 21
620.3066
  0
LINE
  8
15_0F
  6
CONTINUOUS
 62
2
 10
213.3221
 20
622.3066
 11
212.7465
 21
621.7310
  0
LINE
  8
15_0F
  6
CONTINUOUS
 62
2
 10
211.8221
 20
620.8066
 11
211.3221
 21
620.3066
  0
LINE
  8
15_0F
  6
CONTINUOUS
 62
2
 10
207.5794
 20
620.8066
 11
207.0794
 21
620.3066
  0
LINE
  8
15_0F
  6
CONTINUOUS
 62
2
 10
230.2926
 20
622.3066
 11
228.2926
 21
620.3066
  0
LINE
  8
15_0F
  6
CONTINUOUS
 62
2
 10
234.5353
 20
622.3066
 11
232.5353
 21
620.3066
  0
LINE
  8
15_0F
  6
CONTINUOUS
 62
2
 10
237.7690
 20
621.2977
 11
236.7779
 21
620.3066
  0
LINE
  8
15_0F
  6
CONTINUOUS
 62
2
 10
241.5206
 20
620.8066
 11
241.0206
 21
620.3066
  0
LINE
  8
15_0F
  6
CONTINUOUS
 62
2
 10
245.7632
 20
620.8066
 11
245.2632
 21
620.3066
  0
LINE
  8
15_0F
  6
CONTINUOUS
 62
6
 10
1168.2077
 20
711.8184
 11
1206.5040
 21
711.8184
  0
LINE
  8
15_0F
  6
CONTINUOUS
 62
6
 10
1200.5041
 20
711.8184
 11
1200.5041
 21
681.8185
  0
LINE
  8
15_0F
  6
CONTINUOUS
 62
6
 10
1200.5041
 20
666.8184
 11
1200.5041
 21
681.8185
  0
LINE
  8
15_0F
  6
CONTINUOUS
 62
6
 10
1200.5041
 20
681.8185
 11
1198.9448
 21
674.4824
  0
LINE
  8
15_0F
  6
CONTINUOUS
 62
6
 10
1200.5041
 20
681.8185
 11
1202.0633
 21
674.4824
  0
LINE
  8
15_0F
  6
CONTINUOUS
 62
6
 10
1200.5041
 20
726.8185
 11
1200.5041
 21
711.8184
  0
LINE
  8
15_0F
  6
CONTINUOUS
 62
6
 10
1200.5041
 20
711.8184
 11
1202.0633
 21
719.1546
  0
LINE
  8
15_0F
  6
CONTINUOUS
 62
6
 10
1200.5041
 20
711.8184
 11
1198.9448
 21
719.1546
  0
LINE
  8
15_0F
  6
CONTINUOUS
 62
4
 10
1094.6542
 20
503.8833
 11
1168.4541
 21
503.8833
  0
LINE
  8
3_03
  6
CONTINUOUS
 62
2
 10
810.3576
 20
686.0433
 11
810.3080
 21
686.0624
  0
LINE
  8
3_03
  6
CONTINUOUS
 62
2
 10
810.3576
 20
686.0433
 11
810.4072
 21
686.0624
  0
LINE
  8
3_03
  6
CONTINUOUS
 62
2
 10
810.3080
 20
686.0624
 11
810.1805
 21
686.1855
  0
LINE
  8
3_03
  6
CONTINUOUS
 62
2
 10
810.4073
 20
686.0624
 11
810.4072
 21
686.0625
  0
LINE
  8
3_03
  6
CONTINUOUS
 62
2
 10
810.4072
 20
686.0625
 11
810.5348
 21
686.1856
  0
LINE
  8
3_03
  6
CONTINUOUS
 62
2
 10
810.2578
 20
685.9435
 11
810.2388
 21
685.9931
  0
LINE
  8
3_03
  6
CONTINUOUS
 62
2
 10
810.2578
 20
685.9435
 11
810.2388
 21
685.8939
  0
LINE
  8
3_03
  6
CONTINUOUS
 62
2
 10
810.2388
 20
685.9931
 11
810.1155
 21
686.1208
  0
LINE
  8
3_03
  6
CONTINUOUS
 62
2
 10
810.2388
 20
685.8938
 11
810.2387
 21
685.8939
  0
LINE
  8
3_03
  6
CONTINUOUS
 62
2
 10
810.2387
 20
685.8939
 11
810.1155
 21
685.7664
  0
LINE
  8
3_03
  6
CONTINUOUS
 62
2
 10
810.4575
 20
685.9435
 11
810.4765
 21
685.8938
  0
LINE
  8
3_03
  6
CONTINUOUS
 62
2
 10
810.4575
 20
685.9435
 11
810.4765
 21
685.9931
  0
LINE
  8
3_03
  6
CONTINUOUS
 62
2
 10
810.4765
 20
685.8938
 11
810.5997
 21
685.7662
  0
LINE
  8
3_03
  6
CONTINUOUS
 62
2
 10
810.4765
 20
685.9931
 11
810.4766
 21
685.9931
  0
LINE
  8
3_03
  6
CONTINUOUS
 62
2
 10
810.4766
 20
685.9931
 11
810.5998
 21
686.1206
  0
LINE
  8
3_03
  6
CONTINUOUS
 62
2
 10
810.3576
 20
685.8436
 11
810.4073
 21
685.8246
  0
LINE
  8
3_03
  6
CONTINUOUS
 62
2
 10
810.3576
 20
685.8436
 11
810.3081
 21
685.8246
  0
LINE
  8
3_03
  6
CONTINUOUS
 62
2
 10
810.4073
 20
685.8246
 11
810.5349
 21
685.7014
  0
LINE
  8
3_03
  6
CONTINUOUS
 62
2
 10
810.3080
 20
685.8246
 11
810.3082
 21
685.8245
  0
LINE
  8
3_03
  6
CONTINUOUS
 62
2
 10
810.3082
 20
685.8245
 11
810.1805
 21
685.7013
  0
LINE
  8
3_03
  6
CONTINUOUS
 62
2
 10
965.3577
 20
686.0433
 11
965.3080
 21
686.0624
  0
LINE
  8
3_03
  6
CONTINUOUS
 62
2
 10
965.3577
 20
686.0433
 11
965.4073
 21
686.0624
  0
LINE
  8
3_03
  6
CONTINUOUS
 62
2
 10
965.3080
 20
686.0624
 11
965.1804
 21
686.1855
  0
LINE
  8
3_03
  6
CONTINUOUS
 62
2
 10
965.4073
 20
686.0624
 11
965.4073
 21
686.0625
  0
LINE
  8
3_03
  6
CONTINUOUS
 62
2
 10
965.4073
 20
686.0625
 11
965.5347
 21
686.1856
  0
LINE
  8
3_03
  6
CONTINUOUS
 62
2
 10
965.2578
 20
685.9435
 11
965.2387
 21
685.9931
  0
LINE
  8
3_03
  6
CONTINUOUS
 62
2
 10
965.2578
 20
685.9435
 11
965.2387
 21
685.8939
  0
LINE
  8
3_03
  6
CONTINUOUS
 62
2
 10
965.2387
 20
685.9931
 11
965.1155
 21
686.1208
  0
LINE
  8
3_03
  6
CONTINUOUS
 62
2
 10
965.2387
 20
685.8938
 11
965.2386
 21
685.8939
  0
LINE
  8
3_03
  6
CONTINUOUS
 62
2
 10
965.2386
 20
685.8939
 11
965.1155
 21
685.7664
  0
LINE
  8
3_03
  6
CONTINUOUS
 62
2
 10
965.4575
 20
685.9435
 11
965.4766
 21
685.8938
  0
LINE
  8
3_03
  6
CONTINUOUS
 62
2
 10
965.4575
 20
685.9435
 11
965.4765
 21
685.9931
  0
LINE
  8
3_03
  6
CONTINUOUS
 62
2
 10
965.4766
 20
685.8938
 11
965.5997
 21
685.7662
  0
LINE
  8
3_03
  6
CONTINUOUS
 62
2
 10
965.4766
 20
685.9931
 11
965.4767
 21
685.9931
  0
LINE
  8
3_03
  6
CONTINUOUS
 62
2
 10
965.4767
 20
685.9931
 11
965.5998
 21
686.1206
  0
LINE
  8
3_03
  6
CONTINUOUS
 62
2
 10
965.3577
 20
685.8436
 11
965.4073
 21
685.8246
  0
LINE
  8
3_03
  6
CONTINUOUS
 62
2
 10
965.3577
 20
685.8436
 11
965.3080
 21
685.8246
  0
LINE
  8
3_03
  6
CONTINUOUS
 62
2
 10
965.4073
 20
685.8246
 11
965.5348
 21
685.7014
  0
LINE
  8
3_03
  6
CONTINUOUS
 62
2
 10
965.3080
 20
685.8246
 11
965.3080
 21
685.8245
  0
LINE
  8
3_03
  6
CONTINUOUS
 62
2
 10
965.3080
 20
685.8245
 11
965.1805
 21
685.7013
  0
LINE
  8
3_03
  6
CONTINUOUS
 62
2
 10
1120.3576
 20
686.0433
 11
1120.3080
 21
686.0624
  0
LINE
  8
3_03
  6
CONTINUOUS
 62
2
 10
1120.3576
 20
686.0433
 11
1120.4073
 21
686.0624
  0
LINE
  8
3_03
  6
CONTINUOUS
 62
2
 10
1120.3080
 20
686.0624
 11
1120.1804
 21
686.1855
  0
LINE
  8
3_03
  6
CONTINUOUS
 62
2
 10
1120.4073
 20
686.0624
 11
1120.4073
 21
686.0625
  0
LINE
  8
3_03
  6
CONTINUOUS
 62
2
 10
1120.4073
 20
686.0625
 11
1120.5346
 21
686.1856
  0
LINE
  8
3_03
  6
CONTINUOUS
 62
2
 10
1120.2578
 20
685.9435
 11
1120.2387
 21
685.9931
  0
LINE
  8
3_03
  6
CONTINUOUS
 62
2
 10
1120.2578
 20
685.9435
 11
1120.2387
 21
685.8939
  0
LINE
  8
3_03
  6
CONTINUOUS
 62
2
 10
1120.2387
 20
685.9931
 11
1120.1155
 21
686.1208
  0
LINE
  8
3_03
  6
CONTINUOUS
 62
2
 10
1120.2387
 20
685.8938
 11
1120.2387
 21
685.8939
  0
LINE
  8
3_03
  6
CONTINUOUS
 62
2
 10
1120.2387
 20
685.8939
 11
1120.1155
 21
685.7664
  0
LINE
  8
3_03
  6
CONTINUOUS
 62
2
 10
1120.4575
 20
685.9435
 11
1120.4766
 21
685.8938
  0
LINE
  8
3_03
  6
CONTINUOUS
 62
2
 10
1120.4575
 20
685.9435
 11
1120.4766
 21
685.9931
  0
LINE
  8
3_03
  6
CONTINUOUS
 62
2
 10
1120.4766
 20
685.8938
 11
1120.5997
 21
685.7662
  0
LINE
  8
3_03
  6
CONTINUOUS
 62
2
 10
1120.4766
 20
685.9931
 11
1120.4766
 21
685.9931
  0
LINE
  8
3_03
  6
CONTINUOUS
 62
2
 10
1120.4766
 20
685.9931
 11
1120.5998
 21
686.1206
  0
LINE
  8
3_03
  6
CONTINUOUS
 62
2
 10
1120.3576
 20
685.8436
 11
1120.4073
 21
685.8246
  0
LINE
  8
3_03
  6
CONTINUOUS
 62
2
 10
1120.3576
 20
685.8436
 11
1120.3081
 21
685.8246
  0
LINE
  8
3_03
  6
CONTINUOUS
 62
2
 10
1120.4073
 20
685.8246
 11
1120.5350
 21
685.7014
  0
LINE
  8
3_03
  6
CONTINUOUS
 62
2
 10
1120.3080
 20
685.8246
 11
1120.3081
 21
685.8245
  0
LINE
  8
3_03
  6
CONTINUOUS
 62
2
 10
1120.3081
 20
685.8245
 11
1120.1804
 21
685.7013
  0
LINE
  8
        _00
  6
CONTINUOUS
 62
3
 10
547.4110
 20
97.2001
 11
547.4110
 21
37.2000
  0
LINE
  8
        _00
  6
CONTINUOUS
 62
7
 10
54.6905
 20
112.2001
 11
1218.5110
 21
112.2001
  0
LINE
  8
        _00
  6
CONTINUOUS
 62
3
 10
1218.5110
 20
851.7001
 11
1218.5110
 21
865.2001
  0
LINE
  8
        _00
  6
CONTINUOUS
 62
7
 10
1218.5110
 20
37.2000
 11
1218.5110
 21
851.7001
  0
LINE
  8
        _00
  6
CONTINUOUS
 62
3
 10
54.6905
 20
851.7001
 11
54.6905
 21
865.2001
  0
LINE
  8
        _00
  6
CONTINUOUS
 62
7
 10
54.6905
 20
37.2000
 11
54.6905
 21
851.7001
  0
LINE
  8
        _00
  6
CONTINUOUS
 62
7
 10
54.6905
 20
851.7001
 11
1218.5110
 21
851.7001
  0
LINE
  8
        _00
  6
CONTINUOUS
 62
7
 10
54.6905
 20
37.2000
 11
1218.5110
 21
37.2000
  0
LINE
  8
        _00
  6
CONTINUOUS
 62
3
 10
39.6905
 20
22.2000
 11
39.6905
 21
865.2001
  0
LINE
  8
        _00
  6
CONTINUOUS
 62
3
 10
1233.5110
 20
22.2000
 11
1233.5110
 21
865.2001
  0
LINE
  8
        _00
  6
CONTINUOUS
 62
3
 10
39.6905
 20
865.2001
 11
1233.5110
 21
865.2001
  0
LINE
  8
        _00
  6
CONTINUOUS
 62
3
 10
1070.6111
 20
37.2000
 11
1070.6111
 21
112.2001
  0
LINE
  8
        _00
  6
CONTINUOUS
 62
3
 10
54.6905
 20
97.2001
 11
812.7610
 21
97.2001
  0
LINE
  8
        _00
  6
CONTINUOUS
 62
7
 10
812.7610
 20
97.2001
 11
1218.5110
 21
97.2001
  0
LINE
  8
        _00
  6
CONTINUOUS
 62
3
 10
1070.6111
 20
67.2000
 11
1218.5110
 21
67.2000
  0
LINE
  8
        _00
  6
CONTINUOUS
 62
3
 10
1100.6111
 20
112.2001
 11
1100.6111
 21
97.2001
  0
LINE
  8
        _00
  6
CONTINUOUS
 62
3
 10
812.7610
 20
37.2000
 11
812.7610
 21
97.2001
  0
LINE
  8
        _00
  6
CONTINUOUS
 62
7
 10
812.7610
 20
97.2001
 11
812.7610
 21
112.2001
  0
LINE
  8
        _00
  6
CONTINUOUS
 62
3
 10
836.7610
 20
97.2001
 11
836.7610
 21
112.2001
  0
LINE
  8
        _00
  6
CONTINUOUS
 62
3
 10
912.5110
 20
37.2000
 11
912.5110
 21
112.2001
  0
LINE
  8
        _00
  6
CONTINUOUS
 62
3
 10
1004.6111
 20
97.2001
 11
1004.6111
 21
112.2001
  0
LINE
  8
        _00
  6
CONTINUOUS
 62
3
 10
1032.2110
 20
37.2000
 11
1032.2110
 21
97.2001
  0
LINE
  8
        _00
  6
CONTINUOUS
 62
3
 10
995.9110
 20
37.2000
 11
995.9110
 21
97.2001
  0
LINE
  8
        _00
  6
CONTINUOUS
 62
3
 10
959.6110
 20
37.2000
 11
959.6110
 21
97.2001
  0
LINE
  8
        _00
  6
CONTINUOUS
 62
3
 10
468.6610
 20
37.2000
 11
468.6610
 21
112.2001
  0
LINE
  8
        _00
  6
CONTINUOUS
 62
3
 10
626.1610
 20
37.2000
 11
626.1610
 21
97.2001
  0
LINE
  8
        _00
  6
CONTINUOUS
 62
3
 10
54.6905
 20
82.2001
 11
468.6610
 21
82.2001
  0
LINE
  8
        _00
  6
CONTINUOUS
 62
3
 10
54.6905
 20
67.2000
 11
912.5110
 21
67.2000
  0
LINE
  8
        _00
  6
CONTINUOUS
 62
3
 10
174.6905
 20
52.2000
 11
468.6610
 21
52.2000
  0
LINE
  8
        _00
  6
CONTINUOUS
 62
7
 10
54.6905
 20
52.2000
 11
174.6905
 21
52.2000
  0
LINE
  8
        _00
  6
CONTINUOUS
 62
3
 10
818.0110
 20
851.7001
 11
818.0110
 21
865.2001
  0
LINE
  8
        _00
  6
CONTINUOUS
 62
3
 10
788.0110
 20
851.7001
 11
788.0110
 21
865.2001
  0
LINE
  8
        _00
  6
CONTINUOUS
 62
3
 10
204.6905
 20
851.7001
 11
204.6905
 21
865.2001
  0
LINE
  8
        _00
  6
CONTINUOUS
 62
3
 10
854.0110
 20
851.7001
 11
854.0110
 21
865.2001
  0
LINE
  8
        _00
  6
CONTINUOUS
 62
3
 10
915.5110
 20
851.7001
 11
915.5110
 21
865.2001
  0
LINE
  8
        _00
  6
CONTINUOUS
 62
3
 10
1146.5110
 20
851.7001
 11
1146.5110
 21
865.2001
  0
LINE
  8
        _00
  6
CONTINUOUS
 62
3
 10
114.6905
 20
112.2001
 11
114.6905
 21
37.2000
  0
LINE
  8
        _00
  6
CONTINUOUS
 62
7
 10
174.6905
 20
112.2001
 11
174.6905
 21
37.2000
  0
LINE
  8
        _00
  6
CONTINUOUS
 62
3
 10
869.7610
 20
67.2000
 11
869.7610
 21
97.2001
  0
LINE
  8
        _00
  6
CONTINUOUS
 62
3
 10
893.7610
 20
112.2001
 11
893.7610
 21
97.2001
  0
LINE
  8
        _00
  6
CONTINUOUS
 62
3
 10
912.5110
 20
82.2001
 11
1070.6111
 21
82.2001
  0
LINE
  8
        _00
  6
CONTINUOUS
 62
3
 10
1076.6111
 20
71.7000
 11
1078.5610
 21
71.7000
  0
LINE
  8
        _00
  6
CONTINUOUS
 62
3
 10
1078.5610
 20
71.7000
 11
1078.5610
 21
91.2000
  0
LINE
  8
        _00
  6
CONTINUOUS
 62
3
 10
1078.5610
 20
91.2000
 11
1076.6111
 21
91.2000
  0
LINE
  8
        _00
  6
CONTINUOUS
 62
3
 10
1076.6111
 20
71.7000
 11
1076.6111
 21
91.2000
  0
LINE
  8
        _00
  6
CONTINUOUS
 62
3
 10
1079.3410
 20
71.7000
 11
1081.2911
 21
71.7000
  0
LINE
  8
        _00
  6
CONTINUOUS
 62
3
 10
1081.2911
 20
71.7000
 11
1081.2911
 21
91.2000
  0
LINE
  8
        _00
  6
CONTINUOUS
 62
3
 10
1081.2911
 20
91.2000
 11
1079.3410
 21
91.2000
  0
LINE
  8
        _00
  6
CONTINUOUS
 62
3
 10
1079.3410
 20
71.7000
 11
1079.3410
 21
91.2000
  0
LINE
  8
        _00
  6
CONTINUOUS
 62
3
 10
1082.0711
 20
71.7000
 11
1084.0210
 21
71.7000
  0
LINE
  8
        _00
  6
CONTINUOUS
 62
3
 10
1084.0210
 20
71.7000
 11
1084.0210
 21
91.2000
  0
LINE
  8
        _00
  6
CONTINUOUS
 62
3
 10
1084.0210
 20
91.2000
 11
1082.0711
 21
91.2000
  0
LINE
  8
        _00
  6
CONTINUOUS
 62
3
 10
1082.0711
 20
71.7000
 11
1082.0711
 21
91.2000
  0
LINE
  8
        _00
  6
CONTINUOUS
 62
3
 10
1084.8010
 20
71.7000
 11
1086.7511
 21
71.7000
  0
LINE
  8
        _00
  6
CONTINUOUS
 62
3
 10
1086.7511
 20
91.2000
 11
1084.8010
 21
91.2000
  0
LINE
  8
        _00
  6
CONTINUOUS
 62
3
 10
1084.8010
 20
71.7000
 11
1084.8010
 21
91.2000
  0
LINE
  8
        _00
  6
CONTINUOUS
 62
3
 10
1092.4061
 20
71.7000
 11
1100.0110
 21
71.7000
  0
LINE
  8
        _00
  6
CONTINUOUS
 62
3
 10
1100.0110
 20
71.7000
 11
1100.0110
 21
73.4550
  0
LINE
  8
        _00
  6
CONTINUOUS
 62
3
 10
1100.0110
 20
73.4550
 11
1092.4061
 21
73.4550
  0
LINE
  8
        _00
  6
CONTINUOUS
 62
3
 10
1092.4061
 20
73.4550
 11
1092.4061
 21
71.7000
  0
LINE
  8
        _00
  6
CONTINUOUS
 62
3
 10
1092.4061
 20
74.2350
 11
1100.0110
 21
74.2350
  0
LINE
  8
        _00
  6
CONTINUOUS
 62
3
 10
1100.0110
 20
74.2350
 11
1100.0110
 21
75.9900
  0
LINE
  8
        _00
  6
CONTINUOUS
 62
3
 10
1100.0110
 20
75.9900
 11
1092.4061
 21
75.9900
  0
LINE
  8
        _00
  6
CONTINUOUS
 62
3
 10
1092.4061
 20
75.9900
 11
1092.4061
 21
74.2350
  0
LINE
  8
        _00
  6
CONTINUOUS
 62
3
 10
1092.4061
 20
76.7700
 11
1100.0110
 21
76.7700
  0
LINE
  8
        _00
  6
CONTINUOUS
 62
3
 10
1100.0110
 20
76.7700
 11
1100.0110
 21
78.5250
  0
LINE
  8
        _00
  6
CONTINUOUS
 62
3
 10
1100.0110
 20
78.5250
 11
1092.4061
 21
78.5250
  0
LINE
  8
        _00
  6
CONTINUOUS
 62
3
 10
1092.4061
 20
78.5250
 11
1092.4061
 21
76.7700
  0
LINE
  8
        _00
  6
CONTINUOUS
 62
3
 10
1092.4061
 20
79.3050
 11
1100.0110
 21
79.3050
  0
LINE
  8
        _00
  6
CONTINUOUS
 62
3
 10
1100.0110
 20
79.3050
 11
1100.0110
 21
81.0600
  0
LINE
  8
        _00
  6
CONTINUOUS
 62
3
 10
1100.0110
 20
81.0600
 11
1092.4061
 21
81.0600
  0
LINE
  8
        _00
  6
CONTINUOUS
 62
3
 10
1092.4061
 20
81.0600
 11
1092.4061
 21
79.3050
  0
LINE
  8
        _00
  6
CONTINUOUS
 62
3
 10
1092.4061
 20
81.8401
 11
1100.0110
 21
81.8401
  0
LINE
  8
        _00
  6
CONTINUOUS
 62
3
 10
1100.0110
 20
81.8401
 11
1100.0110
 21
83.5950
  0
LINE
  8
        _00
  6
CONTINUOUS
 62
3
 10
1100.0110
 20
83.5950
 11
1092.4061
 21
83.5950
  0
LINE
  8
        _00
  6
CONTINUOUS
 62
3
 10
1092.4061
 20
83.5950
 11
1092.4061
 21
81.8401
  0
LINE
  8
        _00
  6
CONTINUOUS
 62
3
 10
1092.4061
 20
84.3751
 11
1100.0110
 21
84.3751
  0
LINE
  8
        _00
  6
CONTINUOUS
 62
3
 10
1100.0110
 20
84.3751
 11
1100.0110
 21
86.1300
  0
LINE
  8
        _00
  6
CONTINUOUS
 62
3
 10
1100.0110
 20
86.1300
 11
1092.4061
 21
86.1300
  0
LINE
  8
        _00
  6
CONTINUOUS
 62
3
 10
1092.4061
 20
86.1300
 11
1092.4061
 21
84.3751
  0
LINE
  8
        _00
  6
CONTINUOUS
 62
3
 10
1092.4061
 20
86.9101
 11
1100.0110
 21
86.9101
  0
LINE
  8
        _00
  6
CONTINUOUS
 62
3
 10
1100.0110
 20
86.9101
 11
1100.0110
 21
88.6650
  0
LINE
  8
        _00
  6
CONTINUOUS
 62
3
 10
1100.0110
 20
88.6650
 11
1092.4061
 21
88.6650
  0
LINE
  8
        _00
  6
CONTINUOUS
 62
3
 10
1092.4061
 20
88.6650
 11
1092.4061
 21
86.9101
  0
LINE
  8
        _00
  6
CONTINUOUS
 62
3
 10
1092.4061
 20
89.4451
 11
1100.0110
 21
89.4451
  0
LINE
  8
        _00
  6
CONTINUOUS
 62
3
 10
1100.0110
 20
89.4451
 11
1100.0110
 21
91.2000
  0
LINE
  8
        _00
  6
CONTINUOUS
 62
3
 10
1100.0110
 20
91.2000
 11
1092.4061
 21
91.2000
  0
LINE
  8
        _00
  6
CONTINUOUS
 62
3
 10
1092.4061
 20
91.2000
 11
1092.4061
 21
89.4451
  0
LINE
  8
        _00
  6
CONTINUOUS
 62
3
 10
1087.5311
 20
71.7000
 11
1087.5311
 21
77.0626
  0
LINE
  8
        _00
  6
CONTINUOUS
 62
3
 10
1088.8375
 20
72.7725
 11
1088.8375
 21
77.0626
  0
LINE
  8
        _00
  6
CONTINUOUS
 62
3
 10
1087.5311
 20
71.7000
 11
1089.6760
 21
71.7000
  0
LINE
  8
        _00
  6
CONTINUOUS
 62
3
 10
1088.8375
 20
72.7725
 11
1089.6760
 21
72.7725
  0
LINE
  8
        _00
  6
CONTINUOUS
 62
3
 10
1089.6050
 20
79.8056
 11
1090.4561
 21
78.1351
  0
LINE
  8
        _00
  6
CONTINUOUS
 62
3
 10
1090.9410
 20
82.5453
 11
1089.6047
 21
79.8055
  0
LINE
  8
        _00
  6
CONTINUOUS
 62
3
 10
1086.7511
 20
85.3501
 11
1086.7511
 21
91.2000
  0
LINE
  8
        _00
  6
CONTINUOUS
 62
3
 10
1086.7511
 20
85.3501
 11
1089.1886
 21
85.3501
  0
LINE
  8
        _00
  6
CONTINUOUS
 62
3
 10
1086.7511
 20
84.1801
 11
1087.8333
 21
84.1801
  0
LINE
  8
        _00
  6
CONTINUOUS
 62
3
 10
1086.7511
 20
78.1351
 11
1090.4561
 21
78.1351
  0
LINE
  8
        _00
  6
CONTINUOUS
 62
3
 10
1086.7511
 20
81.9611
 11
1087.8334
 21
84.1801
  0
LINE
  8
        _00
  6
CONTINUOUS
 62
3
 10
1086.7511
 20
81.9613
 11
1086.7511
 21
84.1801
  0
LINE
  8
        _00
  6
CONTINUOUS
 62
3
 10
1086.7511
 20
78.1351
 11
1086.7511
 21
71.7000
  0
LINE
  8
        _00
  6
CONTINUOUS
 62
3
 10
1076.9110
 20
91.2000
 11
1076.9110
 21
71.7000
  0
LINE
  8
        _00
  6
CONTINUOUS
 62
3
 10
1077.2110
 20
91.2000
 11
1077.2110
 21
71.7000
  0
LINE
  8
        _00
  6
CONTINUOUS
 62
3
 10
1077.5110
 20
91.2000
 11
1077.5110
 21
71.7000
  0
LINE
  8
        _00
  6
CONTINUOUS
 62
3
 10
1077.8109
 20
91.2000
 11
1077.8109
 21
71.7000
  0
LINE
  8
        _00
  6
CONTINUOUS
 62
3
 10
1078.1111
 20
91.2000
 11
1078.1111
 21
71.7000
  0
LINE
  8
        _00
  6
CONTINUOUS
 62
3
 10
1079.6411
 20
91.2000
 11
1079.6411
 21
71.7000
  0
LINE
  8
        _00
  6
CONTINUOUS
 62
3
 10
1079.9410
 20
91.2000
 11
1079.9410
 21
71.7000
  0
LINE
  8
        _00
  6
CONTINUOUS
 62
3
 10
1080.2410
 20
91.2000
 11
1080.2410
 21
71.7000
  0
LINE
  8
        _00
  6
CONTINUOUS
 62
3
 10
1080.5410
 20
91.2000
 11
1080.5410
 21
71.7000
  0
LINE
  8
        _00
  6
CONTINUOUS
 62
3
 10
1080.8410
 20
91.2000
 11
1080.8410
 21
71.7000
  0
LINE
  8
        _00
  6
CONTINUOUS
 62
3
 10
1081.1411
 20
91.2000
 11
1081.1411
 21
71.7000
  0
LINE
  8
        _00
  6
CONTINUOUS
 62
3
 10
1082.3709
 20
91.2000
 11
1082.3709
 21
71.7000
  0
LINE
  8
        _00
  6
CONTINUOUS
 62
3
 10
1082.6711
 20
91.2000
 11
1082.6711
 21
71.7000
  0
LINE
  8
        _00
  6
CONTINUOUS
 62
3
 10
1082.9711
 20
91.2000
 11
1082.9711
 21
71.7000
  0
LINE
  8
        _00
  6
CONTINUOUS
 62
3
 10
1083.2710
 20
91.2000
 11
1083.2710
 21
71.7000
  0
LINE
  8
        _00
  6
CONTINUOUS
 62
3
 10
1083.5711
 20
91.2000
 11
1083.5711
 21
71.7000
  0
LINE
  8
        _00
  6
CONTINUOUS
 62
3
 10
1083.8709
 20
91.2000
 11
1083.8709
 21
71.7000
  0
LINE
  8
        _00
  6
CONTINUOUS
 62
3
 10
1092.4061
 20
72.0001
 11
1100.0110
 21
72.0001
  0
LINE
  8
        _00
  6
CONTINUOUS
 62
3
 10
1092.4061
 20
72.3001
 11
1100.0110
 21
72.3001
  0
LINE
  8
        _00
  6
CONTINUOUS
 62
3
 10
1092.4061
 20
72.6000
 11
1100.0110
 21
72.6000
  0
LINE
  8
        _00
  6
CONTINUOUS
 62
3
 10
1092.4061
 20
72.9000
 11
1100.0110
 21
72.9000
  0
LINE
  8
        _00
  6
CONTINUOUS
 62
3
 10
1092.4061
 20
73.2000
 11
1100.0110
 21
73.2000
  0
LINE
  8
        _00
  6
CONTINUOUS
 62
3
 10
1092.4061
 20
74.5351
 11
1100.0110
 21
74.5351
  0
LINE
  8
        _00
  6
CONTINUOUS
 62
3
 10
1092.4061
 20
74.8351
 11
1100.0110
 21
74.8351
  0
LINE
  8
        _00
  6
CONTINUOUS
 62
3
 10
1092.4061
 20
75.1350
 11
1100.0110
 21
75.1350
  0
LINE
  8
        _00
  6
CONTINUOUS
 62
3
 10
1092.4061
 20
75.4350
 11
1100.0110
 21
75.4350
  0
LINE
  8
        _00
  6
CONTINUOUS
 62
3
 10
1092.4061
 20
75.7350
 11
1100.0110
 21
75.7350
  0
LINE
  8
        _00
  6
CONTINUOUS
 62
3
 10
1092.4061
 20
77.0701
 11
1100.0110
 21
77.0701
  0
LINE
  8
        _00
  6
CONTINUOUS
 62
3
 10
1092.4061
 20
77.3701
 11
1100.0110
 21
77.3701
  0
LINE
  8
        _00
  6
CONTINUOUS
 62
3
 10
1092.4061
 20
77.6700
 11
1100.0110
 21
77.6700
  0
LINE
  8
        _00
  6
CONTINUOUS
 62
3
 10
1092.4061
 20
77.9700
 11
1100.0110
 21
77.9700
  0
LINE
  8
        _00
  6
CONTINUOUS
 62
3
 10
1092.4061
 20
78.2701
 11
1100.0110
 21
78.2701
  0
LINE
  8
        _00
  6
CONTINUOUS
 62
3
 10
1092.4061
 20
79.6051
 11
1100.0110
 21
79.6051
  0
LINE
  8
        _00
  6
CONTINUOUS
 62
3
 10
1092.4061
 20
79.9051
 11
1100.0110
 21
79.9051
  0
LINE
  8
        _00
  6
CONTINUOUS
 62
3
 10
1092.4061
 20
80.2050
 11
1100.0110
 21
80.2050
  0
LINE
  8
        _00
  6
CONTINUOUS
 62
3
 10
1092.4061
 20
80.5050
 11
1100.0110
 21
80.5050
  0
LINE
  8
        _00
  6
CONTINUOUS
 62
3
 10
1092.4061
 20
80.8051
 11
1100.0110
 21
80.8051
  0
LINE
  8
        _00
  6
CONTINUOUS
 62
3
 10
1092.4061
 20
82.1401
 11
1100.0110
 21
82.1401
  0
LINE
  8
        _00
  6
CONTINUOUS
 62
3
 10
1092.4061
 20
82.4401
 11
1100.0110
 21
82.4401
  0
LINE
  8
        _00
  6
CONTINUOUS
 62
3
 10
1092.4061
 20
82.7400
 11
1100.0110
 21
82.7400
  0
LINE
  8
        _00
  6
CONTINUOUS
 62
3
 10
1092.4061
 20
83.0400
 11
1100.0110
 21
83.0400
  0
LINE
  8
        _00
  6
CONTINUOUS
 62
3
 10
1092.4061
 20
83.3401
 11
1100.0110
 21
83.3401
  0
LINE
  8
        _00
  6
CONTINUOUS
 62
3
 10
1100.0110
 20
84.6751
 11
1092.4061
 21
84.6751
  0
LINE
  8
        _00
  6
CONTINUOUS
 62
3
 10
1100.0110
 20
84.9751
 11
1092.4061
 21
84.9751
  0
LINE
  8
        _00
  6
CONTINUOUS
 62
3
 10
1100.0110
 20
85.2750
 11
1092.4061
 21
85.2750
  0
LINE
  8
        _00
  6
CONTINUOUS
 62
3
 10
1100.0110
 20
85.5750
 11
1092.4061
 21
85.5750
  0
LINE
  8
        _00
  6
CONTINUOUS
 62
3
 10
1100.0110
 20
85.8751
 11
1092.4061
 21
85.8751
  0
LINE
  8
        _00
  6
CONTINUOUS
 62
3
 10
1092.4061
 20
87.2101
 11
1100.0110
 21
87.2101
  0
LINE
  8
        _00
  6
CONTINUOUS
 62
3
 10
1092.4061
 20
87.5101
 11
1100.0110
 21
87.5101
  0
LINE
  8
        _00
  6
CONTINUOUS
 62
3
 10
1092.4061
 20
87.8100
 11
1100.0110
 21
87.8100
  0
LINE
  8
        _00
  6
CONTINUOUS
 62
3
 10
1092.4061
 20
88.1100
 11
1100.0110
 21
88.1100
  0
LINE
  8
        _00
  6
CONTINUOUS
 62
3
 10
1092.4061
 20
88.4101
 11
1100.0110
 21
88.4101
  0
LINE
  8
        _00
  6
CONTINUOUS
 62
3
 10
1092.4061
 20
89.7451
 11
1100.0110
 21
89.7451
  0
LINE
  8
        _00
  6
CONTINUOUS
 62
3
 10
1092.4061
 20
90.0451
 11
1100.0110
 21
90.0451
  0
LINE
  8
        _00
  6
CONTINUOUS
 62
3
 10
1092.4061
 20
90.3450
 11
1100.0110
 21
90.3450
  0
LINE
  8
        _00
  6
CONTINUOUS
 62
3
 10
1092.4061
 20
90.6450
 11
1100.0110
 21
90.6450
  0
LINE
  8
        _00
  6
CONTINUOUS
 62
3
 10
1092.4061
 20
90.9451
 11
1100.0110
 21
90.9451
  0
LINE
  8
        _00
  6
CONTINUOUS
 62
3
 10
1085.1010
 20
91.2000
 11
1085.1010
 21
71.7000
  0
LINE
  8
        _00
  6
CONTINUOUS
 62
3
 10
1085.4011
 20
91.2000
 11
1085.4011
 21
71.7000
  0
LINE
  8
        _00
  6
CONTINUOUS
 62
3
 10
1085.7009
 20
91.2000
 11
1085.7009
 21
71.7000
  0
LINE
  8
        _00
  6
CONTINUOUS
 62
3
 10
1086.0008
 20
91.2000
 11
1086.0008
 21
71.7000
  0
LINE
  8
        _00
  6
CONTINUOUS
 62
3
 10
1086.3010
 20
91.2000
 11
1086.3010
 21
71.7000
  0
LINE
  8
        _00
  6
CONTINUOUS
 62
3
 10
1086.6010
 20
91.2000
 11
1086.6010
 21
71.7000
  0
LINE
  8
        _00
  6
CONTINUOUS
 62
3
 10
1087.8311
 20
71.7000
 11
1087.8311
 21
77.0626
  0
LINE
  8
        _00
  6
CONTINUOUS
 62
3
 10
1088.1312
 20
71.7000
 11
1088.1312
 21
77.0626
  0
LINE
  8
        _00
  6
CONTINUOUS
 62
3
 10
1088.4310
 20
71.7000
 11
1088.4310
 21
77.0626
  0
LINE
  8
        _00
  6
CONTINUOUS
 62
3
 10
1088.7309
 20
71.7000
 11
1088.7309
 21
77.0626
  0
LINE
  8
        _00
  6
CONTINUOUS
 62
3
 10
1088.8375
 20
72.4725
 11
1089.6760
 21
72.4725
  0
LINE
  8
        _00
  6
CONTINUOUS
 62
3
 10
1088.8375
 20
72.1725
 11
1089.6760
 21
72.1725
  0
LINE
  8
        _00
  6
CONTINUOUS
 62
3
 10
1088.8375
 20
71.8725
 11
1089.6760
 21
71.8725
  0
LINE
  8
        _00
  6
CONTINUOUS
 62
3
 10
1090.2825
 20
78.4758
 11
1086.7853
 21
78.4758
  0
LINE
  8
        _00
  6
CONTINUOUS
 62
3
 10
1090.1032
 20
78.8278
 11
1086.7853
 21
78.8278
  0
LINE
  8
        _00
  6
CONTINUOUS
 62
3
 10
1089.8939
 20
79.2384
 11
1086.7779
 21
79.2384
  0
LINE
  8
        _00
  6
CONTINUOUS
 62
3
 10
1089.7204
 20
79.5787
 11
1086.7744
 21
79.5787
  0
LINE
  8
        _00
  6
CONTINUOUS
 62
3
 10
1091.0859
 20
83.5262
 11
1089.1502
 21
79.5579
  0
LINE
  8
        _00
  6
CONTINUOUS
 62
3
 10
1090.9896
 20
84.0133
 11
1088.8107
 21
79.5458
  0
LINE
  8
        _00
  6
CONTINUOUS
 62
3
 10
1090.8083
 20
84.3258
 11
1088.4914
 21
79.5758
  0
LINE
  8
        _00
  6
CONTINUOUS
 62
3
 10
1090.6029
 20
84.5893
 11
1088.1454
 21
79.5508
  0
LINE
  8
        _00
  6
CONTINUOUS
 62
3
 10
1090.4008
 20
84.8596
 11
1087.8790
 21
79.6887
  0
LINE
  8
        _00
  6
CONTINUOUS
 62
3
 10
1090.1371
 20
85.0026
 11
1087.4908
 21
79.5774
  0
LINE
  8
        _00
  6
CONTINUOUS
 62
3
 10
1089.8761
 20
85.1521
 11
1087.1534
 21
79.5697
  0
LINE
  8
        _00
  6
CONTINUOUS
 62
3
 10
1089.5665
 20
85.2017
 11
1086.8386
 21
79.6087
  0
LINE
  8
        _00
  6
CONTINUOUS
 62
3
 10
1089.2498
 20
85.2367
 11
1086.7053
 21
80.0197
  0
LINE
  8
        _00
  6
CONTINUOUS
 62
3
 10
1088.9374
 20
85.2802
 11
1086.7329
 21
80.7607
  0
LINE
  8
        _00
  6
CONTINUOUS
 62
3
 10
1088.5957
 20
85.2643
 11
1086.6388
 21
81.2521
  0
LINE
  8
        _00
  6
CONTINUOUS
 62
3
 10
1087.9926
 20
84.4801
 11
1086.7511
 21
84.4801
  0
LINE
  8
        _00
  6
CONTINUOUS
 62
3
 10
1088.2355
 20
84.7801
 11
1086.7511
 21
84.7801
  0
LINE
  8
        _00
  6
CONTINUOUS
 62
3
 10
1088.3496
 20
85.0800
 11
1086.7511
 21
85.0800
  0
LINE
  8
        _00
  6
CONTINUOUS
 62
3
 10
796.2610
 20
852.4893
 11
809.7610
 21
852.4893
  0
LINE
  8
        _00
  6
CONTINUOUS
 62
3
 10
797.1685
 20
854.0609
 11
796.2610
 21
852.4893
  0
LINE
  8
        _00
  6
CONTINUOUS
 62
3
 10
800.8929
 20
860.5119
 11
803.0110
 21
864.1806
  0
LINE
  8
        _00
  6
CONTINUOUS
 62
3
 10
808.8538
 20
854.0609
 11
809.7610
 21
852.4893
  0
LINE
  8
        _00
  6
CONTINUOUS
 62
3
 10
805.1292
 20
860.5119
 11
803.0110
 21
864.1806
  0
LINE
  8
        _00
  6
CONTINUOUS
 62
3
 10
1218.5110
 20
154.2001
 11
1221.5110
 21
154.2001
  0
LINE
  8
        _00
  6
CONTINUOUS
 62
3
 10
1218.5110
 20
175.2001
 11
1221.5110
 21
175.2001
  0
LINE
  8
        _00
  6
CONTINUOUS
 62
3
 10
1218.5110
 20
196.2001
 11
1221.5110
 21
196.2001
  0
LINE
  8
        _00
  6
CONTINUOUS
 62
3
 10
1218.5110
 20
217.2001
 11
1221.5110
 21
217.2001
  0
LINE
  8
        _00
  6
CONTINUOUS
 62
3
 10
1218.5110
 20
238.2001
 11
1221.5110
 21
238.2001
  0
LINE
  8
        _00
  6
CONTINUOUS
 62
3
 10
1218.5110
 20
259.2001
 11
1221.5110
 21
259.2001
  0
LINE
  8
        _00
  6
CONTINUOUS
 62
3
 10
1218.5110
 20
280.2001
 11
1221.5110
 21
280.2001
  0
LINE
  8
        _00
  6
CONTINUOUS
 62
3
 10
1218.5110
 20
301.2001
 11
1221.5110
 21
301.2001
  0
LINE
  8
        _00
  6
CONTINUOUS
 62
3
 10
1218.5110
 20
322.2001
 11
1221.5110
 21
322.2001
  0
LINE
  8
        _00
  6
CONTINUOUS
 62
3
 10
1218.5110
 20
343.2001
 11
1221.5110
 21
343.2001
  0
LINE
  8
        _00
  6
CONTINUOUS
 62
3
 10
1218.5110
 20
364.2001
 11
1221.5110
 21
364.2001
  0
LINE
  8
        _00
  6
CONTINUOUS
 62
3
 10
1218.5110
 20
385.2001
 11
1221.5110
 21
385.2001
  0
LINE
  8
        _00
  6
CONTINUOUS
 62
3
 10
1218.5110
 20
406.2001
 11
1221.5110
 21
406.2001
  0
LINE
  8
        _00
  6
CONTINUOUS
 62
3
 10
1218.5110
 20
427.2001
 11
1221.5110
 21
427.2001
  0
LINE
  8
        _00
  6
CONTINUOUS
 62
3
 10
1218.5110
 20
448.2001
 11
1221.5110
 21
448.2001
  0
LINE
  8
        _00
  6
CONTINUOUS
 62
3
 10
1218.5110
 20
469.2001
 11
1221.5110
 21
469.2001
  0
LINE
  8
        _00
  6
CONTINUOUS
 62
3
 10
1218.5110
 20
490.2001
 11
1221.5110
 21
490.2001
  0
LINE
  8
        _00
  6
CONTINUOUS
 62
3
 10
1218.5110
 20
833.7001
 11
1221.5110
 21
833.7001
  0
LINE
  8
        _00
  6
CONTINUOUS
 62
3
 10
1218.5110
 20
815.7001
 11
1221.5110
 21
815.7001
  0
LINE
  8
        _00
  6
CONTINUOUS
 62
3
 10
1218.5110
 20
797.7001
 11
1221.5110
 21
797.7001
  0
LINE
  8
        _00
  6
CONTINUOUS
 62
3
 10
1218.5110
 20
779.7001
 11
1221.5110
 21
779.7001
  0
LINE
  8
        _00
  6
CONTINUOUS
 62
3
 10
1218.5110
 20
761.7001
 11
1221.5110
 21
761.7001
  0
LINE
  8
        _00
  6
CONTINUOUS
 62
3
 10
1218.5110
 20
743.7001
 11
1221.5110
 21
743.7001
  0
LINE
  8
        _00
  6
CONTINUOUS
 62
3
 10
1218.5110
 20
511.2001
 11
1221.5110
 21
511.2001
  0
LINE
  8
        _00
  6
CONTINUOUS
 62
3
 10
1218.5110
 20
532.2001
 11
1221.5110
 21
532.2001
  0
LINE
  8
        _00
  6
CONTINUOUS
 62
3
 10
1218.5110
 20
553.2001
 11
1221.5110
 21
553.2001
  0
LINE
  8
        _00
  6
CONTINUOUS
 62
3
 10
1218.5110
 20
574.2001
 11
1221.5110
 21
574.2001
  0
LINE
  8
        _00
  6
CONTINUOUS
 62
3
 10
1218.5110
 20
595.2001
 11
1221.5110
 21
595.2001
  0
LINE
  8
        _00
  6
CONTINUOUS
 62
3
 10
1218.5110
 20
616.2001
 11
1221.5110
 21
616.2001
  0
LINE
  8
        _00
  6
CONTINUOUS
 62
3
 10
1218.5110
 20
637.2000
 11
1221.5110
 21
637.2000
  0
LINE
  8
        _00
  6
CONTINUOUS
 62
3
 10
1218.5110
 20
658.2000
 11
1221.5110
 21
658.2000
  0
LINE
  8
        _00
  6
CONTINUOUS
 62
3
 10
1218.5110
 20
679.2000
 11
1221.5110
 21
679.2000
  0
LINE
  8
        _00
  6
CONTINUOUS
 62
3
 10
1218.5110
 20
700.2001
 11
1221.5110
 21
700.2001
  0
LINE
  8
        _00
  6
CONTINUOUS
 62
3
 10
1218.5110
 20
721.2001
 11
1221.5110
 21
721.2001
  0
LINE
  8
        _00
  6
CENTER1
 62
3
 10
881.0410
 20
73.2001
 11
881.0410
 21
91.2001
  0
LINE
  8
        _00
  6
CONTINUOUS
 62
4
 10
891.5411
 20
78.4501
 11
891.5411
 21
85.9501
  0
LINE
  8
        _00
  6
CONTINUOUS
 62
4
 10
905.0410
 20
76.2001
 11
905.0410
 21
88.2001
  0
LINE
  8
        _00
  6
CONTINUOUS
 62
4
 10
891.5411
 20
85.9501
 11
905.0410
 21
88.2001
  0
LINE
  8
        _00
  6
CONTINUOUS
 62
4
 10
891.5411
 20
78.4501
 11
905.0410
 21
76.2001
  0
LINE
  8
        _00
  6
CENTER1
 62
3
 10
872.0411
 20
82.2001
 11
907.3555
 21
82.2001
  0
LINE
  8
        _00
  6
CONTINUOUS
 62
3
 10
1191.5110
 20
37.2000
 11
1191.5110
 21
67.2000
  0
LINE
  8
        _00
  6
CONTINUOUS
 62
3
 10
39.6905
 20
22.2000
 11
1233.5110
 21
22.2000
  0
LINE
  8
        _00
  6
CONTINUOUS
 62
3
 10
1182.5110
 20
865.2001
 11
1182.5110
 21
851.7001
  0
LINE
  8
        _00
  6
CONTINUOUS
 62
3
 10
0.0000
 20
443.7000
 11
39.6905
 21
443.7000
  0
LINE
  8
        _00
  6
CONTINUOUS
 62
3
 10
626.1610
 20
22.2000
 11
626.1610
 21
0.0000
  0
LINE
  8
        _00
  6
CONTINUOUS
 62
3
 10
626.1610
 20
865.2001
 11
626.1610
 21
891.0000
  0
LINE
  8
        _00
  6
CONTINUOUS
 62
3
 10
1233.5110
 20
443.7000
 11
1260.0000
 21
443.7000
  0
LINE
  8
        _00
  6
CONTINUOUS
 62
6
 10
655.3577
 20
731.6194
 11
655.3577
 21
774.5000
  0
LINE
  8
        _00
  6
CONTINUOUS
 62
6
 10
617.8576
 20
731.6194
 11
617.8576
 21
774.5000
  0
LINE
  8
        _00
  6
CONTINUOUS
 62
6
 10
617.8576
 20
768.5001
 11
655.3577
 21
768.5001
  0
LINE
  8
        _00
  6
CONTINUOUS
 62
6
 10
617.8576
 20
768.5001
 11
625.1937
 21
766.9406
  0
LINE
  8
        _00
  6
CONTINUOUS
 62
6
 10
617.8576
 20
768.5001
 11
625.1937
 21
770.0594
  0
LINE
  8
        _00
  6
CONTINUOUS
 62
6
 10
655.3577
 20
768.5001
 11
648.0216
 21
770.0594
  0
LINE
  8
        _00
  6
CONTINUOUS
 62
6
 10
655.3577
 20
768.5001
 11
648.0216
 21
766.9406
  0
LINE
  8
        _00
  6
CONTINUOUS
 62
6
 10
810.3576
 20
731.6194
 11
810.3576
 21
774.5000
  0
LINE
  8
        _00
  6
CONTINUOUS
 62
6
 10
655.3577
 20
768.5001
 11
810.3576
 21
768.5001
  0
LINE
  8
        _00
  6
CONTINUOUS
 62
6
 10
655.3577
 20
768.5001
 11
662.6938
 21
766.9406
  0
LINE
  8
        _00
  6
CONTINUOUS
 62
6
 10
655.3577
 20
768.5001
 11
662.6938
 21
770.0594
  0
LINE
  8
        _00
  6
CONTINUOUS
 62
6
 10
810.3576
 20
768.5001
 11
803.0215
 21
770.0594
  0
LINE
  8
        _00
  6
CONTINUOUS
 62
6
 10
810.3576
 20
768.5001
 11
803.0215
 21
766.9406
  0
LINE
  8
        _00
  6
CONTINUOUS
 62
6
 10
965.3577
 20
731.6194
 11
965.3577
 21
774.5000
  0
LINE
  8
        _00
  6
CONTINUOUS
 62
6
 10
810.3576
 20
768.5001
 11
965.3577
 21
768.5001
  0
LINE
  8
        _00
  6
CONTINUOUS
 62
6
 10
810.3576
 20
768.5001
 11
817.6937
 21
766.9406
  0
LINE
  8
        _00
  6
CONTINUOUS
 62
6
 10
810.3576
 20
768.5001
 11
817.6937
 21
770.0594
  0
LINE
  8
        _00
  6
CONTINUOUS
 62
6
 10
965.3577
 20
768.5001
 11
958.0215
 21
770.0594
  0
LINE
  8
        _00
  6
CONTINUOUS
 62
6
 10
965.3577
 20
768.5001
 11
958.0215
 21
766.9406
  0
LINE
  8
        _00
  6
CONTINUOUS
 62
6
 10
1120.3576
 20
731.6194
 11
1120.3576
 21
774.5000
  0
LINE
  8
        _00
  6
CONTINUOUS
 62
6
 10
965.3577
 20
768.5001
 11
1120.3576
 21
768.5001
  0
LINE
  8
        _00
  6
CONTINUOUS
 62
6
 10
965.3577
 20
768.5001
 11
972.6937
 21
766.9406
  0
LINE
  8
        _00
  6
CONTINUOUS
 62
6
 10
965.3577
 20
768.5001
 11
972.6937
 21
770.0594
  0
LINE
  8
        _00
  6
CONTINUOUS
 62
6
 10
1120.3576
 20
768.5001
 11
1113.0215
 21
770.0594
  0
LINE
  8
        _00
  6
CONTINUOUS
 62
6
 10
1120.3576
 20
768.5001
 11
1113.0215
 21
766.9406
  0
LINE
  8
        _00
  6
CONTINUOUS
 62
6
 10
1157.8576
 20
731.6194
 11
1157.8576
 21
774.5000
  0
LINE
  8
        _00
  6
CONTINUOUS
 62
6
 10
1120.3576
 20
768.5001
 11
1157.8576
 21
768.5001
  0
LINE
  8
        _00
  6
CONTINUOUS
 62
6
 10
1120.3576
 20
768.5001
 11
1127.6938
 21
766.9406
  0
LINE
  8
        _00
  6
CONTINUOUS
 62
6
 10
1120.3576
 20
768.5001
 11
1127.6938
 21
770.0594
  0
LINE
  8
        _00
  6
CONTINUOUS
 62
6
 10
1157.8576
 20
768.5001
 11
1150.5214
 21
770.0594
  0
LINE
  8
        _00
  6
CONTINUOUS
 62
6
 10
1157.8576
 20
768.5001
 11
1150.5214
 21
766.9406
  0
LINE
  8
        _00
  6
CONTINUOUS
 62
6
 10
145.2000
 20
466.3065
 11
84.0000
 21
466.3065
  0
LINE
  8
        _00
  6
CONTINUOUS
 62
6
 10
210.2000
 20
666.3066
 11
84.0000
 21
666.3066
  0
LINE
  8
        _00
  6
CONTINUOUS
 62
6
 10
90.0000
 20
666.3066
 11
90.0000
 21
466.3065
  0
LINE
  8
        _00
  6
CONTINUOUS
 62
6
 10
90.0000
 20
666.3066
 11
88.4407
 21
658.9704
  0
LINE
  8
        _00
  6
CONTINUOUS
 62
6
 10
90.0000
 20
666.3066
 11
91.5593
 21
658.9704
  0
LINE
  8
        _00
  6
CONTINUOUS
 62
6
 10
90.0000
 20
466.3065
 11
91.5593
 21
473.6427
  0
LINE
  8
        _00
  6
CONTINUOUS
 62
6
 10
90.0000
 20
466.3065
 11
88.4407
 21
473.6427
  0
LINE
  8
        _00
  6
CONTINUOUS
 62
6
 10
145.2000
 20
466.3065
 11
104.0000
 21
466.3065
  0
LINE
  8
        _00
  6
CONTINUOUS
 62
6
 10
183.6649
 20
501.3066
 11
104.0000
 21
501.3066
  0
LINE
  8
        _00
  6
CONTINUOUS
 62
6
 10
110.0000
 20
501.3066
 11
110.0000
 21
466.3065
  0
LINE
  8
        _00
  6
CONTINUOUS
 62
6
 10
110.0000
 20
501.3066
 11
108.4407
 21
493.9705
  0
LINE
  8
        _00
  6
CONTINUOUS
 62
6
 10
110.0000
 20
501.3066
 11
111.5593
 21
493.9705
  0
LINE
  8
        _00
  6
CONTINUOUS
 62
6
 10
110.0000
 20
466.3065
 11
111.5593
 21
473.6427
  0
LINE
  8
        _00
  6
CONTINUOUS
 62
6
 10
110.0000
 20
466.3065
 11
108.4407
 21
473.6427
  0
LINE
  8
15_0F
  6
CONTINUOUS
 62
6
 10
244.7725
 20
666.3066
 11
306.0000
 21
666.3066
  0
LINE
  8
15_0F
  6
CONTINUOUS
 62
6
 10
259.4999
 20
619.3066
 11
306.0000
 21
619.3066
  0
LINE
  8
15_0F
  6
CONTINUOUS
 62
6
 10
300.0000
 20
666.3066
 11
300.0000
 21
619.3066
  0
LINE
  8
15_0F
  6
CONTINUOUS
 62
6
 10
300.0000
 20
666.3066
 11
298.4407
 21
658.9704
  0
LINE
  8
15_0F
  6
CONTINUOUS
 62
6
 10
300.0000
 20
666.3066
 11
301.5593
 21
658.9704
  0
LINE
  8
15_0F
  6
CONTINUOUS
 62
6
 10
300.0000
 20
619.3066
 11
301.5593
 21
626.6427
  0
LINE
  8
15_0F
  6
CONTINUOUS
 62
6
 10
300.0000
 20
619.3066
 11
298.4407
 21
626.6427
  0
LINE
  8
15_0F
  6
CONTINUOUS
 62
2
 10
387.4992
 20
632.0505
 11
385.4992
 21
630.0505
  0
LINE
  8
15_0F
  6
CONTINUOUS
 62
2
 10
383.2566
 20
632.0505
 11
381.2566
 21
630.0505
  0
LINE
  8
15_0F
  6
CONTINUOUS
 62
2
 10
379.0140
 20
632.0505
 11
377.0140
 21
630.0505
  0
LINE
  8
15_0F
  6
CONTINUOUS
 62
2
 10
374.7713
 20
632.0505
 11
374.1957
 21
631.4750
  0
LINE
  8
15_0F
  6
CONTINUOUS
 62
2
 10
373.2713
 20
630.5506
 11
372.7714
 21
630.0505
  0
LINE
  8
15_0F
  6
CONTINUOUS
 62
2
 10
369.0287
 20
630.5506
 11
368.5287
 21
630.0505
  0
LINE
  8
15_0F
  6
CONTINUOUS
 62
2
 10
364.7860
 20
630.5506
 11
364.2860
 21
630.0505
  0
LINE
  8
15_0F
  6
CONTINUOUS
 62
2
 10
391.7419
 20
632.0505
 11
389.7419
 21
630.0505
  0
LINE
  8
15_0F
  6
CONTINUOUS
 62
2
 10
395.9845
 20
632.0505
 11
393.9845
 21
630.0505
  0
LINE
  8
15_0F
  6
CONTINUOUS
 62
2
 10
399.2183
 20
631.0416
 11
398.2272
 21
630.0505
  0
LINE
  8
15_0F
  6
CONTINUOUS
 62
2
 10
402.9698
 20
630.5506
 11
402.4698
 21
630.0505
  0
LINE
  8
15_0F
  6
CONTINUOUS
 62
2
 10
407.2125
 20
630.5506
 11
406.7124
 21
630.0505
  0
LINE
  8
        _00
  6
CONTINUOUS
 62
4
 10
386.6492
 20
632.3506
 11
386.3492
 21
632.0505
  0
LINE
  8
        _00
  6
CONTINUOUS
 62
4
 10
398.9492
 20
632.0505
 11
386.9492
 21
632.0505
  0
LINE
  8
        _00
  6
CONTINUOUS
 62
4
 10
386.6492
 20
632.3506
 11
386.9492
 21
632.0505
  0
LINE
  8
14_0E
  6
CONTINUOUS
 62
4
 10
399.7254
 20
633.6601
 11
390.6492
 21
634.0505
  0
LINE
  8
        _00
  6
CONTINUOUS
 62
4
 10
386.6492
 20
632.3506
 11
386.9492
 21
632.0505
  0
LINE
  8
        _00
  6
CONTINUOUS
 62
4
 10
374.3493
 20
632.0505
 11
386.3492
 21
632.0505
  0
LINE
  8
        _00
  6
CONTINUOUS
 62
4
 10
386.6492
 20
632.3506
 11
386.3492
 21
632.0505
  0
LINE
  8
14_0E
  6
CONTINUOUS
 62
4
 10
373.5731
 20
633.6601
 11
382.6492
 21
634.0505
  0
LINE
  8
        _00
  6
CONTINUOUS
 62
4
 10
390.6492
 20
634.0505
 11
382.6492
 21
634.0505
  0
LINE
  8
        _00
  6
CONTINUOUS
 62
4
 10
399.3492
 20
630.5506
 11
404.3492
 21
630.5506
  0
LINE
  8
        _00
  6
CONTINUOUS
 62
4
 10
398.9492
 20
632.0505
 11
399.3492
 21
630.5506
  0
LINE
  8
        _00
  6
CONTINUOUS
 62
4
 10
402.1492
 20
632.2505
 11
407.1492
 21
632.2505
  0
LINE
  8
        _00
  6
CONTINUOUS
 62
4
 10
404.9492
 20
630.5506
 11
414.0493
 21
630.5506
  0
LINE
  8
        _00
  6
CONTINUOUS
 62
4
 10
404.6492
 20
630.8505
 11
404.3492
 21
630.5506
  0
LINE
  8
        _00
  6
CONTINUOUS
 62
4
 10
404.6492
 20
630.8505
 11
404.9492
 21
630.5506
  0
LINE
  8
        _00
  6
CONTINUOUS
 62
4
 10
411.9770
 20
632.0505
 11
407.4493
 21
632.0505
  0
LINE
  8
        _00
  6
CONTINUOUS
 62
4
 10
407.1492
 20
632.2505
 11
407.4493
 21
632.0505
  0
LINE
  8
        _00
  6
CONTINUOUS
 62
4
 10
401.8493
 20
632.0505
 11
400.6615
 21
632.0505
  0
LINE
  8
        _00
  6
CONTINUOUS
 62
4
 10
402.1492
 20
632.2505
 11
401.8493
 21
632.0505
  0
LINE
  8
        _00
  6
CONTINUOUS
 62
4
 10
400.0036
 20
633.4332
 11
400.2735
 21
632.3535
  0
LINE
  8
        _00
  6
CONTINUOUS
 62
4
 10
414.0493
 20
630.5506
 11
415.0492
 21
631.5505
  0
LINE
  8
        _00
  6
CONTINUOUS
 62
4
 10
415.0492
 20
631.5505
 11
415.0492
 21
632.8505
  0
LINE
  8
        _00
  6
CONTINUOUS
 62
4
 10
415.0492
 20
632.0505
 11
415.0492
 21
631.5505
  0
LINE
  8
        _00
  6
CONTINUOUS
 62
4
 10
414.0687
 20
634.9285
 11
414.9254
 21
635.0034
  0
LINE
  8
        _00
  6
CONTINUOUS
 62
4
 10
412.9621
 20
635.9359
 11
413.8001
 21
636.0092
  0
LINE
  8
        _00
  6
CONTINUOUS
 62
4
 10
412.0492
 20
634.9397
 11
412.0492
 21
634.5067
  0
LINE
  8
        _00
  6
CONTINUOUS
 62
4
 10
415.1931
 20
635.3626
 11
414.1077
 21
640.6505
  0
LINE
  8
        _00
  6
CONTINUOUS
 62
4
 10
413.3615
 20
639.8097
 11
414.0679
 21
636.3684
  0
LINE
  8
        _00
  6
CONTINUOUS
 62
4
 10
414.0471
 20
640.6505
 11
414.1077
 21
640.6505
  0
LINE
  8
        _00
  6
CONTINUOUS
 62
4
 10
416.6499
 20
640.7970
 11
416.6497
 21
631.5892
  0
LINE
  8
        _00
  6
CONTINUOUS
 62
4
 10
415.2497
 20
632.9471
 11
415.2497
 21
630.6065
  0
LINE
  8
        _00
  6
CONTINUOUS
 62
4
 10
415.2498
 20
637.9971
 11
415.2498
 21
640.3932
  0
LINE
  8
        _00
  6
CONTINUOUS
 62
4
 10
412.5499
 20
640.7971
 11
414.8499
 21
640.7970
  0
LINE
  8
        _00
  6
CONTINUOUS
 62
4
 10
411.7498
 20
641.0971
 11
411.7498
 21
640.1971
  0
LINE
  8
        _00
  6
CONTINUOUS
 62
4
 10
412.5499
 20
640.7971
 11
412.5499
 21
640.5971
  0
LINE
  8
        _00
  6
CONTINUOUS
 62
4
 10
414.1693
 20
634.9025
 11
414.8846
 21
634.9651
  0
LINE
  8
        _00
  6
CONTINUOUS
 62
4
 10
415.2419
 20
635.4426
 11
414.7752
 21
637.7576
  0
LINE
  8
        _00
  6
CONTINUOUS
 62
4
 10
414.9712
 20
637.9971
 11
415.2498
 21
637.9971
  0
LINE
  8
        _00
  6
CONTINUOUS
 62
4
 10
412.7499
 20
642.0971
 11
415.3498
 21
642.0970
  0
LINE
  8
        _00
  6
CONTINUOUS
 62
4
 10
373.9492
 20
630.5506
 11
368.9493
 21
630.5506
  0
LINE
  8
        _00
  6
CONTINUOUS
 62
4
 10
374.3493
 20
632.0505
 11
373.9492
 21
630.5506
  0
LINE
  8
        _00
  6
CONTINUOUS
 62
4
 10
371.1492
 20
632.2505
 11
366.1492
 21
632.2505
  0
LINE
  8
        _00
  6
CONTINUOUS
 62
4
 10
368.3492
 20
630.5506
 11
359.2492
 21
630.5506
  0
LINE
  8
        _00
  6
CONTINUOUS
 62
4
 10
368.6492
 20
630.8505
 11
368.9493
 21
630.5506
  0
LINE
  8
        _00
  6
CONTINUOUS
 62
4
 10
368.6492
 20
630.8505
 11
368.3492
 21
630.5506
  0
LINE
  8
        _00
  6
CONTINUOUS
 62
4
 10
361.3215
 20
632.0505
 11
365.8493
 21
632.0505
  0
LINE
  8
        _00
  6
CONTINUOUS
 62
4
 10
366.1492
 20
632.2505
 11
365.8493
 21
632.0505
  0
LINE
  8
        _00
  6
CONTINUOUS
 62
4
 10
371.4492
 20
632.0505
 11
372.6370
 21
632.0505
  0
LINE
  8
        _00
  6
CONTINUOUS
 62
4
 10
371.1492
 20
632.2505
 11
371.4492
 21
632.0505
  0
LINE
  8
        _00
  6
CONTINUOUS
 62
4
 10
373.2949
 20
633.4332
 11
373.0250
 21
632.3535
  0
LINE
  8
        _00
  6
CONTINUOUS
 62
4
 10
359.2492
 20
630.5506
 11
358.2492
 21
631.5505
  0
LINE
  8
        _00
  6
CONTINUOUS
 62
4
 10
358.2492
 20
631.5505
 11
358.2492
 21
632.8505
  0
LINE
  8
        _00
  6
CONTINUOUS
 62
4
 10
358.2492
 20
632.0505
 11
358.2492
 21
631.5505
  0
LINE
  8
        _00
  6
CONTINUOUS
 62
4
 10
359.2297
 20
634.9285
 11
358.3731
 21
635.0034
  0
LINE
  8
        _00
  6
CONTINUOUS
 62
4
 10
360.3364
 20
635.9359
 11
359.4983
 21
636.0092
  0
LINE
  8
        _00
  6
CONTINUOUS
 62
4
 10
361.2492
 20
634.9397
 11
361.2492
 21
634.5067
  0
LINE
  8
        _00
  6
CONTINUOUS
 62
4
 10
358.1054
 20
635.3626
 11
359.1908
 21
640.6505
  0
LINE
  8
        _00
  6
CONTINUOUS
 62
4
 10
359.9370
 20
639.8097
 11
359.2306
 21
636.3684
  0
LINE
  8
        _00
  6
CONTINUOUS
 62
4
 10
359.2513
 20
640.6505
 11
359.1908
 21
640.6505
  0
LINE
  8
        _00
  6
CONTINUOUS
 62
4
 10
356.6486
 20
640.7970
 11
356.6488
 21
631.5892
  0
LINE
  8
        _00
  6
CONTINUOUS
 62
4
 10
358.0487
 20
632.9471
 11
358.0487
 21
630.6065
  0
LINE
  8
        _00
  6
CONTINUOUS
 62
4
 10
358.0487
 20
637.9971
 11
358.0487
 21
640.3932
  0
LINE
  8
        _00
  6
CONTINUOUS
 62
4
 10
360.7486
 20
640.7971
 11
358.4486
 21
640.7970
  0
LINE
  8
        _00
  6
CONTINUOUS
 62
4
 10
361.5487
 20
641.0971
 11
361.5487
 21
640.1971
  0
LINE
  8
        _00
  6
CONTINUOUS
 62
4
 10
360.7486
 20
640.7971
 11
360.7486
 21
640.5971
  0
LINE
  8
        _00
  6
CONTINUOUS
 62
4
 10
359.1292
 20
634.9025
 11
358.4138
 21
634.9651
  0
LINE
  8
        _00
  6
CONTINUOUS
 62
4
 10
358.0566
 20
635.4426
 11
358.5233
 21
637.7576
  0
LINE
  8
        _00
  6
CONTINUOUS
 62
4
 10
358.3273
 20
637.9971
 11
358.0487
 21
637.9971
  0
LINE
  8
        _00
  6
CONTINUOUS
 62
4
 10
360.5486
 20
642.0971
 11
357.9487
 21
642.0970
  0
LINE
  8
        _00
  6
CONTINUOUS
 62
4
 10
363.1492
 20
632.0505
 11
364.6492
 21
632.0505
  0
LINE
  8
15_0F
  6
CONTINUOUS
 62
6
 10
397.2729
 20
666.3066
 11
461.0000
 21
666.3066
  0
LINE
  8
15_0F
  6
CONTINUOUS
 62
6
 10
423.3129
 20
629.1970
 11
461.0000
 21
629.1970
  0
LINE
  8
15_0F
  6
CONTINUOUS
 62
6
 10
455.0000
 20
666.3066
 11
455.0000
 21
629.1970
  0
LINE
  8
15_0F
  6
CONTINUOUS
 62
6
 10
455.0000
 20
666.3066
 11
453.4407
 21
658.9704
  0
LINE
  8
15_0F
  6
CONTINUOUS
 62
6
 10
455.0000
 20
666.3066
 11
456.5593
 21
658.9704
  0
LINE
  8
15_0F
  6
CONTINUOUS
 62
6
 10
455.0000
 20
629.1970
 11
456.5593
 21
636.5332
  0
LINE
  8
15_0F
  6
CONTINUOUS
 62
6
 10
455.0000
 20
629.1970
 11
453.4407
 21
636.5332
  0
LINE
  8
15_0F
  6
CONTINUOUS
 62
4
 10
111.8327
 20
297.2846
 11
156.8327
 21
297.2846
  0
LINE
  8
15_0F
  6
CONTINUOUS
 62
4
 10
473.2815
 20
152.9589
 11
518.2815
 21
152.9589
  0
LINE
  8
        _00
  6
CONTINUOUS
 62
6
 10
528.9383
 20
340.2827
 11
528.9383
 21
434.5000
  0
LINE
  8
        _00
  6
CONTINUOUS
 62
6
 10
613.9383
 20
340.2827
 11
613.9383
 21
434.5000
  0
LINE
  8
        _00
  6
CONTINUOUS
 62
6
 10
528.9383
 20
428.5000
 11
613.9383
 21
428.5000
  0
LINE
  8
        _00
  6
CONTINUOUS
 62
6
 10
528.9383
 20
428.5000
 11
536.2744
 21
426.9407
  0
LINE
  8
        _00
  6
CONTINUOUS
 62
6
 10
528.9383
 20
428.5000
 11
536.2744
 21
430.0593
  0
LINE
  8
        _00
  6
CONTINUOUS
 62
6
 10
613.9383
 20
428.5000
 11
606.6021
 21
430.0593
  0
LINE
  8
        _00
  6
CONTINUOUS
 62
6
 10
613.9383
 20
428.5000
 11
606.6021
 21
426.9407
  0
LINE
  8
        _00
  6
CONTINUOUS
 62
6
 10
541.4383
 20
356.1230
 11
541.4383
 21
414.5000
  0
LINE
  8
        _00
  6
CONTINUOUS
 62
6
 10
601.4383
 20
356.1230
 11
601.4383
 21
414.5000
  0
LINE
  8
        _00
  6
CONTINUOUS
 62
6
 10
541.4383
 20
408.5000
 11
601.4383
 21
408.5000
  0
LINE
  8
        _00
  6
CONTINUOUS
 62
6
 10
541.4383
 20
408.5000
 11
548.7744
 21
406.9407
  0
LINE
  8
        _00
  6
CONTINUOUS
 62
6
 10
541.4383
 20
408.5000
 11
548.7744
 21
410.0593
  0
LINE
  8
        _00
  6
CONTINUOUS
 62
6
 10
601.4383
 20
408.5000
 11
594.1022
 21
410.0593
  0
LINE
  8
        _00
  6
CONTINUOUS
 62
6
 10
601.4383
 20
408.5000
 11
594.1022
 21
406.9407
  0
LINE
  8
        _00
  6
CONTINUOUS
 62
6
 10
990.3092
 20
370.2564
 11
990.3092
 21
454.5000
  0
LINE
  8
        _00
  6
CONTINUOUS
 62
6
 10
571.4383
 20
448.5000
 11
990.3092
 21
448.5000
  0
LINE
  8
        _00
  6
CONTINUOUS
 62
6
 10
571.4383
 20
448.5000
 11
578.7744
 21
446.9407
  0
LINE
  8
        _00
  6
CONTINUOUS
 62
6
 10
571.4383
 20
448.5000
 11
578.7744
 21
450.0593
  0
LINE
  8
        _00
  6
CONTINUOUS
 62
6
 10
990.3092
 20
448.5000
 11
982.9731
 21
450.0593
  0
LINE
  8
        _00
  6
CONTINUOUS
 62
6
 10
990.3092
 20
448.5000
 11
982.9731
 21
446.9407
  0
LINE
  8
        _00
  6
CONTINUOUS
 62
6
 10
571.4383
 20
370.2564
 11
571.4383
 21
401.8316
  0
LINE
  8
        _00
  6
CONTINUOUS
 62
6
 10
571.4383
 20
443.4459
 11
571.4383
 21
454.5000
  0
LINE
  8
        _00
  6
CONTINUOUS
 62
6
 10
524.9383
 20
336.2827
 11
444.0000
 21
336.2827
  0
LINE
  8
        _00
  6
CONTINUOUS
 62
6
 10
524.9383
 20
264.2827
 11
444.0000
 21
264.2827
  0
LINE
  8
        _00
  6
CONTINUOUS
 62
6
 10
450.0000
 20
336.2827
 11
450.0000
 21
264.2827
  0
LINE
  8
        _00
  6
CONTINUOUS
 62
6
 10
450.0000
 20
336.2827
 11
448.4407
 21
328.9466
  0
LINE
  8
        _00
  6
CONTINUOUS
 62
6
 10
450.0000
 20
336.2827
 11
451.5593
 21
328.9466
  0
LINE
  8
        _00
  6
CONTINUOUS
 62
6
 10
450.0000
 20
264.2827
 11
451.5593
 21
271.6188
  0
LINE
  8
        _00
  6
CONTINUOUS
 62
6
 10
450.0000
 20
264.2827
 11
448.4407
 21
271.6188
  0
LINE
  8
        _00
  6
CONTINUOUS
 62
6
 10
508.2133
 20
325.2827
 11
464.0000
 21
325.2827
  0
LINE
  8
        _00
  6
CONTINUOUS
 62
6
 10
508.2133
 20
275.2827
 11
464.0000
 21
275.2827
  0
LINE
  8
        _00
  6
CONTINUOUS
 62
6
 10
470.0000
 20
325.2827
 11
470.0000
 21
275.2827
  0
LINE
  8
        _00
  6
CONTINUOUS
 62
6
 10
470.0000
 20
325.2827
 11
468.4406
 21
317.9466
  0
LINE
  8
        _00
  6
CONTINUOUS
 62
6
 10
470.0000
 20
325.2827
 11
471.5593
 21
317.9466
  0
LINE
  8
        _00
  6
CONTINUOUS
 62
6
 10
470.0000
 20
275.2827
 11
471.5593
 21
282.6188
  0
LINE
  8
        _00
  6
CONTINUOUS
 62
6
 10
470.0000
 20
275.2827
 11
468.4406
 21
282.6188
  0
LINE
  8
        _00
  6
CONTINUOUS
 62
6
 10
557.4383
 20
266.2827
 11
557.4383
 21
182.5000
  0
LINE
  8
        _00
  6
CONTINUOUS
 62
6
 10
585.4383
 20
266.2827
 11
585.4383
 21
182.5000
  0
LINE
  8
        _00
  6
CONTINUOUS
 62
6
 10
557.4383
 20
188.5000
 11
585.4383
 21
188.5000
  0
LINE
  8
        _00
  6
CONTINUOUS
 62
6
 10
614.8383
 20
188.5000
 11
585.4383
 21
188.5000
  0
LINE
  8
        _00
  6
CONTINUOUS
 62
6
 10
585.4383
 20
188.5000
 11
592.7744
 21
186.9407
  0
LINE
  8
        _00
  6
CONTINUOUS
 62
6
 10
585.4383
 20
188.5000
 11
592.7744
 21
190.0593
  0
LINE
  8
        _00
  6
CONTINUOUS
 62
6
 10
539.4383
 20
188.5000
 11
557.4383
 21
188.5000
  0
LINE
  8
        _00
  6
CONTINUOUS
 62
6
 10
557.4383
 20
188.5000
 11
550.1022
 21
190.0593
  0
LINE
  8
        _00
  6
CONTINUOUS
 62
6
 10
557.4383
 20
188.5000
 11
550.1022
 21
186.9407
  0
LINE
  8
        _00
  6
CONTINUOUS
 62
6
 10
597.9383
 20
321.7827
 11
676.0000
 21
321.7827
  0
LINE
  8
        _00
  6
CONTINUOUS
 62
6
 10
597.9383
 20
278.7827
 11
676.0000
 21
278.7827
  0
LINE
  8
        _00
  6
CONTINUOUS
 62
6
 10
670.0000
 20
321.7827
 11
670.0000
 21
278.7827
  0
LINE
  8
        _00
  6
CONTINUOUS
 62
6
 10
670.0000
 20
321.7827
 11
668.4407
 21
314.4466
  0
LINE
  8
        _00
  6
CONTINUOUS
 62
6
 10
670.0000
 20
321.7827
 11
671.5594
 21
314.4466
  0
LINE
  8
        _00
  6
CONTINUOUS
 62
6
 10
670.0000
 20
278.7827
 11
671.5594
 21
286.1188
  0
LINE
  8
        _00
  6
CONTINUOUS
 62
6
 10
670.0000
 20
278.7827
 11
668.4407
 21
286.1188
  0
LINE
  8
        _00
  6
CONTINUOUS
 62
6
 10
1024.4084
 20
318.2827
 11
1116.0000
 21
318.2827
  0
LINE
  8
        _00
  6
CONTINUOUS
 62
6
 10
1024.4084
 20
282.2827
 11
1116.0000
 21
282.2827
  0
LINE
  8
        _00
  6
CONTINUOUS
 62
6
 10
1110.0000
 20
318.2827
 11
1110.0000
 21
282.2827
  0
LINE
  8
        _00
  6
CONTINUOUS
 62
6
 10
1110.0000
 20
318.2827
 11
1108.4407
 21
310.9466
  0
LINE
  8
        _00
  6
CONTINUOUS
 62
6
 10
1110.0000
 20
318.2827
 11
1111.5593
 21
310.9466
  0
LINE
  8
        _00
  6
CONTINUOUS
 62
6
 10
1110.0000
 20
282.2827
 11
1111.5593
 21
289.6188
  0
LINE
  8
        _00
  6
CONTINUOUS
 62
6
 10
1110.0000
 20
282.2827
 11
1108.4407
 21
289.6188
  0
LINE
  8
        _00
  6
CONTINUOUS
 62
6
 10
979.8092
 20
341.4307
 11
979.8092
 21
434.5000
  0
LINE
  8
        _00
  6
CONTINUOUS
 62
6
 10
1000.8092
 20
341.4307
 11
1000.8092
 21
434.5000
  0
LINE
  8
        _00
  6
CONTINUOUS
 62
6
 10
979.8092
 20
428.5000
 11
1000.8092
 21
428.5000
  0
LINE
  8
        _00
  6
CONTINUOUS
 62
6
 10
1030.2092
 20
428.5000
 11
1000.8092
 21
428.5000
  0
LINE
  8
        _00
  6
CONTINUOUS
 62
6
 10
1000.8092
 20
428.5000
 11
1008.1453
 21
426.9407
  0
LINE
  8
        _00
  6
CONTINUOUS
 62
6
 10
1000.8092
 20
428.5000
 11
1008.1453
 21
430.0593
  0
LINE
  8
        _00
  6
CONTINUOUS
 62
6
 10
961.8093
 20
428.5000
 11
979.8092
 21
428.5000
  0
LINE
  8
        _00
  6
CONTINUOUS
 62
6
 10
979.8092
 20
428.5000
 11
972.4731
 21
430.0593
  0
LINE
  8
        _00
  6
CONTINUOUS
 62
6
 10
979.8092
 20
428.5000
 11
972.4731
 21
426.9407
  0
LINE
  8
13_0D
  6
CONTINUOUS
 62
6
 10
486.9209
 20
652.5514
 11
486.9209
 21
711.2958
  0
LINE
  8
13_0D
  6
CONTINUOUS
 62
6
 10
486.9209
 20
706.7958
 11
544.9209
 21
706.7958
  0
LINE
  8
13_0D
  6
CONTINUOUS
 62
6
 10
486.9209
 20
706.7958
 11
494.2570
 21
705.2364
  0
LINE
  8
13_0D
  6
CONTINUOUS
 62
6
 10
486.9209
 20
706.7958
 11
494.2570
 21
708.3551
  0
LINE
  8
13_0D
  6
CONTINUOUS
 62
6
 10
544.9209
 20
706.7958
 11
537.5848
 21
708.3551
  0
LINE
  8
13_0D
  6
CONTINUOUS
 62
6
 10
544.9209
 20
706.7958
 11
537.5848
 21
705.2364
  0
LINE
  8
13_0D
  6
CONTINUOUS
 62
6
 10
544.9209
 20
651.1102
 11
544.9209
 21
671.6683
  0
LINE
  8
13_0D
  6
CONTINUOUS
 62
6
 10
544.9209
 20
693.6474
 11
544.9209
 21
711.2958
  0
LINE
  8
        _00
  6
CONTINUOUS
 62
6
 10
195.2006
 20
666.3066
 11
195.2006
 21
714.5000
  0
LINE
  8
        _00
  6
CONTINUOUS
 62
6
 10
195.2006
 20
708.5000
 11
255.2000
 21
708.5000
  0
LINE
  8
        _00
  6
CONTINUOUS
 62
6
 10
195.2006
 20
708.5000
 11
202.5367
 21
706.9406
  0
LINE
  8
        _00
  6
CONTINUOUS
 62
6
 10
195.2006
 20
708.5000
 11
202.5367
 21
710.0593
  0
LINE
  8
        _00
  6
CONTINUOUS
 62
6
 10
255.2000
 20
708.5000
 11
247.8639
 21
710.0593
  0
LINE
  8
        _00
  6
CONTINUOUS
 62
6
 10
255.2000
 20
708.5000
 11
247.8639
 21
706.9406
  0
LINE
  8
        _00
  6
CONTINUOUS
 62
6
 10
255.2000
 20
666.3066
 11
255.2000
 21
676.5800
  0
LINE
  8
        _00
  6
CONTINUOUS
 62
6
 10
255.2000
 20
692.5944
 11
255.2000
 21
714.5000
  0
LINE
  8
15_0F
  6
CONTINUOUS
 62
6
 10
346.6492
 20
657.5237
 11
346.6492
 21
714.5000
  0
LINE
  8
15_0F
  6
CONTINUOUS
 62
6
 10
346.6492
 20
708.5000
 11
426.6492
 21
708.5000
  0
LINE
  8
15_0F
  6
CONTINUOUS
 62
6
 10
346.6492
 20
708.5000
 11
353.9854
 21
706.9406
  0
LINE
  8
15_0F
  6
CONTINUOUS
 62
6
 10
346.6492
 20
708.5000
 11
353.9854
 21
710.0593
  0
LINE
  8
15_0F
  6
CONTINUOUS
 62
6
 10
426.6492
 20
708.5000
 11
419.3131
 21
710.0593
  0
LINE
  8
15_0F
  6
CONTINUOUS
 62
6
 10
426.6492
 20
708.5000
 11
419.3131
 21
706.9406
  0
LINE
  8
15_0F
  6
CONTINUOUS
 62
6
 10
426.6492
 20
657.5237
 11
426.6492
 21
672.8125
  0
LINE
  8
15_0F
  6
CONTINUOUS
 62
6
 10
426.6492
 20
693.8817
 11
426.6492
 21
714.5000
  0
ARC
  8
        _00
  6
CONTINUOUS
 62
2
 10
250.2000
 20
471.2066
 40
7.7000
 50
39.9831
 51
140.0169
  0
ARC
  8
        _00
  6
CONTINUOUS
 62
2
 10
200.2000
 20
471.2066
 40
7.7000
 50
39.9831
 51
140.0169
  0
ARC
  8
        _00
  6
CONTINUOUS
 62
4
 10
1021.8092
 20
325.2827
 40
11.0000
 50
19.1064
 51
90.0000
  0
ARC
  8
        _00
  6
CONTINUOUS
 62
4
 10
1021.8092
 20
275.2827
 40
11.0000
 50
270.0000
 51
340.8936
  0
ARC
  8
        _00
  6
CONTINUOUS
 62
4
 10
958.8092
 20
325.2827
 40
11.0000
 50
90.0000
 51
160.8936
  0
ARC
  8
        _00
  6
CONTINUOUS
 62
4
 10
958.8092
 20
275.2827
 40
11.0000
 50
199.1064
 51
270.0000
  0
ARC
  8
3_03
  6
CONTINUOUS
 62
4
 10
1157.8576
 20
681.5785
 40
30.3450
 50
82.9593
 51
90.1802
  0
ARC
  8
3_03
  6
CONTINUOUS
 62
4
 10
1161.4577
 20
710.7270
 40
0.9750
 50
0.0000
 51
82.9593
  0
ARC
  8
3_03
  6
CONTINUOUS
 62
4
 10
1153.2827
 20
711.8484
 40
0.0750
 50
90.0000
 51
180.0000
  0
ARC
  8
3_03
  6
CONTINUOUS
 62
4
 10
1153.2827
 20
704.7985
 40
0.0750
 50
180.0000
 51
270.0000
  0
ARC
  8
3_03
  6
CONTINUOUS
 62
4
 10
1162.3576
 20
704.7985
 40
0.0750
 50
270.0000
 51
360.0000
  0
ARC
  8
3_03
  6
CONTINUOUS
 62
4
 10
617.8576
 20
681.5785
 40
30.3450
 50
89.8197
 51
97.0407
  0
ARC
  8
3_03
  6
CONTINUOUS
 62
4
 10
614.2576
 20
710.7270
 40
0.9750
 50
97.0407
 51
180.0000
  0
ARC
  8
3_03
  6
CONTINUOUS
 62
4
 10
622.4326
 20
711.8484
 40
0.0750
 50
0.0000
 51
90.0000
  0
ARC
  8
3_03
  6
CONTINUOUS
 62
4
 10
622.4326
 20
704.7985
 40
0.0750
 50
270.0000
 51
360.0000
  0
ARC
  8
3_03
  6
CONTINUOUS
 62
4
 10
613.3577
 20
704.7985
 40
0.0750
 50
180.0000
 51
270.0000
  0
CIRCLE
  8
        _00
  6
CONTINUOUS
 62
4
 10
655.3577
 20
685.9435
 40
0.6375
  0
ARC
  8
        _00
  6
CONTINUOUS
 62
4
 10
661.5076
 20
682.3435
 40
0.6000
 50
0.0000
 51
90.0000
  0
ARC
  8
        _00
  6
CONTINUOUS
 62
4
 10
649.2077
 20
682.3435
 40
0.6000
 50
90.0000
 51
180.0000
  0
CIRCLE
  8
        _00
  6
CONTINUOUS
 62
4
 10
655.3577
 20
685.9435
 40
0.6375
  0
ARC
  8
        _00
  6
CONTINUOUS
 62
4
 10
658.8512
 20
683.3935
 40
0.4500
 50
184.1597
 51
270.0000
  0
ARC
  8
        _00
  6
CONTINUOUS
 62
4
 10
657.9234
 20
686.8435
 40
0.2250
 50
4.1596
 51
90.0000
  0
ARC
  8
        _00
  6
CONTINUOUS
 62
4
 10
651.8642
 20
683.3935
 40
0.4500
 50
270.0000
 51
355.8404
  0
ARC
  8
        _00
  6
CONTINUOUS
 62
4
 10
652.7919
 20
686.8435
 40
0.2250
 50
90.0000
 51
175.8403
  0
ARC
  8
        _00
  6
CONTINUOUS
 62
2
 10
650.4827
 20
682.5535
 40
1.1550
 50
39.9831
 51
140.0169
  0
ARC
  8
        _00
  6
CONTINUOUS
 62
2
 10
660.2327
 20
682.5535
 40
1.1550
 50
39.9831
 51
140.0169
  0
CIRCLE
  8
        _00
  6
CONTINUOUS
 62
4
 10
810.3576
 20
685.9435
 40
0.6375
  0
ARC
  8
        _00
  6
CONTINUOUS
 62
4
 10
816.5076
 20
682.3435
 40
0.6000
 50
0.0000
 51
90.0000
  0
ARC
  8
        _00
  6
CONTINUOUS
 62
4
 10
804.2076
 20
682.3435
 40
0.6000
 50
90.0000
 51
180.0000
  0
CIRCLE
  8
        _00
  6
CONTINUOUS
 62
4
 10
810.3576
 20
685.9435
 40
0.6375
  0
ARC
  8
        _00
  6
CONTINUOUS
 62
4
 10
813.8511
 20
683.3935
 40
0.4500
 50
184.1597
 51
270.0000
  0
ARC
  8
        _00
  6
CONTINUOUS
 62
4
 10
812.9234
 20
686.8435
 40
0.2250
 50
4.1596
 51
90.0000
  0
ARC
  8
        _00
  6
CONTINUOUS
 62
4
 10
806.8642
 20
683.3935
 40
0.4500
 50
270.0000
 51
355.8404
  0
ARC
  8
        _00
  6
CONTINUOUS
 62
4
 10
807.7919
 20
686.8435
 40
0.2250
 50
90.0000
 51
175.8403
  0
ARC
  8
        _00
  6
CONTINUOUS
 62
2
 10
805.4827
 20
682.5535
 40
1.1550
 50
39.9831
 51
140.0169
  0
ARC
  8
        _00
  6
CONTINUOUS
 62
2
 10
815.2327
 20
682.5535
 40
1.1550
 50
39.9831
 51
140.0169
  0
CIRCLE
  8
        _00
  6
CONTINUOUS
 62
4
 10
965.3577
 20
685.9435
 40
0.6375
  0
ARC
  8
        _00
  6
CONTINUOUS
 62
4
 10
971.5077
 20
682.3435
 40
0.6000
 50
0.0000
 51
90.0000
  0
ARC
  8
        _00
  6
CONTINUOUS
 62
4
 10
959.2076
 20
682.3435
 40
0.6000
 50
90.0000
 51
180.0000
  0
CIRCLE
  8
        _00
  6
CONTINUOUS
 62
4
 10
965.3577
 20
685.9435
 40
0.6375
  0
ARC
  8
        _00
  6
CONTINUOUS
 62
4
 10
968.8510
 20
683.3935
 40
0.4500
 50
184.1597
 51
270.0000
  0
ARC
  8
        _00
  6
CONTINUOUS
 62
4
 10
967.9234
 20
686.8435
 40
0.2250
 50
4.1596
 51
90.0000
  0
ARC
  8
        _00
  6
CONTINUOUS
 62
4
 10
961.8642
 20
683.3935
 40
0.4500
 50
270.0000
 51
355.8404
  0
ARC
  8
        _00
  6
CONTINUOUS
 62
4
 10
962.7919
 20
686.8435
 40
0.2250
 50
90.0000
 51
175.8403
  0
ARC
  8
        _00
  6
CONTINUOUS
 62
2
 10
960.4827
 20
682.5535
 40
1.1550
 50
39.9831
 51
140.0169
  0
ARC
  8
        _00
  6
CONTINUOUS
 62
2
 10
970.2327
 20
682.5535
 40
1.1550
 50
39.9831
 51
140.0169
  0
CIRCLE
  8
        _00
  6
CONTINUOUS
 62
4
 10
1120.3576
 20
685.9435
 40
0.6375
  0
ARC
  8
        _00
  6
CONTINUOUS
 62
4
 10
1126.5077
 20
682.3435
 40
0.6000
 50
0.0000
 51
90.0000
  0
ARC
  8
        _00
  6
CONTINUOUS
 62
4
 10
1114.2077
 20
682.3435
 40
0.6000
 50
90.0000
 51
180.0000
  0
CIRCLE
  8
        _00
  6
CONTINUOUS
 62
4
 10
1120.3576
 20
685.9435
 40
0.6375
  0
ARC
  8
        _00
  6
CONTINUOUS
 62
4
 10
1123.8511
 20
683.3935
 40
0.4500
 50
184.1597
 51
270.0000
  0
ARC
  8
        _00
  6
CONTINUOUS
 62
4
 10
1122.9233
 20
686.8435
 40
0.2250
 50
4.1596
 51
90.0000
  0
ARC
  8
        _00
  6
CONTINUOUS
 62
4
 10
1116.8643
 20
683.3935
 40
0.4500
 50
270.0000
 51
355.8404
  0
ARC
  8
        _00
  6
CONTINUOUS
 62
4
 10
1117.7919
 20
686.8435
 40
0.2250
 50
90.0000
 51
175.8403
  0
ARC
  8
        _00
  6
CONTINUOUS
 62
2
 10
1115.4826
 20
682.5535
 40
1.1550
 50
39.9831
 51
140.0169
  0
ARC
  8
        _00
  6
CONTINUOUS
 62
2
 10
1125.2326
 20
682.5535
 40
1.1550
 50
39.9831
 51
140.0169
  0
CIRCLE
  8
3_03
  6
CONTINUOUS
 62
2
 10
655.3577
 20
685.9435
 40
0.6000
  0
ARC
  8
3_03
  6
CONTINUOUS
 62
2
 10
655.3577
 20
685.9435
 40
0.3000
 50
36.1800
 51
53.8200
  0
ARC
  8
3_03
  6
CONTINUOUS
 62
2
 10
655.3577
 20
685.9435
 40
0.3000
 50
126.2068
 51
143.6799
  0
ARC
  8
3_03
  6
CONTINUOUS
 62
2
 10
655.3577
 20
685.9435
 40
0.3000
 50
216.1800
 51
233.7058
  0
ARC
  8
3_03
  6
CONTINUOUS
 62
2
 10
655.3577
 20
685.9435
 40
0.3000
 50
306.2068
 51
323.7932
  0
ARC
  8
        _00
  6
CONTINUOUS
 62
4
 10
257.2000
 20
469.8066
 40
4.0000
 50
0.0000
 51
90.0000
  0
ARC
  8
        _00
  6
CONTINUOUS
 62
4
 10
193.2000
 20
469.8066
 40
4.0000
 50
90.0000
 51
180.0000
  0
ARC
  8
        _00
  6
CONTINUOUS
 62
4
 10
251.7350
 20
500.8065
 40
0.5000
 50
4.1596
 51
90.0000
  0
ARC
  8
        _00
  6
CONTINUOUS
 62
4
 10
198.6649
 20
500.8065
 40
0.5000
 50
90.0000
 51
175.8403
  0
ARC
  8
        _00
  6
CONTINUOUS
 62
2
 10
621.6077
 20
682.5535
 40
1.1550
 50
39.9831
 51
140.0169
  0
ARC
  8
        _00
  6
CONTINUOUS
 62
2
 10
614.1077
 20
682.5535
 40
1.1550
 50
39.9831
 51
140.0169
  0
ARC
  8
        _00
  6
CONTINUOUS
 62
4
 10
622.6577
 20
682.3435
 40
0.6000
 50
0.0000
 51
90.0000
  0
ARC
  8
        _00
  6
CONTINUOUS
 62
4
 10
613.0576
 20
682.3435
 40
0.6000
 50
90.0000
 51
180.0000
  0
ARC
  8
        _00
  6
CONTINUOUS
 62
4
 10
621.8379
 20
686.9935
 40
0.0750
 50
4.1596
 51
90.0000
  0
ARC
  8
        _00
  6
CONTINUOUS
 62
4
 10
613.8774
 20
686.9935
 40
0.0750
 50
90.0000
 51
175.8403
  0
ARC
  8
12_0C
  6
CONTINUOUS
 62
2
 10
614.3117
 20
685.9435
 40
0.7741
 50
135.3350
 51
215.5172
  0
ARC
  8
12_0C
  6
CONTINUOUS
 62
2
 10
621.4036
 20
685.9435
 40
0.7741
 50
324.4828
 51
404.6650
  0
ARC
  8
        _00
  6
CONTINUOUS
 62
2
 10
1154.1076
 20
682.5535
 40
1.1550
 50
39.9831
 51
140.0169
  0
ARC
  8
        _00
  6
CONTINUOUS
 62
2
 10
1161.6077
 20
682.5535
 40
1.1550
 50
39.9831
 51
140.0169
  0
ARC
  8
        _00
  6
CONTINUOUS
 62
4
 10
1153.0576
 20
682.3435
 40
0.6000
 50
90.0000
 51
180.0000
  0
ARC
  8
        _00
  6
CONTINUOUS
 62
4
 10
1162.6577
 20
682.3435
 40
0.6000
 50
0.0000
 51
90.0000
  0
ARC
  8
        _00
  6
CONTINUOUS
 62
4
 10
1153.8774
 20
686.9935
 40
0.0750
 50
90.0000
 51
175.8403
  0
ARC
  8
        _00
  6
CONTINUOUS
 62
4
 10
1161.8379
 20
686.9935
 40
0.0750
 50
4.1596
 51
90.0000
  0
ARC
  8
12_0C
  6
CONTINUOUS
 62
2
 10
1161.4036
 20
685.9435
 40
0.7741
 50
324.4828
 51
404.6650
  0
ARC
  8
12_0C
  6
CONTINUOUS
 62
2
 10
1154.3117
 20
685.9435
 40
0.7741
 50
135.3350
 51
215.5172
  0
ARC
  8
        _00
  6
CONTINUOUS
 62
4
 10
400.6615
 20
632.4505
 40
0.4000
 50
194.0363
 51
270.0000
  0
ARC
  8
        _00
  6
CONTINUOUS
 62
4
 10
399.7125
 20
633.3604
 40
0.3000
 50
14.0362
 51
87.5372
  0
ARC
  8
        _00
  6
CONTINUOUS
 62
4
 10
372.6370
 20
632.4505
 40
0.4000
 50
270.0000
 51
345.9637
  0
ARC
  8
        _00
  6
CONTINUOUS
 62
4
 10
373.5859
 20
633.3604
 40
0.3000
 50
92.4628
 51
165.9637
  0
ARC
  8
        _00
  6
CONTINUOUS
 62
4
 10
225.2000
 20
464.7066
 40
201.6000
 50
82.9519
 51
97.0438
  0
ARC
  8
14_0E
  6
CONTINUOUS
 62
4
 10
225.2000
 20
464.7066
 40
200.0000
 50
82.8932
 51
97.1068
  0
ARC
  8
14_0E
  6
CONTINUOUS
 62
4
 10
201.0006
 20
658.8039
 40
4.4000
 50
95.6288
 51
180.0001
  0
ARC
  8
        _00
  6
CONTINUOUS
 62
4
 10
249.2000
 20
658.8286
 40
6.0000
 50
359.9999
 51
444.4228
  0
ARC
  8
        _00
  6
CONTINUOUS
 62
4
 10
254.4999
 20
620.1304
 40
0.7000
 50
179.9999
 51
359.9999
  0
ARC
  8
        _00
  6
CONTINUOUS
 62
4
 10
201.2006
 20
658.8235
 40
6.0000
 50
95.5699
 51
180.0001
  0
ARC
  8
14_0E
  6
CONTINUOUS
 62
4
 10
249.4000
 20
658.8090
 40
4.4000
 50
359.9999
 51
444.3712
  0
ARC
  8
        _00
  6
CONTINUOUS
 62
4
 10
195.9001
 20
620.1304
 40
0.7000
 50
180.0001
 51
360.0001
  0
ARC
  8
        _00
  6
CONTINUOUS
 62
4
 10
250.5278
 20
622.9065
 40
0.6000
 50
270.0000
 51
388.8667
  0
ARC
  8
        _00
  6
CONTINUOUS
 62
4
 10
239.2123
 20
622.7065
 40
0.4000
 50
194.0363
 51
270.0000
  0
ARC
  8
        _00
  6
CONTINUOUS
 62
4
 10
238.2633
 20
623.6164
 40
0.3000
 50
14.0362
 51
87.5372
  0
ARC
  8
        _00
  6
CONTINUOUS
 62
4
 10
211.1877
 20
622.7065
 40
0.4000
 50
270.0000
 51
345.9637
  0
ARC
  8
        _00
  6
CONTINUOUS
 62
4
 10
212.1367
 20
623.6164
 40
0.3000
 50
92.4628
 51
165.9637
  0
ARC
  8
        _00
  6
CONTINUOUS
 62
4
 10
253.4500
 20
625.5583
 40
0.3000
 50
275.0000
 51
371.6000
  0
ARC
  8
        _00
  6
CONTINUOUS
 62
4
 10
252.6500
 20
624.8358
 40
0.3500
 50
95.0000
 51
185.0988
  0
ARC
  8
        _00
  6
CONTINUOUS
 62
4
 10
251.6000
 20
625.1957
 40
1.0000
 50
95.0000
 51
180.0000
  0
ARC
  8
        _00
  6
CONTINUOUS
 62
4
 10
252.3248
 20
626.5641
 40
0.3000
 50
275.0000
 51
371.6000
  0
ARC
  8
        _00
  6
CONTINUOUS
 62
4
 10
252.5979
 20
630.2065
 40
0.7000
 50
90.0000
 51
191.6000
  0
ARC
  8
        _00
  6
CONTINUOUS
 62
4
 10
254.2935
 20
624.9825
 40
2.0000
 50
185.0988
 51
249.7122
  0
ARC
  8
        _00
  6
CONTINUOUS
 62
4
 10
254.2935
 20
624.9825
 40
3.7000
 50
183.4043
 51
208.8667
  0
ARC
  8
        _00
  6
CONTINUOUS
 62
4
 10
199.8722
 20
622.9065
 40
0.6000
 50
151.1333
 51
270.0000
  0
ARC
  8
        _00
  6
CONTINUOUS
 62
4
 10
196.9500
 20
625.5583
 40
0.3000
 50
168.4000
 51
265.0000
  0
ARC
  8
        _00
  6
CONTINUOUS
 62
4
 10
197.7500
 20
624.8358
 40
0.3500
 50
354.9012
 51
445.0000
  0
ARC
  8
        _00
  6
CONTINUOUS
 62
4
 10
198.8000
 20
625.1957
 40
1.0000
 50
0.0000
 51
85.0000
  0
ARC
  8
        _00
  6
CONTINUOUS
 62
4
 10
198.0752
 20
626.5641
 40
0.3000
 50
168.4000
 51
265.0000
  0
ARC
  8
        _00
  6
CONTINUOUS
 62
4
 10
197.8021
 20
630.2065
 40
0.7000
 50
348.4000
 51
450.0000
  0
ARC
  8
        _00
  6
CONTINUOUS
 62
4
 10
196.1065
 20
624.9825
 40
2.0000
 50
290.2878
 51
354.9012
  0
ARC
  8
        _00
  6
CONTINUOUS
 62
4
 10
196.1065
 20
624.9825
 40
3.7000
 50
331.1333
 51
356.5957
  0
ARC
  8
        _00
  6
CONTINUOUS
 62
4
 10
253.3999
 20
630.6304
 40
0.4000
 50
0.0000
 51
90.0000
  0
ARC
  8
        _00
  6
CONTINUOUS
 62
4
 10
253.3999
 20
632.4304
 40
0.4000
 50
270.0000
 51
359.9999
  0
ARC
  8
        _00
  6
CONTINUOUS
 62
4
 10
250.7999
 20
631.5303
 40
0.5000
 50
90.0000
 51
180.0000
  0
ARC
  8
        _00
  6
CONTINUOUS
 62
4
 10
250.4999
 20
630.4304
 40
0.2000
 50
180.0000
 51
270.0000
  0
ARC
  8
        _00
  6
CONTINUOUS
 62
4
 10
250.4999
 20
630.8303
 40
0.6000
 50
270.0000
 51
360.0000
  0
ARC
  8
        _00
  6
CONTINUOUS
 62
4
 10
252.7499
 20
624.7872
 40
0.3500
 50
95.0000
 51
190.8317
  0
ARC
  8
14_0E
  6
CONTINUOUS
 62
4
 10
254.3705
 20
625.0973
 40
2.0000
 50
190.8317
 51
253.4226
  0
ARC
  8
        _00
  6
CONTINUOUS
 62
4
 10
253.3999
 20
625.5969
 40
0.4000
 50
275.0000
 51
371.4000
  0
ARC
  8
        _00
  6
CONTINUOUS
 62
4
 10
253.5213
 20
628.0304
 40
0.2000
 50
90.0000
 51
191.4000
  0
ARC
  8
        _00
  6
CONTINUOUS
 62
4
 10
197.0001
 20
630.6304
 40
0.4000
 50
90.0000
 51
180.0000
  0
ARC
  8
        _00
  6
CONTINUOUS
 62
4
 10
197.0001
 20
632.4304
 40
0.4000
 50
183.0566
 51
270.0000
  0
ARC
  8
        _00
  6
CONTINUOUS
 62
4
 10
199.6001
 20
631.5303
 40
0.5000
 50
0.0000
 51
90.0000
  0
ARC
  8
        _00
  6
CONTINUOUS
 62
4
 10
199.9001
 20
630.4304
 40
0.2000
 50
270.0000
 51
360.0000
  0
ARC
  8
        _00
  6
CONTINUOUS
 62
4
 10
199.9001
 20
630.8303
 40
0.6000
 50
180.0000
 51
270.0000
  0
ARC
  8
        _00
  6
CONTINUOUS
 62
4
 10
197.6501
 20
624.7872
 40
0.3500
 50
349.1683
 51
445.0000
  0
ARC
  8
14_0E
  6
CONTINUOUS
 62
4
 10
196.0294
 20
625.0973
 40
2.0000
 50
286.5774
 51
349.1683
  0
ARC
  8
        _00
  6
CONTINUOUS
 62
4
 10
197.0001
 20
625.5969
 40
0.4000
 50
168.6000
 51
265.0000
  0
ARC
  8
        _00
  6
CONTINUOUS
 62
4
 10
196.8787
 20
628.0304
 40
0.2000
 50
348.6000
 51
450.0000
  0
ARC
  8
12_0C
  6
CONTINUOUS
 62
2
 10
209.4000
 20
623.4765
 40
1.3000
 50
0.0000
 51
73.3778
  0
ARC
  8
12_0C
  6
CONTINUOUS
 62
2
 10
207.2000
 20
616.1066
 40
9.0000
 50
73.3790
 51
106.6667
  0
ARC
  8
12_0C
  6
CONTINUOUS
 62
2
 10
205.0000
 20
623.4765
 40
1.3000
 50
106.6222
 51
180.0000
  0
ARC
  8
12_0C
  6
CONTINUOUS
 62
2
 10
245.4000
 20
623.4765
 40
1.3000
 50
0.0000
 51
73.3778
  0
ARC
  8
12_0C
  6
CONTINUOUS
 62
2
 10
243.2000
 20
616.1066
 40
9.0000
 50
73.3790
 51
106.6667
  0
ARC
  8
12_0C
  6
CONTINUOUS
 62
2
 10
241.0000
 20
623.4765
 40
1.3000
 50
106.6222
 51
180.0000
  0
ARC
  8
12_0C
  6
CONTINUOUS
 62
2
 10
406.8492
 20
633.2206
 40
1.3000
 50
0.0000
 51
73.3778
  0
ARC
  8
12_0C
  6
CONTINUOUS
 62
2
 10
404.6492
 20
625.8505
 40
9.0000
 50
73.3790
 51
106.6667
  0
ARC
  8
12_0C
  6
CONTINUOUS
 62
2
 10
402.4492
 20
633.2206
 40
1.3000
 50
106.6222
 51
180.0000
  0
ARC
  8
12_0C
  6
CONTINUOUS
 62
2
 10
370.8493
 20
633.2206
 40
1.3000
 50
0.0000
 51
73.3778
  0
ARC
  8
12_0C
  6
CONTINUOUS
 62
2
 10
368.6492
 20
625.8505
 40
9.0000
 50
73.3790
 51
106.6667
  0
ARC
  8
12_0C
  6
CONTINUOUS
 62
2
 10
366.4492
 20
633.2206
 40
1.3000
 50
106.6222
 51
180.0000
  0
ARC
  8
        _00
  6
CONTINUOUS
 62
4
 10
602.9383
 20
325.2827
 40
11.0000
 50
0.0000
 51
90.0000
  0
ARC
  8
        _00
  6
CONTINUOUS
 62
4
 10
602.9383
 20
275.2827
 40
11.0000
 50
270.0000
 51
360.0000
  0
ARC
  8
        _00
  6
CONTINUOUS
 62
4
 10
581.9383
 20
313.4827
 40
1.0000
 50
0.0000
 51
90.0000
  0
ARC
  8
        _00
  6
CONTINUOUS
 62
4
 10
579.4383
 20
313.4827
 40
1.0000
 50
90.0000
 51
180.0000
  0
ARC
  8
        _00
  6
CONTINUOUS
 62
4
 10
582.4383
 20
313.4827
 40
0.5000
 50
0.0000
 51
90.0000
  0
ARC
  8
        _00
  6
CONTINUOUS
 62
4
 10
579.9383
 20
313.4827
 40
0.5000
 50
90.0000
 51
180.0000
  0
ARC
  8
        _00
  6
CONTINUOUS
 62
4
 10
581.9383
 20
287.0827
 40
1.0000
 50
270.0000
 51
360.0000
  0
ARC
  8
        _00
  6
CONTINUOUS
 62
4
 10
579.4383
 20
287.0827
 40
1.0000
 50
180.0000
 51
270.0000
  0
ARC
  8
        _00
  6
CONTINUOUS
 62
4
 10
582.4383
 20
287.0827
 40
0.5000
 50
270.0000
 51
360.0000
  0
ARC
  8
        _00
  6
CONTINUOUS
 62
4
 10
579.9383
 20
287.0827
 40
0.5000
 50
180.0000
 51
270.0000
  0
ARC
  8
        _00
  6
CONTINUOUS
 62
4
 10
560.9383
 20
313.4827
 40
1.0000
 50
90.0000
 51
180.0000
  0
ARC
  8
        _00
  6
CONTINUOUS
 62
4
 10
563.4383
 20
313.4827
 40
1.0000
 50
0.0000
 51
90.0000
  0
ARC
  8
        _00
  6
CONTINUOUS
 62
4
 10
560.4383
 20
313.4827
 40
0.5000
 50
90.0000
 51
180.0000
  0
ARC
  8
        _00
  6
CONTINUOUS
 62
4
 10
562.9383
 20
313.4827
 40
0.5000
 50
0.0000
 51
90.0000
  0
ARC
  8
        _00
  6
CONTINUOUS
 62
4
 10
560.9383
 20
287.0827
 40
1.0000
 50
180.0000
 51
270.0000
  0
ARC
  8
        _00
  6
CONTINUOUS
 62
4
 10
563.4383
 20
287.0827
 40
1.0000
 50
270.0000
 51
360.0000
  0
ARC
  8
        _00
  6
CONTINUOUS
 62
4
 10
560.4383
 20
287.0827
 40
0.5000
 50
180.0000
 51
270.0000
  0
ARC
  8
        _00
  6
CONTINUOUS
 62
4
 10
562.9383
 20
287.0827
 40
0.5000
 50
270.0000
 51
360.0000
  0
ARC
  8
        _00
  6
CONTINUOUS
 62
4
 10
539.9383
 20
325.2827
 40
11.0000
 50
90.0000
 51
180.0000
  0
ARC
  8
        _00
  6
CONTINUOUS
 62
4
 10
539.9383
 20
275.2827
 40
11.0000
 50
180.0000
 51
270.0000
  0
ARC
  8
        _00
  6
CONTINUOUS
 62
4
 10
583.9383
 20
320.2827
 40
2.0000
 50
0.0000
 51
90.0000
  0
ARC
  8
        _00
  6
CONTINUOUS
 62
4
 10
558.9383
 20
320.2827
 40
2.0000
 50
90.0000
 51
180.0000
  0
ARC
  8
        _00
  6
CONTINUOUS
 62
4
 10
583.9383
 20
320.2827
 40
7.0000
 50
0.0000
 51
90.0000
  0
ARC
  8
        _00
  6
CONTINUOUS
 62
4
 10
583.9383
 20
320.2827
 40
9.0000
 50
0.0000
 51
90.0000
  0
ARC
  8
        _00
  6
CONTINUOUS
 62
4
 10
558.9383
 20
320.2827
 40
7.0000
 50
90.0000
 51
180.0000
  0
ARC
  8
        _00
  6
CONTINUOUS
 62
4
 10
558.9383
 20
320.2827
 40
9.0000
 50
90.0000
 51
180.0000
  0
ARC
  8
        _00
  6
CONTINUOUS
 62
4
 10
583.9383
 20
280.2827
 40
2.0000
 50
270.0000
 51
360.0000
  0
ARC
  8
        _00
  6
CONTINUOUS
 62
4
 10
558.9383
 20
280.2827
 40
2.0000
 50
180.0000
 51
270.0000
  0
ARC
  8
        _00
  6
CONTINUOUS
 62
4
 10
583.9383
 20
280.2827
 40
7.0000
 50
270.0000
 51
360.0000
  0
ARC
  8
        _00
  6
CONTINUOUS
 62
4
 10
583.9383
 20
280.2827
 40
9.0000
 50
270.0000
 51
360.0000
  0
ARC
  8
        _00
  6
CONTINUOUS
 62
4
 10
558.9383
 20
280.2827
 40
7.0000
 50
180.0000
 51
270.0000
  0
ARC
  8
        _00
  6
CONTINUOUS
 62
4
 10
558.9383
 20
280.2827
 40
9.0000
 50
180.0000
 51
270.0000
  0
ARC
  8
        _00
  6
CONTINUOUS
 62
4
 10
575.6485
 20
327.8282
 40
0.0397
 50
277.3217
 51
442.6783
  0
ARC
  8
        _00
  6
CONTINUOUS
 62
4
 10
571.4383
 20
295.0600
 40
33.0772
 50
82.6783
 51
85.1328
  0
ARC
  8
        _00
  6
CONTINUOUS
 62
4
 10
571.4383
 20
295.0600
 40
33.0772
 50
94.8672
 51
97.3217
  0
ARC
  8
        _00
  6
CONTINUOUS
 62
4
 10
567.2280
 20
327.8282
 40
0.0397
 50
97.3217
 51
262.6783
  0
ARC
  8
        _00
  6
CONTINUOUS
 62
4
 10
571.4383
 20
360.5963
 40
33.0772
 50
262.6783
 51
277.3217
  0
ARC
  8
        _00
  6
CONTINUOUS
 62
4
 10
567.2280
 20
272.7372
 40
0.0397
 50
97.3217
 51
262.6783
  0
ARC
  8
        _00
  6
CONTINUOUS
 62
4
 10
571.4383
 20
305.5054
 40
33.0772
 50
262.6783
 51
265.1328
  0
ARC
  8
        _00
  6
CONTINUOUS
 62
4
 10
571.4383
 20
305.5054
 40
33.0772
 50
274.8672
 51
277.3217
  0
ARC
  8
        _00
  6
CONTINUOUS
 62
4
 10
575.6485
 20
272.7372
 40
0.0397
 50
277.3217
 51
442.6783
  0
ARC
  8
        _00
  6
CONTINUOUS
 62
4
 10
571.4383
 20
239.9691
 40
33.0772
 50
82.6783
 51
97.3217
  0
CIRCLE
  8
        _00
  6
CONTINUOUS
 62
2
 10
152.4366
 20
393.2432
 40
0.1000
  0
CIRCLE
  8
        _00
  6
CONTINUOUS
 62
2
 10
158.8764
 20
394.9323
 40
0.1000
  0
CIRCLE
  8
        _00
  6
CONTINUOUS
 62
2
 10
163.0992
 20
399.9998
 40
0.1000
  0
CIRCLE
  8
        _00
  6
CONTINUOUS
 62
2
 10
153.9146
 20
406.1228
 40
0.1000
  0
CIRCLE
  8
        _00
  6
CONTINUOUS
 62
2
 10
153.8090
 20
399.8942
 40
0.1000
  0
CIRCLE
  8
        _00
  6
CONTINUOUS
 62
2
 10
160.3544
 20
409.5011
 40
0.1000
  0
CIRCLE
  8
        _00
  6
CONTINUOUS
 62
2
 10
157.0817
 20
417.6301
 40
0.1000
  0
CIRCLE
  8
        _00
  6
CONTINUOUS
 62
2
 10
159.0875
 20
403.5892
 40
0.1000
  0
CIRCLE
  8
        _00
  6
CONTINUOUS
 62
2
 10
163.3104
 20
414.7797
 40
0.1000
  0
CIRCLE
  8
        _00
  6
CONTINUOUS
 62
2
 10
153.7034
 20
412.9850
 40
0.1000
  0
CIRCLE
  8
        _00
  6
CONTINUOUS
 62
2
 10
152.8589
 20
422.5919
 40
0.1000
  0
CIRCLE
  8
        _00
  6
CONTINUOUS
 62
2
 10
160.3544
 20
424.9146
 40
0.1000
  0
CIRCLE
  8
        _00
  6
CONTINUOUS
 62
2
 10
164.6828
 20
420.9028
 40
0.1000
  0
CIRCLE
  8
        _00
  6
CONTINUOUS
 62
2
 10
155.4981
 20
432.3045
 40
0.1000
  0
CIRCLE
  8
        _00
  6
CONTINUOUS
 62
2
 10
156.8706
 20
427.5538
 40
0.1000
  0
CIRCLE
  8
        _00
  6
CONTINUOUS
 62
2
 10
159.8265
 20
431.9878
 40
0.1000
  0
CIRCLE
  8
        _00
  6
CONTINUOUS
 62
2
 10
163.8382
 20
437.5830
 40
0.1000
  0
CIRCLE
  8
        _00
  6
CONTINUOUS
 62
2
 10
157.3984
 20
441.1724
 40
0.1000
  0
CIRCLE
  8
        _00
  6
CONTINUOUS
 62
2
 10
152.9644
 20
445.6064
 40
0.1000
  0
CIRCLE
  8
        _00
  6
CONTINUOUS
 62
2
 10
152.7533
 20
436.5273
 40
0.1000
  0
CIRCLE
  8
        _00
  6
CONTINUOUS
 62
2
 10
164.3661
 20
429.6652
 40
0.1000
  0
CIRCLE
  8
        _00
  6
CONTINUOUS
 62
2
 10
163.4160
 20
442.1226
 40
0.1000
  0
CIRCLE
  8
        _00
  6
CONTINUOUS
 62
2
 10
158.9820
 20
450.4627
 40
0.1000
  0
CIRCLE
  8
        _00
  6
CONTINUOUS
 62
2
 10
160.7767
 20
457.6415
 40
0.1000
  0
CIRCLE
  8
        _00
  6
CONTINUOUS
 62
2
 10
163.6271
 20
450.3571
 40
0.1000
  0
CIRCLE
  8
        _00
  6
CONTINUOUS
 62
2
 10
154.0201
 20
456.3747
 40
0.1000
  0
CIRCLE
  8
        _00
  6
CONTINUOUS
 62
2
 10
153.9146
 20
451.7296
 40
0.1000
  0
CIRCLE
  8
        _00
  6
CONTINUOUS
 62
2
 10
164.6828
 20
463.2368
 40
0.1000
  0
CIRCLE
  8
        _00
  6
CONTINUOUS
 62
2
 10
169.9614
 20
458.0638
 40
0.1000
  0
CIRCLE
  8
        _00
  6
CONTINUOUS
 62
2
 10
175.5566
 20
462.2867
 40
0.1000
  0
CIRCLE
  8
        _00
  6
CONTINUOUS
 62
2
 10
177.9848
 20
458.5917
 40
0.1000
  0
CIRCLE
  8
        _00
  6
CONTINUOUS
 62
2
 10
173.9730
 20
457.6415
 40
0.1000
  0
CIRCLE
  8
        _00
  6
CONTINUOUS
 62
2
 10
172.4951
 20
462.0755
 40
0.1000
  0
CIRCLE
  8
        _00
  6
CONTINUOUS
 62
2
 10
167.1109
 20
458.3805
 40
0.1000
  0
CIRCLE
  8
        _00
  6
CONTINUOUS
 62
2
 10
182.5243
 20
463.3424
 40
0.1000
  0
CIRCLE
  8
        _00
  6
CONTINUOUS
 62
2
 10
186.0081
 20
458.6972
 40
0.1000
  0
CIRCLE
  8
        _00
  6
CONTINUOUS
 62
2
 10
190.2310
 20
462.4978
 40
0.1000
  0
CIRCLE
  8
        _00
  6
CONTINUOUS
 62
2
 10
194.9817
 20
457.7471
 40
0.1000
  0
CIRCLE
  8
        _00
  6
CONTINUOUS
 62
2
 10
195.4040
 20
464.0814
 40
0.1000
  0
CIRCLE
  8
        _00
  6
CONTINUOUS
 62
2
 10
197.9377
 20
462.8145
 40
0.1000
  0
CIRCLE
  8
        _00
  6
CONTINUOUS
 62
2
 10
203.5329
 20
462.3923
 40
0.1000
  0
CIRCLE
  8
        _00
  6
CONTINUOUS
 62
2
 10
202.0550
 20
461.5477
 40
0.1000
  0
CIRCLE
  8
        _00
  6
CONTINUOUS
 62
2
 10
207.4391
 20
461.8644
 40
0.1000
  0
CIRCLE
  8
        _00
  6
CONTINUOUS
 62
2
 10
205.9611
 20
465.2426
 40
0.1000
  0
CIRCLE
  8
        _00
  6
CONTINUOUS
 62
2
 10
209.5505
 20
457.9583
 40
0.1000
  0
CIRCLE
  8
        _00
  6
CONTINUOUS
 62
2
 10
205.0109
 20
458.2749
 40
0.1000
  0
CIRCLE
  8
        _00
  6
CONTINUOUS
 62
2
 10
214.6179
 20
459.6474
 40
0.1000
  0
CIRCLE
  8
        _00
  6
CONTINUOUS
 62
2
 10
214.0900
 20
463.0257
 40
0.1000
  0
CIRCLE
  8
        _00
  6
CONTINUOUS
 62
2
 10
222.1135
 20
457.6415
 40
0.1000
  0
CIRCLE
  8
        _00
  6
CONTINUOUS
 62
2
 10
215.6736
 20
456.7970
 40
0.1000
  0
CIRCLE
  8
        _00
  6
CONTINUOUS
 62
2
 10
219.7909
 20
461.2310
 40
0.1000
  0
CIRCLE
  8
        _00
  6
CONTINUOUS
 62
2
 10
220.0020
 20
464.0814
 40
0.1000
  0
CIRCLE
  8
        _00
  6
CONTINUOUS
 62
2
 10
224.2249
 20
461.9699
 40
0.1000
  0
CIRCLE
  8
        _00
  6
CONTINUOUS
 62
2
 10
226.7586
 20
458.8028
 40
0.1000
  0
CIRCLE
  8
        _00
  6
CONTINUOUS
 62
2
 10
226.6530
 20
462.8145
 40
0.1000
  0
CIRCLE
  8
        _00
  6
CONTINUOUS
 62
2
 10
231.5773
 20
462.0256
 40
0.1000
  0
CIRCLE
  8
        _00
  6
CONTINUOUS
 62
2
 10
242.1308
 20
460.2027
 40
0.1000
  0
CIRCLE
  8
        _00
  6
CONTINUOUS
 62
2
 10
237.8135
 20
465.6714
 40
0.1000
  0
CIRCLE
  8
        _00
  6
CONTINUOUS
 62
2
 10
237.7175
 20
459.6270
 40
0.1000
  0
CIRCLE
  8
        _00
  6
CONTINUOUS
 62
2
 10
241.5552
 20
457.1326
 40
0.1000
  0
CIRCLE
  8
        _00
  6
CONTINUOUS
 62
2
 10
236.6622
 20
462.8891
 40
0.1000
  0
CIRCLE
  8
        _00
  6
CONTINUOUS
 62
2
 10
245.9685
 20
462.8891
 40
0.1000
  0
CIRCLE
  8
        _00
  6
CONTINUOUS
 62
2
 10
250.5750
 20
460.3066
 40
0.1000
  0
CIRCLE
  8
        _00
  6
CONTINUOUS
 62
2
 10
258.6328
 20
462.1215
 40
0.1000
  0
CIRCLE
  8
        _00
  6
CONTINUOUS
 62
2
 10
259.3044
 20
458.2839
 40
0.1000
  0
CIRCLE
  8
        _00
  6
CONTINUOUS
 62
2
 10
253.9316
 20
459.2433
 40
0.1000
  0
CIRCLE
  8
        _00
  6
CONTINUOUS
 62
2
 10
260.4557
 20
463.5607
 40
0.1000
  0
CIRCLE
  8
        _00
  6
CONTINUOUS
 62
2
 10
268.6107
 20
457.9960
 40
0.1000
  0
CIRCLE
  8
        _00
  6
CONTINUOUS
 62
2
 10
271.6808
 20
462.0256
 40
0.1000
  0
CIRCLE
  8
        _00
  6
CONTINUOUS
 62
2
 10
266.9797
 20
460.2986
 40
0.1000
  0
CIRCLE
  8
        _00
  6
CONTINUOUS
 62
2
 10
264.3893
 20
457.5163
 40
0.1000
  0
CIRCLE
  8
        _00
  6
CONTINUOUS
 62
2
 10
264.8689
 20
462.9850
 40
0.1000
  0
CIRCLE
  8
        _00
  6
CONTINUOUS
 62
2
 10
281.1790
 20
462.5053
 40
0.1000
  0
CIRCLE
  8
        _00
  6
CONTINUOUS
 62
2
 10
277.4373
 20
459.1474
 40
0.1000
  0
CIRCLE
  8
        _00
  6
CONTINUOUS
 62
2
 10
276.8616
 20
456.7488
 40
0.1000
  0
CIRCLE
  8
        _00
  6
CONTINUOUS
 62
2
 10
284.6329
 20
456.7488
 40
0.1000
  0
CIRCLE
  8
        _00
  6
CONTINUOUS
 62
2
 10
289.9097
 20
461.4500
 40
0.1000
  0
CIRCLE
  8
        _00
  6
CONTINUOUS
 62
2
 10
278.4927
 20
464.3282
 40
0.1000
  0
CIRCLE
  8
        _00
  6
CONTINUOUS
 62
2
 10
285.6883
 20
460.7784
 40
0.1000
  0
CIRCLE
  8
        _00
  6
CONTINUOUS
 62
2
 10
233.4002
 20
456.0772
 40
0.1000
  0
CIRCLE
  8
        _00
  6
CONTINUOUS
 62
2
 10
290.8691
 20
456.2691
 40
0.1000
  0
CIRCLE
  8
        _00
  6
CONTINUOUS
 62
2
 10
287.9908
 20
453.3909
 40
0.1000
  0
CIRCLE
  8
        _00
  6
CONTINUOUS
 62
2
 10
287.7990
 20
445.8115
 40
0.1000
  0
CIRCLE
  8
        _00
  6
CONTINUOUS
 62
2
 10
291.6366
 20
445.9074
 40
0.1000
  0
CIRCLE
  8
        _00
  6
CONTINUOUS
 62
2
 10
294.8027
 20
450.4167
 40
0.1000
  0
CIRCLE
  8
        _00
  6
CONTINUOUS
 62
2
 10
296.6256
 20
455.2137
 40
0.1000
  0
CIRCLE
  8
        _00
  6
CONTINUOUS
 62
2
 10
290.2934
 20
449.5532
 40
0.1000
  0
CIRCLE
  8
        _00
  6
CONTINUOUS
 62
2
 10
295.7621
 20
444.3723
 40
0.1000
  0
CIRCLE
  8
        _00
  6
CONTINUOUS
 62
2
 10
292.1163
 20
438.3280
 40
0.1000
  0
CIRCLE
  8
        _00
  6
CONTINUOUS
 62
2
 10
285.4005
 20
437.2727
 40
0.1000
  0
CIRCLE
  8
        _00
  6
CONTINUOUS
 62
2
 10
287.3193
 20
430.8446
 40
0.1000
  0
CIRCLE
  8
        _00
  6
CONTINUOUS
 62
2
 10
293.9393
 20
430.3649
 40
0.1000
  0
CIRCLE
  8
        _00
  6
CONTINUOUS
 62
2
 10
297.9688
 20
432.4756
 40
0.1000
  0
CIRCLE
  8
        _00
  6
CONTINUOUS
 62
2
 10
298.0647
 20
439.4793
 40
0.1000
  0
CIRCLE
  8
        _00
  6
CONTINUOUS
 62
2
 10
290.9650
 20
433.9147
 40
0.1000
  0
CIRCLE
  8
        _00
  6
CONTINUOUS
 62
2
 10
288.3746
 20
442.6454
 40
0.1000
  0
CIRCLE
  8
        _00
  6
CONTINUOUS
 62
2
 10
293.3636
 20
459.0514
 40
0.1000
  0
ARC
  8
        _00
  6
CONTINUOUS
 62
4
 10
489.7558
 20
644.8312
 40
0.3000
 50
142.2891
 51
270.0034
  0
ARC
  8
        _00
  6
CONTINUOUS
 62
4
 10
494.3157
 20
644.0315
 40
0.5000
 50
0.0034
 51
90.0034
  0
ARC
  8
        _00
  6
CONTINUOUS
 62
4
 10
488.5587
 20
628.6311
 40
0.3000
 50
187.5171
 51
348.4034
  0
ARC
  8
        _00
  6
CONTINUOUS
 62
4
 10
515.9161
 20
637.3065
 40
27.5000
 50
136.4727
 51
163.7221
  0
ARC
  8
        _00
  6
CONTINUOUS
 62
4
 10
496.1223
 20
656.1081
 40
0.2000
 50
45.0034
 51
136.4727
  0
ARC
  8
        _00
  6
CONTINUOUS
 62
4
 10
515.9161
 20
637.3065
 40
27.8000
 50
167.0600
 51
174.5814
  0
ARC
  8
        _00
  6
CONTINUOUS
 62
4
 10
515.9161
 20
637.3065
 40
27.8000
 50
177.6802
 51
182.0108
  0
ARC
  8
        _00
  6
CONTINUOUS
 62
4
 10
515.9161
 20
637.3065
 40
27.8000
 50
186.1442
 51
194.0955
  0
ARC
  8
        _00
  6
CONTINUOUS
 62
4
 10
486.0435
 20
629.8055
 40
3.0000
 50
348.4034
 51
374.0955
  0
ARC
  8
        _00
  6
CONTINUOUS
 62
4
 10
515.9161
 20
637.3065
 40
26.5000
 50
133.9223
 51
136.0845
  0
ARC
  8
        _00
  6
CONTINUOUS
 62
4
 10
497.1124
 20
657.0979
 40
0.2000
 50
133.5347
 51
225.0034
  0
ARC
  8
        _00
  6
CONTINUOUS
 62
4
 10
493.8157
 20
643.5237
 40
0.2000
 50
0.0034
 51
92.2013
  0
ARC
  8
        _00
  6
CONTINUOUS
 62
4
 10
494.4158
 20
642.7315
 40
0.4000
 50
180.0034
 51
360.0034
  0
ARC
  8
        _00
  6
CONTINUOUS
 62
4
 10
488.2446
 20
638.6318
 40
0.2000
 50
270.0034
 51
348.3034
  0
ARC
  8
        _00
  6
CONTINUOUS
 62
4
 10
488.4723
 20
639.7318
 40
0.2000
 50
348.3034
 51
450.0034
  0
ARC
  8
        _00
  6
CONTINUOUS
 62
4
 10
489.2260
 20
636.0347
 40
0.2000
 50
344.8643
 51
445.0034
  0
ARC
  8
13_0D
  6
CONTINUOUS
 62
4
 10
486.5231
 20
636.7659
 40
3.0000
 50
305.7479
 51
344.8643
  0
ARC
  8
        _00
  6
CONTINUOUS
 62
4
 10
515.9165
 20
637.3065
 40
27.5000
 50
46.4522
 51
133.5347
  0
ARC
  8
        _00
  6
CONTINUOUS
 62
4
 10
534.7251
 20
657.0936
 40
0.2000
 50
314.9966
 51
406.4522
  0
ARC
  8
        _00
  6
CONTINUOUS
 62
4
 10
515.9209
 20
637.3065
 40
29.0000
 50
342.4092
 51
557.4880
  0
ARC
  8
        _00
  6
CONTINUOUS
 62
4
 10
542.0860
 20
644.8312
 40
0.3000
 50
269.9966
 51
397.7109
  0
ARC
  8
        _00
  6
CONTINUOUS
 62
4
 10
537.5261
 20
644.0315
 40
0.5000
 50
89.9966
 51
179.9966
  0
ARC
  8
        _00
  6
CONTINUOUS
 62
4
 10
543.2831
 20
628.6311
 40
0.3000
 50
191.5966
 51
352.4829
  0
ARC
  8
        _00
  6
CONTINUOUS
 62
4
 10
515.9257
 20
637.3065
 40
27.5000
 50
16.2778
 51
43.5273
  0
ARC
  8
        _00
  6
CONTINUOUS
 62
4
 10
535.7195
 20
656.1081
 40
0.2000
 50
43.5273
 51
134.9966
  0
ARC
  8
        _00
  6
CONTINUOUS
 62
4
 10
515.9257
 20
637.3065
 40
27.8000
 50
5.4186
 51
12.9400
  0
ARC
  8
        _00
  6
CONTINUOUS
 62
4
 10
515.9257
 20
637.3065
 40
27.8000
 50
357.9892
 51
362.3198
  0
ARC
  8
        _00
  6
CONTINUOUS
 62
4
 10
515.9257
 20
637.3065
 40
27.8000
 50
345.9045
 51
353.8558
  0
ARC
  8
        _00
  6
CONTINUOUS
 62
4
 10
545.7983
 20
629.8055
 40
3.0000
 50
165.9045
 51
191.5966
  0
ARC
  8
        _00
  6
CONTINUOUS
 62
4
 10
515.9257
 20
637.3065
 40
26.5000
 50
43.9155
 51
46.0777
  0
ARC
  8
        _00
  6
CONTINUOUS
 62
4
 10
538.0261
 20
643.5237
 40
0.2000
 50
87.7987
 51
179.9966
  0
ARC
  8
        _00
  6
CONTINUOUS
 62
4
 10
537.4260
 20
642.7315
 40
0.4000
 50
179.9966
 51
359.9966
  0
ARC
  8
        _00
  6
CONTINUOUS
 62
4
 10
543.5972
 20
638.6318
 40
0.2000
 50
191.6966
 51
269.9966
  0
ARC
  8
        _00
  6
CONTINUOUS
 62
4
 10
543.3695
 20
639.7318
 40
0.2000
 50
89.9966
 51
191.6966
  0
ARC
  8
        _00
  6
CONTINUOUS
 62
4
 10
542.6158
 20
636.0347
 40
0.2000
 50
94.9966
 51
195.1357
  0
ARC
  8
13_0D
  6
CONTINUOUS
 62
4
 10
545.3187
 20
636.7659
 40
3.0000
 50
195.1357
 51
234.2521
  0
ARC
  8
        _00
  6
CONTINUOUS
 62
4
 10
542.9209
 20
634.0066
 40
0.6000
 50
270.0000
 51
450.0000
  0
ARC
  8
        _00
  6
CONTINUOUS
 62
4
 10
515.9209
 20
637.3065
 40
29.0000
 50
201.7076
 51
269.4103
  0
ARC
  8
        _00
  6
CONTINUOUS
 62
4
 10
515.9209
 20
637.3065
 40
29.0000
 50
270.5897
 51
338.2924
  0
ARC
  8
        _00
  6
CONTINUOUS
 62
4
 10
491.1209
 20
632.8065
 40
0.5000
 50
180.0000
 51
270.0000
  0
ARC
  8
        _00
  6
CONTINUOUS
 62
4
 10
540.7209
 20
632.8065
 40
0.5000
 50
270.0000
 51
360.0000
  0
ARC
  8
        _00
  6
CONTINUOUS
 62
4
 10
543.2210
 20
636.7873
 40
0.5000
 50
275.0000
 51
371.6000
  0
ARC
  8
        _00
  6
CONTINUOUS
 62
4
 10
542.2209
 20
636.2982
 40
1.0000
 50
95.0000
 51
180.0000
  0
ARC
  8
        _00
  6
CONTINUOUS
 62
4
 10
538.4538
 20
637.6317
 40
5.0000
 50
11.6000
 51
45.0000
  0
ARC
  8
        _00
  6
CONTINUOUS
 62
4
 10
538.4538
 20
637.6317
 40
4.1000
 50
11.6000
 51
45.0000
  0
ARC
  8
        _00
  6
CONTINUOUS
 62
4
 10
488.9209
 20
634.0066
 40
0.6000
 50
90.0000
 51
270.0000
  0
ARC
  8
        _00
  6
CONTINUOUS
 62
4
 10
488.6209
 20
636.7873
 40
0.5000
 50
168.4000
 51
265.0000
  0
ARC
  8
        _00
  6
CONTINUOUS
 62
4
 10
491.4709
 20
642.8566
 40
0.4500
 50
0.0000
 51
180.0000
  0
ARC
  8
        _00
  6
CONTINUOUS
 62
4
 10
489.6209
 20
636.2982
 40
1.0000
 50
0.0000
 51
85.0000
  0
ARC
  8
        _00
  6
CONTINUOUS
 62
4
 10
493.3881
 20
637.6317
 40
5.0000
 50
135.0000
 51
168.4000
  0
ARC
  8
        _00
  6
CONTINUOUS
 62
4
 10
493.3881
 20
637.6317
 40
4.1000
 50
135.0000
 51
168.4000
  0
ARC
  8
        _00
  6
CONTINUOUS
 62
4
 10
490.9209
 20
642.3771
 40
1.0000
 50
315.0000
 51
360.0000
  0
ARC
  8
        _00
  6
CONTINUOUS
 62
4
 10
540.3709
 20
642.8566
 40
0.4500
 50
0.0000
 51
180.0000
  0
ARC
  8
        _00
  6
CONTINUOUS
 62
4
 10
540.9209
 20
642.3771
 40
1.0000
 50
180.0000
 51
225.0000
  0
ARC
  8
15_0F
  6
CONTINUOUS
 62
4
 10
515.9209
 20
637.3065
 40
27.9000
 50
202.3023
 51
255.4075
  0
ARC
  8
15_0F
  6
CONTINUOUS
 62
4
 10
515.9209
 20
637.3065
 40
27.9000
 50
284.5926
 51
337.6978
  0
ARC
  8
15_0F
  6
CONTINUOUS
 62
4
 10
489.4420
 20
626.7653
 40
0.5000
 50
150.0000
 51
201.7076
  0
ARC
  8
15_0F
  6
CONTINUOUS
 62
4
 10
542.3998
 20
626.7653
 40
0.5000
 50
338.2924
 51
390.0000
  0
ARC
  8
12_0C
  6
CONTINUOUS
 62
2
 10
536.1210
 20
633.7766
 40
1.3000
 50
0.0000
 51
73.3778
  0
ARC
  8
12_0C
  6
CONTINUOUS
 62
2
 10
533.9209
 20
626.4066
 40
9.0000
 50
73.3790
 51
106.6667
  0
ARC
  8
12_0C
  6
CONTINUOUS
 62
2
 10
531.7209
 20
633.7766
 40
1.3000
 50
106.6222
 51
180.0000
  0
ARC
  8
12_0C
  6
CONTINUOUS
 62
2
 10
500.1210
 20
633.7766
 40
1.3000
 50
0.0000
 51
73.3778
  0
ARC
  8
12_0C
  6
CONTINUOUS
 62
2
 10
497.9209
 20
626.4066
 40
9.0000
 50
73.3790
 51
106.6667
  0
ARC
  8
12_0C
  6
CONTINUOUS
 62
2
 10
495.7209
 20
633.7766
 40
1.3000
 50
106.6222
 51
180.0000
  0
ARC
  8
        _00
  6
CONTINUOUS
 62
2
 10
979.8092
 20
318.2827
 40
2.0500
 50
45.0000
 51
58.5444
  0
ARC
  8
        _00
  6
CONTINUOUS
 62
2
 10
979.8092
 20
318.2827
 40
2.0500
 50
121.3667
 51
135.0000
  0
ARC
  8
        _00
  6
CONTINUOUS
 62
2
 10
979.8092
 20
318.2827
 40
2.0500
 50
211.4556
 51
225.0000
  0
ARC
  8
        _00
  6
CONTINUOUS
 62
2
 10
979.8092
 20
318.2827
 40
2.0500
 50
135.0000
 51
148.6333
  0
ARC
  8
        _00
  6
CONTINUOUS
 62
2
 10
979.8092
 20
318.2827
 40
2.0500
 50
31.4556
 51
45.0000
  0
ARC
  8
        _00
  6
CONTINUOUS
 62
2
 10
979.8092
 20
318.2827
 40
2.0500
 50
315.0000
 51
328.6334
  0
ARC
  8
        _00
  6
CONTINUOUS
 62
2
 10
979.8092
 20
318.2827
 40
2.0500
 50
225.0000
 51
238.5444
  0
ARC
  8
        _00
  6
CONTINUOUS
 62
2
 10
979.8092
 20
318.2827
 40
2.0500
 50
301.3667
 51
315.0000
  0
CIRCLE
  8
        _00
  6
CONTINUOUS
 62
2
 10
979.8092
 20
318.2827
 40
3.5000
  0
ARC
  8
        _00
  6
CONTINUOUS
 62
2
 10
1000.8092
 20
318.2827
 40
2.0500
 50
45.0000
 51
58.5444
  0
ARC
  8
        _00
  6
CONTINUOUS
 62
2
 10
1000.8092
 20
318.2827
 40
2.0500
 50
121.3667
 51
135.0000
  0
ARC
  8
        _00
  6
CONTINUOUS
 62
2
 10
1000.8092
 20
318.2827
 40
2.0500
 50
211.4556
 51
225.0000
  0
ARC
  8
        _00
  6
CONTINUOUS
 62
2
 10
1000.8092
 20
318.2827
 40
2.0500
 50
135.0000
 51
148.6333
  0
ARC
  8
        _00
  6
CONTINUOUS
 62
2
 10
1000.8092
 20
318.2827
 40
2.0500
 50
31.4556
 51
45.0000
  0
ARC
  8
        _00
  6
CONTINUOUS
 62
2
 10
1000.8092
 20
318.2827
 40
2.0500
 50
315.0000
 51
328.6334
  0
ARC
  8
        _00
  6
CONTINUOUS
 62
2
 10
1000.8092
 20
318.2827
 40
2.0500
 50
225.0000
 51
238.5444
  0
ARC
  8
        _00
  6
CONTINUOUS
 62
2
 10
1000.8092
 20
318.2827
 40
2.0500
 50
301.3667
 51
315.0000
  0
CIRCLE
  8
        _00
  6
CONTINUOUS
 62
2
 10
1000.8092
 20
318.2827
 40
3.5000
  0
ARC
  8
        _00
  6
CONTINUOUS
 62
2
 10
979.8092
 20
282.2827
 40
2.0500
 50
301.4556
 51
315.0000
  0
ARC
  8
        _00
  6
CONTINUOUS
 62
2
 10
979.8092
 20
282.2827
 40
2.0500
 50
225.0000
 51
238.6333
  0
ARC
  8
        _00
  6
CONTINUOUS
 62
2
 10
979.8092
 20
282.2827
 40
2.0500
 50
135.0000
 51
148.5444
  0
ARC
  8
        _00
  6
CONTINUOUS
 62
2
 10
979.8092
 20
282.2827
 40
2.0500
 50
211.3667
 51
225.0000
  0
ARC
  8
        _00
  6
CONTINUOUS
 62
2
 10
979.8092
 20
282.2827
 40
2.0500
 50
315.0000
 51
328.5444
  0
ARC
  8
        _00
  6
CONTINUOUS
 62
2
 10
979.8092
 20
282.2827
 40
2.0500
 50
31.3667
 51
45.0000
  0
ARC
  8
        _00
  6
CONTINUOUS
 62
2
 10
979.8092
 20
282.2827
 40
2.0500
 50
121.4556
 51
135.0000
  0
ARC
  8
        _00
  6
CONTINUOUS
 62
2
 10
979.8092
 20
282.2827
 40
2.0500
 50
45.0000
 51
58.6333
  0
CIRCLE
  8
        _00
  6
CONTINUOUS
 62
2
 10
979.8092
 20
282.2827
 40
3.5000
  0
ARC
  8
        _00
  6
CONTINUOUS
 62
2
 10
1000.8092
 20
282.2827
 40
2.0500
 50
301.4556
 51
315.0000
  0
ARC
  8
        _00
  6
CONTINUOUS
 62
2
 10
1000.8092
 20
282.2827
 40
2.0500
 50
225.0000
 51
238.6333
  0
ARC
  8
        _00
  6
CONTINUOUS
 62
2
 10
1000.8092
 20
282.2827
 40
2.0500
 50
135.0000
 51
148.5444
  0
ARC
  8
        _00
  6
CONTINUOUS
 62
2
 10
1000.8092
 20
282.2827
 40
2.0500
 50
211.3667
 51
225.0000
  0
ARC
  8
        _00
  6
CONTINUOUS
 62
2
 10
1000.8092
 20
282.2827
 40
2.0500
 50
315.0000
 51
328.5444
  0
ARC
  8
        _00
  6
CONTINUOUS
 62
2
 10
1000.8092
 20
282.2827
 40
2.0500
 50
31.3667
 51
45.0000
  0
ARC
  8
        _00
  6
CONTINUOUS
 62
2
 10
1000.8092
 20
282.2827
 40
2.0500
 50
121.4556
 51
135.0000
  0
ARC
  8
        _00
  6
CONTINUOUS
 62
2
 10
1000.8092
 20
282.2827
 40
2.0500
 50
45.0000
 51
58.6333
  0
CIRCLE
  8
        _00
  6
CONTINUOUS
 62
2
 10
1000.8092
 20
282.2827
 40
3.5000
  0
ARC
  8
11_0B
  6
DASHED
 62
2
 10
246.8912
 20
453.4493
 40
0.3000
 50
175.0000
 51
255.0000
  0
ARC
  8
11_0B
  6
DASHED
 62
2
 10
246.5644
 20
449.7136
 40
0.3000
 50
175.0000
 51
255.0000
  0
ARC
  8
11_0B
  6
DASHED
 62
2
 10
246.2375
 20
445.9779
 40
0.3000
 50
175.0000
 51
255.0000
  0
ARC
  8
11_0B
  6
DASHED
 62
2
 10
245.9107
 20
442.2421
 40
0.3000
 50
175.0000
 51
255.0000
  0
ARC
  8
11_0B
  6
DASHED
 62
2
 10
245.7469
 20
438.6487
 40
0.4500
 50
175.0000
 51
205.0000
  0
ARC
  8
11_0B
  6
DASHED
 62
2
 10
253.5088
 20
453.4493
 40
0.3000
 50
285.0000
 51
365.0000
  0
ARC
  8
11_0B
  6
DASHED
 62
2
 10
253.8356
 20
449.7136
 40
0.3000
 50
285.0000
 51
365.0000
  0
ARC
  8
11_0B
  6
DASHED
 62
2
 10
254.1625
 20
445.9779
 40
0.3000
 50
285.0000
 51
365.0000
  0
ARC
  8
11_0B
  6
DASHED
 62
2
 10
254.4893
 20
442.2421
 40
0.3000
 50
285.0000
 51
365.0000
  0
ARC
  8
11_0B
  6
DASHED
 62
2
 10
254.6531
 20
438.6487
 40
0.4500
 50
335.0000
 51
365.0000
  0
ARC
  8
11_0B
  6
DASHED
 62
2
 10
247.0756
 20
440.0678
 40
0.1500
 50
265.0000
 51
355.0000
  0
ARC
  8
11_0B
  6
DASHED
 62
2
 10
253.3244
 20
440.0678
 40
0.1500
 50
185.0000
 51
275.0000
  0
ARC
  8
11_0B
  6
DASHED
 62
2
 10
247.4024
 20
443.8035
 40
0.1500
 50
265.0000
 51
355.0000
  0
ARC
  8
11_0B
  6
DASHED
 62
2
 10
252.9976
 20
443.8035
 40
0.1500
 50
185.0000
 51
275.0000
  0
ARC
  8
11_0B
  6
DASHED
 62
2
 10
247.7293
 20
447.5392
 40
0.1500
 50
265.0000
 51
355.0000
  0
ARC
  8
11_0B
  6
DASHED
 62
2
 10
252.6707
 20
447.5392
 40
0.1500
 50
185.0000
 51
275.0000
  0
ARC
  8
11_0B
  6
DASHED
 62
2
 10
248.0561
 20
451.2749
 40
0.1500
 50
265.0000
 51
355.0000
  0
ARC
  8
11_0B
  6
DASHED
 62
2
 10
252.3439
 20
451.2749
 40
0.1500
 50
185.0000
 51
275.0000
  0
ARC
  8
11_0B
  6
DASHED
 62
2
 10
247.9347
 20
455.0499
 40
0.1500
 50
265.0000
 51
355.0000
  0
ARC
  8
11_0B
  6
DASHED
 62
2
 10
252.4653
 20
455.0499
 40
0.1500
 50
185.0000
 51
275.0000
  0
ARC
  8
11_0B
  6
DASHED
 62
2
 10
253.3654
 20
441.3198
 40
0.3000
 50
105.0000
 51
185.0000
  0
ARC
  8
11_0B
  6
DASHED
 62
2
 10
247.1950
 20
441.4321
 40
0.1500
 50
355.0000
 51
435.0000
  0
ARC
  8
11_0B
  6
DASHED
 62
2
 10
253.0386
 20
445.0556
 40
0.3000
 50
105.0000
 51
185.0000
  0
ARC
  8
11_0B
  6
DASHED
 62
2
 10
247.3614
 20
445.0556
 40
0.3000
 50
355.0000
 51
435.0000
  0
ARC
  8
11_0B
  6
DASHED
 62
2
 10
252.7118
 20
448.7913
 40
0.3000
 50
105.0000
 51
185.0000
  0
ARC
  8
11_0B
  6
DASHED
 62
2
 10
247.6882
 20
448.7913
 40
0.3000
 50
355.0000
 51
435.0000
  0
ARC
  8
11_0B
  6
DASHED
 62
2
 10
252.3849
 20
452.5270
 40
0.3000
 50
105.0000
 51
185.0000
  0
ARC
  8
11_0B
  6
DASHED
 62
2
 10
248.0151
 20
452.5270
 40
0.3000
 50
355.0000
 51
435.0000
  0
ARC
  8
11_0B
  6
DASHED
 62
2
 10
247.9477
 20
456.9203
 40
0.3000
 50
355.0000
 51
440.0000
  0
ARC
  8
11_0B
  6
DASHED
 62
2
 10
252.4523
 20
456.9203
 40
0.3000
 50
100.0000
 51
185.0000
  0
ARC
  8
11_0B
  6
DASHED
 62
2
 10
255.8207
 20
455.8823
 40
0.3000
 50
335.0000
 51
425.0000
  0
ARC
  8
11_0B
  6
DASHED
 62
2
 10
255.6848
 20
455.9457
 40
0.3000
 50
65.0000
 51
155.0000
  0
ARC
  8
11_0B
  6
DASHED
 62
2
 10
244.5792
 20
455.8823
 40
0.3000
 50
115.0000
 51
205.0000
  0
ARC
  8
11_0B
  6
DASHED
 62
2
 10
244.7152
 20
455.9457
 40
0.3000
 50
25.0000
 51
115.0000
  0
ARC
  8
11_0B
  6
DASHED
 62
2
 10
196.8912
 20
453.4493
 40
0.3000
 50
175.0000
 51
255.0000
  0
ARC
  8
11_0B
  6
DASHED
 62
2
 10
196.5644
 20
449.7136
 40
0.3000
 50
175.0000
 51
255.0000
  0
ARC
  8
11_0B
  6
DASHED
 62
2
 10
196.2375
 20
445.9779
 40
0.3000
 50
175.0000
 51
255.0000
  0
ARC
  8
11_0B
  6
DASHED
 62
2
 10
195.9107
 20
442.2421
 40
0.3000
 50
175.0000
 51
255.0000
  0
ARC
  8
11_0B
  6
DASHED
 62
2
 10
195.7469
 20
438.6487
 40
0.4500
 50
175.0000
 51
205.0000
  0
ARC
  8
11_0B
  6
DASHED
 62
2
 10
203.5088
 20
453.4493
 40
0.3000
 50
285.0000
 51
365.0000
  0
ARC
  8
11_0B
  6
DASHED
 62
2
 10
203.8356
 20
449.7136
 40
0.3000
 50
285.0000
 51
365.0000
  0
ARC
  8
11_0B
  6
DASHED
 62
2
 10
204.1625
 20
445.9779
 40
0.3000
 50
285.0000
 51
365.0000
  0
ARC
  8
11_0B
  6
DASHED
 62
2
 10
204.4893
 20
442.2421
 40
0.3000
 50
285.0000
 51
365.0000
  0
ARC
  8
11_0B
  6
DASHED
 62
2
 10
204.6531
 20
438.6487
 40
0.4500
 50
335.0000
 51
365.0000
  0
ARC
  8
11_0B
  6
DASHED
 62
2
 10
197.0756
 20
440.0678
 40
0.1500
 50
265.0000
 51
355.0000
  0
ARC
  8
11_0B
  6
DASHED
 62
2
 10
203.3244
 20
440.0678
 40
0.1500
 50
185.0000
 51
275.0000
  0
ARC
  8
11_0B
  6
DASHED
 62
2
 10
197.4024
 20
443.8035
 40
0.1500
 50
265.0000
 51
355.0000
  0
ARC
  8
11_0B
  6
DASHED
 62
2
 10
202.9976
 20
443.8035
 40
0.1500
 50
185.0000
 51
275.0000
  0
ARC
  8
11_0B
  6
DASHED
 62
2
 10
197.7293
 20
447.5392
 40
0.1500
 50
265.0000
 51
355.0000
  0
ARC
  8
11_0B
  6
DASHED
 62
2
 10
202.6707
 20
447.5392
 40
0.1500
 50
185.0000
 51
275.0000
  0
ARC
  8
11_0B
  6
DASHED
 62
2
 10
198.0561
 20
451.2749
 40
0.1500
 50
265.0000
 51
355.0000
  0
ARC
  8
11_0B
  6
DASHED
 62
2
 10
202.3439
 20
451.2749
 40
0.1500
 50
185.0000
 51
275.0000
  0
ARC
  8
11_0B
  6
DASHED
 62
2
 10
197.9347
 20
455.0499
 40
0.1500
 50
265.0000
 51
355.0000
  0
ARC
  8
11_0B
  6
DASHED
 62
2
 10
202.4653
 20
455.0499
 40
0.1500
 50
185.0000
 51
275.0000
  0
ARC
  8
11_0B
  6
DASHED
 62
2
 10
203.3654
 20
441.3198
 40
0.3000
 50
105.0000
 51
185.0000
  0
ARC
  8
11_0B
  6
DASHED
 62
2
 10
197.1950
 20
441.4321
 40
0.1500
 50
355.0000
 51
435.0000
  0
ARC
  8
11_0B
  6
DASHED
 62
2
 10
203.0386
 20
445.0556
 40
0.3000
 50
105.0000
 51
185.0000
  0
ARC
  8
11_0B
  6
DASHED
 62
2
 10
197.3614
 20
445.0556
 40
0.3000
 50
355.0000
 51
435.0000
  0
ARC
  8
11_0B
  6
DASHED
 62
2
 10
202.7118
 20
448.7913
 40
0.3000
 50
105.0000
 51
185.0000
  0
ARC
  8
11_0B
  6
DASHED
 62
2
 10
197.6882
 20
448.7913
 40
0.3000
 50
355.0000
 51
435.0000
  0
ARC
  8
11_0B
  6
DASHED
 62
2
 10
202.3849
 20
452.5270
 40
0.3000
 50
105.0000
 51
185.0000
  0
ARC
  8
11_0B
  6
DASHED
 62
2
 10
198.0151
 20
452.5270
 40
0.3000
 50
355.0000
 51
435.0000
  0
ARC
  8
11_0B
  6
DASHED
 62
2
 10
197.9477
 20
456.9203
 40
0.3000
 50
355.0000
 51
440.0000
  0
ARC
  8
11_0B
  6
DASHED
 62
2
 10
202.4523
 20
456.9203
 40
0.3000
 50
100.0000
 51
185.0000
  0
ARC
  8
11_0B
  6
DASHED
 62
2
 10
205.8208
 20
455.8823
 40
0.3000
 50
335.0000
 51
425.0000
  0
ARC
  8
11_0B
  6
DASHED
 62
2
 10
205.6848
 20
455.9457
 40
0.3000
 50
65.0000
 51
155.0000
  0
ARC
  8
11_0B
  6
DASHED
 62
2
 10
194.5792
 20
455.8823
 40
0.3000
 50
115.0000
 51
205.0000
  0
ARC
  8
11_0B
  6
DASHED
 62
2
 10
194.7152
 20
455.9457
 40
0.3000
 50
25.0000
 51
115.0000
  0
ARC
  8
        _00
  6
CONTINUOUS
 62
2
 10
582.9383
 20
319.2827
 40
2.5000
 50
0.0000
 51
90.0000
  0
ARC
  8
        _00
  6
CONTINUOUS
 62
2
 10
578.6486
 20
320.0827
 40
0.5000
 50
331.3146
 51
450.0000
  0
ARC
  8
        _00
  6
CONTINUOUS
 62
2
 10
583.7383
 20
314.9930
 40
0.5000
 50
0.0000
 51
118.6854
  0
ARC
  8
        _00
  6
CONTINUOUS
 62
2
 10
581.9383
 20
318.2827
 40
1.7000
 50
161.1790
 51
176.7520
  0
ARC
  8
        _00
  6
CONTINUOUS
 62
2
 10
581.9383
 20
318.2827
 40
3.2500
 50
273.2480
 51
298.6854
  0
ARC
  8
        _00
  6
CONTINUOUS
 62
2
 10
581.9383
 20
318.2827
 40
3.2500
 50
151.3146
 51
176.7520
  0
ARC
  8
        _00
  6
CONTINUOUS
 62
2
 10
581.9383
 20
318.2827
 40
1.7000
 50
341.1790
 51
378.8210
  0
ARC
  8
        _00
  6
CONTINUOUS
 62
2
 10
581.9383
 20
318.2827
 40
1.7000
 50
71.1790
 51
108.8210
  0
ARC
  8
        _00
  6
CONTINUOUS
 62
2
 10
581.9383
 20
318.2827
 40
1.7000
 50
273.2480
 51
288.8210
  0
ARC
  8
        _00
  6
CONTINUOUS
 62
2
 10
579.4673
 20
318.4230
 40
0.7750
 50
176.7520
 51
356.7520
  0
ARC
  8
        _00
  6
CONTINUOUS
 62
2
 10
582.0786
 20
315.8117
 40
0.7750
 50
93.2480
 51
273.2480
  0
ARC
  8
        _00
  6
CONTINUOUS
 62
2
 10
559.9383
 20
319.2827
 40
2.5000
 50
90.0000
 51
180.0000
  0
ARC
  8
        _00
  6
CONTINUOUS
 62
2
 10
564.2281
 20
320.0827
 40
0.5000
 50
90.0000
 51
208.6854
  0
ARC
  8
        _00
  6
CONTINUOUS
 62
2
 10
559.1383
 20
314.9930
 40
0.5000
 50
61.3146
 51
180.0000
  0
ARC
  8
        _00
  6
CONTINUOUS
 62
2
 10
560.9383
 20
318.2827
 40
1.7000
 50
3.2480
 51
18.8210
  0
ARC
  8
        _00
  6
CONTINUOUS
 62
2
 10
560.9383
 20
318.2827
 40
3.2500
 50
241.3146
 51
266.7520
  0
ARC
  8
        _00
  6
CONTINUOUS
 62
2
 10
560.9383
 20
318.2827
 40
3.2500
 50
3.2480
 51
28.6854
  0
ARC
  8
        _00
  6
CONTINUOUS
 62
2
 10
560.9383
 20
318.2827
 40
1.7000
 50
161.1790
 51
198.8210
  0
ARC
  8
        _00
  6
CONTINUOUS
 62
2
 10
560.9383
 20
318.2827
 40
1.7000
 50
71.1790
 51
108.8210
  0
ARC
  8
        _00
  6
CONTINUOUS
 62
2
 10
560.9383
 20
318.2827
 40
1.7000
 50
251.1790
 51
266.7520
  0
ARC
  8
        _00
  6
CONTINUOUS
 62
2
 10
563.4093
 20
318.4230
 40
0.7750
 50
183.2480
 51
363.2480
  0
ARC
  8
        _00
  6
CONTINUOUS
 62
2
 10
560.7981
 20
315.8117
 40
0.7750
 50
266.7520
 51
446.7520
  0
ARC
  8
        _00
  6
CONTINUOUS
 62
2
 10
582.9383
 20
281.2827
 40
2.5000
 50
270.0000
 51
360.0000
  0
ARC
  8
        _00
  6
CONTINUOUS
 62
2
 10
578.6486
 20
280.4827
 40
0.5000
 50
270.0000
 51
388.6854
  0
ARC
  8
        _00
  6
CONTINUOUS
 62
2
 10
583.7383
 20
285.5725
 40
0.5000
 50
241.3146
 51
360.0000
  0
ARC
  8
        _00
  6
CONTINUOUS
 62
2
 10
581.9383
 20
282.2827
 40
1.7000
 50
183.2480
 51
198.8210
  0
ARC
  8
        _00
  6
CONTINUOUS
 62
2
 10
581.9383
 20
282.2827
 40
3.2500
 50
61.3146
 51
86.7520
  0
ARC
  8
        _00
  6
CONTINUOUS
 62
2
 10
581.9383
 20
282.2827
 40
3.2500
 50
183.2480
 51
208.6854
  0
ARC
  8
        _00
  6
CONTINUOUS
 62
2
 10
581.9383
 20
282.2827
 40
1.7000
 50
341.1790
 51
378.8210
  0
ARC
  8
        _00
  6
CONTINUOUS
 62
2
 10
581.9383
 20
282.2827
 40
1.7000
 50
251.1790
 51
288.8210
  0
ARC
  8
        _00
  6
CONTINUOUS
 62
2
 10
581.9383
 20
282.2827
 40
1.7000
 50
71.1790
 51
86.7520
  0
ARC
  8
        _00
  6
CONTINUOUS
 62
2
 10
579.4673
 20
282.1425
 40
0.7750
 50
3.2480
 51
183.2480
  0
ARC
  8
        _00
  6
CONTINUOUS
 62
2
 10
582.0786
 20
284.7537
 40
0.7750
 50
86.7520
 51
266.7520
  0
ARC
  8
        _00
  6
CONTINUOUS
 62
2
 10
559.9383
 20
281.2827
 40
2.5000
 50
180.0000
 51
270.0000
  0
ARC
  8
        _00
  6
CONTINUOUS
 62
2
 10
564.2281
 20
280.4827
 40
0.5000
 50
151.3146
 51
270.0000
  0
ARC
  8
        _00
  6
CONTINUOUS
 62
2
 10
559.1383
 20
285.5725
 40
0.5000
 50
180.0000
 51
298.6854
  0
ARC
  8
        _00
  6
CONTINUOUS
 62
2
 10
560.9383
 20
282.2827
 40
1.7000
 50
341.1790
 51
356.7520
  0
ARC
  8
        _00
  6
CONTINUOUS
 62
2
 10
560.9383
 20
282.2827
 40
3.2500
 50
93.2480
 51
118.6854
  0
ARC
  8
        _00
  6
CONTINUOUS
 62
2
 10
560.9383
 20
282.2827
 40
3.2500
 50
331.3146
 51
356.7520
  0
ARC
  8
        _00
  6
CONTINUOUS
 62
2
 10
560.9383
 20
282.2827
 40
1.7000
 50
161.1790
 51
198.8210
  0
ARC
  8
        _00
  6
CONTINUOUS
 62
2
 10
560.9383
 20
282.2827
 40
1.7000
 50
251.1790
 51
288.8210
  0
ARC
  8
        _00
  6
CONTINUOUS
 62
2
 10
560.9383
 20
282.2827
 40
1.7000
 50
93.2480
 51
108.8210
  0
ARC
  8
        _00
  6
CONTINUOUS
 62
2
 10
563.4093
 20
282.1425
 40
0.7750
 50
356.7520
 51
536.7520
  0
ARC
  8
        _00
  6
CONTINUOUS
 62
2
 10
560.7981
 20
284.7537
 40
0.7750
 50
273.2480
 51
453.2480
  0
ARC
  8
        _00
  6
CONTINUOUS
 62
2
 10
571.4383
 20
323.9222
 40
5.1605
 50
48.0907
 51
131.9093
  0
ARC
  8
12_0C
  6
DASHED
 62
2
 10
571.4383
 20
323.9222
 40
5.1605
 50
39.1846
 51
48.0907
  0
ARC
  8
12_0C
  6
DASHED
 62
2
 10
571.4383
 20
323.9222
 40
5.1605
 50
131.9093
 51
140.8154
  0
ARC
  8
        _00
  6
CONTINUOUS
 62
2
 10
571.4383
 20
276.6432
 40
5.1605
 50
228.0907
 51
311.9093
  0
ARC
  8
12_0C
  6
DASHED
 62
2
 10
571.4383
 20
276.6432
 40
5.1605
 50
311.9093
 51
320.8154
  0
ARC
  8
12_0C
  6
DASHED
 62
2
 10
571.4383
 20
276.6432
 40
5.1605
 50
219.1846
 51
228.0907
  0
CIRCLE
  8
        _00
  6
CONTINUOUS
 62
2
 10
601.4383
 20
325.2827
 40
8.5000
  0
ARC
  8
        _00
  6
CONTINUOUS
 62
2
 10
601.4383
 20
325.2827
 40
2.4500
 50
121.4556
 51
135.0000
  0
ARC
  8
        _00
  6
CONTINUOUS
 62
2
 10
601.4383
 20
325.2827
 40
2.4500
 50
45.0000
 51
58.6333
  0
ARC
  8
        _00
  6
CONTINUOUS
 62
2
 10
601.4383
 20
325.2827
 40
2.4500
 50
315.0000
 51
328.5444
  0
ARC
  8
        _00
  6
CONTINUOUS
 62
2
 10
601.4383
 20
325.2827
 40
2.4500
 50
31.3667
 51
45.0000
  0
ARC
  8
        _00
  6
CONTINUOUS
 62
2
 10
601.4383
 20
325.2827
 40
2.4500
 50
135.0000
 51
148.5444
  0
ARC
  8
        _00
  6
CONTINUOUS
 62
2
 10
601.4383
 20
325.2827
 40
2.4500
 50
211.3667
 51
225.0000
  0
ARC
  8
        _00
  6
CONTINUOUS
 62
2
 10
601.4383
 20
325.2827
 40
2.4500
 50
301.4556
 51
315.0000
  0
ARC
  8
        _00
  6
CONTINUOUS
 62
2
 10
601.4383
 20
325.2827
 40
2.4500
 50
225.0000
 51
238.6333
  0
CIRCLE
  8
        _00
  6
CONTINUOUS
 62
2
 10
601.4383
 20
325.2827
 40
5.9000
  0
CIRCLE
  8
        _00
  6
CONTINUOUS
 62
2
 10
541.4383
 20
325.2827
 40
8.5000
  0
ARC
  8
        _00
  6
CONTINUOUS
 62
2
 10
541.4383
 20
325.2827
 40
2.4500
 50
121.4556
 51
135.0000
  0
ARC
  8
        _00
  6
CONTINUOUS
 62
2
 10
541.4383
 20
325.2827
 40
2.4500
 50
45.0000
 51
58.6333
  0
ARC
  8
        _00
  6
CONTINUOUS
 62
2
 10
541.4383
 20
325.2827
 40
2.4500
 50
315.0000
 51
328.5444
  0
ARC
  8
        _00
  6
CONTINUOUS
 62
2
 10
541.4383
 20
325.2827
 40
2.4500
 50
31.3667
 51
45.0000
  0
ARC
  8
        _00
  6
CONTINUOUS
 62
2
 10
541.4383
 20
325.2827
 40
2.4500
 50
135.0000
 51
148.5444
  0
ARC
  8
        _00
  6
CONTINUOUS
 62
2
 10
541.4383
 20
325.2827
 40
2.4500
 50
211.3667
 51
225.0000
  0
ARC
  8
        _00
  6
CONTINUOUS
 62
2
 10
541.4383
 20
325.2827
 40
2.4500
 50
301.4556
 51
315.0000
  0
ARC
  8
        _00
  6
CONTINUOUS
 62
2
 10
541.4383
 20
325.2827
 40
2.4500
 50
225.0000
 51
238.6333
  0
CIRCLE
  8
        _00
  6
CONTINUOUS
 62
2
 10
541.4383
 20
325.2827
 40
5.9000
  0
CIRCLE
  8
        _00
  6
CONTINUOUS
 62
2
 10
601.4383
 20
275.2827
 40
8.5000
  0
ARC
  8
        _00
  6
CONTINUOUS
 62
2
 10
601.4383
 20
275.2827
 40
2.4500
 50
121.4556
 51
135.0000
  0
ARC
  8
        _00
  6
CONTINUOUS
 62
2
 10
601.4383
 20
275.2827
 40
2.4500
 50
45.0000
 51
58.6333
  0
ARC
  8
        _00
  6
CONTINUOUS
 62
2
 10
601.4383
 20
275.2827
 40
2.4500
 50
315.0000
 51
328.5444
  0
ARC
  8
        _00
  6
CONTINUOUS
 62
2
 10
601.4383
 20
275.2827
 40
2.4500
 50
31.3667
 51
45.0000
  0
ARC
  8
        _00
  6
CONTINUOUS
 62
2
 10
601.4383
 20
275.2827
 40
2.4500
 50
135.0000
 51
148.5444
  0
ARC
  8
        _00
  6
CONTINUOUS
 62
2
 10
601.4383
 20
275.2827
 40
2.4500
 50
211.3667
 51
225.0000
  0
ARC
  8
        _00
  6
CONTINUOUS
 62
2
 10
601.4383
 20
275.2827
 40
2.4500
 50
301.4556
 51
315.0000
  0
ARC
  8
        _00
  6
CONTINUOUS
 62
2
 10
601.4383
 20
275.2827
 40
2.4500
 50
225.0000
 51
238.6333
  0
CIRCLE
  8
        _00
  6
CONTINUOUS
 62
2
 10
601.4383
 20
275.2827
 40
5.9000
  0
CIRCLE
  8
        _00
  6
CONTINUOUS
 62
2
 10
541.4383
 20
275.2827
 40
8.5000
  0
ARC
  8
        _00
  6
CONTINUOUS
 62
2
 10
541.4383
 20
275.2827
 40
2.4500
 50
121.4556
 51
135.0000
  0
ARC
  8
        _00
  6
CONTINUOUS
 62
2
 10
541.4383
 20
275.2827
 40
2.4500
 50
45.0000
 51
58.6333
  0
ARC
  8
        _00
  6
CONTINUOUS
 62
2
 10
541.4383
 20
275.2827
 40
2.4500
 50
315.0000
 51
328.5444
  0
ARC
  8
        _00
  6
CONTINUOUS
 62
2
 10
541.4383
 20
275.2827
 40
2.4500
 50
31.3667
 51
45.0000
  0
ARC
  8
        _00
  6
CONTINUOUS
 62
2
 10
541.4383
 20
275.2827
 40
2.4500
 50
135.0000
 51
148.5444
  0
ARC
  8
        _00
  6
CONTINUOUS
 62
2
 10
541.4383
 20
275.2827
 40
2.4500
 50
211.3667
 51
225.0000
  0
ARC
  8
        _00
  6
CONTINUOUS
 62
2
 10
541.4383
 20
275.2827
 40
2.4500
 50
301.4556
 51
315.0000
  0
ARC
  8
        _00
  6
CONTINUOUS
 62
2
 10
541.4383
 20
275.2827
 40
2.4500
 50
225.0000
 51
238.6333
  0
CIRCLE
  8
        _00
  6
CONTINUOUS
 62
2
 10
541.4383
 20
275.2827
 40
5.9000
  0
ARC
  8
        _00
  6
CONTINUOUS
 62
2
 10
960.3092
 20
325.2827
 40
8.5000
 50
25.0618
 51
154.9382
  0
ARC
  8
        _00
  6
CONTINUOUS
 62
2
 10
960.3092
 20
325.2827
 40
5.9000
 50
37.6086
 51
142.3914
  0
ARC
  8
        _00
  6
CONTINUOUS
 62
2
 10
1020.3092
 20
325.2827
 40
8.5000
 50
25.0618
 51
154.9382
  0
ARC
  8
        _00
  6
CONTINUOUS
 62
2
 10
1020.3092
 20
325.2827
 40
5.9000
 50
37.6086
 51
142.3914
  0
ARC
  8
        _00
  6
CONTINUOUS
 62
2
 10
960.3092
 20
275.2827
 40
8.5000
 50
205.0618
 51
334.9382
  0
ARC
  8
        _00
  6
CONTINUOUS
 62
2
 10
960.3092
 20
275.2827
 40
5.9000
 50
217.6086
 51
322.3914
  0
ARC
  8
        _00
  6
CONTINUOUS
 62
2
 10
1020.3092
 20
275.2827
 40
8.5000
 50
205.0618
 51
334.9382
  0
ARC
  8
        _00
  6
CONTINUOUS
 62
2
 10
1020.3092
 20
275.2827
 40
5.9000
 50
217.6086
 51
322.3914
  0
ARC
  8
12_0C
  6
DASHED
 62
2
 10
201.5605
 20
493.8066
 40
5.1605
 50
129.1846
 51
135.3350
  0
ARC
  8
12_0C
  6
DASHED
 62
2
 10
201.5605
 20
493.8066
 40
5.1605
 50
215.5172
 51
230.8154
  0
ARC
  8
12_0C
  6
CONTINUOUS
 62
2
 10
201.5605
 20
493.8066
 40
5.1605
 50
135.3350
 51
215.5172
  0
ARC
  8
12_0C
  6
DASHED
 62
2
 10
248.8395
 20
493.8066
 40
5.1605
 50
44.6650
 51
50.8154
  0
ARC
  8
12_0C
  6
DASHED
 62
2
 10
248.8395
 20
493.8066
 40
5.1605
 50
309.1846
 51
324.4828
  0
ARC
  8
12_0C
  6
CONTINUOUS
 62
2
 10
248.8395
 20
493.8066
 40
5.1605
 50
324.4828
 51
404.6650
  0
CIRCLE
  8
3_03
  6
CONTINUOUS
 62
2
 10
810.3576
 20
685.9435
 40
0.6000
  0
ARC
  8
3_03
  6
CONTINUOUS
 62
2
 10
810.3576
 20
685.9435
 40
0.3000
 50
36.1800
 51
53.8200
  0
ARC
  8
3_03
  6
CONTINUOUS
 62
2
 10
810.3576
 20
685.9435
 40
0.3000
 50
126.2068
 51
143.6799
  0
ARC
  8
3_03
  6
CONTINUOUS
 62
2
 10
810.3576
 20
685.9435
 40
0.3000
 50
216.1800
 51
233.7058
  0
ARC
  8
3_03
  6
CONTINUOUS
 62
2
 10
810.3576
 20
685.9435
 40
0.3000
 50
306.2068
 51
323.7932
  0
CIRCLE
  8
3_03
  6
CONTINUOUS
 62
2
 10
965.3577
 20
685.9435
 40
0.6000
  0
ARC
  8
3_03
  6
CONTINUOUS
 62
2
 10
965.3577
 20
685.9435
 40
0.3000
 50
36.1800
 51
53.8200
  0
ARC
  8
3_03
  6
CONTINUOUS
 62
2
 10
965.3577
 20
685.9435
 40
0.3000
 50
126.2068
 51
143.6799
  0
ARC
  8
3_03
  6
CONTINUOUS
 62
2
 10
965.3577
 20
685.9435
 40
0.3000
 50
216.1800
 51
233.7058
  0
ARC
  8
3_03
  6
CONTINUOUS
 62
2
 10
965.3577
 20
685.9435
 40
0.3000
 50
306.2068
 51
323.7932
  0
CIRCLE
  8
3_03
  6
CONTINUOUS
 62
2
 10
1120.3576
 20
685.9435
 40
0.6000
  0
ARC
  8
3_03
  6
CONTINUOUS
 62
2
 10
1120.3576
 20
685.9435
 40
0.3000
 50
36.1800
 51
53.8200
  0
ARC
  8
3_03
  6
CONTINUOUS
 62
2
 10
1120.3576
 20
685.9435
 40
0.3000
 50
126.2068
 51
143.6799
  0
ARC
  8
3_03
  6
CONTINUOUS
 62
2
 10
1120.3576
 20
685.9435
 40
0.3000
 50
216.1800
 51
233.7058
  0
ARC
  8
3_03
  6
CONTINUOUS
 62
2
 10
1120.3576
 20
685.9435
 40
0.3000
 50
306.2068
 51
323.7932
  0
ARC
  8
        _00
  6
CONTINUOUS
 62
3
 10
1089.6760
 20
72.2363
 40
0.5362
 50
270.0000
 51
450.0000
  0
ARC
  8
        _00
  6
CONTINUOUS
 62
3
 10
1088.1842
 20
77.0626
 40
0.6532
 50
0.0000
 51
180.0000
  0
ARC
  8
        _00
  6
CONTINUOUS
 62
3
 10
1089.1886
 20
83.4001
 40
1.9500
 50
333.9999
 51
450.0000
  0
CIRCLE
  8
        _00
  6
CONTINUOUS
 62
3
 10
1090.0660
 20
87.3000
 40
1.5600
  0
ARC
  8
        _00
  6
CONTINUOUS
 62
3
 10
1088.2811
 20
77.0626
 40
0.4500
 50
0.0000
 51
180.0000
  0
ARC
  8
        _00
  6
CONTINUOUS
 62
3
 10
1088.2811
 20
77.0626
 40
0.1500
 50
0.0000
 51
180.0000
  0
ARC
  8
        _00
  6
CONTINUOUS
 62
3
 10
1089.6760
 20
72.1725
 40
0.3000
 50
270.0000
 51
450.0000
  0
CIRCLE
  8
        _00
  6
CONTINUOUS
 62
3
 10
1090.0660
 20
87.3000
 40
1.3244
  0
CIRCLE
  8
        _00
  6
CONTINUOUS
 62
3
 10
1090.0660
 20
87.3000
 40
1.0256
  0
CIRCLE
  8
        _00
  6
CONTINUOUS
 62
3
 10
1090.0660
 20
87.3000
 40
0.7027
  0
CIRCLE
  8
        _00
  6
CONTINUOUS
 62
3
 10
1090.0660
 20
87.3000
 40
0.3440
  0
CIRCLE
  8
        _00
  6
CONTINUOUS
 62
3
 10
1090.0660
 20
87.3000
 40
0.1699
  0
CIRCLE
  8
        _00
  6
CONTINUOUS
 62
4
 10
881.0410
 20
82.2001
 40
3.7500
  0
CIRCLE
  8
        _00
  6
CONTINUOUS
 62
4
 10
881.0410
 20
82.2001
 40
6.0000
  0
ARC
  8
        _00
  6
CONTINUOUS
 62
4
 10
400.6615
 20
632.4505
 40
0.4000
 50
194.0363
 51
270.0000
  0
ARC
  8
        _00
  6
CONTINUOUS
 62
4
 10
399.7125
 20
633.3604
 40
0.3000
 50
14.0362
 51
87.5372
  0
ARC
  8
        _00
  6
CONTINUOUS
 62
4
 10
411.9770
 20
632.6505
 40
0.6000
 50
270.0000
 51
388.8667
  0
ARC
  8
        _00
  6
CONTINUOUS
 62
4
 10
414.8992
 20
635.3023
 40
0.3000
 50
275.0000
 51
371.6000
  0
ARC
  8
        _00
  6
CONTINUOUS
 62
4
 10
414.0992
 20
634.5798
 40
0.3500
 50
95.0000
 51
185.0988
  0
ARC
  8
        _00
  6
CONTINUOUS
 62
4
 10
413.0493
 20
634.9397
 40
1.0000
 50
95.0000
 51
180.0000
  0
ARC
  8
        _00
  6
CONTINUOUS
 62
4
 10
413.7740
 20
636.3081
 40
0.3000
 50
275.0000
 51
371.6000
  0
ARC
  8
        _00
  6
CONTINUOUS
 62
4
 10
414.0471
 20
639.9505
 40
0.7000
 50
90.0000
 51
191.6000
  0
ARC
  8
        _00
  6
CONTINUOUS
 62
4
 10
415.7427
 20
634.7264
 40
2.0000
 50
185.0988
 51
249.7122
  0
ARC
  8
        _00
  6
CONTINUOUS
 62
4
 10
415.7427
 20
634.7264
 40
3.7000
 50
183.4043
 51
208.8667
  0
ARC
  8
        _00
  6
CONTINUOUS
 62
4
 10
417.1498
 20
631.5892
 40
0.5000
 50
179.9995
 51
296.3368
  0
ARC
  8
        _00
  6
CONTINUOUS
 62
4
 10
414.8499
 20
640.3970
 40
0.4000
 50
359.4403
 51
449.9995
  0
ARC
  8
        _00
  6
CONTINUOUS
 62
4
 10
411.9498
 20
640.1971
 40
0.2000
 50
179.9995
 51
269.9996
  0
ARC
  8
        _00
  6
CONTINUOUS
 62
4
 10
411.9498
 20
640.5971
 40
0.6000
 50
269.9996
 51
359.9996
  0
ARC
  8
        _00
  6
CONTINUOUS
 62
4
 10
414.1998
 20
634.5539
 40
0.3500
 50
94.9995
 51
190.8312
  0
ARC
  8
14_0E
  6
CONTINUOUS
 62
4
 10
415.8204
 20
634.8640
 40
2.0000
 50
190.8312
 51
253.4221
  0
ARC
  8
        _00
  6
CONTINUOUS
 62
4
 10
414.8498
 20
635.3636
 40
0.4000
 50
274.9996
 51
371.3995
  0
ARC
  8
        _00
  6
CONTINUOUS
 62
4
 10
414.9712
 20
637.7970
 40
0.2000
 50
89.9995
 51
191.3996
  0
ARC
  8
        _00
  6
CONTINUOUS
 62
4
 10
412.7498
 20
641.0971
 40
1.0000
 50
89.9995
 51
179.9995
  0
ARC
  8
        _00
  6
CONTINUOUS
 62
4
 10
415.3498
 20
640.7970
 40
1.3000
 50
359.9996
 51
449.9995
  0
ARC
  8
        _00
  6
CONTINUOUS
 62
4
 10
386.6492
 20
606.3066
 40
60.0000
 50
56.5252
 51
123.4747
  0
ARC
  8
        _00
  6
CONTINUOUS
 62
4
 10
411.2493
 20
643.5087
 40
15.4000
 50
292.7488
 51
416.5252
  0
ARC
  8
        _00
  6
CONTINUOUS
 62
4
 10
416.6592
 20
630.6065
 40
1.4095
 50
179.9994
 51
292.7488
  0
ARC
  8
        _00
  6
CONTINUOUS
 62
4
 10
411.2493
 20
643.5087
 40
13.8000
 50
296.3368
 51
416.5252
  0
ARC
  8
        _00
  6
CONTINUOUS
 62
4
 10
386.6492
 20
606.3066
 40
58.4000
 50
56.5252
 51
123.4747
  0
ARC
  8
        _00
  6
CONTINUOUS
 62
4
 10
372.6370
 20
632.4505
 40
0.4000
 50
270.0000
 51
345.9637
  0
ARC
  8
        _00
  6
CONTINUOUS
 62
4
 10
373.5859
 20
633.3604
 40
0.3000
 50
92.4628
 51
165.9637
  0
ARC
  8
        _00
  6
CONTINUOUS
 62
4
 10
361.3215
 20
632.6505
 40
0.6000
 50
151.1333
 51
270.0000
  0
ARC
  8
        _00
  6
CONTINUOUS
 62
4
 10
358.3992
 20
635.3023
 40
0.3000
 50
168.4000
 51
265.0000
  0
ARC
  8
        _00
  6
CONTINUOUS
 62
4
 10
359.1993
 20
634.5798
 40
0.3500
 50
354.9012
 51
445.0000
  0
ARC
  8
        _00
  6
CONTINUOUS
 62
4
 10
360.2492
 20
634.9397
 40
1.0000
 50
0.0000
 51
85.0000
  0
ARC
  8
        _00
  6
CONTINUOUS
 62
4
 10
359.5245
 20
636.3081
 40
0.3000
 50
168.4000
 51
265.0000
  0
ARC
  8
        _00
  6
CONTINUOUS
 62
4
 10
359.2513
 20
639.9505
 40
0.7000
 50
348.4000
 51
450.0000
  0
ARC
  8
        _00
  6
CONTINUOUS
 62
4
 10
357.5558
 20
634.7264
 40
2.0000
 50
290.2878
 51
354.9012
  0
ARC
  8
        _00
  6
CONTINUOUS
 62
4
 10
357.5558
 20
634.7264
 40
3.7000
 50
331.1333
 51
356.5957
  0
ARC
  8
        _00
  6
CONTINUOUS
 62
4
 10
356.1487
 20
631.5892
 40
0.5000
 50
243.6632
 51
360.0004
  0
ARC
  8
        _00
  6
CONTINUOUS
 62
4
 10
358.4486
 20
640.3970
 40
0.4000
 50
89.9999
 51
180.5597
  0
ARC
  8
        _00
  6
CONTINUOUS
 62
4
 10
361.3486
 20
640.1971
 40
0.2000
 50
270.0005
 51
360.0004
  0
ARC
  8
        _00
  6
CONTINUOUS
 62
4
 10
361.3486
 20
640.5971
 40
0.6000
 50
180.0005
 51
270.0005
  0
ARC
  8
        _00
  6
CONTINUOUS
 62
4
 10
359.0987
 20
634.5539
 40
0.3500
 50
349.1688
 51
445.0004
  0
ARC
  8
14_0E
  6
CONTINUOUS
 62
4
 10
357.4781
 20
634.8640
 40
2.0000
 50
286.5779
 51
349.1688
  0
ARC
  8
        _00
  6
CONTINUOUS
 62
4
 10
358.4487
 20
635.3636
 40
0.4000
 50
168.6004
 51
265.0005
  0
ARC
  8
        _00
  6
CONTINUOUS
 62
4
 10
358.3273
 20
637.7970
 40
0.2000
 50
348.6005
 51
450.0004
  0
ARC
  8
        _00
  6
CONTINUOUS
 62
4
 10
360.5487
 20
641.0971
 40
1.0000
 50
0.0004
 51
90.0004
  0
ARC
  8
        _00
  6
CONTINUOUS
 62
4
 10
357.9487
 20
640.7970
 40
1.3000
 50
90.0004
 51
180.0005
  0
ARC
  8
        _00
  6
CONTINUOUS
 62
4
 10
362.0492
 20
643.5087
 40
15.4000
 50
123.4747
 51
247.2512
  0
ARC
  8
        _00
  6
CONTINUOUS
 62
4
 10
356.6393
 20
630.6065
 40
1.4095
 50
247.2512
 51
360.0006
  0
ARC
  8
        _00
  6
CONTINUOUS
 62
4
 10
362.0492
 20
643.5087
 40
13.8000
 50
123.4747
 51
243.6632
  0
TEXT
  8
14_0E
 62
7
 10
218.0000
 20
351.5000
 40
6.75
 41
0.75
 50
0.0000
  1
50
  0
TEXT
  8
14_0E
 62
7
 10
65.7292
 20
352.7244
 40
7.50
 41
1.00
 50
0.0000
  1
Ｃ（躯体端部～アンカー芯寸法）≧５０
  0
TEXT
  8
15_0F
 62
7
 10
802.6285
 20
722.9779
 40
7.50
 41
1.00
 50
0.0000
  1
Ａ
  0
TEXT
  8
15_0F
 62
7
 10
989.4207
 20
654.8015
 40
7.50
 41
1.00
 50
0.0000
  1
Ｂ
  0
TEXT
  8
15_0F
 62
7
 10
771.6806
 20
654.8015
 40
7.50
 41
1.00
 50
0.0000
  1
Ｂ
  0
TEXT
  8
15_0F
 62
7
 10
802.6285
 20
668.1270
 40
7.50
 41
1.00
 50
0.0000
  1
Ａ
  0
TEXT
  8
        _00
 62
2
 10
130.2000
 20
742.6344
 40
12.00
 41
1.00
 50
0.0000
  1
屋外側
  0
TEXT
  8
        _00
 62
2
 10
291.4000
 20
742.6344
 40
12.00
 41
1.00
 50
0.0000
  1
建物側
  0
TEXT
  8
15_0F
 62
7
 10
211.2307
 20
758.7404
 40
7.50
 41
1.00
 50
0.0000
  1
［Ｋ型］
  0
TEXT
  8
15_0F
 62
7
 10
370.8981
 20
758.7404
 40
7.50
 41
1.00
 50
0.0000
  1
［D型］
  0
TEXT
  8
15_0F
 62
7
 10
255.5721
 20
681.3007
 40
7.50
 41
1.00
 50
0.0000
  1
Ｋ型笠木カバー
  0
TEXT
  8
15_0F
 62
7
 10
417.0686
 20
679.9344
 40
7.50
 41
1.00
 50
0.0000
  1
Ｄ型笠木カバー
  0
TEXT
  8
        _00
 62
7
 10
148.0821
 20
604.2821
 40
7.50
 41
1.00
 50
0.0000
  1
笠木底板
  0
TEXT
  8
        _00
 62
7
 10
269.9571
 20
518.9134
 40
7.50
 41
1.00
 50
0.0000
  1
トップレールＫ柱基礎金具
  0
TEXT
  8
        _00
 62
7
 10
264.1444
 20
566.2122
 40
7.50
 41
1.00
 50
0.0000
  1
トップレールＫ柱
  0
TEXT
  8
        _00
 62
7
 10
306.3015
 20
363.2151
 40
7.50
 41
1.00
 50
0.0000
  1
下穴（φ６）現場加工
  0
TEXT
  8
        _00
 62
7
 10
307.2389
 20
349.9040
 40
7.50
 41
1.00
 50
0.0000
  1
下穴コーキング処理
  0
TEXT
  8
        _00
 62
7
 10
291.0799
 20
389.8002
 40
7.50
 41
1.00
 50
0.0000
  1
ナイロンアンカｰ
  0
TEXT
  8
        _00
 62
7
 10
311.0173
 20
376.4891
 40
7.50
 41
1.00
 50
0.0000
  1
φ６
  0
TEXT
  8
        _00
 62
7
 10
278.6440
 20
417.7973
 40
7.50
 41
1.00
 50
0.0000
  1
タッピンねじ・トラス
  0
TEXT
  8
        _00
 62
7
 10
283.5814
 20
404.4863
 40
7.50
 41
1.00
 50
0.0000
  1
φ５×５０（１種）
  0
TEXT
  8
        _00
 62
7
 10
633.6729
 20
341.5537
 40
7.50
 41
1.00
 50
0.0000
  1
トップレールＫ柱基礎金具
  0
TEXT
  8
15_0F
 62
7
 10
824.1611
 20
70.2000
 40
7.50
 41
1.00
 50
0.0000
  1
１
  0
TEXT
  8
15_0F
 62
7
 10
852.6611
 20
70.2000
 40
7.50
 41
1.00
 50
0.0000
  1
３
  0
TEXT
  8
15_0F
 62
7
 10
704.3110
 20
74.7000
 40
7.50
 41
1.00
 50
0.0000
  1
納まり図
  0
TEXT
  8
15_0F
 62
7
 10
508.1110
 20
41.7000
 40
7.50
 41
1.00
 50
0.0000
  1
ＲＣ造
  0
TEXT
  8
15_0F
 62
7
 10
497.3110
 20
71.7000
 40
7.50
 41
1.00
 50
0.0000
  1
低・中・高層
  0
TEXT
  8
15_0F
 62
7
 10
576.0610
 20
71.7000
 40
7.50
 41
1.00
 50
0.0000
  1
アルミ手すり
  0
TEXT
  8
15_0F
 62
7
 10
571.0610
 20
41.7000
 40
7.50
 41
1.00
 50
0.0000
  1
Ｋ、Ｄ、Ｍ型
  0
TEXT
  8
15_0F
 62
7
 10
634.4710
 20
45.1501
 40
6.00
 41
1.00
 50
0.0000
  1
トップレール手すり［直線部］（Ｋ柱）後付工法納まり図
  0
TEXT
  8
15_0F
 62
7
 10
201.0905
 20
100.2001
 40
7.50
 41
1.00
 50
0.0000
  1
1）Ｈ、Ｌ、ＬＣは発注寸法とする。
  0
TEXT
  8
15_0F
 62
7
 10
200.5372
 20
84.4527
 40
7.50
 41
1.00
 50
0.0000
  1
　　（躯体寸法発注の場合、Ｌは標準割付寸法、ＬＣは標準寸法とする。）
  0
TEXT
  8
15_0F
 62
7
 10
200.5036
 20
68.8701
 40
7.50
 41
1.00
 50
0.0000
  1
２）［　］内寸法は標準寸法とする。
  0
TEXT
  8
        _00
 62
7
 10
541.8081
 20
680.6728
 40
7.50
 41
1.00
 50
0.0000
  1
Ｍ型笠木カバー
  0
TEXT
  8
15_0F
 62
7
 10
501.9516
 20
758.7404
 40
7.50
 41
1.00
 50
0.0000
  1
［Ｍ型］
  0
TEXT
  8
        _00
 62
7
 10
554.0940
 20
609.8716
 40
7.50
 41
1.00
 50
0.0000
  1
Ｍ型笠木底板
  0
TEXT
  8
15_0F
 62
7
 10
1197.5040
 20
693.2185
 40
6.75
 41
0.75
 50
90.0000
  1
H
  0
TEXT
  8
15_0F
 62
7
 10
1095.5542
 20
504.7833
 40
7.50
 41
1.00
 50
0.0000
  1
外観姿図（１：２０）
  0
TEXT
  8
        _00
 62
7
 10
70.2905
 20
40.2001
 40
7.50
 41
1.00
 50
0.0000
  1
適用製品
  0
TEXT
  8
        _00
 62
7
 10
130.2905
 20
40.2001
 40
7.50
 41
1.00
 50
0.0000
  1
適用日付
  0
TEXT
  8
        _00
 62
7
 10
178.5905
 20
100.2001
 40
7.50
 41
1.00
 50
0.0000
  1
記事
  0
TEXT
  8
        _00
 62
7
 10
472.5611
 20
85.2001
 40
7.50
 41
1.00
 50
0.0000
  1
階層仕様
  0
TEXT
  8
        _00
 62
7
 10
472.5611
 20
55.2000
 40
7.50
 41
1.00
 50
0.0000
  1
適用躯体
  0
TEXT
  8
        _00
 62
7
 10
630.0610
 20
85.2001
 40
7.50
 41
1.00
 50
0.0000
  1
名　称
  0
TEXT
  8
        _00
 62
7
 10
630.0610
 20
55.2000
 40
7.50
 41
1.00
 50
0.0000
  1
図　名
  0
TEXT
  8
        _00
 62
7
 10
814.9368
 20
100.2458
 40
7.50
 41
1.00
 50
0.0000
  1
Ｎｏ．
  0
TEXT
  8
        _00
 62
7
 10
1123.5610
 20
100.2001
 40
7.50
 41
1.00
 50
0.0000
  1
適　　　　　　　　用
  0
TEXT
  8
        _00
 62
7
 10
1078.4111
 20
100.2001
 40
7.50
 41
1.00
 50
0.0000
  1
個数
  0
TEXT
  8
        _00
 62
7
 10
1023.2110
 20
100.2001
 40
7.50
 41
1.00
 50
0.0000
  1
材　　質
  0
TEXT
  8
        _00
 62
7
 10
926.1610
 20
100.2001
 40
7.50
 41
1.00
 50
0.0000
  1
部　　　品　　　名
  0
TEXT
  8
        _00
 62
7
 10
895.9360
 20
100.2001
 40
7.50
 41
1.00
 50
0.0000
  1
品番
  0
TEXT
  8
        _00
 62
7
 10
850.8611
 20
100.2001
 40
7.50
 41
1.00
 50
0.0000
  1
図　　番
  0
TEXT
  8
        _00
 62
7
 10
816.6610
 20
85.2001
 40
7.50
 41
1.00
 50
0.0000
  1
尺度
  0
TEXT
  8
        _00
 62
7
 10
816.6610
 20
55.2000
 40
7.50
 41
1.00
 50
0.0000
  1
日付
  0
TEXT
  8
        _00
 62
7
 10
928.3942
 20
85.2001
 40
7.50
 41
1.00
 50
0.0000
  1
承認
  0
TEXT
  8
        _00
 62
7
 10
970.5611
 20
85.2001
 40
7.50
 41
1.00
 50
0.0000
  1
検図
  0
TEXT
  8
        _00
 62
7
 10
1006.8610
 20
85.2001
 40
7.50
 41
1.00
 50
0.0000
  1
設計
  0
TEXT
  8
        _00
 62
7
 10
1044.2110
 20
85.2001
 40
7.50
 41
1.00
 50
0.0000
  1
製図
  0
TEXT
  8
        _00
 62
7
 10
1074.5110
 20
55.2000
 40
7.50
 41
1.00
 50
0.0000
  1
図番
  0
TEXT
  8
        _00
 62
2
 10
1103.9219
 20
74.2350
 40
12.00
 41
1.00
 50
0.0000
  1
文化シヤッター株式会社
  0
TEXT
  8
        _00
 62
7
 10
200.7905
 20
862.9501
 40
7.50
 41
1.00
 50
180.0000
  1
図番
  0
TEXT
  8
        _00
 62
7
 10
799.0510
 20
854.0169
 40
6.00
 41
1.00
 50
0.0000
  1
ＮＯ
  0
TEXT
  8
        _00
 62
7
 10
825.2111
 20
853.9501
 40
7.50
 41
1.00
 50
0.0000
  1
個　数
  0
TEXT
  8
        _00
 62
7
 10
870.3611
 20
853.9501
 40
7.50
 41
1.00
 50
0.0000
  1
日　　付
  0
TEXT
  8
        _00
 62
7
 10
984.2111
 20
853.9501
 40
7.50
 41
1.00
 50
0.0000
  1
訂　　　正　　　記　　　事
  0
TEXT
  8
        _00
 62
7
 10
838.4111
 20
70.2000
 40
6.75
 41
0.75
 50
0.0000
  1
:
  0
TEXT
  8
        _00
 62
7
 10
1137.8712
 20
26.7000
 40
6.00
 41
1.00
 50
0.0000
  1
ＪＩＳ　Ａ－３
  0
TEXT
  8
        _00
 62
7
 10
1179.4986
 20
26.6983
 40
6.00
 41
1.00
 50
0.0000
  1
（２９７×４２０）
  0
TEXT
  8
        _00
 62
7
 10
1153.1111
 20
853.9501
 40
7.50
 41
1.00
 50
0.0000
  1
担　当
  0
TEXT
  8
        _00
 62
7
 10
1189.1111
 20
853.9501
 40
7.50
 41
1.00
 50
0.0000
  1
承　認
  0
TEXT
  8
        _00
 62
7
 10
551.3111
 20
85.2001
 40
7.50
 41
1.00
 50
0.0000
  1
機種名
  0
TEXT
  8
        _00
 62
7
 10
551.3111
 20
55.2000
 40
7.50
 41
1.00
 50
0.0000
  1
型　式
  0
TEXT
  8
        _00
 62
7
 10
582.6076
 20
771.5000
 40
7.50
 41
1.00
 50
0.0000
  1
１１０≦ＬＣ［２５０］≦４５５
  0
TEXT
  8
        _00
 62
7
 10
729.2576
 20
771.5000
 40
7.50
 41
1.00
 50
0.0000
  1
Ｌ
  0
TEXT
  8
        _00
 62
7
 10
851.8576
 20
771.5000
 40
7.50
 41
1.00
 50
0.0000
  1
１５０≦Ｌ≦１３６５
  0
TEXT
  8
        _00
 62
7
 10
1039.2578
 20
771.5000
 40
7.50
 41
1.00
 50
0.0000
  1
Ｌ
  0
TEXT
  8
        _00
 62
7
 10
1131.9077
 20
771.5000
 40
7.50
 41
1.00
 50
0.0000
  1
ＬＣ
  0
TEXT
  8
        _00
 62
7
 10
87.0000
 20
451.1066
 40
7.50
 41
1.00
 50
90.0000
  1
Ｈ（トップレール手すり高さ寸法）＝１５０、２００、２５０、３００
  0
TEXT
  8
        _00
 62
7
 10
107.0000
 20
476.6066
 40
6.75
 41
0.75
 50
90.0000
  1
35
  0
TEXT
  8
15_0F
 62
7
 10
297.0000
 20
635.6066
 40
6.75
 41
0.75
 50
90.0000
  1
47
  0
TEXT
  8
15_0F
 62
7
 10
452.0000
 20
640.5519
 40
6.75
 41
0.75
 50
90.0000
  1
37
  0
TEXT
  8
15_0F
 62
7
 10
112.7327
 20
298.1846
 40
7.50
 41
1.00
 50
0.0000
  1
Ａ－Ａ矢視図
  0
TEXT
  8
15_0F
 62
7
 10
474.1815
 20
153.8589
 40
7.50
 41
1.00
 50
0.0000
  1
Ｂ－Ｂ矢視図
  0
TEXT
  8
        _00
 62
7
 10
564.2383
 20
431.5000
 40
6.75
 41
0.75
 50
0.0000
  1
85
  0
TEXT
  8
        _00
 62
7
 10
564.2383
 20
411.5000
 40
6.75
 41
0.75
 50
0.0000
  1
60
  0
TEXT
  8
        _00
 62
7
 10
716.0737
 20
451.5000
 40
7.50
 41
1.00
 50
0.0000
  1
１５０≦Ｌ（柱スパン寸法）≦１３６５
  0
TEXT
  8
        _00
 62
7
 10
447.0000
 20
293.0827
 40
6.75
 41
0.75
 50
90.0000
  1
72
  0
TEXT
  8
        _00
 62
7
 10
467.0000
 20
293.0827
 40
6.75
 41
0.75
 50
90.0000
  1
50
  0
TEXT
  8
        _00
 62
7
 10
594.4383
 20
191.5000
 40
6.75
 41
0.75
 50
0.0000
  1
28
  0
TEXT
  8
        _00
 62
7
 10
667.0000
 20
293.0827
 40
6.75
 41
0.75
 50
90.0000
  1
43
  0
TEXT
  8
        _00
 62
7
 10
1107.0000
 20
293.0827
 40
6.75
 41
0.75
 50
90.0000
  1
36
  0
TEXT
  8
        _00
 62
7
 10
1009.8093
 20
431.5000
 40
6.75
 41
0.75
 50
0.0000
  1
21
  0
TEXT
  8
13_0D
 62
7
 10
505.1209
 20
708.2958
 40
6.75
 41
0.75
 50
0.0000
  1
φ58
  0
TEXT
  8
        _00
 62
7
 10
218.0003
 20
711.5000
 40
6.75
 41
0.75
 50
0.0000
  1
60
  0
TEXT
  8
15_0F
 62
7
 10
379.7296
 20
711.5000
 40
6.75
 41
0.75
 50
0.0000
  1
80
  0
POINT
  8
        _00
 62
2
 10
250.2000
 20
475.8066
  0
POINT
  8
        _00
 62
2
 10
250.2000
 20
475.8066
  0
POINT
  8
        _00
 62
2
 10
250.2000
 20
475.8066
  0
POINT
  8
        _00
 62
2
 10
250.2000
 20
466.3065
  0
POINT
  8
        _00
 62
2
 10
250.2000
 20
466.3065
  0
POINT
  8
        _00
 62
2
 10
200.2000
 20
466.3065
  0
POINT
  8
        _00
 62
2
 10
200.2000
 20
466.3065
  0
POINT
  8
        _00
 62
2
 10
979.8092
 20
318.2827
  0
POINT
  8
        _00
 62
2
 10
979.8092
 20
318.2827
  0
POINT
  8
        _00
 62
2
 10
1000.8092
 20
318.2827
  0
POINT
  8
        _00
 62
2
 10
1000.8092
 20
318.2827
  0
POINT
  8
        _00
 62
2
 10
979.8092
 20
282.2827
  0
POINT
  8
        _00
 62
2
 10
979.8092
 20
282.2827
  0
POINT
  8
        _00
 62
2
 10
1000.8092
 20
282.2827
  0
POINT
  8
        _00
 62
2
 10
1000.8092
 20
282.2827
  0
POINT
  8
        _00
 62
2
 10
979.8092
 20
282.2827
  0
POINT
  8
        _00
 62
2
 10
979.8092
 20
282.2827
  0
POINT
  8
        _00
 62
2
 10
1000.8092
 20
282.2827
  0
POINT
  8
        _00
 62
2
 10
1000.8092
 20
282.2827
  0
POINT
  8
        _00
 62
6
 10
183.9258
 20
355.6226
  0
POINT
  8
        _00
 62
5
 10
200.2000
 20
466.3065
  0
POINT
  8
        _00
 62
2
 10
200.2000
 20
475.8066
  0
POINT
  8
        _00
 62
2
 10
200.2000
 20
475.8066
  0
POINT
  8
        _00
 62
2
 10
200.2000
 20
475.8066
  0
POINT
  8
        _00
 62
5
 10
571.4383
 20
300.2827
  0
POINT
  8
        _00
 62
5
 10
571.4383
 20
273.2827
  0
POINT
  8
        _00
 62
5
 10
571.4383
 20
300.2827
  0
POINT
  8
        _00
 62
2
 10
252.2324
 20
626.8066
  0
POINT
  8
        _00
 62
2
 10
655.3577
 20
685.9435
  0
POINT
  8
        _00
 62
2
 10
655.3577
 20
685.9435
  0
POINT
  8
        _00
 62
2
 10
660.2327
 20
683.2435
  0
POINT
  8
        _00
 62
2
 10
660.2327
 20
683.2435
  0
POINT
  8
        _00
 62
2
 10
660.2327
 20
683.2435
  0
POINT
  8
        _00
 62
2
 10
810.3576
 20
685.9435
  0
POINT
  8
        _00
 62
2
 10
810.3576
 20
685.9435
  0
POINT
  8
        _00
 62
2
 10
805.4827
 20
683.2435
  0
POINT
  8
        _00
 62
2
 10
805.4827
 20
683.2435
  0
POINT
  8
        _00
 62
2
 10
805.4827
 20
683.2435
  0
POINT
  8
        _00
 62
2
 10
815.2327
 20
683.2435
  0
POINT
  8
        _00
 62
2
 10
815.2327
 20
683.2435
  0
POINT
  8
        _00
 62
2
 10
815.2327
 20
683.2435
  0
POINT
  8
        _00
 62
2
 10
965.3577
 20
685.9435
  0
POINT
  8
        _00
 62
2
 10
965.3577
 20
685.9435
  0
POINT
  8
        _00
 62
2
 10
960.4827
 20
683.2435
  0
POINT
  8
        _00
 62
2
 10
960.4827
 20
683.2435
  0
POINT
  8
        _00
 62
2
 10
960.4827
 20
683.2435
  0
POINT
  8
        _00
 62
2
 10
970.2327
 20
683.2435
  0
POINT
  8
        _00
 62
2
 10
970.2327
 20
683.2435
  0
POINT
  8
        _00
 62
2
 10
970.2327
 20
683.2435
  0
POINT
  8
        _00
 62
2
 10
1120.3576
 20
685.9435
  0
POINT
  8
        _00
 62
2
 10
1120.3576
 20
685.9435
  0
POINT
  8
        _00
 62
2
 10
1115.4826
 20
683.2435
  0
POINT
  8
        _00
 62
2
 10
1115.4826
 20
683.2435
  0
POINT
  8
        _00
 62
2
 10
1115.4826
 20
683.2435
  0
POINT
  8
        _00
 62
2
 10
1125.2326
 20
683.2435
  0
POINT
  8
        _00
 62
2
 10
1125.2326
 20
683.2435
  0
POINT
  8
        _00
 62
2
 10
1125.2326
 20
683.2435
  0
POINT
  8
        _00
 62
2
 10
655.3577
 20
685.9435
  0
POINT
  8
        _00
 62
2
 10
207.2000
 20
622.5066
  0
POINT
  8
        _00
 62
2
 10
243.2000
 20
622.5066
  0
POINT
  8
        _00
 62
2
 10
404.6492
 20
632.2505
  0
POINT
  8
        _00
 62
2
 10
368.6492
 20
632.2505
  0
POINT
  8
        _00
 62
2
 10
533.9209
 20
632.8065
  0
POINT
  8
        _00
 62
2
 10
497.9209
 20
632.8065
  0
POINT
  8
        _00
 62
2
 10
250.2000
 20
466.3065
  0
POINT
  8
        _00
 62
2
 10
200.2000
 20
466.3065
  0
POINT
  8
        _00
 62
2
 10
571.4383
 20
326.7827
  0
POINT
  8
        _00
 62
2
 10
571.4383
 20
273.7827
  0
POINT
  8
        _00
 62
2
 10
601.4383
 20
325.2827
  0
POINT
  8
        _00
 62
2
 10
541.4383
 20
325.2827
  0
POINT
  8
        _00
 62
2
 10
601.4383
 20
275.2827
  0
POINT
  8
        _00
 62
2
 10
541.4383
 20
275.2827
  0
POINT
  8
        _00
 62
2
 10
198.7000
 20
493.8066
  0
POINT
  8
        _00
 62
2
 10
251.7000
 20
493.8066
  0
POINT
  8
        _00
 62
2
 10
810.3576
 20
685.9435
  0
POINT
  8
        _00
 62
2
 10
965.3577
 20
685.9435
  0
POINT
  8
        _00
 62
2
 10
1120.3576
 20
685.9435
  0
POINT
  8
        _00
 62
2
 10
24.0905
 20
14.9991
  0
POINT
  8
        _00
 62
2
 10
24.0905
 20
14.9991
  0
POINT
  8
        _00
 62
2
 10
84.6905
 20
59.7001
  0
POINT
  8
        _00
 62
2
 10
84.6905
 20
74.7001
  0
POINT
  8
        _00
 62
2
 10
84.6905
 20
89.7001
  0
POINT
  8
        _00
 62
2
 10
84.6905
 20
104.7001
  0
POINT
  8
        _00
 62
2
 10
518.9110
 20
76.2000
  0
POINT
  8
        _00
 62
2
 10
518.9110
 20
46.2000
  0
POINT
  8
        _00
 62
2
 10
718.7110
 20
79.2000
  0
POINT
  8
        _00
 62
2
 10
718.7110
 20
49.2000
  0
POINT
  8
        _00
 62
2
 10
1097.7610
 20
52.2000
  0
POINT
  8
        _00
 62
2
 10
1014.0610
 20
59.7001
  0
POINT
  8
        _00
 62
2
 10
144.6905
 20
59.7001
  0
POINT
  8
        _00
 62
2
 10
144.6905
 20
74.7001
  0
POINT
  8
        _00
 62
2
 10
144.6905
 20
89.7001
  0
POINT
  8
        _00
 62
2
 10
144.6905
 20
104.7001
  0
POINT
  8
        _00
 62
2
 10
856.2610
 20
74.7000
  0
POINT
  8
        _00
 62
2
 10
827.7610
 20
74.7000
  0
POINT
  8
        _00
 62
2
 10
204.6905
 20
104.7001
  0
POINT
  8
        _00
 62
2
 10
204.6905
 20
89.7001
  0
POINT
  8
        _00
 62
2
 10
204.6905
 20
74.7001
  0
POINT
  8
        _00
 62
2
 10
204.6905
 20
59.7001
  0
POINT
  8
        _00
 62
2
 10
204.6905
 20
44.7001
  0
POINT
  8
        _00
 62
2
 10
1051.4110
 20
59.7001
  0
POINT
  8
        _00
 62
2
 10
84.6905
 20
44.7001
  0
POINT
  8
        _00
 62
2
 10
144.6905
 20
44.7001
  0
POINT
  8
        _00
 62
2
 10
174.6905
 20
858.4501
  0
POINT
  8
        _00
 62
2
 10
862.6360
 20
49.2000
  0
POINT
  8
        _00
 62
2
 10
597.6610
 20
76.2000
  0
POINT
  8
        _00
 62
2
 10
597.6610
 20
46.2000
  0
ENDSEC
  0
EOF
