999
  
  0
SECTION
  2
HEADER
  9
$EXTMIN
 10
0
 20
0
  9
$EXTMAX
 10
1260
 20
888
  9
$LTSCALE
 40
3.00
  9
$PDMODE
 70
33
  9
$PDSIZE
 40
1.80
  0
ENDSEC
  0
SECTION
  2
TABLES
  0
TABLE
  2
LTYPE
 70
9
  0
LTYPE
  2
CONTINUOUS
 70
64
  3
実線
 72
65
 73
0
 40
0.00
  0
LTYPE
  2
DASHED
 70
64
  3
__  __  __  __  __  __  __ 
 72
65
 73
2
 40
1.00
 49
0.50
 49
-0.50
  0
LTYPE
  2
HIDDEN1
 70
64
  3
____    ____    ____    ___
 72
65
 73
2
 40
2.20
 49
1.20
 49
-1.00
  0
LTYPE
  2
HIDDEN2
 70
64
  3
______  ______  ______  ___
 72
65
 73
2
 40
4.50
 49
3.50
 49
-1.00
  0
LTYPE
  2
CENTER1
 70
64
  3
_______ _ _______ _ _______
 72
65
 73
4
 40
20.00
 49
17.00
 49
-1.00
 49
1.00
 49
-1.00
  0
LTYPE
  2
CENTER2
 70
64
  3
___________  __  __________
 72
65
 73
4
 40
40.00
 49
34.00
 49
-2.00
 49
2.00
 49
-2.00
  0
LTYPE
  2
PHANTOM1
 70
64
  3
______ _ _ ______ _ _ _____
 72
65
 73
6
 40
20.00
 49
15.00
 49
-1.00
 49
1.00
 49
-1.00
 49
1.00
 49
-1.00
  0
LTYPE
  2
PHANTOM2
 70
64
  3
__________  _  _  _________
 72
65
 73
6
 40
40.00
 49
30.00
 49
-2.00
 49
2.00
 49
-2.00
 49
2.00
 49
-2.00
  0
LTYPE
  2
DOT
 70
64
  3
 .  .  .  .  .  .  .  .  . 
 72
65
 73
2
 40
1.00
 49
0.00
 49
-1.00
  0
ENDTAB
  0
TABLE
  2
STYLE
 70
1
  0
STYLE
  2
STANDARD
 70
64
 40
0.0
 41
1.0
 42
0.0
 50
0.0
 71
0
  3
ROMANS
  4
BIGFONT
  0
ENDTAB
  0
TABLE
  2
LAYER
 70
5
  0
LAYER
  2
0_00
 70
64
 62
7
  6
CONTINUOUS
  0
LAYER
  2
2_02
 70
64
 62
7
  6
CONTINUOUS
  0
LAYER
  2
12_0C
 70
64
 62
7
  6
CONTINUOUS
  0
LAYER
  2
14_0E
 70
64
 62
7
  6
CONTINUOUS
  0
LAYER
  2
15_0F
 70
64
 62
7
  6
CONTINUOUS
  0
ENDTAB
  0
ENDSEC
  0
SECTION
  2
ENTITIES
  0
LINE
  8
0_00
  6
CENTER1
 62
6
 10
780.2643
 20
711.5408
 11
780.2643
 21
158.3943
  0
LINE
  8
0_00
  6
CONTINUOUS
 62
4
 10
891.9254
 20
451.4179
 11
1135.6948
 21
451.4179
  0
LINE
  8
0_00
  6
CONTINUOUS
 62
4
 10
891.9254
 20
446.7179
 11
1135.6948
 21
446.7179
  0
LINE
  8
0_00
  6
CENTER1
 62
6
 10
922.0281
 20
454.6284
 11
922.0281
 21
355.2032
  0
LINE
  8
0_00
  6
CENTER1
 62
6
 10
1025.3616
 20
454.6284
 11
1025.3616
 21
355.2032
  0
LINE
  8
0_00
  6
CONTINUOUS
 62
4
 10
1023.3615
 20
446.7179
 11
1023.3615
 21
363.4179
  0
LINE
  8
0_00
  6
CONTINUOUS
 62
4
 10
1027.3616
 20
446.7179
 11
1027.3616
 21
363.4179
  0
LINE
  8
0_00
  6
CONTINUOUS
 62
4
 10
920.0283
 20
446.7179
 11
920.0283
 21
363.4179
  0
LINE
  8
0_00
  6
CONTINUOUS
 62
4
 10
924.0282
 20
446.7179
 11
924.0282
 21
363.4179
  0
LINE
  8
0_00
  6
CONTINUOUS
 62
4
 10
924.0282
 20
374.9179
 11
1023.3615
 21
374.9179
  0
LINE
  8
0_00
  6
CONTINUOUS
 62
4
 10
924.0282
 20
371.4179
 11
1023.3615
 21
371.4179
  0
LINE
  8
0_00
  6
CONTINUOUS
 62
4
 10
891.9254
 20
363.4179
 11
1136.1948
 21
363.4179
  0
LINE
  8
0_00
  6
CONTINUOUS
 62
4
 10
891.9254
 20
374.9179
 11
920.0283
 21
374.9179
  0
LINE
  8
0_00
  6
CONTINUOUS
 62
4
 10
891.9254
 20
371.4179
 11
920.0283
 21
371.4179
  0
LINE
  8
0_00
  6
CONTINUOUS
 62
4
 10
1027.3616
 20
374.9179
 11
1136.1948
 21
374.9179
  0
LINE
  8
0_00
  6
CONTINUOUS
 62
4
 10
1027.3616
 20
371.4179
 11
1136.1948
 21
371.4179
  0
LINE
  8
0_00
  6
CONTINUOUS
 62
4
 10
1114.1282
 20
446.7179
 11
1114.1282
 21
374.9179
  0
LINE
  8
0_00
  6
CONTINUOUS
 62
4
 10
1116.1282
 20
374.9179
 11
1116.1282
 21
446.7179
  0
LINE
  8
0_00
  6
CONTINUOUS
 62
4
 10
1101.4282
 20
446.7179
 11
1101.4282
 21
374.9179
  0
LINE
  8
0_00
  6
CONTINUOUS
 62
4
 10
1103.4282
 20
374.9179
 11
1103.4282
 21
446.7179
  0
LINE
  8
0_00
  6
CONTINUOUS
 62
4
 10
1088.7283
 20
446.7179
 11
1088.7283
 21
374.9179
  0
LINE
  8
0_00
  6
CONTINUOUS
 62
4
 10
1090.7283
 20
374.9179
 11
1090.7283
 21
446.7179
  0
LINE
  8
0_00
  6
CONTINUOUS
 62
4
 10
1076.0282
 20
446.7179
 11
1076.0282
 21
374.9179
  0
LINE
  8
0_00
  6
CONTINUOUS
 62
4
 10
1078.0281
 20
374.9179
 11
1078.0281
 21
446.7179
  0
LINE
  8
0_00
  6
CONTINUOUS
 62
4
 10
1039.9283
 20
446.7179
 11
1039.9283
 21
374.9179
  0
LINE
  8
0_00
  6
CONTINUOUS
 62
4
 10
1037.9282
 20
374.9179
 11
1037.9282
 21
446.7179
  0
LINE
  8
0_00
  6
CONTINUOUS
 62
4
 10
1052.6281
 20
446.7179
 11
1052.6281
 21
374.9179
  0
LINE
  8
0_00
  6
CONTINUOUS
 62
4
 10
1050.6282
 20
374.9179
 11
1050.6282
 21
446.7179
  0
LINE
  8
0_00
  6
CONTINUOUS
 62
4
 10
1065.3281
 20
446.7179
 11
1065.3281
 21
374.9179
  0
LINE
  8
0_00
  6
CONTINUOUS
 62
4
 10
1063.3281
 20
374.9179
 11
1063.3281
 21
446.7179
  0
LINE
  8
0_00
  6
CONTINUOUS
 62
4
 10
1010.7949
 20
446.7179
 11
1010.7949
 21
374.9179
  0
LINE
  8
0_00
  6
CONTINUOUS
 62
4
 10
1012.7948
 20
374.9179
 11
1012.7948
 21
446.7179
  0
LINE
  8
0_00
  6
CONTINUOUS
 62
4
 10
998.0948
 20
446.7179
 11
998.0948
 21
374.9179
  0
LINE
  8
0_00
  6
CONTINUOUS
 62
4
 10
1000.0949
 20
374.9179
 11
1000.0949
 21
446.7179
  0
LINE
  8
0_00
  6
CONTINUOUS
 62
4
 10
985.3949
 20
446.7179
 11
985.3949
 21
374.9179
  0
LINE
  8
0_00
  6
CONTINUOUS
 62
4
 10
987.3949
 20
374.9179
 11
987.3949
 21
446.7179
  0
LINE
  8
0_00
  6
CONTINUOUS
 62
4
 10
972.6948
 20
446.7179
 11
972.6948
 21
374.9179
  0
LINE
  8
0_00
  6
CONTINUOUS
 62
4
 10
974.6949
 20
374.9179
 11
974.6949
 21
446.7179
  0
LINE
  8
0_00
  6
CONTINUOUS
 62
4
 10
961.9948
 20
446.7179
 11
961.9948
 21
374.9179
  0
LINE
  8
0_00
  6
CONTINUOUS
 62
4
 10
959.9949
 20
374.9179
 11
959.9949
 21
446.7179
  0
LINE
  8
0_00
  6
CONTINUOUS
 62
4
 10
936.5948
 20
446.7179
 11
936.5948
 21
374.9179
  0
LINE
  8
0_00
  6
CONTINUOUS
 62
4
 10
934.5948
 20
374.9179
 11
934.5948
 21
446.7179
  0
LINE
  8
0_00
  6
CONTINUOUS
 62
4
 10
949.2948
 20
446.7179
 11
949.2948
 21
374.9179
  0
LINE
  8
0_00
  6
CONTINUOUS
 62
4
 10
947.2949
 20
374.9179
 11
947.2949
 21
446.7179
  0
LINE
  8
0_00
  6
CENTER1
 62
6
 10
1006.2556
 20
448.1659
 11
1033.4689
 21
448.1659
  0
LINE
  8
0_00
  6
CENTER1
 62
6
 10
973.6948
 20
456.1541
 11
973.6948
 21
413.6309
  0
LINE
  8
0_00
  6
CENTER1
 62
6
 10
986.3949
 20
456.1541
 11
986.3949
 21
413.6309
  0
LINE
  8
0_00
  6
CONTINUOUS
 62
4
 10
810.2642
 20
685.6796
 11
810.2642
 21
646.8576
  0
LINE
  8
0_00
  6
CONTINUOUS
 62
4
 10
808.8643
 20
685.6548
 11
808.8643
 21
659.2814
  0
LINE
  8
0_00
  6
CONTINUOUS
 62
4
 10
808.8642
 20
646.8576
 11
808.8642
 21
650.0314
  0
LINE
  8
0_00
  6
CONTINUOUS
 62
4
 10
750.2643
 20
685.6796
 11
750.2645
 21
646.8859
  0
LINE
  8
0_00
  6
CONTINUOUS
 62
4
 10
751.6643
 20
685.6548
 11
751.6644
 21
659.2602
  0
LINE
  8
0_00
  6
CONTINUOUS
 62
4
 10
751.6638
 20
650.0314
 11
751.6638
 21
646.8576
  0
LINE
  8
0_00
  6
CONTINUOUS
 62
4
 10
780.2643
 20
649.4577
 11
779.9643
 21
649.1576
  0
LINE
  8
0_00
  6
CONTINUOUS
 62
4
 10
792.5642
 20
649.1576
 11
780.5642
 21
649.1576
  0
LINE
  8
0_00
  6
CONTINUOUS
 62
4
 10
780.2643
 20
649.4577
 11
780.5642
 21
649.1576
  0
LINE
  8
14_0E
  6
CONTINUOUS
 62
4
 10
793.3405
 20
650.7672
 11
784.2643
 21
651.1576
  0
LINE
  8
0_00
  6
CONTINUOUS
 62
4
 10
792.5642
 20
649.1576
 11
792.9643
 21
647.6576
  0
LINE
  8
0_00
  6
CONTINUOUS
 62
4
 10
795.7643
 20
649.3576
 11
800.7643
 21
649.3576
  0
LINE
  8
0_00
  6
CONTINUOUS
 62
4
 10
798.2643
 20
647.9577
 11
797.9643
 21
647.6576
  0
LINE
  8
0_00
  6
CONTINUOUS
 62
4
 10
798.2643
 20
647.9577
 11
798.5642
 21
647.6576
  0
LINE
  8
0_00
  6
CONTINUOUS
 62
4
 10
805.5920
 20
649.1576
 11
801.0643
 21
649.1576
  0
LINE
  8
0_00
  6
CONTINUOUS
 62
4
 10
800.7643
 20
649.3576
 11
801.0643
 21
649.1576
  0
LINE
  8
0_00
  6
CONTINUOUS
 62
4
 10
795.4643
 20
649.1576
 11
794.2766
 21
649.1576
  0
LINE
  8
0_00
  6
CONTINUOUS
 62
4
 10
795.7643
 20
649.3576
 11
795.4643
 21
649.1576
  0
LINE
  8
0_00
  6
CONTINUOUS
 62
4
 10
793.6187
 20
650.5403
 11
793.8885
 21
649.4606
  0
LINE
  8
0_00
  6
CONTINUOUS
 62
4
 10
780.2643
 20
649.4577
 11
780.5642
 21
649.1576
  0
LINE
  8
0_00
  6
CONTINUOUS
 62
4
 10
767.9643
 20
649.1576
 11
779.9643
 21
649.1576
  0
LINE
  8
0_00
  6
CONTINUOUS
 62
4
 10
780.2643
 20
649.4577
 11
779.9643
 21
649.1576
  0
LINE
  8
14_0E
  6
CONTINUOUS
 62
4
 10
767.1881
 20
650.7672
 11
776.2643
 21
651.1576
  0
LINE
  8
0_00
  6
CONTINUOUS
 62
4
 10
767.9643
 20
649.1576
 11
767.5643
 21
647.6576
  0
LINE
  8
0_00
  6
CONTINUOUS
 62
4
 10
764.7643
 20
649.3576
 11
759.7643
 21
649.3576
  0
LINE
  8
0_00
  6
CONTINUOUS
 62
4
 10
761.9643
 20
647.6576
 11
752.8643
 21
647.6576
  0
LINE
  8
0_00
  6
CONTINUOUS
 62
4
 10
762.2643
 20
647.9577
 11
762.5643
 21
647.6576
  0
LINE
  8
0_00
  6
CONTINUOUS
 62
4
 10
762.2643
 20
647.9577
 11
761.9643
 21
647.6576
  0
LINE
  8
0_00
  6
CONTINUOUS
 62
4
 10
754.9365
 20
649.1576
 11
759.4643
 21
649.1576
  0
LINE
  8
0_00
  6
CONTINUOUS
 62
4
 10
759.7643
 20
649.3576
 11
759.4643
 21
649.1576
  0
LINE
  8
0_00
  6
CONTINUOUS
 62
4
 10
765.0643
 20
649.1576
 11
766.2520
 21
649.1576
  0
LINE
  8
0_00
  6
CONTINUOUS
 62
4
 10
764.7643
 20
649.3576
 11
765.0643
 21
649.1576
  0
LINE
  8
0_00
  6
CONTINUOUS
 62
4
 10
766.9100
 20
650.5403
 11
766.6400
 21
649.4606
  0
LINE
  8
0_00
  6
CONTINUOUS
 62
4
 10
784.2643
 20
651.1576
 11
776.2643
 21
651.1576
  0
LINE
  8
0_00
  6
CONTINUOUS
 62
4
 10
807.6643
 20
647.6576
 11
808.6643
 21
648.6576
  0
LINE
  8
0_00
  6
CONTINUOUS
 62
4
 10
808.6643
 20
648.6576
 11
808.6643
 21
649.9576
  0
LINE
  8
0_00
  6
CONTINUOUS
 62
4
 10
808.6643
 20
649.1576
 11
808.6643
 21
648.6576
  0
LINE
  8
0_00
  6
CONTINUOUS
 62
4
 10
807.6838
 20
652.0356
 11
808.5404
 21
652.1105
  0
LINE
  8
0_00
  6
CONTINUOUS
 62
4
 10
806.5771
 20
653.0430
 11
807.4152
 21
653.1163
  0
LINE
  8
0_00
  6
CONTINUOUS
 62
4
 10
805.6643
 20
652.0467
 11
805.6643
 21
651.6138
  0
LINE
  8
14_0E
  6
CONTINUOUS
 62
4
 10
808.8082
 20
652.4697
 11
807.7227
 21
657.7576
  0
LINE
  8
0_00
  6
CONTINUOUS
 62
4
 10
806.9766
 20
656.9169
 11
807.6829
 21
653.4755
  0
LINE
  8
0_00
  6
CONTINUOUS
 62
4
 10
807.6622
 20
657.7576
 11
807.7227
 21
657.7576
  0
LINE
  8
0_00
  6
CONTINUOUS
 62
4
 10
752.8643
 20
647.6576
 11
751.8643
 21
648.6576
  0
LINE
  8
0_00
  6
CONTINUOUS
 62
4
 10
751.8643
 20
648.6576
 11
751.8643
 21
649.9576
  0
LINE
  8
0_00
  6
CONTINUOUS
 62
4
 10
751.8643
 20
649.1576
 11
751.8643
 21
648.6576
  0
LINE
  8
0_00
  6
CONTINUOUS
 62
4
 10
752.8448
 20
652.0356
 11
751.9882
 21
652.1105
  0
LINE
  8
0_00
  6
CONTINUOUS
 62
4
 10
753.9514
 20
653.0430
 11
753.1133
 21
653.1163
  0
LINE
  8
0_00
  6
CONTINUOUS
 62
4
 10
754.8643
 20
652.0467
 11
754.8643
 21
651.6138
  0
LINE
  8
0_00
  6
CONTINUOUS
 62
4
 10
751.7204
 20
652.4697
 11
752.8058
 21
657.7576
  0
LINE
  8
0_00
  6
CONTINUOUS
 62
4
 10
753.5521
 20
656.9169
 11
752.8456
 21
653.4755
  0
LINE
  8
0_00
  6
CONTINUOUS
 62
4
 10
752.8663
 20
657.7576
 11
752.8058
 21
657.7576
  0
LINE
  8
0_00
  6
CONTINUOUS
 62
4
 10
808.8643
 20
655.0814
 11
808.8643
 21
657.4815
  0
LINE
  8
0_00
  6
CONTINUOUS
 62
4
 10
806.1643
 20
657.8814
 11
808.4642
 21
657.8814
  0
LINE
  8
0_00
  6
CONTINUOUS
 62
4
 10
805.8642
 20
658.8815
 11
808.4642
 21
658.8815
  0
LINE
  8
0_00
  6
CONTINUOUS
 62
4
 10
805.3643
 20
658.3815
 11
805.3643
 21
657.2814
  0
LINE
  8
0_00
  6
CONTINUOUS
 62
4
 10
806.1643
 20
657.8814
 11
806.1643
 21
657.6815
  0
LINE
  8
0_00
  6
CONTINUOUS
 62
4
 10
807.7837
 20
651.9869
 11
808.4991
 21
652.0495
  0
LINE
  8
0_00
  6
CONTINUOUS
 62
4
 10
808.8563
 20
652.5270
 11
808.3896
 21
654.8419
  0
LINE
  8
0_00
  6
CONTINUOUS
 62
4
 10
808.5857
 20
655.0814
 11
808.8643
 21
655.0814
  0
LINE
  8
0_00
  6
CONTINUOUS
 62
4
 10
751.6638
 20
655.0814
 11
751.6638
 21
657.4815
  0
LINE
  8
0_00
  6
CONTINUOUS
 62
4
 10
754.3637
 20
657.8814
 11
752.0638
 21
657.8814
  0
LINE
  8
0_00
  6
CONTINUOUS
 62
4
 10
754.6638
 20
658.8815
 11
752.0638
 21
658.8815
  0
LINE
  8
0_00
  6
CONTINUOUS
 62
4
 10
755.1638
 20
658.3815
 11
755.1638
 21
657.2814
  0
LINE
  8
0_00
  6
CONTINUOUS
 62
4
 10
754.3637
 20
657.8814
 11
754.3637
 21
657.6815
  0
LINE
  8
0_00
  6
CONTINUOUS
 62
4
 10
752.7443
 20
651.9869
 11
752.0289
 21
652.0495
  0
LINE
  8
0_00
  6
CONTINUOUS
 62
4
 10
751.6717
 20
652.5270
 11
752.1384
 21
654.8419
  0
LINE
  8
0_00
  6
CONTINUOUS
 62
4
 10
751.9424
 20
655.0814
 11
751.6638
 21
655.0814
  0
LINE
  8
0_00
  6
CONTINUOUS
 62
4
 10
767.5643
 20
647.6576
 11
762.5643
 21
647.6576
  0
LINE
  8
0_00
  6
CONTINUOUS
 62
4
 10
1136.1948
 20
473.3119
 11
1136.1948
 21
363.4179
  0
LINE
  8
0_00
  6
CONTINUOUS
 62
4
 10
1135.6948
 20
451.4179
 11
1135.6948
 21
446.7179
  0
LINE
  8
0_00
  6
CONTINUOUS
 62
4
 10
907.4615
 20
446.7179
 11
907.4615
 21
374.9179
  0
LINE
  8
0_00
  6
CONTINUOUS
 62
4
 10
909.4615
 20
374.9179
 11
909.4615
 21
446.7179
  0
LINE
  8
0_00
  6
CONTINUOUS
 62
4
 10
894.7615
 20
446.7179
 11
894.7615
 21
374.9179
  0
LINE
  8
0_00
  6
CONTINUOUS
 62
4
 10
896.7615
 20
374.9179
 11
896.7615
 21
446.7179
  0
LINE
  8
0_00
  6
CENTER1
 62
6
 10
271.5518
 20
659.1308
 11
271.5518
 21
369.8882
  0
LINE
  8
0_00
  6
CONTINUOUS
 62
4
 10
281.5518
 20
646.1576
 11
281.5518
 21
530.4142
  0
LINE
  8
0_00
  6
CONTINUOUS
 62
4
 10
261.5518
 20
646.1576
 11
261.5518
 21
530.4142
  0
LINE
  8
0_00
  6
CONTINUOUS
 62
4
 10
281.5518
 20
498.1557
 11
281.5518
 21
381.3843
  0
LINE
  8
0_00
  6
CONTINUOUS
 62
4
 10
261.5518
 20
498.1557
 11
261.5518
 21
381.3843
  0
LINE
  8
0_00
  6
DASHED
 62
2
 10
458.5463
 20
379.8843
 11
473.5573
 21
379.8843
  0
LINE
  8
0_00
  6
CONTINUOUS
 62
2
 10
473.5573
 20
381.3843
 11
473.5573
 21
384.6883
  0
LINE
  8
0_00
  6
CONTINUOUS
 62
2
 10
458.5463
 20
381.3843
 11
458.5463
 21
384.6883
  0
LINE
  8
0_00
  6
CONTINUOUS
 62
2
 10
473.5573
 20
384.6883
 11
472.3518
 21
385.3843
  0
LINE
  8
0_00
  6
CONTINUOUS
 62
2
 10
458.5463
 20
384.6883
 11
459.7518
 21
385.3843
  0
LINE
  8
0_00
  6
CONTINUOUS
 62
2
 10
459.7518
 20
385.3843
 11
472.3518
 21
385.3843
  0
LINE
  8
0_00
  6
CONTINUOUS
 62
2
 10
469.8046
 20
381.3843
 11
469.8046
 21
384.6883
  0
LINE
  8
0_00
  6
CONTINUOUS
 62
2
 10
462.2991
 20
381.3843
 11
462.2991
 21
384.6883
  0
LINE
  8
0_00
  6
DASHED
 62
2
 10
470.0518
 20
365.5843
 11
470.0518
 21
360.0843
  0
LINE
  8
0_00
  6
DASHED
 62
2
 10
462.0518
 20
365.5843
 11
462.0518
 21
360.0843
  0
LINE
  8
0_00
  6
DASHED
 62
2
 10
470.0518
 20
360.0843
 11
468.8518
 21
358.8843
  0
LINE
  8
0_00
  6
DASHED
 62
2
 10
462.0518
 20
360.0843
 11
463.2518
 21
358.8843
  0
LINE
  8
0_00
  6
DASHED
 62
2
 10
463.2518
 20
358.8843
 11
468.8518
 21
358.8843
  0
LINE
  8
0_00
  6
DASHED
 62
2
 10
462.0518
 20
360.0843
 11
470.0518
 21
360.0843
  0
LINE
  8
0_00
  6
DASHED
 62
2
 10
469.3018
 20
365.5843
 11
469.3018
 21
359.3343
  0
LINE
  8
0_00
  6
DASHED
 62
2
 10
462.8018
 20
365.5843
 11
462.8018
 21
359.3343
  0
LINE
  8
0_00
  6
DASHED
 62
2
 10
473.7518
 20
372.0843
 11
458.3518
 21
372.0843
  0
LINE
  8
0_00
  6
DASHED
 62
2
 10
458.3518
 20
372.0843
 11
458.3518
 21
374.0843
  0
LINE
  8
0_00
  6
DASHED
 62
2
 10
473.7518
 20
372.0843
 11
473.7518
 21
374.0843
  0
LINE
  8
0_00
  6
DASHED
 62
2
 10
473.7518
 20
374.0843
 11
458.3518
 21
374.0843
  0
LINE
  8
0_00
  6
DASHED
 62
2
 10
465.7839
 20
372.0843
 11
466.3198
 21
374.0843
  0
LINE
  8
0_00
  6
DASHED
 62
2
 10
473.5573
 20
372.0843
 11
458.5463
 21
372.0843
  0
LINE
  8
0_00
  6
DASHED
 62
2
 10
458.5463
 20
372.0843
 11
458.5463
 21
366.3092
  0
LINE
  8
0_00
  6
DASHED
 62
2
 10
473.5573
 20
372.0843
 11
473.5573
 21
366.3092
  0
LINE
  8
0_00
  6
DASHED
 62
2
 10
458.5463
 20
366.3092
 11
459.8018
 21
365.5843
  0
LINE
  8
0_00
  6
DASHED
 62
2
 10
473.5573
 20
366.3092
 11
472.3018
 21
365.5843
  0
LINE
  8
0_00
  6
DASHED
 62
2
 10
472.3018
 20
365.5843
 11
459.8018
 21
365.5843
  0
LINE
  8
0_00
  6
DASHED
 62
2
 10
462.2991
 20
372.0843
 11
462.2991
 21
366.3092
  0
LINE
  8
0_00
  6
DASHED
 62
2
 10
469.8046
 20
372.0843
 11
469.8046
 21
366.3092
  0
LINE
  8
0_00
  6
CENTER1
 62
6
 10
466.0518
 20
355.3021
 11
466.0518
 21
395.0914
  0
LINE
  8
0_00
  6
DASHED
 62
2
 10
470.0518
 20
374.0843
 11
470.0518
 21
379.8843
  0
LINE
  8
0_00
  6
DASHED
 62
2
 10
469.3018
 20
374.0843
 11
469.3018
 21
379.8843
  0
LINE
  8
0_00
  6
DASHED
 62
2
 10
462.8018
 20
374.0843
 11
462.8018
 21
379.8843
  0
LINE
  8
0_00
  6
DASHED
 62
2
 10
462.0518
 20
374.0843
 11
462.0518
 21
379.8843
  0
LINE
  8
0_00
  6
CONTINUOUS
 62
4
 10
503.0518
 20
691.5576
 11
438.8616
 21
691.5576
  0
LINE
  8
0_00
  6
CONTINUOUS
 62
4
 10
438.4085
 20
693.1576
 11
438.4839
 21
692.8962
  0
LINE
  8
0_00
  6
CONTINUOUS
 62
4
 10
438.4839
 20
692.8962
 11
438.5592
 21
692.6347
  0
LINE
  8
0_00
  6
CONTINUOUS
 62
4
 10
438.5592
 20
692.6347
 11
438.6339
 21
692.3732
  0
LINE
  8
0_00
  6
CONTINUOUS
 62
4
 10
438.6339
 20
692.3732
 11
438.7080
 21
692.1117
  0
LINE
  8
0_00
  6
CONTINUOUS
 62
4
 10
438.7080
 20
692.1117
 11
438.7811
 21
691.8502
  0
LINE
  8
0_00
  6
CONTINUOUS
 62
4
 10
438.7811
 20
691.8502
 11
438.8532
 21
691.5886
  0
LINE
  8
0_00
  6
CONTINUOUS
 62
4
 10
438.8532
 20
691.5886
 11
438.9239
 21
691.3270
  0
LINE
  8
0_00
  6
CONTINUOUS
 62
4
 10
438.9239
 20
691.3270
 11
438.9930
 21
691.0654
  0
LINE
  8
0_00
  6
CONTINUOUS
 62
4
 10
438.9930
 20
691.0654
 11
439.0604
 21
690.8037
  0
LINE
  8
0_00
  6
CONTINUOUS
 62
4
 10
439.0604
 20
690.8037
 11
439.1257
 21
690.5419
  0
LINE
  8
0_00
  6
CONTINUOUS
 62
4
 10
439.1257
 20
690.5419
 11
439.1887
 21
690.2801
  0
LINE
  8
0_00
  6
CONTINUOUS
 62
4
 10
439.1887
 20
690.2801
 11
439.2493
 21
690.0182
  0
LINE
  8
0_00
  6
CONTINUOUS
 62
4
 10
439.2493
 20
690.0182
 11
439.3072
 21
689.7561
  0
LINE
  8
0_00
  6
CONTINUOUS
 62
4
 10
439.3072
 20
689.7561
 11
439.3622
 21
689.4940
  0
LINE
  8
0_00
  6
CONTINUOUS
 62
4
 10
439.3622
 20
689.4940
 11
439.4140
 21
689.2318
  0
LINE
  8
0_00
  6
CONTINUOUS
 62
4
 10
439.4140
 20
689.2318
 11
439.4624
 21
688.9695
  0
LINE
  8
0_00
  6
CONTINUOUS
 62
4
 10
439.4624
 20
688.9695
 11
439.5073
 21
688.7071
  0
LINE
  8
0_00
  6
CONTINUOUS
 62
4
 10
439.5073
 20
688.7071
 11
439.5483
 21
688.4446
  0
LINE
  8
0_00
  6
CONTINUOUS
 62
4
 10
439.5483
 20
688.4446
 11
439.5852
 21
688.1819
  0
LINE
  8
0_00
  6
CONTINUOUS
 62
4
 10
439.5852
 20
688.1819
 11
439.6180
 21
687.9191
  0
LINE
  8
0_00
  6
CONTINUOUS
 62
4
 10
439.6180
 20
687.9191
 11
439.6462
 21
687.6561
  0
LINE
  8
0_00
  6
CONTINUOUS
 62
4
 10
439.6462
 20
687.6561
 11
439.6697
 21
687.3931
  0
LINE
  8
0_00
  6
CONTINUOUS
 62
4
 10
439.6697
 20
687.3931
 11
439.6882
 21
687.1298
  0
LINE
  8
0_00
  6
CONTINUOUS
 62
4
 10
439.6882
 20
687.1298
 11
439.7016
 21
686.8665
  0
LINE
  8
0_00
  6
CONTINUOUS
 62
4
 10
439.7016
 20
686.8665
 11
439.7096
 21
686.6028
  0
LINE
  8
0_00
  6
CONTINUOUS
 62
4
 10
439.7096
 20
686.6028
 11
439.7120
 21
686.3391
  0
LINE
  8
0_00
  6
CONTINUOUS
 62
4
 10
439.7120
 20
686.3391
 11
439.7085
 21
686.0752
  0
LINE
  8
0_00
  6
CONTINUOUS
 62
4
 10
439.7085
 20
686.0752
 11
439.6990
 21
685.8111
  0
LINE
  8
0_00
  6
CONTINUOUS
 62
4
 10
439.6990
 20
685.8111
 11
439.6832
 21
685.5467
  0
LINE
  8
0_00
  6
CONTINUOUS
 62
4
 10
439.6832
 20
685.5467
 11
439.6608
 21
685.2822
  0
LINE
  8
0_00
  6
CONTINUOUS
 62
4
 10
439.6608
 20
685.2822
 11
439.6317
 21
685.0174
  0
LINE
  8
0_00
  6
CONTINUOUS
 62
4
 10
439.6317
 20
685.0174
 11
439.5965
 21
684.7525
  0
LINE
  8
0_00
  6
CONTINUOUS
 62
4
 10
439.5965
 20
684.7525
 11
439.5554
 21
684.4874
  0
LINE
  8
0_00
  6
CONTINUOUS
 62
4
 10
439.5554
 20
684.4874
 11
439.5090
 21
684.2221
  0
LINE
  8
0_00
  6
CONTINUOUS
 62
4
 10
439.5090
 20
684.2221
 11
439.4577
 21
683.9566
  0
LINE
  8
0_00
  6
CONTINUOUS
 62
4
 10
439.4577
 20
683.9566
 11
439.4020
 21
683.6909
  0
LINE
  8
0_00
  6
CONTINUOUS
 62
4
 10
439.4020
 20
683.6909
 11
439.3423
 21
683.4252
  0
LINE
  8
0_00
  6
CONTINUOUS
 62
4
 10
439.3423
 20
683.4252
 11
439.2792
 21
683.1592
  0
LINE
  8
0_00
  6
CONTINUOUS
 62
4
 10
439.2792
 20
683.1592
 11
439.2129
 21
682.8932
  0
LINE
  8
0_00
  6
CONTINUOUS
 62
4
 10
439.2129
 20
682.8932
 11
439.1442
 21
682.6269
  0
LINE
  8
0_00
  6
CONTINUOUS
 62
4
 10
439.1442
 20
682.6269
 11
439.0734
 21
682.3606
  0
LINE
  8
0_00
  6
CONTINUOUS
 62
4
 10
439.0734
 20
682.3606
 11
439.0009
 21
682.0941
  0
LINE
  8
0_00
  6
CONTINUOUS
 62
4
 10
439.0009
 20
682.0941
 11
438.9273
 21
681.8276
  0
LINE
  8
0_00
  6
CONTINUOUS
 62
4
 10
438.9273
 20
681.8276
 11
438.8530
 21
681.5611
  0
LINE
  8
0_00
  6
CONTINUOUS
 62
4
 10
438.8530
 20
681.5611
 11
438.7784
 21
681.2943
  0
LINE
  8
0_00
  6
CONTINUOUS
 62
4
 10
438.7784
 20
681.2943
 11
438.7041
 21
681.0276
  0
LINE
  8
0_00
  6
CONTINUOUS
 62
4
 10
438.7041
 20
681.0276
 11
438.6304
 21
680.7608
  0
LINE
  8
0_00
  6
CONTINUOUS
 62
4
 10
438.6304
 20
680.7608
 11
438.5580
 21
680.4939
  0
LINE
  8
0_00
  6
CONTINUOUS
 62
4
 10
438.5580
 20
680.4939
 11
438.4872
 21
680.2270
  0
LINE
  8
0_00
  6
CONTINUOUS
 62
4
 10
438.4872
 20
680.2270
 11
438.4184
 21
679.9601
  0
LINE
  8
0_00
  6
CONTINUOUS
 62
4
 10
438.4184
 20
679.9601
 11
438.3522
 21
679.6932
  0
LINE
  8
0_00
  6
CONTINUOUS
 62
4
 10
438.3522
 20
679.6932
 11
438.2890
 21
679.4262
  0
LINE
  8
0_00
  6
CONTINUOUS
 62
4
 10
438.2890
 20
679.4262
 11
438.2294
 21
679.1592
  0
LINE
  8
0_00
  6
CONTINUOUS
 62
4
 10
438.2294
 20
679.1592
 11
438.1737
 21
678.8924
  0
LINE
  8
0_00
  6
CONTINUOUS
 62
4
 10
438.1737
 20
678.8924
 11
438.1224
 21
678.6254
  0
LINE
  8
0_00
  6
CONTINUOUS
 62
4
 10
438.1224
 20
678.6254
 11
438.0760
 21
678.3586
  0
LINE
  8
0_00
  6
CONTINUOUS
 62
4
 10
438.0760
 20
678.3586
 11
438.0349
 21
678.0917
  0
LINE
  8
0_00
  6
CONTINUOUS
 62
4
 10
438.0349
 20
678.0917
 11
437.9997
 21
677.8249
  0
LINE
  8
0_00
  6
CONTINUOUS
 62
4
 10
437.9997
 20
677.8249
 11
437.9707
 21
677.5581
  0
LINE
  8
0_00
  6
CONTINUOUS
 62
4
 10
437.9707
 20
677.5581
 11
437.9485
 21
677.2915
  0
LINE
  8
0_00
  6
CONTINUOUS
 62
4
 10
437.9485
 20
677.2915
 11
437.9333
 21
677.0248
  0
LINE
  8
0_00
  6
CONTINUOUS
 62
4
 10
437.9333
 20
677.0248
 11
437.9248
 21
676.7583
  0
LINE
  8
0_00
  6
CONTINUOUS
 62
4
 10
437.9248
 20
676.7583
 11
437.9226
 21
676.4915
  0
LINE
  8
0_00
  6
CONTINUOUS
 62
4
 10
437.9226
 20
676.4915
 11
437.9260
 21
676.2245
  0
LINE
  8
0_00
  6
CONTINUOUS
 62
4
 10
437.9260
 20
676.2245
 11
437.9347
 21
675.9571
  0
LINE
  8
0_00
  6
CONTINUOUS
 62
4
 10
437.9347
 20
675.9571
 11
437.9480
 21
675.6895
  0
LINE
  8
0_00
  6
CONTINUOUS
 62
4
 10
437.9480
 20
675.6895
 11
437.9656
 21
675.4211
  0
LINE
  8
0_00
  6
CONTINUOUS
 62
4
 10
437.9656
 20
675.4211
 11
437.9868
 21
675.1523
  0
LINE
  8
0_00
  6
CONTINUOUS
 62
4
 10
437.9868
 20
675.1523
 11
438.0113
 21
674.8827
  0
LINE
  8
0_00
  6
CONTINUOUS
 62
4
 10
438.0113
 20
674.8827
 11
438.0385
 21
674.6122
  0
LINE
  8
0_00
  6
CONTINUOUS
 62
4
 10
438.0385
 20
674.6122
 11
438.0678
 21
674.3408
  0
LINE
  8
0_00
  6
CONTINUOUS
 62
4
 10
438.0678
 20
674.3408
 11
438.0988
 21
674.0684
  0
LINE
  8
0_00
  6
CONTINUOUS
 62
4
 10
438.0988
 20
674.0684
 11
438.1311
 21
673.7948
  0
LINE
  8
0_00
  6
CONTINUOUS
 62
4
 10
438.1311
 20
673.7948
 11
438.1641
 21
673.5201
  0
LINE
  8
0_00
  6
CONTINUOUS
 62
4
 10
438.1641
 20
673.5201
 11
438.1972
 21
673.2439
  0
LINE
  8
0_00
  6
CONTINUOUS
 62
4
 10
438.1972
 20
673.2439
 11
438.2300
 21
672.9663
  0
LINE
  8
0_00
  6
CONTINUOUS
 62
4
 10
438.2300
 20
672.9663
 11
438.2620
 21
672.6872
  0
LINE
  8
0_00
  6
CONTINUOUS
 62
4
 10
438.2620
 20
672.6872
 11
438.2927
 21
672.4065
  0
LINE
  8
0_00
  6
CONTINUOUS
 62
4
 10
438.2927
 20
672.4065
 11
438.3216
 21
672.1240
  0
LINE
  8
0_00
  6
CONTINUOUS
 62
4
 10
438.3216
 20
672.1240
 11
438.3482
 21
671.8396
  0
LINE
  8
0_00
  6
CONTINUOUS
 62
4
 10
438.3482
 20
671.8396
 11
438.3719
 21
671.5533
  0
LINE
  8
0_00
  6
CONTINUOUS
 62
4
 10
438.3719
 20
671.5533
 11
438.3924
 21
671.2650
  0
LINE
  8
0_00
  6
CONTINUOUS
 62
4
 10
438.3924
 20
671.2650
 11
438.4091
 21
670.9746
  0
LINE
  8
0_00
  6
CONTINUOUS
 62
4
 10
438.4091
 20
670.9746
 11
438.4214
 21
670.6819
  0
LINE
  8
0_00
  6
CONTINUOUS
 62
4
 10
438.4214
 20
670.6819
 11
438.4289
 21
670.3868
  0
LINE
  8
0_00
  6
CONTINUOUS
 62
4
 10
438.4289
 20
670.3868
 11
438.4310
 21
670.0892
  0
LINE
  8
0_00
  6
CONTINUOUS
 62
4
 10
438.4310
 20
670.0892
 11
438.4274
 21
669.7892
  0
LINE
  8
0_00
  6
CONTINUOUS
 62
4
 10
438.4274
 20
669.7892
 11
438.4174
 21
669.4864
  0
LINE
  8
0_00
  6
CONTINUOUS
 62
4
 10
438.4174
 20
669.4864
 11
438.4007
 21
669.1810
  0
LINE
  8
0_00
  6
CONTINUOUS
 62
4
 10
438.4007
 20
669.1810
 11
438.3766
 21
668.8727
  0
LINE
  8
0_00
  6
CONTINUOUS
 62
4
 10
438.3766
 20
668.8727
 11
438.3448
 21
668.5614
  0
LINE
  8
0_00
  6
CONTINUOUS
 62
4
 10
438.3448
 20
668.5614
 11
438.3058
 21
668.2475
  0
LINE
  8
0_00
  6
CONTINUOUS
 62
4
 10
438.3058
 20
668.2475
 11
438.2602
 21
667.9312
  0
LINE
  8
0_00
  6
CONTINUOUS
 62
4
 10
438.2602
 20
667.9312
 11
438.2085
 21
667.6127
  0
LINE
  8
0_00
  6
CONTINUOUS
 62
4
 10
438.2085
 20
667.6127
 11
438.1513
 21
667.2924
  0
LINE
  8
0_00
  6
CONTINUOUS
 62
4
 10
438.1513
 20
667.2924
 11
438.0892
 21
666.9703
  0
LINE
  8
0_00
  6
CONTINUOUS
 62
4
 10
438.0892
 20
666.9703
 11
438.0229
 21
666.6470
  0
LINE
  8
0_00
  6
CONTINUOUS
 62
4
 10
438.0229
 20
666.6470
 11
437.9528
 21
666.3226
  0
LINE
  8
0_00
  6
CONTINUOUS
 62
4
 10
437.9528
 20
666.3226
 11
437.8796
 21
665.9973
  0
LINE
  8
0_00
  6
CONTINUOUS
 62
4
 10
437.8796
 20
665.9973
 11
437.8039
 21
665.6716
  0
LINE
  8
0_00
  6
CONTINUOUS
 62
4
 10
437.8039
 20
665.6716
 11
437.7263
 21
665.3456
  0
LINE
  8
0_00
  6
CONTINUOUS
 62
4
 10
437.7263
 20
665.3456
 11
437.6473
 21
665.0195
  0
LINE
  8
0_00
  6
CONTINUOUS
 62
4
 10
437.6473
 20
665.0195
 11
437.5675
 21
664.6937
  0
LINE
  8
0_00
  6
CONTINUOUS
 62
4
 10
437.5675
 20
664.6937
 11
437.4875
 21
664.3685
  0
LINE
  8
0_00
  6
CONTINUOUS
 62
4
 10
437.4875
 20
664.3685
 11
437.4080
 21
664.0440
  0
LINE
  8
0_00
  6
CONTINUOUS
 62
4
 10
437.4080
 20
664.0440
 11
437.3295
 21
663.7207
  0
LINE
  8
0_00
  6
CONTINUOUS
 62
4
 10
437.3295
 20
663.7207
 11
437.2525
 21
663.3986
  0
LINE
  8
0_00
  6
CONTINUOUS
 62
4
 10
437.2525
 20
663.3986
 11
437.1778
 21
663.0781
  0
LINE
  8
0_00
  6
CONTINUOUS
 62
4
 10
437.1778
 20
663.0781
 11
437.1058
 21
662.7595
  0
LINE
  8
0_00
  6
CONTINUOUS
 62
4
 10
437.1058
 20
662.7595
 11
437.0371
 21
662.4431
  0
LINE
  8
0_00
  6
CONTINUOUS
 62
4
 10
437.0371
 20
662.4431
 11
436.9724
 21
662.1290
  0
LINE
  8
0_00
  6
CONTINUOUS
 62
4
 10
436.9724
 20
662.1290
 11
436.9122
 21
661.8176
  0
LINE
  8
0_00
  6
CONTINUOUS
 62
4
 10
436.9122
 20
661.8176
 11
436.8571
 21
661.5092
  0
LINE
  8
0_00
  6
CONTINUOUS
 62
4
 10
436.8571
 20
661.5092
 11
436.8078
 21
661.2040
  0
LINE
  8
0_00
  6
CONTINUOUS
 62
4
 10
436.8078
 20
661.2040
 11
436.7647
 21
660.9023
  0
LINE
  8
0_00
  6
CONTINUOUS
 62
4
 10
436.7647
 20
660.9023
 11
436.7284
 21
660.6042
  0
LINE
  8
0_00
  6
CONTINUOUS
 62
4
 10
436.7284
 20
660.6042
 11
436.6997
 21
660.3102
  0
LINE
  8
0_00
  6
CONTINUOUS
 62
4
 10
436.6997
 20
660.3102
 11
436.6791
 21
660.0205
  0
LINE
  8
0_00
  6
CONTINUOUS
 62
4
 10
436.6791
 20
660.0205
 11
436.6670
 21
659.7354
  0
LINE
  8
0_00
  6
CONTINUOUS
 62
4
 10
436.6670
 20
659.7354
 11
436.6642
 21
659.4550
  0
LINE
  8
0_00
  6
CONTINUOUS
 62
4
 10
436.6642
 20
659.4550
 11
436.6711
 21
659.1797
  0
LINE
  8
0_00
  6
CONTINUOUS
 62
4
 10
436.6711
 20
659.1797
 11
436.6872
 21
658.9094
  0
LINE
  8
0_00
  6
CONTINUOUS
 62
4
 10
436.6872
 20
658.9094
 11
436.7120
 21
658.6441
  0
LINE
  8
0_00
  6
CONTINUOUS
 62
4
 10
436.7120
 20
658.6441
 11
436.7451
 21
658.3838
  0
LINE
  8
0_00
  6
CONTINUOUS
 62
4
 10
436.7451
 20
658.3838
 11
436.7857
 21
658.1283
  0
LINE
  8
0_00
  6
CONTINUOUS
 62
4
 10
436.7857
 20
658.1283
 11
436.8333
 21
657.8777
  0
LINE
  8
0_00
  6
CONTINUOUS
 62
4
 10
436.8333
 20
657.8777
 11
436.8876
 21
657.6317
  0
LINE
  8
0_00
  6
CONTINUOUS
 62
4
 10
436.8876
 20
657.6317
 11
436.9477
 21
657.3906
  0
LINE
  8
0_00
  6
CONTINUOUS
 62
4
 10
436.9477
 20
657.3906
 11
437.0133
 21
657.1541
  0
LINE
  8
0_00
  6
CONTINUOUS
 62
4
 10
437.0133
 20
657.1541
 11
437.0837
 21
656.9222
  0
LINE
  8
0_00
  6
CONTINUOUS
 62
4
 10
437.0837
 20
656.9222
 11
437.1584
 21
656.6949
  0
LINE
  8
0_00
  6
CONTINUOUS
 62
4
 10
437.1584
 20
656.6949
 11
437.2369
 21
656.4722
  0
LINE
  8
0_00
  6
CONTINUOUS
 62
4
 10
437.2369
 20
656.4722
 11
437.3186
 21
656.2539
  0
LINE
  8
0_00
  6
CONTINUOUS
 62
4
 10
437.3186
 20
656.2539
 11
437.4029
 21
656.0400
  0
LINE
  8
0_00
  6
CONTINUOUS
 62
4
 10
437.4029
 20
656.0400
 11
437.4893
 21
655.8305
  0
LINE
  8
0_00
  6
CONTINUOUS
 62
4
 10
437.4893
 20
655.8305
 11
437.5773
 21
655.6253
  0
LINE
  8
0_00
  6
CONTINUOUS
 62
4
 10
437.5773
 20
655.6253
 11
437.6662
 21
655.4244
  0
LINE
  8
0_00
  6
CONTINUOUS
 62
4
 10
437.6662
 20
655.4244
 11
437.7556
 21
655.2276
  0
LINE
  8
0_00
  6
CONTINUOUS
 62
4
 10
437.7556
 20
655.2276
 11
437.8449
 21
655.0351
  0
LINE
  8
0_00
  6
CONTINUOUS
 62
4
 10
437.8449
 20
655.0351
 11
437.9336
 21
654.8466
  0
LINE
  8
0_00
  6
CONTINUOUS
 62
4
 10
437.9336
 20
654.8466
 11
438.0210
 21
654.6622
  0
LINE
  8
0_00
  6
CONTINUOUS
 62
4
 10
438.0210
 20
654.6622
 11
438.1066
 21
654.4818
  0
LINE
  8
0_00
  6
CONTINUOUS
 62
4
 10
438.1066
 20
654.4818
 11
438.1900
 21
654.3054
  0
LINE
  8
0_00
  6
CONTINUOUS
 62
4
 10
438.1900
 20
654.3054
 11
438.2704
 21
654.1328
  0
LINE
  8
0_00
  6
CONTINUOUS
 62
4
 10
438.2704
 20
654.1328
 11
438.3474
 21
653.9642
  0
LINE
  8
0_00
  6
CONTINUOUS
 62
4
 10
438.3474
 20
653.9642
 11
438.4205
 21
653.7992
  0
LINE
  8
0_00
  6
CONTINUOUS
 62
4
 10
438.4205
 20
653.7992
 11
438.4890
 21
653.6380
  0
LINE
  8
0_00
  6
CONTINUOUS
 62
4
 10
438.4890
 20
653.6380
 11
438.5525
 21
653.4806
  0
LINE
  8
0_00
  6
CONTINUOUS
 62
4
 10
438.5525
 20
653.4806
 11
438.6103
 21
653.3268
  0
LINE
  8
0_00
  6
CONTINUOUS
 62
4
 10
438.6103
 20
653.3268
 11
438.6619
 21
653.1765
  0
LINE
  8
0_00
  6
CONTINUOUS
 62
4
 10
438.6619
 20
653.1765
 11
438.7070
 21
653.0299
  0
LINE
  8
0_00
  6
CONTINUOUS
 62
4
 10
438.7070
 20
653.0299
 11
438.7456
 21
652.8866
  0
LINE
  8
0_00
  6
CONTINUOUS
 62
4
 10
438.7456
 20
652.8866
 11
438.7781
 21
652.7465
  0
LINE
  8
0_00
  6
CONTINUOUS
 62
4
 10
438.7781
 20
652.7465
 11
438.8047
 21
652.6095
  0
LINE
  8
0_00
  6
CONTINUOUS
 62
4
 10
438.8047
 20
652.6095
 11
438.8258
 21
652.4756
  0
LINE
  8
0_00
  6
CONTINUOUS
 62
4
 10
438.8258
 20
652.4756
 11
438.8415
 21
652.3443
  0
LINE
  8
0_00
  6
CONTINUOUS
 62
4
 10
438.8415
 20
652.3443
 11
438.8524
 21
652.2158
  0
LINE
  8
0_00
  6
CONTINUOUS
 62
4
 10
438.8524
 20
652.2158
 11
438.8585
 21
652.0898
  0
LINE
  8
0_00
  6
CONTINUOUS
 62
4
 10
438.8585
 20
652.0898
 11
438.8603
 21
651.9662
  0
LINE
  8
0_00
  6
CONTINUOUS
 62
4
 10
438.8603
 20
651.9662
 11
438.8580
 21
651.8448
  0
LINE
  8
0_00
  6
CONTINUOUS
 62
4
 10
438.8580
 20
651.8448
 11
438.8519
 21
651.7255
  0
LINE
  8
0_00
  6
CONTINUOUS
 62
4
 10
438.8519
 20
651.7255
 11
438.8423
 21
651.6080
  0
LINE
  8
0_00
  6
CONTINUOUS
 62
4
 10
438.8423
 20
651.6080
 11
438.8295
 21
651.4925
  0
LINE
  8
0_00
  6
CONTINUOUS
 62
4
 10
438.8295
 20
651.4925
 11
438.8139
 21
651.3784
  0
LINE
  8
0_00
  6
CONTINUOUS
 62
4
 10
438.8139
 20
651.3784
 11
438.7956
 21
651.2660
  0
LINE
  8
0_00
  6
CONTINUOUS
 62
4
 10
438.7956
 20
651.2660
 11
438.7750
 21
651.1548
  0
LINE
  8
0_00
  6
CONTINUOUS
 62
4
 10
438.7750
 20
651.1548
 11
438.7523
 21
651.0448
  0
LINE
  8
0_00
  6
CONTINUOUS
 62
4
 10
438.7523
 20
651.0448
 11
438.7280
 21
650.9359
  0
LINE
  8
0_00
  6
CONTINUOUS
 62
4
 10
438.7280
 20
650.9359
 11
438.7022
 21
650.8278
  0
LINE
  8
0_00
  6
CONTINUOUS
 62
4
 10
438.7022
 20
650.8278
 11
438.6753
 21
650.7207
  0
LINE
  8
0_00
  6
CONTINUOUS
 62
4
 10
438.6753
 20
650.7207
 11
438.6476
 21
650.6140
  0
LINE
  8
0_00
  6
CONTINUOUS
 62
4
 10
438.6476
 20
650.6140
 11
438.6193
 21
650.5078
  0
LINE
  8
0_00
  6
CONTINUOUS
 62
4
 10
438.6193
 20
650.5078
 11
438.5907
 21
650.4020
  0
LINE
  8
0_00
  6
CONTINUOUS
 62
4
 10
438.5907
 20
650.4020
 11
438.5622
 21
650.2963
  0
LINE
  8
0_00
  6
CONTINUOUS
 62
4
 10
438.5622
 20
650.2963
 11
438.5340
 21
650.1906
  0
LINE
  8
0_00
  6
CONTINUOUS
 62
4
 10
438.5340
 20
650.1906
 11
438.5065
 21
650.0848
  0
LINE
  8
0_00
  6
CONTINUOUS
 62
4
 10
438.5065
 20
650.0848
 11
438.4799
 21
649.9789
  0
LINE
  8
0_00
  6
CONTINUOUS
 62
4
 10
438.4799
 20
649.9789
 11
438.4545
 21
649.8724
  0
LINE
  8
0_00
  6
CONTINUOUS
 62
4
 10
438.4545
 20
649.8724
 11
438.4306
 21
649.7654
  0
LINE
  8
0_00
  6
CONTINUOUS
 62
4
 10
438.4306
 20
649.7654
 11
438.4085
 21
649.6576
  0
LINE
  8
0_00
  6
CONTINUOUS
 62
4
 10
438.4085
 20
649.6576
 11
438.3885
 21
649.5491
  0
LINE
  8
0_00
  6
CONTINUOUS
 62
4
 10
438.3885
 20
649.5491
 11
438.3706
 21
649.4397
  0
LINE
  8
0_00
  6
CONTINUOUS
 62
4
 10
438.3706
 20
649.4397
 11
438.3545
 21
649.3295
  0
LINE
  8
0_00
  6
CONTINUOUS
 62
4
 10
438.3545
 20
649.3295
 11
438.3404
 21
649.2186
  0
LINE
  8
0_00
  6
CONTINUOUS
 62
4
 10
438.3404
 20
649.2186
 11
438.3281
 21
649.1069
  0
LINE
  8
0_00
  6
CONTINUOUS
 62
4
 10
438.3281
 20
649.1069
 11
438.3176
 21
648.9945
  0
LINE
  8
0_00
  6
CONTINUOUS
 62
4
 10
438.3176
 20
648.9945
 11
438.3087
 21
648.8814
  0
LINE
  8
0_00
  6
CONTINUOUS
 62
4
 10
438.3087
 20
648.8814
 11
438.3014
 21
648.7677
  0
LINE
  8
0_00
  6
CONTINUOUS
 62
4
 10
438.3014
 20
648.7677
 11
438.2958
 21
648.6533
  0
LINE
  8
0_00
  6
CONTINUOUS
 62
4
 10
438.2958
 20
648.6533
 11
438.2916
 21
648.5384
  0
LINE
  8
0_00
  6
CONTINUOUS
 62
4
 10
438.2916
 20
648.5384
 11
438.2887
 21
648.4229
  0
LINE
  8
0_00
  6
CONTINUOUS
 62
4
 10
438.2887
 20
648.4229
 11
438.2872
 21
648.3068
  0
LINE
  8
0_00
  6
CONTINUOUS
 62
4
 10
438.2872
 20
648.3068
 11
438.2870
 21
648.1902
  0
LINE
  8
0_00
  6
CONTINUOUS
 62
4
 10
438.2870
 20
648.1902
 11
438.2880
 21
648.0731
  0
LINE
  8
0_00
  6
CONTINUOUS
 62
4
 10
438.2880
 20
648.0731
 11
438.2901
 21
647.9556
  0
LINE
  8
0_00
  6
CONTINUOUS
 62
4
 10
438.2901
 20
647.9556
 11
438.2932
 21
647.8377
  0
LINE
  8
0_00
  6
CONTINUOUS
 62
4
 10
438.2932
 20
647.8377
 11
438.2974
 21
647.7194
  0
LINE
  8
0_00
  6
CONTINUOUS
 62
4
 10
438.2974
 20
647.7194
 11
438.3024
 21
647.6006
  0
LINE
  8
0_00
  6
CONTINUOUS
 62
4
 10
438.3024
 20
647.6006
 11
438.3083
 21
647.4815
  0
LINE
  8
0_00
  6
CONTINUOUS
 62
4
 10
438.3083
 20
647.4815
 11
438.3149
 21
647.3622
  0
LINE
  8
0_00
  6
CONTINUOUS
 62
4
 10
438.3149
 20
647.3622
 11
438.3223
 21
647.2425
  0
LINE
  8
0_00
  6
CONTINUOUS
 62
4
 10
438.3223
 20
647.2425
 11
438.3303
 21
647.1227
  0
LINE
  8
0_00
  6
CONTINUOUS
 62
4
 10
438.3303
 20
647.1227
 11
438.3389
 21
647.0026
  0
LINE
  8
0_00
  6
CONTINUOUS
 62
4
 10
438.3389
 20
647.0026
 11
438.3479
 21
646.8822
  0
LINE
  8
0_00
  6
CONTINUOUS
 62
4
 10
438.3479
 20
646.8822
 11
438.3573
 21
646.7617
  0
LINE
  8
0_00
  6
CONTINUOUS
 62
4
 10
438.3573
 20
646.7617
 11
438.3672
 21
646.6410
  0
LINE
  8
0_00
  6
CONTINUOUS
 62
4
 10
438.3672
 20
646.6410
 11
438.3772
 21
646.5202
  0
LINE
  8
0_00
  6
CONTINUOUS
 62
4
 10
438.3772
 20
646.5202
 11
438.3875
 21
646.3994
  0
LINE
  8
0_00
  6
CONTINUOUS
 62
4
 10
438.3875
 20
646.3994
 11
438.3980
 21
646.2785
  0
LINE
  8
0_00
  6
CONTINUOUS
 62
4
 10
438.3980
 20
646.2785
 11
438.4085
 21
646.1576
  0
LINE
  8
0_00
  6
CONTINUOUS
 62
4
 10
503.0518
 20
693.1576
 11
503.0518
 21
654.3576
  0
LINE
  8
0_00
  6
CONTINUOUS
 62
4
 10
503.0518
 20
651.1576
 11
503.0518
 21
646.1576
  0
LINE
  8
0_00
  6
CONTINUOUS
 62
4
 10
438.7750
 20
651.1576
 11
493.5518
 21
651.1576
  0
LINE
  8
0_00
  6
CONTINUOUS
 62
4
 10
438.3176
 20
649.1576
 11
503.0518
 21
649.1576
  0
LINE
  8
0_00
  6
CONTINUOUS
 62
4
 10
114.8454
 20
646.1576
 11
468.0463
 21
646.1576
  0
LINE
  8
0_00
  6
CONTINUOUS
 62
4
 10
119.6914
 20
246.3843
 11
498.0518
 21
246.3843
  0
LINE
  8
0_00
  6
CONTINUOUS
 62
4
 10
792.9643
 20
647.6576
 11
797.9643
 21
647.6576
  0
LINE
  8
0_00
  6
CONTINUOUS
 62
4
 10
798.5642
 20
647.6576
 11
807.6643
 21
647.6576
  0
LINE
  8
0_00
  6
CONTINUOUS
 62
2
 10
817.2643
 20
685.6796
 11
817.2643
 21
646.1576
  0
LINE
  8
0_00
  6
CONTINUOUS
 62
2
 10
743.2643
 20
685.6796
 11
743.2644
 21
646.1576
  0
LINE
  8
0_00
  6
CONTINUOUS
 62
2
 10
809.5642
 20
646.1576
 11
817.2643
 21
646.1576
  0
LINE
  8
0_00
  6
CONTINUOUS
 62
2
 10
750.9638
 20
646.1576
 11
743.2644
 21
646.1576
  0
LINE
  8
0_00
  6
CONTINUOUS
 62
4
 10
438.3083
 20
647.6576
 11
468.0463
 21
647.6576
  0
LINE
  8
0_00
  6
CONTINUOUS
 62
4
 10
483.0574
 20
647.6576
 11
503.0518
 21
647.6576
  0
LINE
  8
0_00
  6
CONTINUOUS
 62
6
 10
737.1890
 20
736.1879
 11
664.5039
 21
736.1879
  0
LINE
  8
0_00
  6
CONTINUOUS
 62
6
 10
723.1320
 20
760.5355
 11
637.6047
 21
760.5355
  0
LINE
  8
0_00
  6
CONTINUOUS
 62
6
 10
751.2463
 20
711.8400
 11
659.4425
 21
711.8400
  0
LINE
  8
0_00
  6
CONTINUOUS
 62
6
 10
775.6003
 20
669.6576
 11
723.1320
 21
760.5355
  0
LINE
  8
0_00
  6
CONTINUOUS
 62
6
 10
775.6003
 20
669.6576
 11
773.2827
 21
676.7905
  0
LINE
  8
0_00
  6
CONTINUOUS
 62
6
 10
775.6003
 20
669.6576
 11
770.5818
 21
675.2312
  0
LINE
  8
0_00
  6
CONTINUOUS
 62
4
 10
119.6914
 20
236.3843
 11
508.0518
 21
236.3843
  0
LINE
  8
0_00
  6
CONTINUOUS
 62
4
 10
498.0518
 20
246.3843
 11
508.0518
 21
236.3843
  0
LINE
  8
0_00
  6
CENTER1
 62
6
 10
251.2259
 20
514.5209
 11
290.3480
 21
514.5209
  0
LINE
  8
0_00
  6
CONTINUOUS
 62
4
 10
261.5518
 20
517.7310
 11
261.5518
 21
515.7084
  0
LINE
  8
0_00
  6
CONTINUOUS
 62
4
 10
261.7563
 20
519.2840
 11
263.2336
 21
524.7974
  0
LINE
  8
0_00
  6
CONTINUOUS
 62
4
 10
266.1314
 20
527.0209
 11
276.9722
 21
527.0209
  0
LINE
  8
0_00
  6
CONTINUOUS
 62
4
 10
279.8701
 20
524.7974
 11
281.3474
 21
519.2840
  0
LINE
  8
0_00
  6
CONTINUOUS
 62
4
 10
266.1314
 20
526.3209
 11
276.9722
 21
526.3209
  0
LINE
  8
0_00
  6
CONTINUOUS
 62
4
 10
279.1939
 20
524.6162
 11
280.6712
 21
519.1028
  0
LINE
  8
0_00
  6
CONTINUOUS
 62
4
 10
263.9097
 20
524.6162
 11
262.4324
 21
519.1028
  0
LINE
  8
0_00
  6
CONTINUOUS
 62
4
 10
262.2518
 20
515.6300
 11
262.2518
 21
517.7310
  0
LINE
  8
0_00
  6
CONTINUOUS
 62
4
 10
261.5518
 20
511.3109
 11
261.5518
 21
513.3335
  0
LINE
  8
0_00
  6
CONTINUOUS
 62
4
 10
261.7563
 20
509.7579
 11
263.2336
 21
504.2445
  0
LINE
  8
0_00
  6
CONTINUOUS
 62
4
 10
266.1314
 20
502.0210
 11
276.9722
 21
502.0210
  0
LINE
  8
0_00
  6
CONTINUOUS
 62
4
 10
279.8701
 20
504.2445
 11
281.3474
 21
509.7579
  0
LINE
  8
0_00
  6
CONTINUOUS
 62
4
 10
266.1314
 20
502.7209
 11
276.9722
 21
502.7209
  0
LINE
  8
0_00
  6
CONTINUOUS
 62
4
 10
279.1939
 20
504.4257
 11
280.6712
 21
509.9391
  0
LINE
  8
0_00
  6
CONTINUOUS
 62
4
 10
263.9097
 20
504.4257
 11
262.4324
 21
509.9391
  0
LINE
  8
0_00
  6
CONTINUOUS
 62
4
 10
262.2518
 20
513.4118
 11
262.2518
 21
511.3109
  0
LINE
  8
0_00
  6
CONTINUOUS
 62
4
 10
281.5518
 20
515.7084
 11
281.5518
 21
517.7310
  0
LINE
  8
0_00
  6
CONTINUOUS
 62
4
 10
277.2518
 20
516.0209
 11
277.2518
 21
516.5166
  0
LINE
  8
0_00
  6
CONTINUOUS
 62
4
 10
278.8518
 20
516.0209
 11
278.8518
 21
516.5166
  0
LINE
  8
0_00
  6
CONTINUOUS
 62
4
 10
276.2518
 20
515.7046
 11
276.2518
 21
515.9210
  0
LINE
  8
0_00
  6
CONTINUOUS
 62
4
 10
279.7643
 20
515.5096
 11
280.1225
 21
515.7164
  0
LINE
  8
0_00
  6
CONTINUOUS
 62
4
 10
281.5518
 20
513.3335
 11
281.5518
 21
511.3109
  0
LINE
  8
0_00
  6
CONTINUOUS
 62
4
 10
280.8518
 20
517.4192
 11
280.8518
 21
517.7310
  0
LINE
  8
0_00
  6
CONTINUOUS
 62
4
 10
280.8518
 20
511.6227
 11
280.8518
 21
511.3109
  0
LINE
  8
0_00
  6
CONTINUOUS
 62
4
 10
277.2518
 20
513.0210
 11
277.2518
 21
512.5253
  0
LINE
  8
0_00
  6
CONTINUOUS
 62
4
 10
278.8518
 20
513.0210
 11
278.8518
 21
512.5253
  0
LINE
  8
0_00
  6
CONTINUOUS
 62
4
 10
276.2518
 20
513.3373
 11
276.2518
 21
513.1210
  0
LINE
  8
0_00
  6
CONTINUOUS
 62
4
 10
279.7643
 20
513.5323
 11
280.1225
 21
513.3255
  0
LINE
  8
0_00
  6
CONTINUOUS
 62
6
 10
774.6352
 20
643.7731
 11
741.0482
 21
585.5988
  0
LINE
  8
0_00
  6
CONTINUOUS
 62
6
 10
774.6352
 20
643.7731
 11
769.6166
 21
638.1995
  0
LINE
  8
0_00
  6
CONTINUOUS
 62
6
 10
774.6352
 20
643.7731
 11
772.3174
 21
636.6401
  0
LINE
  8
0_00
  6
CONTINUOUS
 62
6
 10
741.0482
 20
585.5988
 11
703.2482
 21
585.5988
  0
LINE
  8
0_00
  6
CONTINUOUS
 62
6
 10
756.7657
 20
612.8224
 11
695.5879
 21
612.8224
  0
LINE
  8
0_00
  6
CONTINUOUS
 62
6
 10
817.2643
 20
677.5596
 11
826.3125
 21
693.2317
  0
LINE
  8
0_00
  6
CONTINUOUS
 62
6
 10
817.2643
 20
677.5596
 11
822.2827
 21
683.1331
  0
LINE
  8
0_00
  6
CONTINUOUS
 62
6
 10
817.2643
 20
677.5596
 11
819.5819
 21
684.6926
  0
LINE
  8
0_00
  6
CONTINUOUS
 62
6
 10
826.3125
 20
693.2317
 11
928.9125
 21
693.2317
  0
LINE
  8
0_00
  6
CONTINUOUS
 62
6
 10
790.2843
 20
656.0607
 11
812.0389
 21
618.3806
  0
LINE
  8
0_00
  6
CONTINUOUS
 62
6
 10
790.2843
 20
656.0607
 11
792.6020
 21
648.9277
  0
LINE
  8
0_00
  6
CONTINUOUS
 62
6
 10
790.2843
 20
656.0607
 11
795.3028
 21
650.4870
  0
LINE
  8
0_00
  6
CONTINUOUS
 62
6
 10
878.6389
 20
618.3806
 11
812.0389
 21
618.3806
  0
LINE
  8
0_00
  6
CONTINUOUS
 62
4
 10
1126.8281
 20
446.7179
 11
1126.8281
 21
374.9179
  0
LINE
  8
0_00
  6
CONTINUOUS
 62
4
 10
1128.8281
 20
374.9179
 11
1128.8281
 21
446.7179
  0
LINE
  8
0_00
  6
CONTINUOUS
 62
6
 10
922.0281
 20
466.4179
 11
922.0281
 21
506.0000
  0
LINE
  8
0_00
  6
CONTINUOUS
 62
6
 10
1025.3616
 20
466.4179
 11
1025.3616
 21
506.0000
  0
LINE
  8
0_00
  6
CONTINUOUS
 62
6
 10
922.0281
 20
500.0000
 11
1025.3616
 21
500.0000
  0
LINE
  8
0_00
  6
CONTINUOUS
 62
6
 10
922.0281
 20
500.0000
 11
929.3643
 21
498.4407
  0
LINE
  8
0_00
  6
CONTINUOUS
 62
6
 10
922.0281
 20
500.0000
 11
929.3643
 21
501.5593
  0
LINE
  8
0_00
  6
CONTINUOUS
 62
6
 10
1025.3616
 20
500.0000
 11
1018.0254
 21
501.5593
  0
LINE
  8
0_00
  6
CONTINUOUS
 62
6
 10
1025.3616
 20
500.0000
 11
1018.0254
 21
498.4407
  0
LINE
  8
0_00
  6
CONTINUOUS
 62
6
 10
1025.3616
 20
500.0000
 11
1136.1948
 21
500.0000
  0
LINE
  8
0_00
  6
CONTINUOUS
 62
6
 10
1025.3616
 20
500.0000
 11
1032.6976
 21
498.4407
  0
LINE
  8
0_00
  6
CONTINUOUS
 62
6
 10
1025.3616
 20
500.0000
 11
1032.6976
 21
501.5593
  0
LINE
  8
0_00
  6
CONTINUOUS
 62
6
 10
1136.1948
 20
500.0000
 11
1128.8588
 21
501.5593
  0
LINE
  8
0_00
  6
CONTINUOUS
 62
6
 10
1136.1948
 20
500.0000
 11
1128.8588
 21
498.4407
  0
LINE
  8
0_00
  6
CONTINUOUS
 62
6
 10
1136.1948
 20
480.3655
 11
1136.1948
 21
506.0000
  0
LINE
  8
0_00
  6
CONTINUOUS
 62
4
 10
757.7643
 20
379.3843
 11
757.7643
 21
347.8843
  0
LINE
  8
0_00
  6
CONTINUOUS
 62
4
 10
758.9672
 20
348.1871
 11
759.2615
 21
379.5871
  0
LINE
  8
0_00
  6
CONTINUOUS
 62
4
 10
759.2643
 20
346.3843
 11
759.9643
 21
346.3843
  0
LINE
  8
0_00
  6
CONTINUOUS
 62
4
 10
760.2643
 20
346.6843
 11
760.2643
 21
347.5843
  0
LINE
  8
0_00
  6
CONTINUOUS
 62
4
 10
759.9643
 20
347.8843
 11
759.2671
 21
347.8843
  0
LINE
  8
0_00
  6
CONTINUOUS
 62
4
 10
759.5615
 20
379.8843
 11
766.0277
 21
379.8843
  0
LINE
  8
0_00
  6
CONTINUOUS
 62
4
 10
767.9643
 20
379.8843
 11
767.5643
 21
381.3843
  0
LINE
  8
0_00
  6
CONTINUOUS
 62
4
 10
767.5643
 20
381.3843
 11
762.4643
 21
381.3843
  0
LINE
  8
0_00
  6
CONTINUOUS
 62
4
 10
762.0643
 20
381.3843
 11
759.7643
 21
381.3843
  0
LINE
  8
0_00
  6
CONTINUOUS
 62
4
 10
766.5108
 20
379.5131
 11
766.8119
 21
378.3843
  0
LINE
  8
0_00
  6
CONTINUOUS
 62
4
 10
762.4643
 20
381.3843
 11
762.2643
 21
381.1843
  0
LINE
  8
0_00
  6
CONTINUOUS
 62
4
 10
762.2643
 20
381.1843
 11
762.0643
 21
381.3843
  0
LINE
  8
0_00
  6
CONTINUOUS
 62
4
 10
766.8119
 20
378.3843
 11
775.2643
 21
378.0843
  0
LINE
  8
0_00
  6
CONTINUOUS
 62
4
 10
780.0643
 20
379.8843
 11
767.9643
 21
379.8843
  0
LINE
  8
0_00
  6
CONTINUOUS
 62
4
 10
785.2643
 20
378.0843
 11
780.2643
 21
378.0843
  0
LINE
  8
0_00
  6
CONTINUOUS
 62
4
 10
780.2643
 20
379.6843
 11
780.4643
 21
379.8843
  0
LINE
  8
0_00
  6
CONTINUOUS
 62
4
 10
775.2643
 20
378.0843
 11
780.2643
 21
378.0843
  0
LINE
  8
0_00
  6
CONTINUOUS
 62
4
 10
780.2643
 20
379.6843
 11
780.0643
 21
379.8843
  0
LINE
  8
0_00
  6
CONTINUOUS
 62
4
 10
793.7167
 20
378.3843
 11
785.2643
 21
378.0843
  0
LINE
  8
0_00
  6
CONTINUOUS
 62
4
 10
780.4643
 20
379.8843
 11
792.5642
 21
379.8843
  0
LINE
  8
0_00
  6
CONTINUOUS
 62
4
 10
792.5642
 20
379.8843
 11
792.9643
 21
381.3843
  0
LINE
  8
0_00
  6
CONTINUOUS
 62
4
 10
792.9643
 20
381.3843
 11
798.0643
 21
381.3843
  0
LINE
  8
0_00
  6
CONTINUOUS
 62
4
 10
798.4643
 20
381.3843
 11
800.7643
 21
381.3843
  0
LINE
  8
0_00
  6
CONTINUOUS
 62
4
 10
800.9670
 20
379.8843
 11
794.5009
 21
379.8843
  0
LINE
  8
0_00
  6
CONTINUOUS
 62
4
 10
798.0643
 20
381.3843
 11
798.2643
 21
381.1843
  0
LINE
  8
0_00
  6
CONTINUOUS
 62
4
 10
798.2643
 20
381.1843
 11
798.4643
 21
381.3843
  0
LINE
  8
0_00
  6
CONTINUOUS
 62
4
 10
802.7643
 20
379.3843
 11
802.7643
 21
347.8843
  0
LINE
  8
0_00
  6
CONTINUOUS
 62
4
 10
801.5615
 20
348.1871
 11
801.2672
 21
379.5871
  0
LINE
  8
0_00
  6
CONTINUOUS
 62
4
 10
801.2643
 20
346.3843
 11
800.5643
 21
346.3843
  0
LINE
  8
0_00
  6
CONTINUOUS
 62
4
 10
800.2643
 20
346.6843
 11
800.2643
 21
347.5843
  0
LINE
  8
0_00
  6
CONTINUOUS
 62
4
 10
800.5643
 20
347.8843
 11
801.2615
 21
347.8843
  0
LINE
  8
0_00
  6
CONTINUOUS
 62
2
 10
468.0463
 20
649.1576
 11
483.0574
 21
649.1576
  0
LINE
  8
0_00
  6
CONTINUOUS
 62
2
 10
483.0574
 20
646.3042
 11
483.0574
 21
644.3536
  0
LINE
  8
0_00
  6
CONTINUOUS
 62
2
 10
483.0574
 20
649.1576
 11
483.0574
 21
646.3042
  0
LINE
  8
0_00
  6
CONTINUOUS
 62
2
 10
468.0463
 20
646.3042
 11
468.0463
 21
644.3536
  0
LINE
  8
0_00
  6
CONTINUOUS
 62
2
 10
468.0463
 20
649.1576
 11
468.0463
 21
646.3042
  0
LINE
  8
0_00
  6
CONTINUOUS
 62
2
 10
483.0574
 20
644.3536
 11
481.8518
 21
643.6576
  0
LINE
  8
0_00
  6
CONTINUOUS
 62
2
 10
468.0463
 20
644.3536
 11
469.2518
 21
643.6576
  0
LINE
  8
0_00
  6
CONTINUOUS
 62
2
 10
469.2518
 20
643.6576
 11
481.8518
 21
643.6576
  0
LINE
  8
0_00
  6
CONTINUOUS
 62
2
 10
479.3046
 20
646.3042
 11
479.3046
 21
644.3536
  0
LINE
  8
0_00
  6
CONTINUOUS
 62
2
 10
479.3046
 20
649.1576
 11
479.3046
 21
646.3042
  0
LINE
  8
0_00
  6
CONTINUOUS
 62
2
 10
471.7990
 20
646.3042
 11
471.7990
 21
644.3536
  0
LINE
  8
0_00
  6
CONTINUOUS
 62
2
 10
471.7990
 20
649.1576
 11
471.7990
 21
646.3042
  0
LINE
  8
0_00
  6
CONTINUOUS
 62
2
 10
479.5518
 20
662.8576
 11
479.5518
 21
667.9576
  0
LINE
  8
0_00
  6
CONTINUOUS
 62
2
 10
471.5518
 20
662.8576
 11
471.5518
 21
667.9576
  0
LINE
  8
0_00
  6
CONTINUOUS
 62
2
 10
479.5518
 20
667.9576
 11
478.3518
 21
669.1576
  0
LINE
  8
0_00
  6
CONTINUOUS
 62
2
 10
471.5518
 20
667.9576
 11
472.7518
 21
669.1576
  0
LINE
  8
0_00
  6
CONTINUOUS
 62
2
 10
472.7518
 20
669.1576
 11
478.3518
 21
669.1576
  0
LINE
  8
0_00
  6
CONTINUOUS
 62
2
 10
471.5518
 20
667.9576
 11
479.5518
 21
667.9576
  0
LINE
  8
0_00
  6
CONTINUOUS
 62
6
 10
478.8018
 20
662.8576
 11
478.8018
 21
668.7077
  0
LINE
  8
0_00
  6
CONTINUOUS
 62
6
 10
472.3018
 20
662.8576
 11
472.3018
 21
668.7077
  0
LINE
  8
0_00
  6
CONTINUOUS
 62
2
 10
483.2518
 20
656.3576
 11
467.8518
 21
656.3576
  0
LINE
  8
0_00
  6
CONTINUOUS
 62
2
 10
467.8518
 20
656.3576
 11
467.8518
 21
654.3576
  0
LINE
  8
0_00
  6
CONTINUOUS
 62
2
 10
483.2518
 20
656.3576
 11
483.2518
 21
654.3576
  0
LINE
  8
0_00
  6
CONTINUOUS
 62
2
 10
483.2518
 20
654.3576
 11
467.8518
 21
654.3576
  0
LINE
  8
0_00
  6
CONTINUOUS
 62
2
 10
475.2839
 20
656.3576
 11
475.8197
 21
654.3576
  0
LINE
  8
0_00
  6
CONTINUOUS
 62
2
 10
483.0574
 20
656.3576
 11
468.0463
 21
656.3576
  0
LINE
  8
0_00
  6
CONTINUOUS
 62
2
 10
468.0463
 20
656.3576
 11
468.0463
 21
662.1327
  0
LINE
  8
0_00
  6
CONTINUOUS
 62
2
 10
483.0574
 20
656.3576
 11
483.0574
 21
662.1327
  0
LINE
  8
0_00
  6
CONTINUOUS
 62
2
 10
468.0463
 20
662.1327
 11
469.3018
 21
662.8576
  0
LINE
  8
0_00
  6
CONTINUOUS
 62
2
 10
483.0574
 20
662.1327
 11
481.8018
 21
662.8576
  0
LINE
  8
0_00
  6
CONTINUOUS
 62
2
 10
481.8018
 20
662.8576
 11
469.3018
 21
662.8576
  0
LINE
  8
0_00
  6
CONTINUOUS
 62
2
 10
471.7990
 20
656.3576
 11
471.7990
 21
662.1327
  0
LINE
  8
0_00
  6
CONTINUOUS
 62
2
 10
479.3046
 20
656.3576
 11
479.3046
 21
662.1327
  0
LINE
  8
0_00
  6
CONTINUOUS
 62
2
 10
479.5518
 20
654.3576
 11
479.5518
 21
651.1576
  0
LINE
  8
0_00
  6
CONTINUOUS
 62
2
 10
479.5518
 20
649.1576
 11
479.5518
 21
651.1576
  0
LINE
  8
0_00
  6
CONTINUOUS
 62
6
 10
478.8018
 20
654.3576
 11
478.8018
 21
651.1576
  0
LINE
  8
0_00
  6
CONTINUOUS
 62
6
 10
478.8018
 20
649.1576
 11
478.8018
 21
651.1576
  0
LINE
  8
0_00
  6
CONTINUOUS
 62
6
 10
472.3018
 20
654.3576
 11
472.3018
 21
651.1576
  0
LINE
  8
0_00
  6
CONTINUOUS
 62
6
 10
472.3018
 20
649.1576
 11
472.3018
 21
651.1576
  0
LINE
  8
0_00
  6
CONTINUOUS
 62
2
 10
471.5518
 20
654.3576
 11
471.5518
 21
651.1576
  0
LINE
  8
0_00
  6
CONTINUOUS
 62
2
 10
471.5518
 20
649.1576
 11
471.5518
 21
651.1576
  0
LINE
  8
0_00
  6
CENTER1
 62
6
 10
475.5518
 20
672.9397
 11
475.5518
 21
634.1505
  0
LINE
  8
0_00
  6
CENTER1
 62
6
 10
398.5518
 20
659.1308
 11
398.5518
 21
369.8882
  0
LINE
  8
0_00
  6
CONTINUOUS
 62
4
 10
408.5518
 20
646.1576
 11
408.5518
 21
381.3843
  0
LINE
  8
0_00
  6
CONTINUOUS
 62
4
 10
388.5518
 20
646.1576
 11
388.5518
 21
381.3843
  0
LINE
  8
0_00
  6
CONTINUOUS
 62
2
 10
759.7643
 20
388.3843
 11
800.7643
 21
388.3843
  0
LINE
  8
0_00
  6
CONTINUOUS
 62
2
 10
809.7643
 20
379.3843
 11
809.7643
 21
346.3843
  0
LINE
  8
0_00
  6
CONTINUOUS
 62
2
 10
750.7643
 20
379.3843
 11
750.7643
 21
346.3843
  0
LINE
  8
0_00
  6
CONTINUOUS
 62
2
 10
759.2643
 20
346.3843
 11
750.7643
 21
346.3843
  0
LINE
  8
0_00
  6
CONTINUOUS
 62
2
 10
801.2643
 20
346.3843
 11
809.7643
 21
346.3843
  0
LINE
  8
0_00
  6
CONTINUOUS
 62
2
 10
418.1975
 20
723.5904
 11
418.1975
 21
192.0566
  0
LINE
  8
0_00
  6
CONTINUOUS
 62
2
 10
418.1975
 20
723.5904
 11
434.2149
 21
723.5904
  0
LINE
  8
0_00
  6
CONTINUOUS
 62
2
 10
434.2149
 20
723.5904
 11
426.8788
 21
725.1498
  0
LINE
  8
0_00
  6
CONTINUOUS
 62
2
 10
434.2149
 20
723.5904
 11
426.8788
 21
722.0311
  0
LINE
  8
0_00
  6
CENTER1
 62
6
 10
588.9475
 20
669.6576
 11
507.0346
 21
669.6576
  0
LINE
  8
0_00
  6
CENTER1
 62
6
 10
589.9050
 20
359.5843
 11
507.0346
 21
359.5843
  0
LINE
  8
0_00
  6
CONTINUOUS
 62
2
 10
784.2643
 20
662.8576
 11
784.2643
 21
667.9576
  0
LINE
  8
0_00
  6
CONTINUOUS
 62
2
 10
776.2643
 20
662.8576
 11
776.2643
 21
667.9576
  0
LINE
  8
0_00
  6
CONTINUOUS
 62
2
 10
784.2643
 20
667.9576
 11
783.0643
 21
669.1576
  0
LINE
  8
0_00
  6
CONTINUOUS
 62
2
 10
776.2643
 20
667.9576
 11
777.4643
 21
669.1576
  0
LINE
  8
0_00
  6
CONTINUOUS
 62
2
 10
777.4643
 20
669.1576
 11
783.0643
 21
669.1576
  0
LINE
  8
0_00
  6
CONTINUOUS
 62
2
 10
776.2643
 20
667.9576
 11
784.2643
 21
667.9576
  0
LINE
  8
0_00
  6
CONTINUOUS
 62
6
 10
783.5143
 20
662.8576
 11
783.5143
 21
668.7077
  0
LINE
  8
0_00
  6
CONTINUOUS
 62
6
 10
777.0143
 20
662.8576
 11
777.0143
 21
668.7077
  0
LINE
  8
0_00
  6
CONTINUOUS
 62
2
 10
787.9644
 20
656.3576
 11
772.5643
 21
656.3576
  0
LINE
  8
0_00
  6
CONTINUOUS
 62
2
 10
772.5643
 20
656.3576
 11
772.5643
 21
654.3576
  0
LINE
  8
0_00
  6
CONTINUOUS
 62
2
 10
787.9644
 20
656.3576
 11
787.9644
 21
654.3576
  0
LINE
  8
0_00
  6
CONTINUOUS
 62
2
 10
787.9644
 20
654.3576
 11
772.5643
 21
654.3576
  0
LINE
  8
0_00
  6
CONTINUOUS
 62
2
 10
779.9963
 20
656.3576
 11
780.5322
 21
654.3576
  0
LINE
  8
0_00
  6
CONTINUOUS
 62
2
 10
787.7698
 20
656.3576
 11
772.7587
 21
656.3576
  0
LINE
  8
0_00
  6
CONTINUOUS
 62
2
 10
772.7587
 20
656.3576
 11
772.7587
 21
662.1327
  0
LINE
  8
0_00
  6
CONTINUOUS
 62
2
 10
787.7698
 20
656.3576
 11
787.7698
 21
662.1327
  0
LINE
  8
0_00
  6
CONTINUOUS
 62
2
 10
772.7587
 20
662.1327
 11
774.0143
 21
662.8576
  0
LINE
  8
0_00
  6
CONTINUOUS
 62
2
 10
787.7698
 20
662.1327
 11
786.5143
 21
662.8576
  0
LINE
  8
0_00
  6
CONTINUOUS
 62
2
 10
786.5143
 20
662.8576
 11
774.0143
 21
662.8576
  0
LINE
  8
0_00
  6
CONTINUOUS
 62
2
 10
776.5115
 20
656.3576
 11
776.5115
 21
662.1327
  0
LINE
  8
0_00
  6
CONTINUOUS
 62
2
 10
784.0171
 20
656.3576
 11
784.0171
 21
662.1327
  0
LINE
  8
2_02
  6
CENTER1
 62
6
 10
786.9220
 20
669.6576
 11
774.1754
 21
669.6576
  0
LINE
  8
0_00
  6
CONTINUOUS
 62
2
 10
772.7587
 20
649.1576
 11
787.7698
 21
649.1576
  0
LINE
  8
0_00
  6
CONTINUOUS
 62
2
 10
787.7698
 20
646.3042
 11
787.7698
 21
644.3536
  0
LINE
  8
0_00
  6
CONTINUOUS
 62
2
 10
787.7698
 20
649.1576
 11
787.7698
 21
646.3042
  0
LINE
  8
0_00
  6
CONTINUOUS
 62
2
 10
772.7587
 20
646.3042
 11
772.7587
 21
644.3536
  0
LINE
  8
0_00
  6
CONTINUOUS
 62
2
 10
772.7587
 20
649.1576
 11
772.7587
 21
646.3042
  0
LINE
  8
0_00
  6
CONTINUOUS
 62
2
 10
787.7698
 20
644.3536
 11
786.5643
 21
643.6576
  0
LINE
  8
0_00
  6
CONTINUOUS
 62
2
 10
772.7587
 20
644.3536
 11
773.9643
 21
643.6576
  0
LINE
  8
0_00
  6
CONTINUOUS
 62
2
 10
773.9643
 20
643.6576
 11
786.5643
 21
643.6576
  0
LINE
  8
0_00
  6
CONTINUOUS
 62
2
 10
784.0171
 20
646.3042
 11
784.0171
 21
644.3536
  0
LINE
  8
0_00
  6
CONTINUOUS
 62
2
 10
784.0171
 20
649.1576
 11
784.0171
 21
646.3042
  0
LINE
  8
0_00
  6
CONTINUOUS
 62
2
 10
776.5115
 20
646.3042
 11
776.5115
 21
644.3536
  0
LINE
  8
0_00
  6
CONTINUOUS
 62
2
 10
776.5115
 20
649.1576
 11
776.5115
 21
646.3042
  0
LINE
  8
0_00
  6
DASHED
 62
2
 10
784.2643
 20
654.3576
 11
784.2643
 21
651.1576
  0
LINE
  8
0_00
  6
DASHED
 62
2
 10
784.2643
 20
649.1576
 11
784.2643
 21
651.1576
  0
LINE
  8
0_00
  6
DASHED
 62
2
 10
776.2643
 20
654.3576
 11
776.2643
 21
651.1576
  0
LINE
  8
0_00
  6
DASHED
 62
2
 10
776.2643
 20
649.1576
 11
776.2643
 21
651.1576
  0
LINE
  8
2_02
  6
CENTER1
 62
6
 10
796.2611
 20
669.6576
 11
765.5624
 21
669.6576
  0
LINE
  8
0_00
  6
DASHED
 62
6
 10
783.5143
 20
654.3576
 11
783.5143
 21
651.1576
  0
LINE
  8
0_00
  6
DASHED
 62
6
 10
783.5143
 20
649.1576
 11
783.5143
 21
651.1576
  0
LINE
  8
0_00
  6
DASHED
 62
6
 10
777.0143
 20
654.3576
 11
777.0143
 21
651.1576
  0
LINE
  8
0_00
  6
DASHED
 62
6
 10
777.0143
 20
649.1576
 11
777.0143
 21
651.1576
  0
LINE
  8
0_00
  6
CONTINUOUS
 62
2
 10
418.1975
 20
192.0566
 11
434.2149
 21
192.0566
  0
LINE
  8
0_00
  6
CONTINUOUS
 62
2
 10
434.2149
 20
192.0566
 11
426.8788
 21
193.6159
  0
LINE
  8
0_00
  6
CONTINUOUS
 62
2
 10
434.2149
 20
192.0566
 11
426.8788
 21
190.4972
  0
LINE
  8
0_00
  6
CONTINUOUS
 62
4
 10
1044.7687
 20
659.2015
 11
1044.4688
 21
658.9016
  0
LINE
  8
0_00
  6
CONTINUOUS
 62
4
 10
1044.7687
 20
659.2015
 11
1045.0687
 21
658.9016
  0
LINE
  8
14_0E
  6
CONTINUOUS
 62
4
 10
1057.8449
 20
660.5113
 11
1048.7687
 21
660.9017
  0
LINE
  8
0_00
  6
CONTINUOUS
 62
4
 10
1044.7687
 20
659.2015
 11
1045.0687
 21
658.9016
  0
LINE
  8
0_00
  6
CONTINUOUS
 62
4
 10
1044.7687
 20
659.2015
 11
1044.4688
 21
658.9016
  0
LINE
  8
14_0E
  6
CONTINUOUS
 62
4
 10
1031.6925
 20
660.5113
 11
1040.7687
 21
660.9017
  0
LINE
  8
0_00
  6
CONTINUOUS
 62
4
 10
1048.7687
 20
660.9017
 11
1040.7687
 21
660.9017
  0
LINE
  8
0_00
  6
CONTINUOUS
 62
4
 10
1060.2687
 20
659.1016
 11
1065.2687
 21
659.1016
  0
LINE
  8
0_00
  6
CONTINUOUS
 62
4
 10
1059.9687
 20
658.9016
 11
1058.7810
 21
658.9016
  0
LINE
  8
0_00
  6
CONTINUOUS
 62
4
 10
1060.2687
 20
659.1016
 11
1059.9687
 21
658.9016
  0
LINE
  8
0_00
  6
CONTINUOUS
 62
4
 10
1058.1230
 20
660.2843
 11
1058.3929
 21
659.2046
  0
LINE
  8
0_00
  6
CONTINUOUS
 62
4
 10
1029.2687
 20
659.1016
 11
1024.2686
 21
659.1016
  0
LINE
  8
0_00
  6
CONTINUOUS
 62
4
 10
1024.2686
 20
659.1016
 11
1023.9687
 21
658.9016
  0
LINE
  8
0_00
  6
CONTINUOUS
 62
4
 10
1029.5687
 20
658.9016
 11
1030.7563
 21
658.9016
  0
LINE
  8
0_00
  6
CONTINUOUS
 62
4
 10
1029.2687
 20
659.1016
 11
1029.5687
 21
658.9016
  0
LINE
  8
0_00
  6
CONTINUOUS
 62
4
 10
1031.4143
 20
660.2843
 11
1031.1443
 21
659.2046
  0
LINE
  8
0_00
  6
CONTINUOUS
 62
4
 10
1044.7687
 20
659.2015
 11
1044.4688
 21
658.9016
  0
LINE
  8
0_00
  6
CONTINUOUS
 62
4
 10
1057.0687
 20
658.9016
 11
1045.0687
 21
658.9016
  0
LINE
  8
0_00
  6
CONTINUOUS
 62
4
 10
1044.7687
 20
659.2015
 11
1045.0687
 21
658.9016
  0
LINE
  8
14_0E
  6
CONTINUOUS
 62
4
 10
1057.8449
 20
660.5113
 11
1048.7687
 21
660.9017
  0
LINE
  8
0_00
  6
CONTINUOUS
 62
4
 10
1044.7687
 20
659.2015
 11
1045.0687
 21
658.9016
  0
LINE
  8
0_00
  6
CONTINUOUS
 62
4
 10
1032.4688
 20
658.9016
 11
1044.4688
 21
658.9016
  0
LINE
  8
0_00
  6
CONTINUOUS
 62
4
 10
1044.7687
 20
659.2015
 11
1044.4688
 21
658.9016
  0
LINE
  8
14_0E
  6
CONTINUOUS
 62
4
 10
1031.6925
 20
660.5113
 11
1040.7687
 21
660.9017
  0
LINE
  8
0_00
  6
CONTINUOUS
 62
4
 10
1048.7687
 20
660.9017
 11
1040.7687
 21
660.9017
  0
LINE
  8
0_00
  6
CONTINUOUS
 62
4
 10
1057.4688
 20
657.4016
 11
1062.4688
 21
657.4016
  0
LINE
  8
0_00
  6
CONTINUOUS
 62
4
 10
1057.0687
 20
658.9016
 11
1057.4688
 21
657.4016
  0
LINE
  8
0_00
  6
CONTINUOUS
 62
4
 10
1060.2687
 20
659.1016
 11
1065.2687
 21
659.1016
  0
LINE
  8
0_00
  6
CONTINUOUS
 62
4
 10
1063.0687
 20
657.4016
 11
1072.1687
 21
657.4016
  0
LINE
  8
0_00
  6
CONTINUOUS
 62
4
 10
1062.7687
 20
657.7015
 11
1062.4688
 21
657.4016
  0
LINE
  8
0_00
  6
CONTINUOUS
 62
4
 10
1062.7687
 20
657.7015
 11
1063.0687
 21
657.4016
  0
LINE
  8
0_00
  6
CONTINUOUS
 62
4
 10
1070.0964
 20
658.9016
 11
1065.5687
 21
658.9016
  0
LINE
  8
0_00
  6
CONTINUOUS
 62
4
 10
1065.2687
 20
659.1016
 11
1065.5687
 21
658.9016
  0
LINE
  8
0_00
  6
CONTINUOUS
 62
4
 10
1059.9687
 20
658.9016
 11
1058.7810
 21
658.9016
  0
LINE
  8
0_00
  6
CONTINUOUS
 62
4
 10
1060.2687
 20
659.1016
 11
1059.9687
 21
658.9016
  0
LINE
  8
0_00
  6
CONTINUOUS
 62
4
 10
1058.1230
 20
660.2843
 11
1058.3929
 21
659.2046
  0
LINE
  8
0_00
  6
CONTINUOUS
 62
4
 10
1072.1687
 20
657.4016
 11
1073.1687
 21
658.4016
  0
LINE
  8
0_00
  6
CONTINUOUS
 62
4
 10
1073.1687
 20
658.4016
 11
1073.1687
 21
659.7015
  0
LINE
  8
0_00
  6
CONTINUOUS
 62
4
 10
1073.1687
 20
658.9016
 11
1073.1687
 21
658.4016
  0
LINE
  8
0_00
  6
CONTINUOUS
 62
4
 10
1072.1883
 20
661.7795
 11
1073.0448
 21
661.8545
  0
LINE
  8
0_00
  6
CONTINUOUS
 62
4
 10
1071.0816
 20
662.7869
 11
1071.9197
 21
662.8602
  0
LINE
  8
0_00
  6
CONTINUOUS
 62
4
 10
1070.1687
 20
661.7907
 11
1070.1687
 21
661.3578
  0
LINE
  8
0_00
  6
CONTINUOUS
 62
4
 10
1073.3125
 20
662.2136
 11
1072.2270
 21
667.5016
  0
LINE
  8
0_00
  6
CONTINUOUS
 62
4
 10
1071.4810
 20
666.6609
 11
1072.1873
 21
663.2194
  0
LINE
  8
0_00
  6
CONTINUOUS
 62
4
 10
1072.1666
 20
667.5016
 11
1072.2270
 21
667.5016
  0
LINE
  8
0_00
  6
CONTINUOUS
 62
4
 10
1074.7693
 20
667.6480
 11
1074.7691
 21
658.4404
  0
LINE
  8
0_00
  6
CONTINUOUS
 62
4
 10
1073.3691
 20
659.7981
 11
1073.3691
 21
657.4577
  0
LINE
  8
0_00
  6
CONTINUOUS
 62
4
 10
1073.3693
 20
664.8481
 11
1073.3693
 21
667.2442
  0
LINE
  8
0_00
  6
CONTINUOUS
 62
4
 10
1070.6693
 20
667.6481
 11
1072.9693
 21
667.6481
  0
LINE
  8
0_00
  6
CONTINUOUS
 62
4
 10
1069.8692
 20
667.9481
 11
1069.8692
 21
667.0481
  0
LINE
  8
0_00
  6
CONTINUOUS
 62
4
 10
1070.6693
 20
667.6481
 11
1070.6693
 21
667.4481
  0
LINE
  8
0_00
  6
CONTINUOUS
 62
4
 10
1072.2887
 20
661.7536
 11
1073.0042
 21
661.8162
  0
LINE
  8
0_00
  6
CONTINUOUS
 62
4
 10
1073.3613
 20
662.2937
 11
1072.8947
 21
664.6086
  0
LINE
  8
0_00
  6
CONTINUOUS
 62
4
 10
1073.0907
 20
664.8481
 11
1073.3693
 21
664.8481
  0
LINE
  8
0_00
  6
CONTINUOUS
 62
4
 10
1070.8693
 20
668.9481
 11
1073.4692
 21
668.9481
  0
LINE
  8
0_00
  6
CONTINUOUS
 62
4
 10
1032.0688
 20
657.4016
 11
1027.0688
 21
657.4016
  0
LINE
  8
0_00
  6
CONTINUOUS
 62
4
 10
1032.4688
 20
658.9016
 11
1032.0688
 21
657.4016
  0
LINE
  8
0_00
  6
CONTINUOUS
 62
4
 10
1029.2687
 20
659.1016
 11
1024.2686
 21
659.1016
  0
LINE
  8
0_00
  6
CONTINUOUS
 62
4
 10
1026.4688
 20
657.4016
 11
1017.3687
 21
657.4016
  0
LINE
  8
0_00
  6
CONTINUOUS
 62
4
 10
1026.7687
 20
657.7015
 11
1027.0688
 21
657.4016
  0
LINE
  8
0_00
  6
CONTINUOUS
 62
4
 10
1026.7687
 20
657.7015
 11
1026.4688
 21
657.4016
  0
LINE
  8
0_00
  6
CONTINUOUS
 62
4
 10
1019.4409
 20
658.9016
 11
1023.9687
 21
658.9016
  0
LINE
  8
0_00
  6
CONTINUOUS
 62
4
 10
1024.2686
 20
659.1016
 11
1023.9687
 21
658.9016
  0
LINE
  8
0_00
  6
CONTINUOUS
 62
4
 10
1029.5687
 20
658.9016
 11
1030.7563
 21
658.9016
  0
LINE
  8
0_00
  6
CONTINUOUS
 62
4
 10
1029.2687
 20
659.1016
 11
1029.5687
 21
658.9016
  0
LINE
  8
0_00
  6
CONTINUOUS
 62
4
 10
1031.4143
 20
660.2843
 11
1031.1443
 21
659.2046
  0
LINE
  8
0_00
  6
CONTINUOUS
 62
4
 10
1017.3687
 20
657.4016
 11
1016.3687
 21
658.4016
  0
LINE
  8
0_00
  6
CONTINUOUS
 62
4
 10
1016.3687
 20
658.4016
 11
1016.3687
 21
659.7015
  0
LINE
  8
0_00
  6
CONTINUOUS
 62
4
 10
1016.3687
 20
658.9016
 11
1016.3687
 21
658.4016
  0
LINE
  8
0_00
  6
CONTINUOUS
 62
4
 10
1017.3492
 20
661.7795
 11
1016.4925
 21
661.8545
  0
LINE
  8
0_00
  6
CONTINUOUS
 62
4
 10
1018.4559
 20
662.7869
 11
1017.6178
 21
662.8602
  0
LINE
  8
0_00
  6
CONTINUOUS
 62
4
 10
1019.3687
 20
661.7907
 11
1019.3687
 21
661.3578
  0
LINE
  8
0_00
  6
CONTINUOUS
 62
4
 10
1016.2249
 20
662.2136
 11
1017.3103
 21
667.5016
  0
LINE
  8
0_00
  6
CONTINUOUS
 62
4
 10
1018.0565
 20
666.6609
 11
1017.3500
 21
663.2194
  0
LINE
  8
0_00
  6
CONTINUOUS
 62
4
 10
1017.3707
 20
667.5016
 11
1017.3103
 21
667.5016
  0
LINE
  8
0_00
  6
CONTINUOUS
 62
4
 10
1014.7680
 20
667.6480
 11
1014.7682
 21
658.4404
  0
LINE
  8
0_00
  6
CONTINUOUS
 62
4
 10
1016.1682
 20
659.7981
 11
1016.1682
 21
657.4577
  0
LINE
  8
0_00
  6
CONTINUOUS
 62
4
 10
1016.1681
 20
664.8481
 11
1016.1681
 21
667.2442
  0
LINE
  8
0_00
  6
CONTINUOUS
 62
4
 10
1018.8680
 20
667.6481
 11
1016.5681
 21
667.6481
  0
LINE
  8
0_00
  6
CONTINUOUS
 62
4
 10
1019.6681
 20
667.9481
 11
1019.6681
 21
667.0481
  0
LINE
  8
0_00
  6
CONTINUOUS
 62
4
 10
1018.8680
 20
667.6481
 11
1018.8680
 21
667.4481
  0
LINE
  8
0_00
  6
CONTINUOUS
 62
4
 10
1017.2487
 20
661.7536
 11
1016.5333
 21
661.8162
  0
LINE
  8
0_00
  6
CONTINUOUS
 62
4
 10
1016.1760
 20
662.2937
 11
1016.6428
 21
664.6086
  0
LINE
  8
0_00
  6
CONTINUOUS
 62
4
 10
1016.4467
 20
664.8481
 11
1016.1681
 21
664.8481
  0
LINE
  8
0_00
  6
CONTINUOUS
 62
4
 10
1018.6681
 20
668.9481
 11
1016.0681
 21
668.9481
  0
LINE
  8
0_00
  6
CONTINUOUS
 62
2
 10
1048.7687
 20
672.6015
 11
1048.7687
 21
677.7015
  0
LINE
  8
0_00
  6
CONTINUOUS
 62
2
 10
1040.7687
 20
672.6015
 11
1040.7687
 21
677.7015
  0
LINE
  8
0_00
  6
CONTINUOUS
 62
2
 10
1048.7687
 20
677.7015
 11
1047.5687
 21
678.9016
  0
LINE
  8
0_00
  6
CONTINUOUS
 62
2
 10
1040.7687
 20
677.7015
 11
1041.9687
 21
678.9016
  0
LINE
  8
0_00
  6
CONTINUOUS
 62
2
 10
1041.9687
 20
678.9016
 11
1047.5687
 21
678.9016
  0
LINE
  8
0_00
  6
CONTINUOUS
 62
2
 10
1040.7687
 20
677.7015
 11
1048.7687
 21
677.7015
  0
LINE
  8
0_00
  6
CONTINUOUS
 62
6
 10
1048.0186
 20
672.6015
 11
1048.0186
 21
678.4515
  0
LINE
  8
0_00
  6
CONTINUOUS
 62
6
 10
1041.5186
 20
672.6015
 11
1041.5186
 21
678.4515
  0
LINE
  8
0_00
  6
CONTINUOUS
 62
2
 10
1052.4688
 20
666.1016
 11
1037.0687
 21
666.1016
  0
LINE
  8
0_00
  6
CONTINUOUS
 62
2
 10
1037.0687
 20
666.1016
 11
1037.0687
 21
664.1016
  0
LINE
  8
0_00
  6
CONTINUOUS
 62
2
 10
1052.4688
 20
666.1016
 11
1052.4688
 21
664.1016
  0
LINE
  8
0_00
  6
CONTINUOUS
 62
2
 10
1052.4688
 20
664.1016
 11
1037.0687
 21
664.1016
  0
LINE
  8
0_00
  6
CONTINUOUS
 62
2
 10
1044.5007
 20
666.1016
 11
1045.0366
 21
664.1016
  0
LINE
  8
0_00
  6
CONTINUOUS
 62
2
 10
1052.2742
 20
666.1016
 11
1037.2632
 21
666.1016
  0
LINE
  8
0_00
  6
CONTINUOUS
 62
2
 10
1037.2632
 20
666.1016
 11
1037.2632
 21
671.8767
  0
LINE
  8
0_00
  6
CONTINUOUS
 62
2
 10
1052.2742
 20
666.1016
 11
1052.2742
 21
671.8767
  0
LINE
  8
0_00
  6
CONTINUOUS
 62
2
 10
1037.2632
 20
671.8767
 11
1038.5186
 21
672.6015
  0
LINE
  8
0_00
  6
CONTINUOUS
 62
2
 10
1052.2742
 20
671.8767
 11
1051.0186
 21
672.6015
  0
LINE
  8
0_00
  6
CONTINUOUS
 62
2
 10
1051.0186
 20
672.6015
 11
1038.5186
 21
672.6015
  0
LINE
  8
0_00
  6
CONTINUOUS
 62
2
 10
1041.0159
 20
666.1016
 11
1041.0159
 21
671.8767
  0
LINE
  8
0_00
  6
CONTINUOUS
 62
2
 10
1048.5215
 20
666.1016
 11
1048.5215
 21
671.8767
  0
LINE
  8
2_02
  6
CENTER1
 62
6
 10
1060.7655
 20
679.4016
 11
1030.0668
 21
679.4016
  0
LINE
  8
2_02
  6
CENTER1
 62
6
 10
1051.4264
 20
679.4016
 11
1038.6798
 21
679.4016
  0
LINE
  8
0_00
  6
CONTINUOUS
 62
2
 10
1037.2632
 20
658.9016
 11
1052.2742
 21
658.9016
  0
LINE
  8
0_00
  6
CONTINUOUS
 62
2
 10
1052.2742
 20
656.0481
 11
1052.2742
 21
654.0976
  0
LINE
  8
0_00
  6
CONTINUOUS
 62
2
 10
1052.2742
 20
658.9016
 11
1052.2742
 21
656.0481
  0
LINE
  8
0_00
  6
CONTINUOUS
 62
2
 10
1037.2632
 20
656.0481
 11
1037.2632
 21
654.0976
  0
LINE
  8
0_00
  6
CONTINUOUS
 62
2
 10
1037.2632
 20
658.9016
 11
1037.2632
 21
656.0481
  0
LINE
  8
0_00
  6
CONTINUOUS
 62
2
 10
1052.2742
 20
654.0976
 11
1051.0688
 21
653.4016
  0
LINE
  8
0_00
  6
CONTINUOUS
 62
2
 10
1037.2632
 20
654.0976
 11
1038.4688
 21
653.4016
  0
LINE
  8
0_00
  6
CONTINUOUS
 62
2
 10
1038.4688
 20
653.4016
 11
1051.0688
 21
653.4016
  0
LINE
  8
0_00
  6
CONTINUOUS
 62
2
 10
1048.5215
 20
656.0481
 11
1048.5215
 21
654.0976
  0
LINE
  8
0_00
  6
CONTINUOUS
 62
2
 10
1048.5215
 20
658.9016
 11
1048.5215
 21
656.0481
  0
LINE
  8
0_00
  6
CONTINUOUS
 62
2
 10
1041.0159
 20
656.0481
 11
1041.0159
 21
654.0976
  0
LINE
  8
0_00
  6
CONTINUOUS
 62
2
 10
1041.0159
 20
658.9016
 11
1041.0159
 21
656.0481
  0
LINE
  8
0_00
  6
DASHED
 62
2
 10
1048.7687
 20
664.1016
 11
1048.7687
 21
660.9017
  0
LINE
  8
0_00
  6
DASHED
 62
2
 10
1048.7687
 20
658.9016
 11
1048.7687
 21
660.9017
  0
LINE
  8
0_00
  6
DASHED
 62
2
 10
1040.7687
 20
664.1016
 11
1040.7687
 21
660.9017
  0
LINE
  8
0_00
  6
DASHED
 62
2
 10
1040.7687
 20
658.9016
 11
1040.7687
 21
660.9017
  0
LINE
  8
0_00
  6
DASHED
 62
6
 10
1048.0186
 20
664.1016
 11
1048.0186
 21
660.9017
  0
LINE
  8
0_00
  6
DASHED
 62
6
 10
1041.5186
 20
664.1016
 11
1041.5186
 21
660.9017
  0
LINE
  8
0_00
  6
DASHED
 62
6
 10
1048.0186
 20
658.9016
 11
1048.0186
 21
660.9017
  0
LINE
  8
0_00
  6
DASHED
 62
6
 10
1041.5186
 20
658.9016
 11
1041.5186
 21
660.9017
  0
LINE
  8
0_00
  6
CONTINUOUS
 62
6
 10
1061.5428
 20
687.9016
 11
1069.7519
 21
702.1199
  0
LINE
  8
0_00
  6
CONTINUOUS
 62
6
 10
1061.5428
 20
687.9016
 11
1066.5612
 21
693.4752
  0
LINE
  8
0_00
  6
CONTINUOUS
 62
6
 10
1061.5428
 20
687.9016
 11
1063.8604
 21
695.0344
  0
LINE
  8
0_00
  6
CONTINUOUS
 62
6
 10
1069.7519
 20
702.1199
 11
1136.3518
 21
702.1199
  0
LINE
  8
2_02
  6
CENTER1
 62
6
 10
1044.7687
 20
593.5148
 11
1044.7687
 21
711.6807
  0
LINE
  8
0_00
  6
CONTINUOUS
 62
6
 10
600.0000
 20
346.3843
 11
600.0000
 21
359.5843
  0
LINE
  8
0_00
  6
CONTINUOUS
 62
6
 10
600.0000
 20
307.7114
 11
600.0000
 21
346.3843
  0
LINE
  8
0_00
  6
CONTINUOUS
 62
6
 10
600.0000
 20
346.3843
 11
598.4407
 21
339.0481
  0
LINE
  8
0_00
  6
CONTINUOUS
 62
6
 10
600.0000
 20
346.3843
 11
601.5593
 21
339.0481
  0
LINE
  8
0_00
  6
CONTINUOUS
 62
6
 10
620.1985
 20
669.6576
 11
594.0000
 21
669.6576
  0
LINE
  8
0_00
  6
CONTINUOUS
 62
6
 10
600.0000
 20
359.5843
 11
600.0000
 21
669.6576
  0
LINE
  8
0_00
  6
CONTINUOUS
 62
6
 10
600.0000
 20
359.5843
 11
601.5593
 21
366.9204
  0
LINE
  8
0_00
  6
CONTINUOUS
 62
6
 10
600.0000
 20
359.5843
 11
598.4407
 21
366.9204
  0
LINE
  8
0_00
  6
CONTINUOUS
 62
6
 10
600.0000
 20
669.6576
 11
598.4407
 21
662.3215
  0
LINE
  8
0_00
  6
CONTINUOUS
 62
6
 10
600.0000
 20
669.6576
 11
601.5593
 21
662.3215
  0
LINE
  8
0_00
  6
CONTINUOUS
 62
6
 10
762.2643
 20
359.5843
 11
669.1033
 21
359.5843
  0
LINE
  8
0_00
  6
CONTINUOUS
 62
6
 10
635.1985
 20
359.5843
 11
594.0000
 21
359.5843
  0
LINE
  8
0_00
  6
CONTINUOUS
 62
6
 10
1084.7250
 20
671.5167
 11
1091.3308
 21
682.9581
  0
LINE
  8
0_00
  6
CONTINUOUS
 62
6
 10
1084.7250
 20
671.5167
 11
1089.7437
 21
677.0904
  0
LINE
  8
0_00
  6
CONTINUOUS
 62
6
 10
1084.7250
 20
671.5167
 11
1087.0428
 21
678.6497
  0
LINE
  8
0_00
  6
CONTINUOUS
 62
6
 10
1091.3308
 20
682.9581
 11
1150.7309
 21
682.9581
  0
LINE
  8
0_00
  6
CONTINUOUS
 62
6
 10
292.6645
 20
689.0158
 11
303.1282
 21
707.1394
  0
LINE
  8
0_00
  6
CONTINUOUS
 62
6
 10
292.6645
 20
689.0158
 11
297.6830
 21
694.5894
  0
LINE
  8
0_00
  6
CONTINUOUS
 62
6
 10
292.6645
 20
689.0158
 11
294.9822
 21
696.1488
  0
LINE
  8
0_00
  6
CONTINUOUS
 62
6
 10
303.1282
 20
707.1394
 11
362.5282
 21
707.1394
  0
LINE
  8
0_00
  6
CONTINUOUS
 62
4
 10
794.0177
 20
379.5131
 11
793.7167
 21
378.3843
  0
LINE
  8
0_00
  6
CONTINUOUS
 62
2
 10
776.2643
 20
366.3843
 11
776.2643
 21
361.0843
  0
LINE
  8
0_00
  6
CONTINUOUS
 62
2
 10
784.2643
 20
366.3843
 11
784.2643
 21
361.0843
  0
LINE
  8
0_00
  6
CONTINUOUS
 62
2
 10
776.2643
 20
361.0843
 11
777.4643
 21
359.8843
  0
LINE
  8
0_00
  6
CONTINUOUS
 62
2
 10
784.2643
 20
361.0843
 11
783.0643
 21
359.8843
  0
LINE
  8
0_00
  6
CONTINUOUS
 62
2
 10
783.0643
 20
359.8843
 11
777.4643
 21
359.8843
  0
LINE
  8
0_00
  6
CONTINUOUS
 62
2
 10
784.2643
 20
361.0843
 11
776.2643
 21
361.0843
  0
LINE
  8
0_00
  6
CONTINUOUS
 62
6
 10
777.0143
 20
366.3843
 11
777.0143
 21
360.3343
  0
LINE
  8
0_00
  6
CONTINUOUS
 62
6
 10
783.5143
 20
366.3843
 11
783.5143
 21
360.3343
  0
LINE
  8
0_00
  6
CONTINUOUS
 62
2
 10
772.5643
 20
372.8843
 11
787.9644
 21
372.8843
  0
LINE
  8
0_00
  6
CONTINUOUS
 62
2
 10
787.9644
 20
372.8843
 11
787.9644
 21
374.8843
  0
LINE
  8
0_00
  6
CONTINUOUS
 62
2
 10
772.5643
 20
372.8843
 11
772.5643
 21
374.8843
  0
LINE
  8
0_00
  6
CONTINUOUS
 62
2
 10
772.5643
 20
374.8843
 11
787.9644
 21
374.8843
  0
LINE
  8
0_00
  6
CONTINUOUS
 62
2
 10
780.5322
 20
372.8843
 11
779.9963
 21
374.8843
  0
LINE
  8
0_00
  6
CONTINUOUS
 62
2
 10
772.7587
 20
372.8843
 11
787.7698
 21
372.8843
  0
LINE
  8
0_00
  6
CONTINUOUS
 62
2
 10
787.7698
 20
372.8843
 11
787.7698
 21
367.1092
  0
LINE
  8
0_00
  6
CONTINUOUS
 62
2
 10
772.7587
 20
372.8843
 11
772.7587
 21
367.1092
  0
LINE
  8
0_00
  6
CONTINUOUS
 62
2
 10
787.7698
 20
367.1092
 11
786.5143
 21
366.3843
  0
LINE
  8
0_00
  6
CONTINUOUS
 62
2
 10
772.7587
 20
367.1092
 11
774.0143
 21
366.3843
  0
LINE
  8
0_00
  6
CONTINUOUS
 62
2
 10
774.0143
 20
366.3843
 11
786.5143
 21
366.3843
  0
LINE
  8
0_00
  6
CONTINUOUS
 62
2
 10
784.0171
 20
372.8843
 11
784.0171
 21
367.1092
  0
LINE
  8
0_00
  6
CONTINUOUS
 62
2
 10
776.5115
 20
372.8843
 11
776.5115
 21
367.1092
  0
LINE
  8
2_02
  6
CENTER1
 62
6
 10
773.6066
 20
359.5843
 11
786.3532
 21
359.5843
  0
LINE
  8
0_00
  6
DASHED
 62
2
 10
776.2643
 20
374.8843
 11
776.2643
 21
378.0843
  0
LINE
  8
0_00
  6
DASHED
 62
2
 10
784.2643
 20
374.8843
 11
784.2643
 21
378.0843
  0
LINE
  8
2_02
  6
CENTER1
 62
6
 10
764.2675
 20
359.5843
 11
794.9661
 21
359.5843
  0
LINE
  8
0_00
  6
DASHED
 62
6
 10
777.0143
 20
374.8843
 11
777.0143
 21
378.0843
  0
LINE
  8
0_00
  6
DASHED
 62
6
 10
783.5143
 20
374.8843
 11
783.5143
 21
378.0843
  0
LINE
  8
0_00
  6
CONTINUOUS
 62
2
 10
787.7698
 20
379.8843
 11
772.7587
 21
379.8843
  0
LINE
  8
0_00
  6
CONTINUOUS
 62
2
 10
772.7587
 20
382.7378
 11
772.7587
 21
384.6883
  0
LINE
  8
0_00
  6
CONTINUOUS
 62
2
 10
772.7587
 20
379.8843
 11
772.7587
 21
382.7378
  0
LINE
  8
0_00
  6
CONTINUOUS
 62
2
 10
787.7698
 20
382.7378
 11
787.7698
 21
384.6883
  0
LINE
  8
0_00
  6
CONTINUOUS
 62
2
 10
787.7698
 20
379.8843
 11
787.7698
 21
382.7378
  0
LINE
  8
0_00
  6
CONTINUOUS
 62
2
 10
772.7587
 20
384.6883
 11
773.9643
 21
385.3843
  0
LINE
  8
0_00
  6
CONTINUOUS
 62
2
 10
787.7698
 20
384.6883
 11
786.5643
 21
385.3843
  0
LINE
  8
0_00
  6
CONTINUOUS
 62
2
 10
786.5643
 20
385.3843
 11
773.9643
 21
385.3843
  0
LINE
  8
0_00
  6
CONTINUOUS
 62
2
 10
776.5115
 20
382.7378
 11
776.5115
 21
384.6883
  0
LINE
  8
0_00
  6
CONTINUOUS
 62
2
 10
776.5115
 20
379.8843
 11
776.5115
 21
382.7378
  0
LINE
  8
0_00
  6
CONTINUOUS
 62
2
 10
784.0171
 20
382.7378
 11
784.0171
 21
384.6883
  0
LINE
  8
0_00
  6
CONTINUOUS
 62
2
 10
784.0171
 20
379.8843
 11
784.0171
 21
382.7378
  0
LINE
  8
0_00
  6
DASHED
 62
2
 10
776.2643
 20
379.8843
 11
776.2643
 21
378.0843
  0
LINE
  8
0_00
  6
DASHED
 62
6
 10
777.0143
 20
379.8843
 11
777.0143
 21
378.0843
  0
LINE
  8
0_00
  6
DASHED
 62
6
 10
783.5143
 20
379.8843
 11
783.5143
 21
378.0843
  0
LINE
  8
0_00
  6
DASHED
 62
2
 10
784.2643
 20
379.8843
 11
784.2643
 21
378.0843
  0
LINE
  8
0_00
  6
CONTINUOUS
 62
4
 10
695.2643
 20
246.3843
 11
865.2643
 21
246.3843
  0
LINE
  8
0_00
  6
CONTINUOUS
 62
4
 10
695.2643
 20
246.3843
 11
680.2643
 21
231.3843
  0
LINE
  8
0_00
  6
CONTINUOUS
 62
4
 10
865.2643
 20
246.3843
 11
880.2643
 21
231.3843
  0
LINE
  8
0_00
  6
CONTINUOUS
 62
2
 10
721.8631
 20
226.3843
 11
700.2643
 21
204.7855
  0
LINE
  8
0_00
  6
CONTINUOUS
 62
2
 10
726.1058
 20
226.3843
 11
700.2643
 21
200.5428
  0
LINE
  8
0_00
  6
CONTINUOUS
 62
2
 10
730.3484
 20
226.3843
 11
700.2643
 21
196.3002
  0
LINE
  8
0_00
  6
CONTINUOUS
 62
4
 10
860.2643
 20
226.3843
 11
860.2643
 21
172.0165
  0
LINE
  8
0_00
  6
CONTINUOUS
 62
2
 10
834.3725
 20
172.0165
 11
860.2643
 21
197.9083
  0
LINE
  8
0_00
  6
CONTINUOUS
 62
2
 10
830.1299
 20
172.0165
 11
860.2643
 21
202.1509
  0
LINE
  8
0_00
  6
CONTINUOUS
 62
2
 10
825.8872
 20
172.0165
 11
860.2643
 21
206.3935
  0
LINE
  8
0_00
  6
CONTINUOUS
 62
4
 10
700.2643
 20
226.3843
 11
860.2643
 21
226.3843
  0
LINE
  8
0_00
  6
CONTINUOUS
 62
4
 10
700.2643
 20
226.3843
 11
700.2643
 21
172.0165
  0
LINE
  8
0_00
  6
CONTINUOUS
 62
4
 10
680.2643
 20
636.6200
 11
680.2643
 21
172.0165
  0
LINE
  8
0_00
  6
CONTINUOUS
 62
2
 10
809.5443
 20
226.3843
 11
755.1766
 21
172.0165
  0
LINE
  8
0_00
  6
CONTINUOUS
 62
2
 10
805.3017
 20
226.3843
 11
750.9339
 21
172.0165
  0
LINE
  8
0_00
  6
CONTINUOUS
 62
2
 10
801.0591
 20
226.3843
 11
746.6913
 21
172.0165
  0
LINE
  8
0_00
  6
CONTINUOUS
 62
4
 10
695.2643
 20
246.3843
 11
695.2643
 21
636.6200
  0
LINE
  8
0_00
  6
CENTER1
 62
6
 10
144.5518
 20
659.1308
 11
144.5518
 21
369.8882
  0
LINE
  8
2_02
  6
CONTINUOUS
 62
4
 10
518.0518
 20
654.3576
 11
518.0518
 21
681.1576
  0
LINE
  8
2_02
  6
CONTINUOUS
 62
4
 10
443.0518
 20
651.1576
 11
443.0518
 21
654.3576
  0
LINE
  8
2_02
  6
CONTINUOUS
 62
4
 10
514.8518
 20
651.1576
 11
443.0518
 21
651.1576
  0
LINE
  8
2_02
  6
CONTINUOUS
 62
4
 10
518.0518
 20
681.1576
 11
514.8518
 21
681.1576
  0
LINE
  8
2_02
  6
CONTINUOUS
 62
4
 10
514.8518
 20
654.3576
 11
514.8518
 21
681.1576
  0
LINE
  8
2_02
  6
CONTINUOUS
 62
4
 10
514.8518
 20
654.3576
 11
443.0518
 21
654.3576
  0
LINE
  8
14_0E
  6
DASHED
 62
2
 10
482.5518
 20
651.1576
 11
482.5518
 21
654.3576
  0
LINE
  8
14_0E
  6
DASHED
 62
2
 10
449.5518
 20
651.1576
 11
449.5518
 21
654.3576
  0
LINE
  8
0_00
  6
DASHED
 62
2
 10
518.0518
 20
664.8576
 11
514.8518
 21
664.8576
  0
LINE
  8
0_00
  6
DASHED
 62
2
 10
518.0518
 20
676.3576
 11
514.8518
 21
676.3576
  0
LINE
  8
0_00
  6
CONTINUOUS
 62
4
 10
498.0518
 20
794.0259
 11
498.0518
 21
693.1576
  0
LINE
  8
0_00
  6
CONTINUOUS
 62
2
 10
497.9442
 20
699.6981
 11
498.0518
 21
699.5906
  0
LINE
  8
0_00
  6
CONTINUOUS
 62
2
 10
496.5996
 20
696.8001
 11
498.0518
 21
695.3479
  0
LINE
  8
0_00
  6
CONTINUOUS
 62
2
 10
494.4900
 20
694.6672
 11
495.9995
 21
693.1576
  0
LINE
  8
0_00
  6
CONTINUOUS
 62
2
 10
491.6201
 20
693.2945
 11
491.7569
 21
693.1576
  0
LINE
  8
0_00
  6
CONTINUOUS
 62
4
 10
498.0518
 20
646.1576
 11
498.0518
 21
246.3843
  0
LINE
  8
0_00
  6
CONTINUOUS
 62
4
 10
518.0518
 20
714.7898
 11
518.0518
 21
625.4707
  0
LINE
  8
0_00
  6
CONTINUOUS
 62
4
 10
498.0124
 20
713.2019
 11
498.2938
 21
713.2815
  0
LINE
  8
0_00
  6
CONTINUOUS
 62
4
 10
498.2938
 20
713.2815
 11
498.5750
 21
713.3610
  0
LINE
  8
0_00
  6
CONTINUOUS
 62
4
 10
498.5750
 20
713.3610
 11
498.8557
 21
713.4402
  0
LINE
  8
0_00
  6
CONTINUOUS
 62
4
 10
498.8557
 20
713.4402
 11
499.1358
 21
713.5189
  0
LINE
  8
0_00
  6
CONTINUOUS
 62
4
 10
499.1358
 20
713.5189
 11
499.4149
 21
713.5972
  0
LINE
  8
0_00
  6
CONTINUOUS
 62
4
 10
499.4149
 20
713.5972
 11
499.6930
 21
713.6746
  0
LINE
  8
0_00
  6
CONTINUOUS
 62
4
 10
499.6930
 20
713.6746
 11
499.9698
 21
713.7512
  0
LINE
  8
0_00
  6
CONTINUOUS
 62
4
 10
499.9698
 20
713.7512
 11
500.2451
 21
713.8268
  0
LINE
  8
0_00
  6
CONTINUOUS
 62
4
 10
500.2451
 20
713.8268
 11
500.5185
 21
713.9013
  0
LINE
  8
0_00
  6
CONTINUOUS
 62
4
 10
500.5185
 20
713.9013
 11
500.7900
 21
713.9744
  0
LINE
  8
0_00
  6
CONTINUOUS
 62
4
 10
500.7900
 20
713.9744
 11
501.0592
 21
714.0460
  0
LINE
  8
0_00
  6
CONTINUOUS
 62
4
 10
501.0592
 20
714.0460
 11
501.3262
 21
714.1161
  0
LINE
  8
0_00
  6
CONTINUOUS
 62
4
 10
501.3262
 20
714.1161
 11
501.5904
 21
714.1845
  0
LINE
  8
0_00
  6
CONTINUOUS
 62
4
 10
501.5904
 20
714.1845
 11
501.8518
 21
714.2509
  0
LINE
  8
0_00
  6
CONTINUOUS
 62
4
 10
501.8518
 20
714.2509
 11
502.1101
 21
714.3154
  0
LINE
  8
0_00
  6
CONTINUOUS
 62
4
 10
502.1101
 20
714.3154
 11
502.3651
 21
714.3777
  0
LINE
  8
0_00
  6
CONTINUOUS
 62
4
 10
502.3651
 20
714.3777
 11
502.6165
 21
714.4377
  0
LINE
  8
0_00
  6
CONTINUOUS
 62
4
 10
502.6165
 20
714.4377
 11
502.8643
 21
714.4953
  0
LINE
  8
0_00
  6
CONTINUOUS
 62
4
 10
502.8643
 20
714.4953
 11
503.1081
 21
714.5501
  0
LINE
  8
0_00
  6
CONTINUOUS
 62
4
 10
503.1081
 20
714.5501
 11
503.3477
 21
714.6023
  0
LINE
  8
0_00
  6
CONTINUOUS
 62
4
 10
503.3477
 20
714.6023
 11
503.5829
 21
714.6516
  0
LINE
  8
0_00
  6
CONTINUOUS
 62
4
 10
503.5829
 20
714.6516
 11
503.8136
 21
714.6978
  0
LINE
  8
0_00
  6
CONTINUOUS
 62
4
 10
503.8136
 20
714.6978
 11
504.0393
 21
714.7408
  0
LINE
  8
0_00
  6
CONTINUOUS
 62
4
 10
504.0393
 20
714.7408
 11
504.2600
 21
714.7806
  0
LINE
  8
0_00
  6
CONTINUOUS
 62
4
 10
504.2600
 20
714.7806
 11
504.4755
 21
714.8168
  0
LINE
  8
0_00
  6
CONTINUOUS
 62
4
 10
504.4755
 20
714.8168
 11
504.6854
 21
714.8495
  0
LINE
  8
0_00
  6
CONTINUOUS
 62
4
 10
504.6854
 20
714.8495
 11
504.8897
 21
714.8784
  0
LINE
  8
0_00
  6
CONTINUOUS
 62
4
 10
504.8897
 20
714.8784
 11
505.0880
 21
714.9033
  0
LINE
  8
0_00
  6
CONTINUOUS
 62
4
 10
505.0880
 20
714.9033
 11
505.2801
 21
714.9242
  0
LINE
  8
0_00
  6
CONTINUOUS
 62
4
 10
505.2801
 20
714.9242
 11
505.4658
 21
714.9410
  0
LINE
  8
0_00
  6
CONTINUOUS
 62
4
 10
505.4658
 20
714.9410
 11
505.6451
 21
714.9535
  0
LINE
  8
0_00
  6
CONTINUOUS
 62
4
 10
505.6451
 20
714.9535
 11
505.8182
 21
714.9618
  0
LINE
  8
0_00
  6
CONTINUOUS
 62
4
 10
505.8182
 20
714.9618
 11
505.9854
 21
714.9663
  0
LINE
  8
0_00
  6
CONTINUOUS
 62
4
 10
505.9854
 20
714.9663
 11
506.1471
 21
714.9671
  0
LINE
  8
0_00
  6
CONTINUOUS
 62
4
 10
506.1471
 20
714.9671
 11
506.3038
 21
714.9645
  0
LINE
  8
0_00
  6
CONTINUOUS
 62
4
 10
506.3038
 20
714.9645
 11
506.4559
 21
714.9586
  0
LINE
  8
0_00
  6
CONTINUOUS
 62
4
 10
506.4559
 20
714.9586
 11
506.6036
 21
714.9498
  0
LINE
  8
0_00
  6
CONTINUOUS
 62
4
 10
506.6036
 20
714.9498
 11
506.7474
 21
714.9383
  0
LINE
  8
0_00
  6
CONTINUOUS
 62
4
 10
506.7474
 20
714.9383
 11
506.8876
 21
714.9241
  0
LINE
  8
0_00
  6
CONTINUOUS
 62
4
 10
506.8876
 20
714.9241
 11
507.0246
 21
714.9077
  0
LINE
  8
0_00
  6
CONTINUOUS
 62
4
 10
507.0246
 20
714.9077
 11
507.1590
 21
714.8891
  0
LINE
  8
0_00
  6
CONTINUOUS
 62
4
 10
507.1590
 20
714.8891
 11
507.2909
 21
714.8689
  0
LINE
  8
0_00
  6
CONTINUOUS
 62
4
 10
507.2909
 20
714.8689
 11
507.4207
 21
714.8469
  0
LINE
  8
0_00
  6
CONTINUOUS
 62
4
 10
507.4207
 20
714.8469
 11
507.5490
 21
714.8236
  0
LINE
  8
0_00
  6
CONTINUOUS
 62
4
 10
507.5490
 20
714.8236
 11
507.6759
 21
714.7990
  0
LINE
  8
0_00
  6
CONTINUOUS
 62
4
 10
507.6759
 20
714.7990
 11
507.8021
 21
714.7735
  0
LINE
  8
0_00
  6
CONTINUOUS
 62
4
 10
507.8021
 20
714.7735
 11
507.9277
 21
714.7473
  0
LINE
  8
0_00
  6
CONTINUOUS
 62
4
 10
507.9277
 20
714.7473
 11
508.0532
 21
714.7206
  0
LINE
  8
0_00
  6
CONTINUOUS
 62
4
 10
508.0532
 20
714.7206
 11
508.1790
 21
714.6937
  0
LINE
  8
0_00
  6
CONTINUOUS
 62
4
 10
508.1790
 20
714.6937
 11
508.3054
 21
714.6666
  0
LINE
  8
0_00
  6
CONTINUOUS
 62
4
 10
508.3054
 20
714.6666
 11
508.4328
 21
714.6399
  0
LINE
  8
0_00
  6
CONTINUOUS
 62
4
 10
508.4328
 20
714.6399
 11
508.5617
 21
714.6134
  0
LINE
  8
0_00
  6
CONTINUOUS
 62
4
 10
508.5617
 20
714.6134
 11
508.6924
 21
714.5877
  0
LINE
  8
0_00
  6
CONTINUOUS
 62
4
 10
508.6924
 20
714.5877
 11
508.8252
 21
714.5627
  0
LINE
  8
0_00
  6
CONTINUOUS
 62
4
 10
508.8252
 20
714.5627
 11
508.9607
 21
714.5390
  0
LINE
  8
0_00
  6
CONTINUOUS
 62
4
 10
508.9607
 20
714.5390
 11
509.0990
 21
714.5165
  0
LINE
  8
0_00
  6
CONTINUOUS
 62
4
 10
509.0990
 20
714.5165
 11
509.2407
 21
714.4955
  0
LINE
  8
0_00
  6
CONTINUOUS
 62
4
 10
509.2407
 20
714.4955
 11
509.3860
 21
714.4763
  0
LINE
  8
0_00
  6
CONTINUOUS
 62
4
 10
509.3860
 20
714.4763
 11
509.5356
 21
714.4591
  0
LINE
  8
0_00
  6
CONTINUOUS
 62
4
 10
509.5356
 20
714.4591
 11
509.6895
 21
714.4441
  0
LINE
  8
0_00
  6
CONTINUOUS
 62
4
 10
509.6895
 20
714.4441
 11
509.8481
 21
714.4315
  0
LINE
  8
0_00
  6
CONTINUOUS
 62
4
 10
509.8481
 20
714.4315
 11
510.0113
 21
714.4212
  0
LINE
  8
0_00
  6
CONTINUOUS
 62
4
 10
510.0113
 20
714.4212
 11
510.1787
 21
714.4133
  0
LINE
  8
0_00
  6
CONTINUOUS
 62
4
 10
510.1787
 20
714.4133
 11
510.3500
 21
714.4075
  0
LINE
  8
0_00
  6
CONTINUOUS
 62
4
 10
510.3500
 20
714.4075
 11
510.5249
 21
714.4037
  0
LINE
  8
0_00
  6
CONTINUOUS
 62
4
 10
510.5249
 20
714.4037
 11
510.7031
 21
714.4018
  0
LINE
  8
0_00
  6
CONTINUOUS
 62
4
 10
510.7031
 20
714.4018
 11
510.8844
 21
714.4019
  0
LINE
  8
0_00
  6
CONTINUOUS
 62
4
 10
510.8844
 20
714.4019
 11
511.0682
 21
714.4037
  0
LINE
  8
0_00
  6
CONTINUOUS
 62
4
 10
511.0682
 20
714.4037
 11
511.2544
 21
714.4071
  0
LINE
  8
0_00
  6
CONTINUOUS
 62
4
 10
511.2544
 20
714.4071
 11
511.4426
 21
714.4121
  0
LINE
  8
0_00
  6
CONTINUOUS
 62
4
 10
511.4426
 20
714.4121
 11
511.6326
 21
714.4186
  0
LINE
  8
0_00
  6
CONTINUOUS
 62
4
 10
511.6326
 20
714.4186
 11
511.8240
 21
714.4265
  0
LINE
  8
0_00
  6
CONTINUOUS
 62
4
 10
511.8240
 20
714.4265
 11
512.0164
 21
714.4357
  0
LINE
  8
0_00
  6
CONTINUOUS
 62
4
 10
512.0164
 20
714.4357
 11
512.2097
 21
714.4460
  0
LINE
  8
0_00
  6
CONTINUOUS
 62
4
 10
512.2097
 20
714.4460
 11
512.4034
 21
714.4574
  0
LINE
  8
0_00
  6
CONTINUOUS
 62
4
 10
512.4034
 20
714.4574
 11
512.5974
 21
714.4698
  0
LINE
  8
0_00
  6
CONTINUOUS
 62
4
 10
512.5974
 20
714.4698
 11
512.7911
 21
714.4832
  0
LINE
  8
0_00
  6
CONTINUOUS
 62
4
 10
512.7911
 20
714.4832
 11
512.9845
 21
714.4972
  0
LINE
  8
0_00
  6
CONTINUOUS
 62
4
 10
512.9845
 20
714.4972
 11
513.1771
 21
714.5120
  0
LINE
  8
0_00
  6
CONTINUOUS
 62
4
 10
513.1771
 20
714.5120
 11
513.3685
 21
714.5273
  0
LINE
  8
0_00
  6
CONTINUOUS
 62
4
 10
513.3685
 20
714.5273
 11
513.5586
 21
714.5433
  0
LINE
  8
0_00
  6
CONTINUOUS
 62
4
 10
513.5586
 20
714.5433
 11
513.7470
 21
714.5595
  0
LINE
  8
0_00
  6
CONTINUOUS
 62
4
 10
513.7470
 20
714.5595
 11
513.9333
 21
714.5761
  0
LINE
  8
0_00
  6
CONTINUOUS
 62
4
 10
513.9333
 20
714.5761
 11
514.1174
 21
714.5928
  0
LINE
  8
0_00
  6
CONTINUOUS
 62
4
 10
514.1174
 20
714.5928
 11
514.2988
 21
714.6098
  0
LINE
  8
0_00
  6
CONTINUOUS
 62
4
 10
514.2988
 20
714.6098
 11
514.4772
 21
714.6267
  0
LINE
  8
0_00
  6
CONTINUOUS
 62
4
 10
514.4772
 20
714.6267
 11
514.6524
 21
714.6436
  0
LINE
  8
0_00
  6
CONTINUOUS
 62
4
 10
514.6524
 20
714.6436
 11
514.8241
 21
714.6601
  0
LINE
  8
0_00
  6
CONTINUOUS
 62
4
 10
514.8241
 20
714.6601
 11
514.9918
 21
714.6765
  0
LINE
  8
0_00
  6
CONTINUOUS
 62
4
 10
514.9918
 20
714.6765
 11
515.1553
 21
714.6925
  0
LINE
  8
0_00
  6
CONTINUOUS
 62
4
 10
515.1553
 20
714.6925
 11
515.3144
 21
714.7081
  0
LINE
  8
0_00
  6
CONTINUOUS
 62
4
 10
515.3144
 20
714.7081
 11
515.4692
 21
714.7230
  0
LINE
  8
0_00
  6
CONTINUOUS
 62
4
 10
515.4692
 20
714.7230
 11
515.6201
 21
714.7372
  0
LINE
  8
0_00
  6
CONTINUOUS
 62
4
 10
515.6201
 20
714.7372
 11
515.7672
 21
714.7506
  0
LINE
  8
0_00
  6
CONTINUOUS
 62
4
 10
515.7672
 20
714.7506
 11
515.9109
 21
714.7631
  0
LINE
  8
0_00
  6
CONTINUOUS
 62
4
 10
515.9109
 20
714.7631
 11
516.0513
 21
714.7745
  0
LINE
  8
0_00
  6
CONTINUOUS
 62
4
 10
516.0513
 20
714.7745
 11
516.1888
 21
714.7848
  0
LINE
  8
0_00
  6
CONTINUOUS
 62
4
 10
516.1888
 20
714.7848
 11
516.3236
 21
714.7939
  0
LINE
  8
0_00
  6
CONTINUOUS
 62
4
 10
516.3236
 20
714.7939
 11
516.4559
 21
714.8015
  0
LINE
  8
0_00
  6
CONTINUOUS
 62
4
 10
516.4559
 20
714.8015
 11
516.5861
 21
714.8078
  0
LINE
  8
0_00
  6
CONTINUOUS
 62
4
 10
516.5861
 20
714.8078
 11
516.7143
 21
714.8122
  0
LINE
  8
0_00
  6
CONTINUOUS
 62
4
 10
516.7143
 20
714.8122
 11
516.8409
 21
714.8151
  0
LINE
  8
0_00
  6
CONTINUOUS
 62
4
 10
516.8409
 20
714.8151
 11
516.9661
 21
714.8161
  0
LINE
  8
0_00
  6
CONTINUOUS
 62
4
 10
516.9661
 20
714.8161
 11
517.0902
 21
714.8152
  0
LINE
  8
0_00
  6
CONTINUOUS
 62
4
 10
517.0902
 20
714.8152
 11
517.2133
 21
714.8122
  0
LINE
  8
0_00
  6
CONTINUOUS
 62
4
 10
517.2133
 20
714.8122
 11
517.3358
 21
714.8071
  0
LINE
  8
0_00
  6
CONTINUOUS
 62
4
 10
517.3358
 20
714.8071
 11
517.4579
 21
714.7997
  0
LINE
  8
0_00
  6
CONTINUOUS
 62
4
 10
517.4579
 20
714.7997
 11
517.5800
 21
714.7898
  0
LINE
  8
0_00
  6
CONTINUOUS
 62
4
 10
517.5800
 20
714.7898
 11
517.7022
 21
714.7775
  0
LINE
  8
0_00
  6
CONTINUOUS
 62
4
 10
517.7022
 20
714.7775
 11
517.8248
 21
714.7625
  0
LINE
  8
0_00
  6
CONTINUOUS
 62
4
 10
517.8248
 20
714.7625
 11
517.9482
 21
714.7449
  0
LINE
  8
0_00
  6
CONTINUOUS
 62
4
 10
517.9482
 20
714.7449
 11
518.0723
 21
714.7243
  0
LINE
  8
0_00
  6
CONTINUOUS
 62
4
 10
518.0723
 20
714.7243
 11
518.1977
 21
714.7008
  0
LINE
  8
0_00
  6
CONTINUOUS
 62
4
 10
518.1977
 20
714.7008
 11
518.3245
 21
714.6743
  0
LINE
  8
0_00
  6
CONTINUOUS
 62
4
 10
518.3245
 20
714.6743
 11
518.4531
 21
714.6445
  0
LINE
  8
0_00
  6
CONTINUOUS
 62
4
 10
518.4531
 20
714.6445
 11
518.5836
 21
714.6115
  0
LINE
  8
0_00
  6
CONTINUOUS
 62
4
 10
518.5836
 20
714.6115
 11
518.7163
 21
714.5750
  0
LINE
  8
0_00
  6
CONTINUOUS
 62
4
 10
518.7163
 20
714.5750
 11
518.8516
 21
714.5350
  0
LINE
  8
0_00
  6
CONTINUOUS
 62
4
 10
518.8516
 20
714.5350
 11
518.9895
 21
714.4915
  0
LINE
  8
0_00
  6
CONTINUOUS
 62
4
 10
518.9895
 20
714.4915
 11
519.1304
 21
714.4441
  0
LINE
  8
0_00
  6
CONTINUOUS
 62
4
 10
519.1304
 20
714.4441
 11
519.2746
 21
714.3929
  0
LINE
  8
0_00
  6
CONTINUOUS
 62
4
 10
519.2746
 20
714.3929
 11
519.4218
 21
714.3384
  0
LINE
  8
0_00
  6
CONTINUOUS
 62
4
 10
519.4218
 20
714.3384
 11
519.5720
 21
714.2807
  0
LINE
  8
0_00
  6
CONTINUOUS
 62
4
 10
519.5720
 20
714.2807
 11
519.7248
 21
714.2202
  0
LINE
  8
0_00
  6
CONTINUOUS
 62
4
 10
519.7248
 20
714.2202
 11
519.8802
 21
714.1575
  0
LINE
  8
0_00
  6
CONTINUOUS
 62
4
 10
519.8802
 20
714.1575
 11
520.0381
 21
714.0927
  0
LINE
  8
0_00
  6
CONTINUOUS
 62
4
 10
520.0381
 20
714.0927
 11
520.1982
 21
714.0265
  0
LINE
  8
0_00
  6
CONTINUOUS
 62
4
 10
520.1982
 20
714.0265
 11
520.3603
 21
713.9591
  0
LINE
  8
0_00
  6
CONTINUOUS
 62
4
 10
520.3603
 20
713.9591
 11
520.5244
 21
713.8908
  0
LINE
  8
0_00
  6
CONTINUOUS
 62
4
 10
520.5244
 20
713.8908
 11
520.6901
 21
713.8221
  0
LINE
  8
0_00
  6
CONTINUOUS
 62
4
 10
520.6901
 20
713.8221
 11
520.8574
 21
713.7535
  0
LINE
  8
0_00
  6
CONTINUOUS
 62
4
 10
520.8574
 20
713.7535
 11
521.0260
 21
713.6852
  0
LINE
  8
0_00
  6
CONTINUOUS
 62
4
 10
521.0260
 20
713.6852
 11
521.1958
 21
713.6176
  0
LINE
  8
0_00
  6
CONTINUOUS
 62
4
 10
521.1958
 20
713.6176
 11
521.3667
 21
713.5512
  0
LINE
  8
0_00
  6
CONTINUOUS
 62
4
 10
521.3667
 20
713.5512
 11
521.5384
 21
713.4862
  0
LINE
  8
0_00
  6
CONTINUOUS
 62
4
 10
521.5384
 20
713.4862
 11
521.7108
 21
713.4231
  0
LINE
  8
0_00
  6
CONTINUOUS
 62
4
 10
521.7108
 20
713.4231
 11
521.8836
 21
713.3624
  0
LINE
  8
0_00
  6
CONTINUOUS
 62
4
 10
521.8836
 20
713.3624
 11
522.0569
 21
713.3042
  0
LINE
  8
0_00
  6
CONTINUOUS
 62
4
 10
522.0569
 20
713.3042
 11
522.2303
 21
713.2491
  0
LINE
  8
0_00
  6
CONTINUOUS
 62
4
 10
522.2303
 20
713.2491
 11
522.4037
 21
713.1974
  0
LINE
  8
0_00
  6
CONTINUOUS
 62
4
 10
522.4037
 20
713.1974
 11
522.5769
 21
713.1496
  0
LINE
  8
0_00
  6
CONTINUOUS
 62
4
 10
522.5769
 20
713.1496
 11
522.7498
 21
713.1059
  0
LINE
  8
0_00
  6
CONTINUOUS
 62
4
 10
522.7498
 20
713.1059
 11
522.9221
 21
713.0668
  0
LINE
  8
0_00
  6
CONTINUOUS
 62
4
 10
522.9221
 20
713.0668
 11
523.0937
 21
713.0327
  0
LINE
  8
0_00
  6
CONTINUOUS
 62
4
 10
523.0937
 20
713.0327
 11
523.2645
 21
713.0040
  0
LINE
  8
0_00
  6
CONTINUOUS
 62
4
 10
523.2645
 20
713.0040
 11
523.4343
 21
712.9808
  0
LINE
  8
0_00
  6
CONTINUOUS
 62
4
 10
523.4343
 20
712.9808
 11
523.6028
 21
712.9639
  0
LINE
  8
0_00
  6
CONTINUOUS
 62
4
 10
523.6028
 20
712.9639
 11
523.7699
 21
712.9534
  0
LINE
  8
0_00
  6
CONTINUOUS
 62
4
 10
523.7699
 20
712.9534
 11
523.9355
 21
712.9498
  0
LINE
  8
0_00
  6
CONTINUOUS
 62
4
 10
523.9355
 20
712.9498
 11
524.0993
 21
712.9535
  0
LINE
  8
0_00
  6
CONTINUOUS
 62
4
 10
524.0993
 20
712.9535
 11
524.2614
 21
712.9645
  0
LINE
  8
0_00
  6
CONTINUOUS
 62
4
 10
524.2614
 20
712.9645
 11
524.4214
 21
712.9827
  0
LINE
  8
0_00
  6
CONTINUOUS
 62
4
 10
524.4214
 20
712.9827
 11
524.5794
 21
713.0073
  0
LINE
  8
0_00
  6
CONTINUOUS
 62
4
 10
524.5794
 20
713.0073
 11
524.7352
 21
713.0379
  0
LINE
  8
0_00
  6
CONTINUOUS
 62
4
 10
524.7352
 20
713.0379
 11
524.8889
 21
713.0736
  0
LINE
  8
0_00
  6
CONTINUOUS
 62
4
 10
524.8889
 20
713.0736
 11
525.0403
 21
713.1141
  0
LINE
  8
0_00
  6
CONTINUOUS
 62
4
 10
525.0403
 20
713.1141
 11
525.1895
 21
713.1585
  0
LINE
  8
0_00
  6
CONTINUOUS
 62
4
 10
525.1895
 20
713.1585
 11
525.3363
 21
713.2066
  0
LINE
  8
0_00
  6
CONTINUOUS
 62
4
 10
525.3363
 20
713.2066
 11
525.4806
 21
713.2576
  0
LINE
  8
0_00
  6
CONTINUOUS
 62
4
 10
525.4806
 20
713.2576
 11
525.6224
 21
713.3108
  0
LINE
  8
0_00
  6
CONTINUOUS
 62
4
 10
525.6224
 20
713.3108
 11
525.7616
 21
713.3657
  0
LINE
  8
0_00
  6
CONTINUOUS
 62
4
 10
525.7616
 20
713.3657
 11
525.8983
 21
713.4218
  0
LINE
  8
0_00
  6
CONTINUOUS
 62
4
 10
525.8983
 20
713.4218
 11
526.0321
 21
713.4784
  0
LINE
  8
0_00
  6
CONTINUOUS
 62
4
 10
526.0321
 20
713.4784
 11
526.1632
 21
713.5349
  0
LINE
  8
0_00
  6
CONTINUOUS
 62
4
 10
526.1632
 20
713.5349
 11
526.2914
 21
713.5908
  0
LINE
  8
0_00
  6
CONTINUOUS
 62
4
 10
526.2914
 20
713.5908
 11
526.4167
 21
713.6455
  0
LINE
  8
0_00
  6
CONTINUOUS
 62
4
 10
526.4167
 20
713.6455
 11
526.5391
 21
713.6982
  0
LINE
  8
0_00
  6
CONTINUOUS
 62
4
 10
526.5391
 20
713.6982
 11
526.6583
 21
713.7486
  0
LINE
  8
0_00
  6
CONTINUOUS
 62
4
 10
526.6583
 20
713.7486
 11
526.7745
 21
713.7959
  0
LINE
  8
0_00
  6
CONTINUOUS
 62
4
 10
526.7745
 20
713.7959
 11
526.8874
 21
713.8396
  0
LINE
  8
0_00
  6
CONTINUOUS
 62
4
 10
526.8874
 20
713.8396
 11
526.9971
 21
713.8791
  0
LINE
  8
0_00
  6
CONTINUOUS
 62
4
 10
526.9971
 20
713.8791
 11
527.1035
 21
713.9138
  0
LINE
  8
0_00
  6
CONTINUOUS
 62
4
 10
527.1035
 20
713.9138
 11
527.2063
 21
713.9431
  0
LINE
  8
0_00
  6
CONTINUOUS
 62
4
 10
527.2063
 20
713.9431
 11
527.3058
 21
713.9664
  0
LINE
  8
0_00
  6
CONTINUOUS
 62
4
 10
527.3058
 20
713.9664
 11
527.4018
 21
713.9831
  0
LINE
  8
0_00
  6
CONTINUOUS
 62
4
 10
527.4018
 20
713.9831
 11
527.4941
 21
713.9927
  0
LINE
  8
0_00
  6
CONTINUOUS
 62
4
 10
527.4941
 20
713.9927
 11
527.5828
 21
713.9944
  0
LINE
  8
0_00
  6
CONTINUOUS
 62
4
 10
527.5828
 20
713.9944
 11
527.6677
 21
713.9878
  0
LINE
  8
0_00
  6
CONTINUOUS
 62
4
 10
527.6677
 20
713.9878
 11
527.7488
 21
713.9723
  0
LINE
  8
0_00
  6
CONTINUOUS
 62
4
 10
527.7488
 20
713.9723
 11
527.8261
 21
713.9472
  0
LINE
  8
0_00
  6
CONTINUOUS
 62
4
 10
527.8261
 20
713.9472
 11
527.8994
 21
713.9122
  0
LINE
  8
0_00
  6
CONTINUOUS
 62
4
 10
527.8994
 20
713.9122
 11
527.9691
 21
713.8675
  0
LINE
  8
0_00
  6
CONTINUOUS
 62
4
 10
527.9691
 20
713.8675
 11
528.0352
 21
713.8136
  0
LINE
  8
0_00
  6
CONTINUOUS
 62
4
 10
528.0352
 20
713.8136
 11
528.0980
 21
713.7512
  0
LINE
  8
0_00
  6
CONTINUOUS
 62
4
 10
528.0980
 20
713.7512
 11
528.1578
 21
713.6806
  0
LINE
  8
0_00
  6
CONTINUOUS
 62
4
 10
528.1578
 20
713.6806
 11
528.2149
 21
713.6022
  0
LINE
  8
0_00
  6
CONTINUOUS
 62
4
 10
528.2149
 20
713.6022
 11
528.2692
 21
713.5168
  0
LINE
  8
0_00
  6
CONTINUOUS
 62
4
 10
528.2692
 20
713.5168
 11
528.3212
 21
713.4247
  0
LINE
  8
0_00
  6
CONTINUOUS
 62
4
 10
528.3212
 20
713.4247
 11
528.3711
 21
713.3264
  0
LINE
  8
0_00
  6
CONTINUOUS
 62
4
 10
528.3711
 20
713.3264
 11
528.4189
 21
713.2225
  0
LINE
  8
0_00
  6
CONTINUOUS
 62
4
 10
528.4189
 20
713.2225
 11
528.4651
 21
713.1134
  0
LINE
  8
0_00
  6
CONTINUOUS
 62
4
 10
528.4651
 20
713.1134
 11
528.5099
 21
712.9995
  0
LINE
  8
0_00
  6
CONTINUOUS
 62
4
 10
528.5099
 20
712.9995
 11
528.5533
 21
712.8816
  0
LINE
  8
0_00
  6
CONTINUOUS
 62
4
 10
528.5533
 20
712.8816
 11
528.5958
 21
712.7599
  0
LINE
  8
0_00
  6
CONTINUOUS
 62
4
 10
528.5958
 20
712.7599
 11
528.6374
 21
712.6350
  0
LINE
  8
0_00
  6
CONTINUOUS
 62
4
 10
528.6374
 20
712.6350
 11
528.6785
 21
712.5076
  0
LINE
  8
0_00
  6
CONTINUOUS
 62
4
 10
528.6785
 20
712.5076
 11
528.7191
 21
712.3778
  0
LINE
  8
0_00
  6
CONTINUOUS
 62
4
 10
528.7191
 20
712.3778
 11
528.7597
 21
712.2463
  0
LINE
  8
0_00
  6
CONTINUOUS
 62
4
 10
528.7597
 20
712.2463
 11
528.8003
 21
712.1137
  0
LINE
  8
0_00
  6
CONTINUOUS
 62
4
 10
528.8003
 20
712.1137
 11
528.8412
 21
711.9803
  0
LINE
  8
0_00
  6
CONTINUOUS
 62
4
 10
528.8412
 20
711.9803
 11
528.8827
 21
711.8468
  0
LINE
  8
0_00
  6
CONTINUOUS
 62
4
 10
528.8827
 20
711.8468
 11
528.9249
 21
711.7135
  0
LINE
  8
0_00
  6
CONTINUOUS
 62
4
 10
528.9249
 20
711.7135
 11
528.9681
 21
711.5810
  0
LINE
  8
0_00
  6
CONTINUOUS
 62
4
 10
528.9681
 20
711.5810
 11
529.0125
 21
711.4498
  0
LINE
  8
0_00
  6
CONTINUOUS
 62
4
 10
529.0125
 20
711.4498
 11
529.0583
 21
711.3204
  0
LINE
  8
0_00
  6
CONTINUOUS
 62
4
 10
529.0583
 20
711.3204
 11
529.1058
 21
711.1933
  0
LINE
  8
0_00
  6
CONTINUOUS
 62
4
 10
529.1058
 20
711.1933
 11
529.1552
 21
711.0690
  0
LINE
  8
0_00
  6
CONTINUOUS
 62
4
 10
529.1552
 20
711.0690
 11
529.2067
 21
710.9478
  0
LINE
  8
0_00
  6
CONTINUOUS
 62
4
 10
529.2067
 20
710.9478
 11
529.2605
 21
710.8304
  0
LINE
  8
0_00
  6
CONTINUOUS
 62
4
 10
529.2605
 20
710.8304
 11
529.3168
 21
710.7174
  0
LINE
  8
0_00
  6
CONTINUOUS
 62
4
 10
529.3168
 20
710.7174
 11
529.3759
 21
710.6089
  0
LINE
  8
0_00
  6
CONTINUOUS
 62
4
 10
529.3759
 20
710.6089
 11
529.4376
 21
710.5049
  0
LINE
  8
0_00
  6
CONTINUOUS
 62
4
 10
529.4376
 20
710.5049
 11
529.5018
 21
710.4051
  0
LINE
  8
0_00
  6
CONTINUOUS
 62
4
 10
529.5018
 20
710.4051
 11
529.5686
 21
710.3092
  0
LINE
  8
0_00
  6
CONTINUOUS
 62
4
 10
529.5686
 20
710.3092
 11
529.6376
 21
710.2169
  0
LINE
  8
0_00
  6
CONTINUOUS
 62
4
 10
529.6376
 20
710.2169
 11
529.7088
 21
710.1279
  0
LINE
  8
0_00
  6
CONTINUOUS
 62
4
 10
529.7088
 20
710.1279
 11
529.7822
 21
710.0419
  0
LINE
  8
0_00
  6
CONTINUOUS
 62
4
 10
529.7822
 20
710.0419
 11
529.8576
 21
709.9586
  0
LINE
  8
0_00
  6
CONTINUOUS
 62
4
 10
529.8576
 20
709.9586
 11
529.9349
 21
709.8778
  0
LINE
  8
0_00
  6
CONTINUOUS
 62
4
 10
529.9349
 20
709.8778
 11
530.0140
 21
709.7991
  0
LINE
  8
0_00
  6
CONTINUOUS
 62
4
 10
530.0140
 20
709.7991
 11
530.0947
 21
709.7223
  0
LINE
  8
0_00
  6
CONTINUOUS
 62
4
 10
530.0947
 20
709.7223
 11
530.1770
 21
709.6471
  0
LINE
  8
0_00
  6
CONTINUOUS
 62
4
 10
530.1770
 20
709.6471
 11
530.2607
 21
709.5732
  0
LINE
  8
0_00
  6
CONTINUOUS
 62
4
 10
530.2607
 20
709.5732
 11
530.3459
 21
709.5003
  0
LINE
  8
0_00
  6
CONTINUOUS
 62
4
 10
530.3459
 20
709.5003
 11
530.4322
 21
709.4279
  0
LINE
  8
0_00
  6
CONTINUOUS
 62
4
 10
530.4322
 20
709.4279
 11
530.5197
 21
709.3562
  0
LINE
  8
0_00
  6
CONTINUOUS
 62
4
 10
530.5197
 20
709.3562
 11
530.6082
 21
709.2845
  0
LINE
  8
0_00
  6
CONTINUOUS
 62
4
 10
530.6082
 20
709.2845
 11
530.6976
 21
709.2127
  0
LINE
  8
0_00
  6
CONTINUOUS
 62
4
 10
530.6976
 20
709.2127
 11
530.7878
 21
709.1404
  0
LINE
  8
0_00
  6
CONTINUOUS
 62
4
 10
530.7878
 20
709.1404
 11
530.8787
 21
709.0674
  0
LINE
  8
0_00
  6
CONTINUOUS
 62
4
 10
530.8787
 20
709.0674
 11
530.9702
 21
708.9933
  0
LINE
  8
0_00
  6
CONTINUOUS
 62
4
 10
530.9702
 20
708.9933
 11
531.0621
 21
708.9180
  0
LINE
  8
0_00
  6
CONTINUOUS
 62
4
 10
531.0621
 20
708.9180
 11
531.1544
 21
708.8409
  0
LINE
  8
0_00
  6
CONTINUOUS
 62
4
 10
531.1544
 20
708.8409
 11
531.2469
 21
708.7621
  0
LINE
  8
0_00
  6
CONTINUOUS
 62
4
 10
531.2469
 20
708.7621
 11
531.3396
 21
708.6810
  0
LINE
  8
0_00
  6
CONTINUOUS
 62
4
 10
531.3396
 20
708.6810
 11
531.4323
 21
708.5975
  0
LINE
  8
0_00
  6
CONTINUOUS
 62
4
 10
531.4323
 20
708.5975
 11
531.5249
 21
708.5113
  0
LINE
  8
0_00
  6
CONTINUOUS
 62
4
 10
531.5249
 20
708.5113
 11
531.6173
 21
708.4219
  0
LINE
  8
0_00
  6
CONTINUOUS
 62
4
 10
531.6173
 20
708.4219
 11
531.7095
 21
708.3293
  0
LINE
  8
0_00
  6
CONTINUOUS
 62
4
 10
531.7095
 20
708.3293
 11
531.8013
 21
708.2329
  0
LINE
  8
0_00
  6
CONTINUOUS
 62
4
 10
531.8013
 20
708.2329
 11
531.8925
 21
708.1328
  0
LINE
  8
0_00
  6
CONTINUOUS
 62
4
 10
531.8925
 20
708.1328
 11
531.9832
 21
708.0291
  0
LINE
  8
0_00
  6
CONTINUOUS
 62
4
 10
531.9832
 20
708.0291
 11
532.0734
 21
707.9219
  0
LINE
  8
0_00
  6
CONTINUOUS
 62
4
 10
532.0734
 20
707.9219
 11
532.1630
 21
707.8116
  0
LINE
  8
0_00
  6
CONTINUOUS
 62
4
 10
532.1630
 20
707.8116
 11
532.2521
 21
707.6986
  0
LINE
  8
0_00
  6
CONTINUOUS
 62
4
 10
532.2521
 20
707.6986
 11
532.3407
 21
707.5829
  0
LINE
  8
0_00
  6
CONTINUOUS
 62
4
 10
532.3407
 20
707.5829
 11
532.4286
 21
707.4651
  0
LINE
  8
0_00
  6
CONTINUOUS
 62
4
 10
532.4286
 20
707.4651
 11
532.5161
 21
707.3451
  0
LINE
  8
0_00
  6
CONTINUOUS
 62
4
 10
532.5161
 20
707.3451
 11
532.6030
 21
707.2235
  0
LINE
  8
0_00
  6
CONTINUOUS
 62
4
 10
532.6030
 20
707.2235
 11
532.6893
 21
707.1005
  0
LINE
  8
0_00
  6
CONTINUOUS
 62
4
 10
532.6893
 20
707.1005
 11
532.7750
 21
706.9762
  0
LINE
  8
0_00
  6
CONTINUOUS
 62
4
 10
532.7750
 20
706.9762
 11
532.8601
 21
706.8509
  0
LINE
  8
0_00
  6
CONTINUOUS
 62
4
 10
532.8601
 20
706.8509
 11
532.9447
 21
706.7253
  0
LINE
  8
0_00
  6
CONTINUOUS
 62
4
 10
532.9447
 20
706.7253
 11
533.0286
 21
706.5990
  0
LINE
  8
0_00
  6
CONTINUOUS
 62
4
 10
533.0286
 20
706.5990
 11
533.1119
 21
706.4728
  0
LINE
  8
0_00
  6
CONTINUOUS
 62
4
 10
533.1119
 20
706.4728
 11
533.1947
 21
706.3466
  0
LINE
  8
0_00
  6
CONTINUOUS
 62
4
 10
533.1947
 20
706.3466
 11
533.2768
 21
706.2210
  0
LINE
  8
0_00
  6
CONTINUOUS
 62
4
 10
533.2768
 20
706.2210
 11
533.3583
 21
706.0962
  0
LINE
  8
0_00
  6
CONTINUOUS
 62
4
 10
533.3583
 20
706.0962
 11
533.4391
 21
705.9724
  0
LINE
  8
0_00
  6
CONTINUOUS
 62
4
 10
533.4391
 20
705.9724
 11
533.5194
 21
705.8497
  0
LINE
  8
0_00
  6
CONTINUOUS
 62
4
 10
533.5194
 20
705.8497
 11
533.5990
 21
705.7288
  0
LINE
  8
0_00
  6
CONTINUOUS
 62
4
 10
533.5990
 20
705.7288
 11
533.6780
 21
705.6096
  0
LINE
  8
0_00
  6
CONTINUOUS
 62
4
 10
533.6780
 20
705.6096
 11
533.7563
 21
705.4924
  0
LINE
  8
0_00
  6
CONTINUOUS
 62
4
 10
533.7563
 20
705.4924
 11
533.8339
 21
705.3777
  0
LINE
  8
0_00
  6
CONTINUOUS
 62
4
 10
533.8339
 20
705.3777
 11
533.9109
 21
705.2656
  0
LINE
  8
0_00
  6
CONTINUOUS
 62
4
 10
533.9109
 20
705.2656
 11
533.9872
 21
705.1565
  0
LINE
  8
0_00
  6
CONTINUOUS
 62
4
 10
533.9872
 20
705.1565
 11
534.0629
 21
705.0506
  0
LINE
  8
0_00
  6
CONTINUOUS
 62
4
 10
534.0629
 20
705.0506
 11
534.1378
 21
704.9481
  0
LINE
  8
0_00
  6
CONTINUOUS
 62
4
 10
534.1378
 20
704.9481
 11
534.2122
 21
704.8493
  0
LINE
  8
0_00
  6
CONTINUOUS
 62
4
 10
534.2122
 20
704.8493
 11
534.2857
 21
704.7546
  0
LINE
  8
0_00
  6
CONTINUOUS
 62
4
 10
534.2857
 20
704.7546
 11
534.3586
 21
704.6642
  0
LINE
  8
0_00
  6
CONTINUOUS
 62
4
 10
534.3586
 20
704.6642
 11
534.4249
 21
704.5849
  0
LINE
  8
0_00
  6
CONTINUOUS
 62
4
 10
498.0124
 20
626.9906
 11
498.1485
 21
626.9668
  0
LINE
  8
0_00
  6
CONTINUOUS
 62
4
 10
498.1485
 20
626.9668
 11
498.2845
 21
626.9430
  0
LINE
  8
0_00
  6
CONTINUOUS
 62
4
 10
498.2845
 20
626.9430
 11
498.4204
 21
626.9193
  0
LINE
  8
0_00
  6
CONTINUOUS
 62
4
 10
498.4204
 20
626.9193
 11
498.5563
 21
626.8958
  0
LINE
  8
0_00
  6
CONTINUOUS
 62
4
 10
498.5563
 20
626.8958
 11
498.6921
 21
626.8724
  0
LINE
  8
0_00
  6
CONTINUOUS
 62
4
 10
498.6921
 20
626.8724
 11
498.8278
 21
626.8492
  0
LINE
  8
0_00
  6
CONTINUOUS
 62
4
 10
498.8278
 20
626.8492
 11
498.9633
 21
626.8264
  0
LINE
  8
0_00
  6
CONTINUOUS
 62
4
 10
498.9633
 20
626.8264
 11
499.0987
 21
626.8038
  0
LINE
  8
0_00
  6
CONTINUOUS
 62
4
 10
499.0987
 20
626.8038
 11
499.2339
 21
626.7818
  0
LINE
  8
0_00
  6
CONTINUOUS
 62
4
 10
499.2339
 20
626.7818
 11
499.3689
 21
626.7601
  0
LINE
  8
0_00
  6
CONTINUOUS
 62
4
 10
499.3689
 20
626.7601
 11
499.5035
 21
626.7390
  0
LINE
  8
0_00
  6
CONTINUOUS
 62
4
 10
499.5035
 20
626.7390
 11
499.6381
 21
626.7183
  0
LINE
  8
0_00
  6
CONTINUOUS
 62
4
 10
499.6381
 20
626.7183
 11
499.7722
 21
626.6982
  0
LINE
  8
0_00
  6
CONTINUOUS
 62
4
 10
499.7722
 20
626.6982
 11
499.9061
 21
626.6789
  0
LINE
  8
0_00
  6
CONTINUOUS
 62
4
 10
499.9061
 20
626.6789
 11
500.0397
 21
626.6601
  0
LINE
  8
0_00
  6
CONTINUOUS
 62
4
 10
500.0397
 20
626.6601
 11
500.1729
 21
626.6421
  0
LINE
  8
0_00
  6
CONTINUOUS
 62
4
 10
500.1729
 20
626.6421
 11
500.3057
 21
626.6248
  0
LINE
  8
0_00
  6
CONTINUOUS
 62
4
 10
500.3057
 20
626.6248
 11
500.4381
 21
626.6084
  0
LINE
  8
0_00
  6
CONTINUOUS
 62
4
 10
500.4381
 20
626.6084
 11
500.5702
 21
626.5929
  0
LINE
  8
0_00
  6
CONTINUOUS
 62
4
 10
500.5702
 20
626.5929
 11
500.7017
 21
626.5783
  0
LINE
  8
0_00
  6
CONTINUOUS
 62
4
 10
500.7017
 20
626.5783
 11
500.8328
 21
626.5646
  0
LINE
  8
0_00
  6
CONTINUOUS
 62
4
 10
500.8328
 20
626.5646
 11
500.9634
 21
626.5520
  0
LINE
  8
0_00
  6
CONTINUOUS
 62
4
 10
500.9634
 20
626.5520
 11
501.0935
 21
626.5405
  0
LINE
  8
0_00
  6
CONTINUOUS
 62
4
 10
501.0935
 20
626.5405
 11
501.2230
 21
626.5300
  0
LINE
  8
0_00
  6
CONTINUOUS
 62
4
 10
501.2230
 20
626.5300
 11
501.3520
 21
626.5208
  0
LINE
  8
0_00
  6
CONTINUOUS
 62
4
 10
501.3520
 20
626.5208
 11
501.4804
 21
626.5128
  0
LINE
  8
0_00
  6
CONTINUOUS
 62
4
 10
501.4804
 20
626.5128
 11
501.6081
 21
626.5060
  0
LINE
  8
0_00
  6
CONTINUOUS
 62
4
 10
501.6081
 20
626.5060
 11
501.7353
 21
626.5005
  0
LINE
  8
0_00
  6
CONTINUOUS
 62
4
 10
501.7353
 20
626.5005
 11
501.8617
 21
626.4965
  0
LINE
  8
0_00
  6
CONTINUOUS
 62
4
 10
501.8617
 20
626.4965
 11
501.9876
 21
626.4938
  0
LINE
  8
0_00
  6
CONTINUOUS
 62
4
 10
501.9876
 20
626.4938
 11
502.1127
 21
626.4925
  0
LINE
  8
0_00
  6
CONTINUOUS
 62
4
 10
502.1127
 20
626.4925
 11
502.2373
 21
626.4926
  0
LINE
  8
0_00
  6
CONTINUOUS
 62
4
 10
502.2373
 20
626.4926
 11
502.3615
 21
626.4939
  0
LINE
  8
0_00
  6
CONTINUOUS
 62
4
 10
502.3615
 20
626.4939
 11
502.4856
 21
626.4962
  0
LINE
  8
0_00
  6
CONTINUOUS
 62
4
 10
502.4856
 20
626.4962
 11
502.6096
 21
626.4995
  0
LINE
  8
0_00
  6
CONTINUOUS
 62
4
 10
502.6096
 20
626.4995
 11
502.7338
 21
626.5035
  0
LINE
  8
0_00
  6
CONTINUOUS
 62
4
 10
502.7338
 20
626.5035
 11
502.8583
 21
626.5083
  0
LINE
  8
0_00
  6
CONTINUOUS
 62
4
 10
502.8583
 20
626.5083
 11
502.9834
 21
626.5135
  0
LINE
  8
0_00
  6
CONTINUOUS
 62
4
 10
502.9834
 20
626.5135
 11
503.1091
 21
626.5192
  0
LINE
  8
0_00
  6
CONTINUOUS
 62
4
 10
503.1091
 20
626.5192
 11
503.2356
 21
626.5251
  0
LINE
  8
0_00
  6
CONTINUOUS
 62
4
 10
503.2356
 20
626.5251
 11
503.3632
 21
626.5312
  0
LINE
  8
0_00
  6
CONTINUOUS
 62
4
 10
503.3632
 20
626.5312
 11
503.4920
 21
626.5372
  0
LINE
  8
0_00
  6
CONTINUOUS
 62
4
 10
503.4920
 20
626.5372
 11
503.6221
 21
626.5431
  0
LINE
  8
0_00
  6
CONTINUOUS
 62
4
 10
503.6221
 20
626.5431
 11
503.7538
 21
626.5487
  0
LINE
  8
0_00
  6
CONTINUOUS
 62
4
 10
503.7538
 20
626.5487
 11
503.8872
 21
626.5539
  0
LINE
  8
0_00
  6
CONTINUOUS
 62
4
 10
503.8872
 20
626.5539
 11
504.0224
 21
626.5587
  0
LINE
  8
0_00
  6
CONTINUOUS
 62
4
 10
504.0224
 20
626.5587
 11
504.1598
 21
626.5627
  0
LINE
  8
0_00
  6
CONTINUOUS
 62
4
 10
504.1598
 20
626.5627
 11
504.2994
 21
626.5659
  0
LINE
  8
0_00
  6
CONTINUOUS
 62
4
 10
504.2994
 20
626.5659
 11
504.4413
 21
626.5682
  0
LINE
  8
0_00
  6
CONTINUOUS
 62
4
 10
504.4413
 20
626.5682
 11
504.5859
 21
626.5694
  0
LINE
  8
0_00
  6
CONTINUOUS
 62
4
 10
504.5859
 20
626.5694
 11
504.7332
 21
626.5694
  0
LINE
  8
0_00
  6
CONTINUOUS
 62
4
 10
504.7332
 20
626.5694
 11
504.8834
 21
626.5682
  0
LINE
  8
0_00
  6
CONTINUOUS
 62
4
 10
504.8834
 20
626.5682
 11
505.0367
 21
626.5654
  0
LINE
  8
0_00
  6
CONTINUOUS
 62
4
 10
505.0367
 20
626.5654
 11
505.1933
 21
626.5611
  0
LINE
  8
0_00
  6
CONTINUOUS
 62
4
 10
505.1933
 20
626.5611
 11
505.3533
 21
626.5550
  0
LINE
  8
0_00
  6
CONTINUOUS
 62
4
 10
505.3533
 20
626.5550
 11
505.5170
 21
626.5470
  0
LINE
  8
0_00
  6
CONTINUOUS
 62
4
 10
505.5170
 20
626.5470
 11
505.6845
 21
626.5370
  0
LINE
  8
0_00
  6
CONTINUOUS
 62
4
 10
505.6845
 20
626.5370
 11
505.8558
 21
626.5249
  0
LINE
  8
0_00
  6
CONTINUOUS
 62
4
 10
505.8558
 20
626.5249
 11
506.0314
 21
626.5106
  0
LINE
  8
0_00
  6
CONTINUOUS
 62
4
 10
506.0314
 20
626.5106
 11
506.2112
 21
626.4938
  0
LINE
  8
0_00
  6
CONTINUOUS
 62
4
 10
506.2112
 20
626.4938
 11
506.3954
 21
626.4746
  0
LINE
  8
0_00
  6
CONTINUOUS
 62
4
 10
506.3954
 20
626.4746
 11
506.5840
 21
626.4530
  0
LINE
  8
0_00
  6
CONTINUOUS
 62
4
 10
506.5840
 20
626.4530
 11
506.7767
 21
626.4291
  0
LINE
  8
0_00
  6
CONTINUOUS
 62
4
 10
506.7767
 20
626.4291
 11
506.9733
 21
626.4032
  0
LINE
  8
0_00
  6
CONTINUOUS
 62
4
 10
506.9733
 20
626.4032
 11
507.1738
 21
626.3754
  0
LINE
  8
0_00
  6
CONTINUOUS
 62
4
 10
507.1738
 20
626.3754
 11
507.3779
 21
626.3457
  0
LINE
  8
0_00
  6
CONTINUOUS
 62
4
 10
507.3779
 20
626.3457
 11
507.5854
 21
626.3145
  0
LINE
  8
0_00
  6
CONTINUOUS
 62
4
 10
507.5854
 20
626.3145
 11
507.7962
 21
626.2819
  0
LINE
  8
0_00
  6
CONTINUOUS
 62
4
 10
507.7962
 20
626.2819
 11
508.0101
 21
626.2478
  0
LINE
  8
0_00
  6
CONTINUOUS
 62
4
 10
508.0101
 20
626.2478
 11
508.2270
 21
626.2127
  0
LINE
  8
0_00
  6
CONTINUOUS
 62
4
 10
508.2270
 20
626.2127
 11
508.4466
 21
626.1765
  0
LINE
  8
0_00
  6
CONTINUOUS
 62
4
 10
508.4466
 20
626.1765
 11
508.6688
 21
626.1395
  0
LINE
  8
0_00
  6
CONTINUOUS
 62
4
 10
508.6688
 20
626.1395
 11
508.8935
 21
626.1018
  0
LINE
  8
0_00
  6
CONTINUOUS
 62
4
 10
508.8935
 20
626.1018
 11
509.1205
 21
626.0635
  0
LINE
  8
0_00
  6
CONTINUOUS
 62
4
 10
509.1205
 20
626.0635
 11
509.3495
 21
626.0248
  0
LINE
  8
0_00
  6
CONTINUOUS
 62
4
 10
509.3495
 20
626.0248
 11
509.5804
 21
625.9858
  0
LINE
  8
0_00
  6
CONTINUOUS
 62
4
 10
509.5804
 20
625.9858
 11
509.8131
 21
625.9469
  0
LINE
  8
0_00
  6
CONTINUOUS
 62
4
 10
509.8131
 20
625.9469
 11
510.0473
 21
625.9078
  0
LINE
  8
0_00
  6
CONTINUOUS
 62
4
 10
510.0473
 20
625.9078
 11
510.2830
 21
625.8690
  0
LINE
  8
0_00
  6
CONTINUOUS
 62
4
 10
510.2830
 20
625.8690
 11
510.5199
 21
625.8307
  0
LINE
  8
0_00
  6
CONTINUOUS
 62
4
 10
510.5199
 20
625.8307
 11
510.7579
 21
625.7927
  0
LINE
  8
0_00
  6
CONTINUOUS
 62
4
 10
510.7579
 20
625.7927
 11
510.9967
 21
625.7556
  0
LINE
  8
0_00
  6
CONTINUOUS
 62
4
 10
510.9967
 20
625.7556
 11
511.2363
 21
625.7192
  0
LINE
  8
0_00
  6
CONTINUOUS
 62
4
 10
511.2363
 20
625.7192
 11
511.4764
 21
625.6837
  0
LINE
  8
0_00
  6
CONTINUOUS
 62
4
 10
511.4764
 20
625.6837
 11
511.7169
 21
625.6494
  0
LINE
  8
0_00
  6
CONTINUOUS
 62
4
 10
511.7169
 20
625.6494
 11
511.9577
 21
625.6164
  0
LINE
  8
0_00
  6
CONTINUOUS
 62
4
 10
511.9577
 20
625.6164
 11
512.1984
 21
625.5847
  0
LINE
  8
0_00
  6
CONTINUOUS
 62
4
 10
512.1984
 20
625.5847
 11
512.4391
 21
625.5547
  0
LINE
  8
0_00
  6
CONTINUOUS
 62
4
 10
512.4391
 20
625.5547
 11
512.6794
 21
625.5264
  0
LINE
  8
0_00
  6
CONTINUOUS
 62
4
 10
512.6794
 20
625.5264
 11
512.9193
 21
625.5000
  0
LINE
  8
0_00
  6
CONTINUOUS
 62
4
 10
512.9193
 20
625.5000
 11
513.1585
 21
625.4756
  0
LINE
  8
0_00
  6
CONTINUOUS
 62
4
 10
513.1585
 20
625.4756
 11
513.3970
 21
625.4532
  0
LINE
  8
0_00
  6
CONTINUOUS
 62
4
 10
513.3970
 20
625.4532
 11
513.6346
 21
625.4329
  0
LINE
  8
0_00
  6
CONTINUOUS
 62
4
 10
513.6346
 20
625.4329
 11
513.8714
 21
625.4148
  0
LINE
  8
0_00
  6
CONTINUOUS
 62
4
 10
513.8714
 20
625.4148
 11
514.1071
 21
625.3987
  0
LINE
  8
0_00
  6
CONTINUOUS
 62
4
 10
514.1071
 20
625.3987
 11
514.3416
 21
625.3848
  0
LINE
  8
0_00
  6
CONTINUOUS
 62
4
 10
514.3416
 20
625.3848
 11
514.5750
 21
625.3731
  0
LINE
  8
0_00
  6
CONTINUOUS
 62
4
 10
514.5750
 20
625.3731
 11
514.8069
 21
625.3634
  0
LINE
  8
0_00
  6
CONTINUOUS
 62
4
 10
514.8069
 20
625.3634
 11
515.0376
 21
625.3560
  0
LINE
  8
0_00
  6
CONTINUOUS
 62
4
 10
515.0376
 20
625.3560
 11
515.2666
 21
625.3509
  0
LINE
  8
0_00
  6
CONTINUOUS
 62
4
 10
515.2666
 20
625.3509
 11
515.4940
 21
625.3480
  0
LINE
  8
0_00
  6
CONTINUOUS
 62
4
 10
515.4940
 20
625.3480
 11
515.7198
 21
625.3474
  0
LINE
  8
0_00
  6
CONTINUOUS
 62
4
 10
515.7198
 20
625.3474
 11
515.9437
 21
625.3491
  0
LINE
  8
0_00
  6
CONTINUOUS
 62
4
 10
515.9437
 20
625.3491
 11
516.1657
 21
625.3530
  0
LINE
  8
0_00
  6
CONTINUOUS
 62
4
 10
516.1657
 20
625.3530
 11
516.3858
 21
625.3594
  0
LINE
  8
0_00
  6
CONTINUOUS
 62
4
 10
516.3858
 20
625.3594
 11
516.6037
 21
625.3681
  0
LINE
  8
0_00
  6
CONTINUOUS
 62
4
 10
516.6037
 20
625.3681
 11
516.8193
 21
625.3791
  0
LINE
  8
0_00
  6
CONTINUOUS
 62
4
 10
516.8193
 20
625.3791
 11
517.0328
 21
625.3925
  0
LINE
  8
0_00
  6
CONTINUOUS
 62
4
 10
517.0328
 20
625.3925
 11
517.2438
 21
625.4083
  0
LINE
  8
0_00
  6
CONTINUOUS
 62
4
 10
517.2438
 20
625.4083
 11
517.4523
 21
625.4266
  0
LINE
  8
0_00
  6
CONTINUOUS
 62
4
 10
517.4523
 20
625.4266
 11
517.6582
 21
625.4474
  0
LINE
  8
0_00
  6
CONTINUOUS
 62
4
 10
517.6582
 20
625.4474
 11
517.8615
 21
625.4707
  0
LINE
  8
0_00
  6
CONTINUOUS
 62
4
 10
517.8615
 20
625.4707
 11
518.0619
 21
625.4964
  0
LINE
  8
0_00
  6
CONTINUOUS
 62
4
 10
518.0619
 20
625.4964
 11
518.2595
 21
625.5246
  0
LINE
  8
0_00
  6
CONTINUOUS
 62
4
 10
518.2595
 20
625.5246
 11
518.4540
 21
625.5554
  0
LINE
  8
0_00
  6
CONTINUOUS
 62
4
 10
518.4540
 20
625.5554
 11
518.6456
 21
625.5889
  0
LINE
  8
0_00
  6
CONTINUOUS
 62
4
 10
518.6456
 20
625.5889
 11
518.8339
 21
625.6248
  0
LINE
  8
0_00
  6
CONTINUOUS
 62
4
 10
518.8339
 20
625.6248
 11
519.0190
 21
625.6634
  0
LINE
  8
0_00
  6
CONTINUOUS
 62
4
 10
519.0190
 20
625.6634
 11
519.2007
 21
625.7046
  0
LINE
  8
0_00
  6
CONTINUOUS
 62
4
 10
519.2007
 20
625.7046
 11
519.3789
 21
625.7484
  0
LINE
  8
0_00
  6
CONTINUOUS
 62
4
 10
519.3789
 20
625.7484
 11
519.5536
 21
625.7949
  0
LINE
  8
0_00
  6
CONTINUOUS
 62
4
 10
519.5536
 20
625.7949
 11
519.7249
 21
625.8440
  0
LINE
  8
0_00
  6
CONTINUOUS
 62
4
 10
519.7249
 20
625.8440
 11
519.8930
 21
625.8955
  0
LINE
  8
0_00
  6
CONTINUOUS
 62
4
 10
519.8930
 20
625.8955
 11
520.0580
 21
625.9493
  0
LINE
  8
0_00
  6
CONTINUOUS
 62
4
 10
520.0580
 20
625.9493
 11
520.2202
 21
626.0052
  0
LINE
  8
0_00
  6
CONTINUOUS
 62
4
 10
520.2202
 20
626.0052
 11
520.3797
 21
626.0632
  0
LINE
  8
0_00
  6
CONTINUOUS
 62
4
 10
520.3797
 20
626.0632
 11
520.5367
 21
626.1231
  0
LINE
  8
0_00
  6
CONTINUOUS
 62
4
 10
520.5367
 20
626.1231
 11
520.6913
 21
626.1848
  0
LINE
  8
0_00
  6
CONTINUOUS
 62
4
 10
520.6913
 20
626.1848
 11
520.8437
 21
626.2480
  0
LINE
  8
0_00
  6
CONTINUOUS
 62
4
 10
520.8437
 20
626.2480
 11
520.9942
 21
626.3129
  0
LINE
  8
0_00
  6
CONTINUOUS
 62
4
 10
520.9942
 20
626.3129
 11
521.1428
 21
626.3792
  0
LINE
  8
0_00
  6
CONTINUOUS
 62
4
 10
521.1428
 20
626.3792
 11
521.2898
 21
626.4467
  0
LINE
  8
0_00
  6
CONTINUOUS
 62
4
 10
521.2898
 20
626.4467
 11
521.4353
 21
626.5155
  0
LINE
  8
0_00
  6
CONTINUOUS
 62
4
 10
521.4353
 20
626.5155
 11
521.5795
 21
626.5852
  0
LINE
  8
0_00
  6
CONTINUOUS
 62
4
 10
521.5795
 20
626.5852
 11
521.7225
 21
626.6558
  0
LINE
  8
0_00
  6
CONTINUOUS
 62
4
 10
521.7225
 20
626.6558
 11
521.8646
 21
626.7271
  0
LINE
  8
0_00
  6
CONTINUOUS
 62
4
 10
521.8646
 20
626.7271
 11
522.0059
 21
626.7991
  0
LINE
  8
0_00
  6
CONTINUOUS
 62
4
 10
522.0059
 20
626.7991
 11
522.1466
 21
626.8717
  0
LINE
  8
0_00
  6
CONTINUOUS
 62
4
 10
522.1466
 20
626.8717
 11
522.2869
 21
626.9446
  0
LINE
  8
0_00
  6
CONTINUOUS
 62
4
 10
522.2869
 20
626.9446
 11
522.4269
 21
627.0178
  0
LINE
  8
0_00
  6
CONTINUOUS
 62
4
 10
522.4269
 20
627.0178
 11
522.5668
 21
627.0911
  0
LINE
  8
0_00
  6
CONTINUOUS
 62
4
 10
522.5668
 20
627.0911
 11
522.7068
 21
627.1644
  0
LINE
  8
0_00
  6
CONTINUOUS
 62
4
 10
522.7068
 20
627.1644
 11
522.8471
 21
627.2377
  0
LINE
  8
0_00
  6
CONTINUOUS
 62
4
 10
522.8471
 20
627.2377
 11
522.9878
 21
627.3106
  0
LINE
  8
0_00
  6
CONTINUOUS
 62
4
 10
522.9878
 20
627.3106
 11
523.1292
 21
627.3831
  0
LINE
  8
0_00
  6
CONTINUOUS
 62
4
 10
523.1292
 20
627.3831
 11
523.2713
 21
627.4552
  0
LINE
  8
0_00
  6
CONTINUOUS
 62
4
 10
523.2713
 20
627.4552
 11
523.4143
 21
627.5267
  0
LINE
  8
0_00
  6
CONTINUOUS
 62
4
 10
523.4143
 20
627.5267
 11
523.5585
 21
627.5974
  0
LINE
  8
0_00
  6
CONTINUOUS
 62
4
 10
523.5585
 20
627.5974
 11
523.7040
 21
627.6672
  0
LINE
  8
0_00
  6
CONTINUOUS
 62
4
 10
523.7040
 20
627.6672
 11
523.8510
 21
627.7360
  0
LINE
  8
0_00
  6
CONTINUOUS
 62
4
 10
523.8510
 20
627.7360
 11
523.9995
 21
627.8037
  0
LINE
  8
0_00
  6
CONTINUOUS
 62
4
 10
523.9995
 20
627.8037
 11
524.1495
 21
627.8705
  0
LINE
  8
0_00
  6
CONTINUOUS
 62
4
 10
524.1495
 20
627.8705
 11
524.3007
 21
627.9364
  0
LINE
  8
0_00
  6
CONTINUOUS
 62
4
 10
524.3007
 20
627.9364
 11
524.4530
 21
628.0016
  0
LINE
  8
0_00
  6
CONTINUOUS
 62
4
 10
524.4530
 20
628.0016
 11
524.6060
 21
628.0663
  0
LINE
  8
0_00
  6
CONTINUOUS
 62
4
 10
524.6060
 20
628.0663
 11
524.7597
 21
628.1308
  0
LINE
  8
0_00
  6
CONTINUOUS
 62
4
 10
524.7597
 20
628.1308
 11
524.9137
 21
628.1949
  0
LINE
  8
0_00
  6
CONTINUOUS
 62
4
 10
524.9137
 20
628.1949
 11
525.0679
 21
628.2589
  0
LINE
  8
0_00
  6
CONTINUOUS
 62
4
 10
525.0679
 20
628.2589
 11
525.2221
 21
628.3233
  0
LINE
  8
0_00
  6
CONTINUOUS
 62
4
 10
525.2221
 20
628.3233
 11
525.3760
 21
628.3877
  0
LINE
  8
0_00
  6
CONTINUOUS
 62
4
 10
525.3760
 20
628.3877
 11
525.5294
 21
628.4526
  0
LINE
  8
0_00
  6
CONTINUOUS
 62
4
 10
525.5294
 20
628.4526
 11
525.6822
 21
628.5181
  0
LINE
  8
0_00
  6
CONTINUOUS
 62
4
 10
525.6822
 20
628.5181
 11
525.8340
 21
628.5843
  0
LINE
  8
0_00
  6
CONTINUOUS
 62
4
 10
525.8340
 20
628.5843
 11
525.9848
 21
628.6513
  0
LINE
  8
0_00
  6
CONTINUOUS
 62
4
 10
525.9848
 20
628.6513
 11
526.1343
 21
628.7195
  0
LINE
  8
0_00
  6
CONTINUOUS
 62
4
 10
526.1343
 20
628.7195
 11
526.2822
 21
628.7888
  0
LINE
  8
0_00
  6
CONTINUOUS
 62
4
 10
526.2822
 20
628.7888
 11
526.4284
 21
628.8595
  0
LINE
  8
0_00
  6
CONTINUOUS
 62
4
 10
526.4284
 20
628.8595
 11
526.5726
 21
628.9317
  0
LINE
  8
0_00
  6
CONTINUOUS
 62
4
 10
526.5726
 20
628.9317
 11
526.7147
 21
629.0056
  0
LINE
  8
0_00
  6
CONTINUOUS
 62
4
 10
526.7147
 20
629.0056
 11
526.8544
 21
629.0811
  0
LINE
  8
0_00
  6
CONTINUOUS
 62
4
 10
526.8544
 20
629.0811
 11
526.9916
 21
629.1588
  0
LINE
  8
0_00
  6
CONTINUOUS
 62
4
 10
526.9916
 20
629.1588
 11
527.1259
 21
629.2386
  0
LINE
  8
0_00
  6
CONTINUOUS
 62
4
 10
527.1259
 20
629.2386
 11
527.2572
 21
629.3207
  0
LINE
  8
0_00
  6
CONTINUOUS
 62
4
 10
527.2572
 20
629.3207
 11
527.3853
 21
629.4052
  0
LINE
  8
0_00
  6
CONTINUOUS
 62
4
 10
527.3853
 20
629.4052
 11
527.5100
 21
629.4922
  0
LINE
  8
0_00
  6
CONTINUOUS
 62
4
 10
527.5100
 20
629.4922
 11
527.6310
 21
629.5821
  0
LINE
  8
0_00
  6
CONTINUOUS
 62
4
 10
527.6310
 20
629.5821
 11
527.7482
 21
629.6748
  0
LINE
  8
0_00
  6
CONTINUOUS
 62
4
 10
527.7482
 20
629.6748
 11
527.8613
 21
629.7706
  0
LINE
  8
0_00
  6
CONTINUOUS
 62
4
 10
527.8613
 20
629.7706
 11
527.9702
 21
629.8696
  0
LINE
  8
0_00
  6
CONTINUOUS
 62
4
 10
527.9702
 20
629.8696
 11
528.0745
 21
629.9720
  0
LINE
  8
0_00
  6
CONTINUOUS
 62
4
 10
528.0745
 20
629.9720
 11
528.1743
 21
630.0779
  0
LINE
  8
0_00
  6
CONTINUOUS
 62
4
 10
528.1743
 20
630.0779
 11
528.2694
 21
630.1870
  0
LINE
  8
0_00
  6
CONTINUOUS
 62
4
 10
528.2694
 20
630.1870
 11
528.3603
 21
630.2991
  0
LINE
  8
0_00
  6
CONTINUOUS
 62
4
 10
528.3603
 20
630.2991
 11
528.4469
 21
630.4139
  0
LINE
  8
0_00
  6
CONTINUOUS
 62
4
 10
528.4469
 20
630.4139
 11
528.5296
 21
630.5311
  0
LINE
  8
0_00
  6
CONTINUOUS
 62
4
 10
528.5296
 20
630.5311
 11
528.6085
 21
630.6505
  0
LINE
  8
0_00
  6
CONTINUOUS
 62
4
 10
528.6085
 20
630.6505
 11
528.6837
 21
630.7718
  0
LINE
  8
0_00
  6
CONTINUOUS
 62
4
 10
528.6837
 20
630.7718
 11
528.7554
 21
630.8947
  0
LINE
  8
0_00
  6
CONTINUOUS
 62
4
 10
528.7554
 20
630.8947
 11
528.8238
 21
631.0188
  0
LINE
  8
0_00
  6
CONTINUOUS
 62
4
 10
528.8238
 20
631.0188
 11
528.8892
 21
631.1441
  0
LINE
  8
0_00
  6
CONTINUOUS
 62
4
 10
528.8892
 20
631.1441
 11
528.9516
 21
631.2702
  0
LINE
  8
0_00
  6
CONTINUOUS
 62
4
 10
528.9516
 20
631.2702
 11
529.0112
 21
631.3967
  0
LINE
  8
0_00
  6
CONTINUOUS
 62
4
 10
529.0112
 20
631.3967
 11
529.0682
 21
631.5235
  0
LINE
  8
0_00
  6
CONTINUOUS
 62
4
 10
529.0682
 20
631.5235
 11
529.1229
 21
631.6503
  0
LINE
  8
0_00
  6
CONTINUOUS
 62
4
 10
529.1229
 20
631.6503
 11
529.1753
 21
631.7768
  0
LINE
  8
0_00
  6
CONTINUOUS
 62
4
 10
529.1753
 20
631.7768
 11
529.2256
 21
631.9027
  0
LINE
  8
0_00
  6
CONTINUOUS
 62
4
 10
529.2256
 20
631.9027
 11
529.2742
 21
632.0277
  0
LINE
  8
0_00
  6
CONTINUOUS
 62
4
 10
529.2742
 20
632.0277
 11
529.3209
 21
632.1516
  0
LINE
  8
0_00
  6
CONTINUOUS
 62
4
 10
529.3209
 20
632.1516
 11
529.3661
 21
632.2741
  0
LINE
  8
0_00
  6
CONTINUOUS
 62
4
 10
529.3661
 20
632.2741
 11
529.4101
 21
632.3949
  0
LINE
  8
0_00
  6
CONTINUOUS
 62
4
 10
529.4101
 20
632.3949
 11
529.4528
 21
632.5138
  0
LINE
  8
0_00
  6
CONTINUOUS
 62
4
 10
529.4528
 20
632.5138
 11
529.4945
 21
632.6304
  0
LINE
  8
0_00
  6
CONTINUOUS
 62
4
 10
529.4945
 20
632.6304
 11
529.5354
 21
632.7445
  0
LINE
  8
0_00
  6
CONTINUOUS
 62
4
 10
529.5354
 20
632.7445
 11
529.5757
 21
632.8559
  0
LINE
  8
0_00
  6
CONTINUOUS
 62
4
 10
529.5757
 20
632.8559
 11
529.6154
 21
632.9642
  0
LINE
  8
0_00
  6
CONTINUOUS
 62
4
 10
529.6154
 20
632.9642
 11
529.6550
 21
633.0692
  0
LINE
  8
0_00
  6
CONTINUOUS
 62
4
 10
529.6550
 20
633.0692
 11
529.6944
 21
633.1705
  0
LINE
  8
0_00
  6
CONTINUOUS
 62
4
 10
529.6944
 20
633.1705
 11
529.7339
 21
633.2680
  0
LINE
  8
0_00
  6
CONTINUOUS
 62
4
 10
529.7339
 20
633.2680
 11
529.7736
 21
633.3614
  0
LINE
  8
0_00
  6
CONTINUOUS
 62
4
 10
529.7736
 20
633.3614
 11
529.8137
 21
633.4503
  0
LINE
  8
0_00
  6
CONTINUOUS
 62
4
 10
529.8137
 20
633.4503
 11
529.8544
 21
633.5347
  0
LINE
  8
0_00
  6
CONTINUOUS
 62
4
 10
529.8544
 20
633.5347
 11
529.8957
 21
633.6147
  0
LINE
  8
0_00
  6
CONTINUOUS
 62
4
 10
529.8957
 20
633.6147
 11
529.9378
 21
633.6910
  0
LINE
  8
0_00
  6
CONTINUOUS
 62
4
 10
529.9378
 20
633.6910
 11
529.9806
 21
633.7641
  0
LINE
  8
0_00
  6
CONTINUOUS
 62
4
 10
529.9806
 20
633.7641
 11
530.0242
 21
633.8341
  0
LINE
  8
0_00
  6
CONTINUOUS
 62
4
 10
530.0242
 20
633.8341
 11
530.0686
 21
633.9016
  0
LINE
  8
0_00
  6
CONTINUOUS
 62
4
 10
530.0686
 20
633.9016
 11
530.1141
 21
633.9671
  0
LINE
  8
0_00
  6
CONTINUOUS
 62
4
 10
530.1141
 20
633.9671
 11
530.1605
 21
634.0310
  0
LINE
  8
0_00
  6
CONTINUOUS
 62
4
 10
530.1605
 20
634.0310
 11
530.2081
 21
634.0938
  0
LINE
  8
0_00
  6
CONTINUOUS
 62
4
 10
530.2081
 20
634.0938
 11
530.2566
 21
634.1559
  0
LINE
  8
0_00
  6
CONTINUOUS
 62
4
 10
530.2566
 20
634.1559
 11
530.3064
 21
634.2177
  0
LINE
  8
0_00
  6
CONTINUOUS
 62
4
 10
530.3064
 20
634.2177
 11
530.3575
 21
634.2797
  0
LINE
  8
0_00
  6
CONTINUOUS
 62
4
 10
530.3575
 20
634.2797
 11
530.4098
 21
634.3424
  0
LINE
  8
0_00
  6
CONTINUOUS
 62
4
 10
530.4098
 20
634.3424
 11
530.4635
 21
634.4061
  0
LINE
  8
0_00
  6
CONTINUOUS
 62
4
 10
530.4635
 20
634.4061
 11
530.5186
 21
634.4713
  0
LINE
  8
0_00
  6
CONTINUOUS
 62
4
 10
530.5186
 20
634.4713
 11
530.5751
 21
634.5386
  0
LINE
  8
0_00
  6
CONTINUOUS
 62
4
 10
530.5751
 20
634.5386
 11
530.6331
 21
634.6083
  0
LINE
  8
0_00
  6
CONTINUOUS
 62
4
 10
530.6331
 20
634.6083
 11
530.6927
 21
634.6807
  0
LINE
  8
0_00
  6
CONTINUOUS
 62
4
 10
530.6927
 20
634.6807
 11
530.7540
 21
634.7565
  0
LINE
  8
0_00
  6
CONTINUOUS
 62
4
 10
530.7540
 20
634.7565
 11
530.8170
 21
634.8360
  0
LINE
  8
0_00
  6
CONTINUOUS
 62
4
 10
530.8170
 20
634.8360
 11
530.8817
 21
634.9197
  0
LINE
  8
0_00
  6
CONTINUOUS
 62
4
 10
530.8817
 20
634.9197
 11
530.9482
 21
635.0081
  0
LINE
  8
0_00
  6
CONTINUOUS
 62
4
 10
530.9482
 20
635.0081
 11
531.0167
 21
635.1015
  0
LINE
  8
0_00
  6
CONTINUOUS
 62
4
 10
531.0167
 20
635.1015
 11
531.0870
 21
635.2005
  0
LINE
  8
0_00
  6
CONTINUOUS
 62
4
 10
531.0870
 20
635.2005
 11
531.1593
 21
635.3053
  0
LINE
  8
0_00
  6
CONTINUOUS
 62
4
 10
531.1593
 20
635.3053
 11
531.2337
 21
635.4166
  0
LINE
  8
0_00
  6
CONTINUOUS
 62
4
 10
531.2337
 20
635.4166
 11
531.3102
 21
635.5348
  0
LINE
  8
0_00
  6
CONTINUOUS
 62
4
 10
531.3102
 20
635.5348
 11
531.3888
 21
635.6602
  0
LINE
  8
0_00
  6
CONTINUOUS
 62
4
 10
531.3888
 20
635.6602
 11
531.4697
 21
635.7934
  0
LINE
  8
0_00
  6
CONTINUOUS
 62
4
 10
531.4697
 20
635.7934
 11
531.5528
 21
635.9349
  0
LINE
  8
0_00
  6
CONTINUOUS
 62
4
 10
531.5528
 20
635.9349
 11
531.6383
 21
636.0846
  0
LINE
  8
0_00
  6
CONTINUOUS
 62
4
 10
531.6383
 20
636.0846
 11
531.7260
 21
636.2428
  0
LINE
  8
0_00
  6
CONTINUOUS
 62
4
 10
531.7260
 20
636.2428
 11
531.8159
 21
636.4092
  0
LINE
  8
0_00
  6
CONTINUOUS
 62
4
 10
531.8159
 20
636.4092
 11
531.9078
 21
636.5832
  0
LINE
  8
0_00
  6
CONTINUOUS
 62
4
 10
531.9078
 20
636.5832
 11
532.0018
 21
636.7647
  0
LINE
  8
0_00
  6
CONTINUOUS
 62
4
 10
532.0018
 20
636.7647
 11
532.0979
 21
636.9534
  0
LINE
  8
0_00
  6
CONTINUOUS
 62
4
 10
532.0979
 20
636.9534
 11
532.1957
 21
637.1490
  0
LINE
  8
0_00
  6
CONTINUOUS
 62
4
 10
532.1957
 20
637.1490
 11
532.2953
 21
637.3512
  0
LINE
  8
0_00
  6
CONTINUOUS
 62
4
 10
532.2953
 20
637.3512
 11
532.3966
 21
637.5598
  0
LINE
  8
0_00
  6
CONTINUOUS
 62
4
 10
532.3966
 20
637.5598
 11
532.4995
 21
637.7744
  0
LINE
  8
0_00
  6
CONTINUOUS
 62
4
 10
532.4995
 20
637.7744
 11
532.6041
 21
637.9946
  0
LINE
  8
0_00
  6
CONTINUOUS
 62
4
 10
532.6041
 20
637.9946
 11
532.7102
 21
638.2204
  0
LINE
  8
0_00
  6
CONTINUOUS
 62
4
 10
532.7102
 20
638.2204
 11
532.8176
 21
638.4515
  0
LINE
  8
0_00
  6
CONTINUOUS
 62
4
 10
532.8176
 20
638.4515
 11
532.9263
 21
638.6873
  0
LINE
  8
0_00
  6
CONTINUOUS
 62
4
 10
532.9263
 20
638.6873
 11
533.0363
 21
638.9277
  0
LINE
  8
0_00
  6
CONTINUOUS
 62
4
 10
533.0363
 20
638.9277
 11
533.1474
 21
639.1725
  0
LINE
  8
0_00
  6
CONTINUOUS
 62
4
 10
533.1474
 20
639.1725
 11
533.2597
 21
639.4213
  0
LINE
  8
0_00
  6
CONTINUOUS
 62
4
 10
533.2597
 20
639.4213
 11
533.3730
 21
639.6739
  0
LINE
  8
0_00
  6
CONTINUOUS
 62
4
 10
533.3730
 20
639.6739
 11
533.4871
 21
639.9299
  0
LINE
  8
0_00
  6
CONTINUOUS
 62
4
 10
533.4871
 20
639.9299
 11
533.6022
 21
640.1890
  0
LINE
  8
0_00
  6
CONTINUOUS
 62
4
 10
533.6022
 20
640.1890
 11
533.7180
 21
640.4510
  0
LINE
  8
0_00
  6
CONTINUOUS
 62
4
 10
533.7180
 20
640.4510
 11
533.8345
 21
640.7157
  0
LINE
  8
0_00
  6
CONTINUOUS
 62
4
 10
533.8345
 20
640.7157
 11
533.9517
 21
640.9826
  0
LINE
  8
0_00
  6
CONTINUOUS
 62
4
 10
533.9517
 20
640.9826
 11
534.0694
 21
641.2516
  0
LINE
  8
0_00
  6
CONTINUOUS
 62
4
 10
534.0694
 20
641.2516
 11
534.1875
 21
641.5222
  0
LINE
  8
0_00
  6
CONTINUOUS
 62
4
 10
534.1875
 20
641.5222
 11
534.3061
 21
641.7943
  0
LINE
  8
0_00
  6
CONTINUOUS
 62
4
 10
534.3061
 20
641.7943
 11
534.4249
 21
642.0675
  0
LINE
  8
0_00
  6
CONTINUOUS
 62
4
 10
534.4249
 20
642.0675
 11
534.5440
 21
642.3416
  0
LINE
  8
0_00
  6
CONTINUOUS
 62
4
 10
534.5440
 20
642.3416
 11
534.6633
 21
642.6163
  0
LINE
  8
0_00
  6
CONTINUOUS
 62
4
 10
534.6633
 20
642.6163
 11
534.7826
 21
642.8913
  0
LINE
  8
0_00
  6
CONTINUOUS
 62
4
 10
534.4249
 20
642.0675
 11
534.4249
 21
704.5849
  0
LINE
  8
0_00
  6
CONTINUOUS
 62
2
 10
533.8921
 20
705.4357
 11
518.0518
 21
689.5956
  0
LINE
  8
0_00
  6
CONTINUOUS
 62
2
 10
532.1129
 20
707.8993
 11
518.0518
 21
693.8381
  0
LINE
  8
0_00
  6
CONTINUOUS
 62
2
 10
529.9127
 20
709.9417
 11
518.0518
 21
698.0808
  0
LINE
  8
0_00
  6
CONTINUOUS
 62
2
 10
534.4249
 20
644.2614
 11
518.0518
 21
627.8882
  0
LINE
  8
0_00
  6
CONTINUOUS
 62
2
 10
534.4249
 20
648.5040
 11
518.0518
 21
632.1308
  0
LINE
  8
0_00
  6
CONTINUOUS
 62
2
 10
534.4249
 20
652.7467
 11
518.0518
 21
636.3735
  0
LINE
  8
0_00
  6
CONTINUOUS
 62
4
 10
508.0518
 20
236.3843
 11
508.0518
 21
626.2478
  0
LINE
  8
0_00
  6
CONTINUOUS
 62
4
 10
508.0518
 20
714.7206
 11
508.0518
 21
794.0259
  0
LINE
  8
2_02
  6
DASHED
 62
2
 10
514.8518
 20
374.8843
 11
443.0518
 21
374.8843
  0
LINE
  8
14_0E
  6
DASHED
 62
2
 10
482.5518
 20
378.0843
 11
482.5518
 21
374.8843
  0
LINE
  8
2_02
  6
DASHED
 62
2
 10
514.8518
 20
378.0843
 11
114.8454
 21
378.0843
  0
LINE
  8
14_0E
  6
DASHED
 62
2
 10
449.5518
 20
378.0843
 11
449.5518
 21
374.8843
  0
LINE
  8
2_02
  6
DASHED
 62
2
 10
443.0518
 20
378.0843
 11
443.0518
 21
374.8843
  0
LINE
  8
2_02
  6
DASHED
 62
2
 10
514.8518
 20
374.8843
 11
514.8518
 21
348.0843
  0
LINE
  8
2_02
  6
DASHED
 62
2
 10
518.0518
 20
374.8843
 11
518.0518
 21
348.0843
  0
LINE
  8
0_00
  6
DASHED
 62
2
 10
518.0518
 20
352.8843
 11
514.8518
 21
352.8843
  0
LINE
  8
0_00
  6
DASHED
 62
2
 10
518.0518
 20
364.3843
 11
514.8518
 21
364.3843
  0
LINE
  8
2_02
  6
DASHED
 62
2
 10
518.0518
 20
348.0843
 11
514.8518
 21
348.0843
  0
LINE
  8
0_00
  6
DASHED
 62
2
 10
473.5573
 20
381.3843
 11
473.5573
 21
379.8843
  0
LINE
  8
0_00
  6
DASHED
 62
2
 10
469.8046
 20
381.3843
 11
469.8046
 21
379.8843
  0
LINE
  8
0_00
  6
DASHED
 62
2
 10
462.2991
 20
381.3843
 11
462.2991
 21
379.8843
  0
LINE
  8
0_00
  6
DASHED
 62
2
 10
458.5463
 20
381.3843
 11
458.5463
 21
379.8843
  0
LINE
  8
0_00
  6
CONTINUOUS
 62
4
 10
498.0518
 20
346.3843
 11
114.8454
 21
346.3843
  0
LINE
  8
0_00
  6
DASHED
 62
2
 10
498.0518
 20
346.3843
 11
503.0518
 21
346.3843
  0
LINE
  8
0_00
  6
DASHED
 62
2
 10
503.0518
 20
346.3843
 11
503.0518
 21
381.3843
  0
LINE
  8
0_00
  6
CONTINUOUS
 62
4
 10
498.0518
 20
381.3843
 11
114.8454
 21
381.3843
  0
LINE
  8
0_00
  6
DASHED
 62
2
 10
503.0518
 20
381.3843
 11
498.0518
 21
381.3843
  0
LINE
  8
2_02
  6
CONTINUOUS
 62
4
 10
762.2643
 20
378.0843
 11
798.2643
 21
378.0843
  0
LINE
  8
2_02
  6
CONTINUOUS
 62
4
 10
762.2643
 20
348.0843
 11
798.2643
 21
348.0843
  0
LINE
  8
2_02
  6
CONTINUOUS
 62
4
 10
798.2643
 20
378.0843
 11
798.2643
 21
348.0843
  0
LINE
  8
2_02
  6
CONTINUOUS
 62
4
 10
762.2643
 20
378.0843
 11
762.2643
 21
348.0843
  0
LINE
  8
2_02
  6
CONTINUOUS
 62
4
 10
762.2643
 20
374.8843
 11
798.2643
 21
374.8843
  0
LINE
  8
2_02
  6
DASHED
 62
2
 10
784.7642
 20
378.0843
 11
784.7642
 21
374.8843
  0
LINE
  8
2_02
  6
DASHED
 62
2
 10
775.7643
 20
378.0843
 11
775.7643
 21
374.8843
  0
LINE
  8
2_02
  6
CONTINUOUS
 62
4
 10
798.2643
 20
651.1576
 11
762.2643
 21
651.1576
  0
LINE
  8
2_02
  6
CONTINUOUS
 62
4
 10
798.2643
 20
681.1576
 11
762.2643
 21
681.1576
  0
LINE
  8
2_02
  6
CONTINUOUS
 62
4
 10
762.2643
 20
651.1576
 11
762.2643
 21
681.1576
  0
LINE
  8
2_02
  6
CONTINUOUS
 62
4
 10
798.2643
 20
651.1576
 11
798.2643
 21
681.1576
  0
LINE
  8
2_02
  6
CONTINUOUS
 62
4
 10
798.2643
 20
654.3576
 11
762.2643
 21
654.3576
  0
LINE
  8
2_02
  6
DASHED
 62
2
 10
775.7643
 20
651.1576
 11
775.7643
 21
654.3576
  0
LINE
  8
2_02
  6
DASHED
 62
2
 10
784.7642
 20
651.1576
 11
784.7642
 21
654.3576
  0
LINE
  8
2_02
  6
CONTINUOUS
 62
4
 10
1062.7687
 20
660.9017
 11
1026.7687
 21
660.9017
  0
LINE
  8
2_02
  6
CONTINUOUS
 62
4
 10
1053.4977
 20
690.9016
 11
1036.0397
 21
690.9016
  0
LINE
  8
2_02
  6
CONTINUOUS
 62
4
 10
1026.7687
 20
660.9017
 11
1026.7687
 21
688.7144
  0
LINE
  8
2_02
  6
CONTINUOUS
 62
4
 10
1062.7687
 20
660.9017
 11
1062.7687
 21
688.7144
  0
LINE
  8
2_02
  6
CONTINUOUS
 62
4
 10
1062.7687
 20
664.1016
 11
1026.7687
 21
664.1016
  0
LINE
  8
2_02
  6
DASHED
 62
2
 10
1040.2687
 20
660.9017
 11
1040.2687
 21
664.1016
  0
LINE
  8
2_02
  6
DASHED
 62
2
 10
1049.2687
 20
660.9017
 11
1049.2687
 21
664.1016
  0
LINE
  8
0_00
  6
DASHED
 62
6
 10
503.0518
 20
693.1576
 11
518.0518
 21
693.1576
  0
LINE
  8
0_00
  6
CONTINUOUS
 62
4
 10
114.8454
 20
693.1576
 11
503.0518
 21
693.1576
  0
LINE
  8
0_00
  6
DASHED
 62
6
 10
503.0518
 20
646.1576
 11
518.0518
 21
646.1576
  0
LINE
  8
0_00
  6
CONTINUOUS
 62
4
 10
483.0574
 20
646.1576
 11
503.0518
 21
646.1576
  0
LINE
  8
0_00
  6
CONTINUOUS
 62
6
 10
759.9643
 20
346.3843
 11
800.5643
 21
346.3843
  0
LINE
  8
0_00
  6
CONTINUOUS
 62
2
 10
120.8494
 20
516.7709
 11
168.2937
 21
516.7709
  0
LINE
  8
0_00
  6
CONTINUOUS
 62
2
 10
168.2937
 20
512.2710
 11
120.8494
 21
512.2710
  0
LINE
  8
0_00
  6
CONTINUOUS
 62
4
 10
154.5518
 20
646.1576
 11
154.5518
 21
516.7709
  0
LINE
  8
0_00
  6
CONTINUOUS
 62
4
 10
154.5518
 20
512.2710
 11
154.5518
 21
381.3843
  0
LINE
  8
0_00
  6
CONTINUOUS
 62
4
 10
134.5518
 20
646.1576
 11
134.5518
 21
516.7709
  0
LINE
  8
0_00
  6
CONTINUOUS
 62
4
 10
134.5518
 20
512.2710
 11
134.5518
 21
381.3843
  0
LINE
  8
0_00
  6
CONTINUOUS
 62
4
 10
865.2643
 20
713.9320
 11
865.2643
 21
794.0259
  0
LINE
  8
0_00
  6
CONTINUOUS
 62
4
 10
880.2643
 20
794.0259
 11
880.2643
 21
713.9320
  0
LINE
  8
0_00
  6
CONTINUOUS
 62
4
 10
880.2643
 20
680.8710
 11
880.2643
 21
172.0165
  0
LINE
  8
0_00
  6
CONTINUOUS
 62
2
 10
497.9442
 20
387.9248
 11
498.0518
 21
387.8173
  0
LINE
  8
0_00
  6
CONTINUOUS
 62
2
 10
496.5996
 20
385.0268
 11
498.0518
 21
383.5746
  0
LINE
  8
0_00
  6
CONTINUOUS
 62
2
 10
494.4900
 20
382.8938
 11
495.9995
 21
381.3843
  0
LINE
  8
0_00
  6
CONTINUOUS
 62
2
 10
491.6201
 20
381.5211
 11
491.7569
 21
381.3843
  0
LINE
  8
0_00
  6
CONTINUOUS
 62
4
 10
865.2643
 20
246.3843
 11
865.2643
 21
609.3950
  0
LINE
  8
0_00
  6
CONTINUOUS
 62
4
 10
865.2643
 20
638.3165
 11
865.2643
 21
680.8710
  0
LINE
  8
0_00
  6
CONTINUOUS
 62
6
 10
503.0518
 20
627.2608
 11
503.0518
 21
594.0000
  0
LINE
  8
0_00
  6
CONTINUOUS
 62
6
 10
503.0518
 20
600.0000
 11
498.0518
 21
600.0000
  0
LINE
  8
0_00
  6
CONTINUOUS
 62
6
 10
447.9987
 20
600.0000
 11
498.0518
 21
600.0000
  0
LINE
  8
0_00
  6
CONTINUOUS
 62
6
 10
498.0518
 20
600.0000
 11
490.7157
 21
601.5593
  0
LINE
  8
0_00
  6
CONTINUOUS
 62
6
 10
498.0518
 20
600.0000
 11
490.7157
 21
598.4407
  0
LINE
  8
0_00
  6
CONTINUOUS
 62
6
 10
521.0518
 20
600.0000
 11
503.0518
 21
600.0000
  0
LINE
  8
0_00
  6
CONTINUOUS
 62
3
 10
547.4110
 20
97.2001
 11
547.4110
 21
37.2000
  0
LINE
  8
0_00
  6
CONTINUOUS
 62
7
 10
54.6905
 20
112.2001
 11
1218.5110
 21
112.2001
  0
LINE
  8
0_00
  6
CONTINUOUS
 62
3
 10
1218.5110
 20
851.7001
 11
1218.5110
 21
865.2001
  0
LINE
  8
0_00
  6
CONTINUOUS
 62
7
 10
1218.5110
 20
37.2000
 11
1218.5110
 21
851.7001
  0
LINE
  8
0_00
  6
CONTINUOUS
 62
3
 10
54.6905
 20
851.7001
 11
54.6905
 21
865.2001
  0
LINE
  8
0_00
  6
CONTINUOUS
 62
7
 10
54.6905
 20
37.2000
 11
54.6905
 21
851.7001
  0
LINE
  8
0_00
  6
CONTINUOUS
 62
7
 10
54.6905
 20
851.7001
 11
1218.5110
 21
851.7001
  0
LINE
  8
0_00
  6
CONTINUOUS
 62
7
 10
54.6905
 20
37.2000
 11
1218.5110
 21
37.2000
  0
LINE
  8
0_00
  6
CONTINUOUS
 62
3
 10
39.6905
 20
22.2000
 11
39.6905
 21
865.2001
  0
LINE
  8
0_00
  6
CONTINUOUS
 62
3
 10
1233.5110
 20
22.2000
 11
1233.5110
 21
865.2001
  0
LINE
  8
0_00
  6
CONTINUOUS
 62
3
 10
39.6905
 20
865.2001
 11
1233.5110
 21
865.2001
  0
LINE
  8
0_00
  6
CONTINUOUS
 62
3
 10
1070.6111
 20
37.2000
 11
1070.6111
 21
112.2001
  0
LINE
  8
0_00
  6
CONTINUOUS
 62
3
 10
54.6905
 20
97.2001
 11
812.7610
 21
97.2001
  0
LINE
  8
0_00
  6
CONTINUOUS
 62
7
 10
812.7610
 20
97.2001
 11
1218.5110
 21
97.2001
  0
LINE
  8
0_00
  6
CONTINUOUS
 62
3
 10
1070.6111
 20
67.2000
 11
1218.5110
 21
67.2000
  0
LINE
  8
0_00
  6
CONTINUOUS
 62
3
 10
1100.6111
 20
112.2001
 11
1100.6111
 21
97.2001
  0
LINE
  8
0_00
  6
CONTINUOUS
 62
3
 10
812.7610
 20
37.2000
 11
812.7610
 21
97.2001
  0
LINE
  8
0_00
  6
CONTINUOUS
 62
7
 10
812.7610
 20
97.2001
 11
812.7610
 21
112.2001
  0
LINE
  8
0_00
  6
CONTINUOUS
 62
3
 10
836.7610
 20
97.2001
 11
836.7610
 21
112.2001
  0
LINE
  8
0_00
  6
CONTINUOUS
 62
3
 10
912.5110
 20
37.2000
 11
912.5110
 21
112.2001
  0
LINE
  8
0_00
  6
CONTINUOUS
 62
3
 10
1004.6111
 20
97.2001
 11
1004.6111
 21
112.2001
  0
LINE
  8
0_00
  6
CONTINUOUS
 62
3
 10
1032.2110
 20
37.2000
 11
1032.2110
 21
97.2001
  0
LINE
  8
0_00
  6
CONTINUOUS
 62
3
 10
995.9110
 20
37.2000
 11
995.9110
 21
97.2001
  0
LINE
  8
0_00
  6
CONTINUOUS
 62
3
 10
959.6110
 20
37.2000
 11
959.6110
 21
97.2001
  0
LINE
  8
0_00
  6
CONTINUOUS
 62
3
 10
468.6610
 20
37.2000
 11
468.6610
 21
112.2001
  0
LINE
  8
0_00
  6
CONTINUOUS
 62
3
 10
626.1610
 20
37.2000
 11
626.1610
 21
97.2001
  0
LINE
  8
0_00
  6
CONTINUOUS
 62
3
 10
54.6905
 20
82.2001
 11
468.6610
 21
82.2001
  0
LINE
  8
0_00
  6
CONTINUOUS
 62
3
 10
54.6905
 20
67.2000
 11
912.5110
 21
67.2000
  0
LINE
  8
0_00
  6
CONTINUOUS
 62
3
 10
174.6905
 20
52.2000
 11
468.6610
 21
52.2000
  0
LINE
  8
0_00
  6
CONTINUOUS
 62
7
 10
54.6905
 20
52.2000
 11
174.6905
 21
52.2000
  0
LINE
  8
0_00
  6
CONTINUOUS
 62
3
 10
818.0110
 20
851.7001
 11
818.0110
 21
865.2001
  0
LINE
  8
0_00
  6
CONTINUOUS
 62
3
 10
788.0110
 20
851.7001
 11
788.0110
 21
865.2001
  0
LINE
  8
0_00
  6
CONTINUOUS
 62
3
 10
204.6905
 20
851.7001
 11
204.6905
 21
865.2001
  0
LINE
  8
0_00
  6
CONTINUOUS
 62
3
 10
854.0110
 20
851.7001
 11
854.0110
 21
865.2001
  0
LINE
  8
0_00
  6
CONTINUOUS
 62
3
 10
915.5110
 20
851.7001
 11
915.5110
 21
865.2001
  0
LINE
  8
0_00
  6
CONTINUOUS
 62
3
 10
1146.5110
 20
851.7001
 11
1146.5110
 21
865.2001
  0
LINE
  8
0_00
  6
CONTINUOUS
 62
3
 10
114.6905
 20
112.2001
 11
114.6905
 21
37.2000
  0
LINE
  8
0_00
  6
CONTINUOUS
 62
7
 10
174.6905
 20
112.2001
 11
174.6905
 21
37.2000
  0
LINE
  8
0_00
  6
CONTINUOUS
 62
3
 10
869.7610
 20
67.2000
 11
869.7610
 21
97.2001
  0
LINE
  8
0_00
  6
CONTINUOUS
 62
3
 10
893.7610
 20
112.2001
 11
893.7610
 21
97.2001
  0
LINE
  8
0_00
  6
CONTINUOUS
 62
3
 10
912.5110
 20
82.2001
 11
1070.6111
 21
82.2001
  0
LINE
  8
0_00
  6
CONTINUOUS
 62
3
 10
1076.6111
 20
71.7000
 11
1078.5610
 21
71.7000
  0
LINE
  8
0_00
  6
CONTINUOUS
 62
3
 10
1078.5610
 20
71.7000
 11
1078.5610
 21
91.2000
  0
LINE
  8
0_00
  6
CONTINUOUS
 62
3
 10
1078.5610
 20
91.2000
 11
1076.6111
 21
91.2000
  0
LINE
  8
0_00
  6
CONTINUOUS
 62
3
 10
1076.6111
 20
71.7000
 11
1076.6111
 21
91.2000
  0
LINE
  8
0_00
  6
CONTINUOUS
 62
3
 10
1079.3410
 20
71.7000
 11
1081.2911
 21
71.7000
  0
LINE
  8
0_00
  6
CONTINUOUS
 62
3
 10
1081.2911
 20
71.7000
 11
1081.2911
 21
91.2000
  0
LINE
  8
0_00
  6
CONTINUOUS
 62
3
 10
1081.2911
 20
91.2000
 11
1079.3410
 21
91.2000
  0
LINE
  8
0_00
  6
CONTINUOUS
 62
3
 10
1079.3410
 20
71.7000
 11
1079.3410
 21
91.2000
  0
LINE
  8
0_00
  6
CONTINUOUS
 62
3
 10
1082.0711
 20
71.7000
 11
1084.0210
 21
71.7000
  0
LINE
  8
0_00
  6
CONTINUOUS
 62
3
 10
1084.0210
 20
71.7000
 11
1084.0210
 21
91.2000
  0
LINE
  8
0_00
  6
CONTINUOUS
 62
3
 10
1084.0210
 20
91.2000
 11
1082.0711
 21
91.2000
  0
LINE
  8
0_00
  6
CONTINUOUS
 62
3
 10
1082.0711
 20
71.7000
 11
1082.0711
 21
91.2000
  0
LINE
  8
0_00
  6
CONTINUOUS
 62
3
 10
1084.8010
 20
71.7000
 11
1086.7511
 21
71.7000
  0
LINE
  8
0_00
  6
CONTINUOUS
 62
3
 10
1086.7511
 20
91.2000
 11
1084.8010
 21
91.2000
  0
LINE
  8
0_00
  6
CONTINUOUS
 62
3
 10
1084.8010
 20
71.7000
 11
1084.8010
 21
91.2000
  0
LINE
  8
0_00
  6
CONTINUOUS
 62
3
 10
1092.4061
 20
71.7000
 11
1100.0110
 21
71.7000
  0
LINE
  8
0_00
  6
CONTINUOUS
 62
3
 10
1100.0110
 20
71.7000
 11
1100.0110
 21
73.4550
  0
LINE
  8
0_00
  6
CONTINUOUS
 62
3
 10
1100.0110
 20
73.4550
 11
1092.4061
 21
73.4550
  0
LINE
  8
0_00
  6
CONTINUOUS
 62
3
 10
1092.4061
 20
73.4550
 11
1092.4061
 21
71.7000
  0
LINE
  8
0_00
  6
CONTINUOUS
 62
3
 10
1092.4061
 20
74.2350
 11
1100.0110
 21
74.2350
  0
LINE
  8
0_00
  6
CONTINUOUS
 62
3
 10
1100.0110
 20
74.2350
 11
1100.0110
 21
75.9900
  0
LINE
  8
0_00
  6
CONTINUOUS
 62
3
 10
1100.0110
 20
75.9900
 11
1092.4061
 21
75.9900
  0
LINE
  8
0_00
  6
CONTINUOUS
 62
3
 10
1092.4061
 20
75.9900
 11
1092.4061
 21
74.2350
  0
LINE
  8
0_00
  6
CONTINUOUS
 62
3
 10
1092.4061
 20
76.7700
 11
1100.0110
 21
76.7700
  0
LINE
  8
0_00
  6
CONTINUOUS
 62
3
 10
1100.0110
 20
76.7700
 11
1100.0110
 21
78.5250
  0
LINE
  8
0_00
  6
CONTINUOUS
 62
3
 10
1100.0110
 20
78.5250
 11
1092.4061
 21
78.5250
  0
LINE
  8
0_00
  6
CONTINUOUS
 62
3
 10
1092.4061
 20
78.5250
 11
1092.4061
 21
76.7700
  0
LINE
  8
0_00
  6
CONTINUOUS
 62
3
 10
1092.4061
 20
79.3050
 11
1100.0110
 21
79.3050
  0
LINE
  8
0_00
  6
CONTINUOUS
 62
3
 10
1100.0110
 20
79.3050
 11
1100.0110
 21
81.0600
  0
LINE
  8
0_00
  6
CONTINUOUS
 62
3
 10
1100.0110
 20
81.0600
 11
1092.4061
 21
81.0600
  0
LINE
  8
0_00
  6
CONTINUOUS
 62
3
 10
1092.4061
 20
81.0600
 11
1092.4061
 21
79.3050
  0
LINE
  8
0_00
  6
CONTINUOUS
 62
3
 10
1092.4061
 20
81.8401
 11
1100.0110
 21
81.8401
  0
LINE
  8
0_00
  6
CONTINUOUS
 62
3
 10
1100.0110
 20
81.8401
 11
1100.0110
 21
83.5950
  0
LINE
  8
0_00
  6
CONTINUOUS
 62
3
 10
1100.0110
 20
83.5950
 11
1092.4061
 21
83.5950
  0
LINE
  8
0_00
  6
CONTINUOUS
 62
3
 10
1092.4061
 20
83.5950
 11
1092.4061
 21
81.8401
  0
LINE
  8
0_00
  6
CONTINUOUS
 62
3
 10
1092.4061
 20
84.3751
 11
1100.0110
 21
84.3751
  0
LINE
  8
0_00
  6
CONTINUOUS
 62
3
 10
1100.0110
 20
84.3751
 11
1100.0110
 21
86.1300
  0
LINE
  8
0_00
  6
CONTINUOUS
 62
3
 10
1100.0110
 20
86.1300
 11
1092.4061
 21
86.1300
  0
LINE
  8
0_00
  6
CONTINUOUS
 62
3
 10
1092.4061
 20
86.1300
 11
1092.4061
 21
84.3751
  0
LINE
  8
0_00
  6
CONTINUOUS
 62
3
 10
1092.4061
 20
86.9101
 11
1100.0110
 21
86.9101
  0
LINE
  8
0_00
  6
CONTINUOUS
 62
3
 10
1100.0110
 20
86.9101
 11
1100.0110
 21
88.6650
  0
LINE
  8
0_00
  6
CONTINUOUS
 62
3
 10
1100.0110
 20
88.6650
 11
1092.4061
 21
88.6650
  0
LINE
  8
0_00
  6
CONTINUOUS
 62
3
 10
1092.4061
 20
88.6650
 11
1092.4061
 21
86.9101
  0
LINE
  8
0_00
  6
CONTINUOUS
 62
3
 10
1092.4061
 20
89.4451
 11
1100.0110
 21
89.4451
  0
LINE
  8
0_00
  6
CONTINUOUS
 62
3
 10
1100.0110
 20
89.4451
 11
1100.0110
 21
91.2000
  0
LINE
  8
0_00
  6
CONTINUOUS
 62
3
 10
1100.0110
 20
91.2000
 11
1092.4061
 21
91.2000
  0
LINE
  8
0_00
  6
CONTINUOUS
 62
3
 10
1092.4061
 20
91.2000
 11
1092.4061
 21
89.4451
  0
LINE
  8
0_00
  6
CONTINUOUS
 62
3
 10
1087.5311
 20
71.7000
 11
1087.5311
 21
77.0626
  0
LINE
  8
0_00
  6
CONTINUOUS
 62
3
 10
1088.8375
 20
72.7725
 11
1088.8375
 21
77.0626
  0
LINE
  8
0_00
  6
CONTINUOUS
 62
3
 10
1087.5311
 20
71.7000
 11
1089.6760
 21
71.7000
  0
LINE
  8
0_00
  6
CONTINUOUS
 62
3
 10
1088.8375
 20
72.7725
 11
1089.6760
 21
72.7725
  0
LINE
  8
0_00
  6
CONTINUOUS
 62
3
 10
1089.6050
 20
79.8056
 11
1090.4561
 21
78.1351
  0
LINE
  8
0_00
  6
CONTINUOUS
 62
3
 10
1090.9410
 20
82.5453
 11
1089.6047
 21
79.8055
  0
LINE
  8
0_00
  6
CONTINUOUS
 62
3
 10
1086.7511
 20
85.3501
 11
1086.7511
 21
91.2000
  0
LINE
  8
0_00
  6
CONTINUOUS
 62
3
 10
1086.7511
 20
85.3501
 11
1089.1886
 21
85.3501
  0
LINE
  8
0_00
  6
CONTINUOUS
 62
3
 10
1086.7511
 20
84.1801
 11
1087.8333
 21
84.1801
  0
LINE
  8
0_00
  6
CONTINUOUS
 62
3
 10
1086.7511
 20
78.1351
 11
1090.4561
 21
78.1351
  0
LINE
  8
0_00
  6
CONTINUOUS
 62
3
 10
1086.7511
 20
81.9611
 11
1087.8334
 21
84.1801
  0
LINE
  8
0_00
  6
CONTINUOUS
 62
3
 10
1086.7511
 20
81.9613
 11
1086.7511
 21
84.1801
  0
LINE
  8
0_00
  6
CONTINUOUS
 62
3
 10
1086.7511
 20
78.1351
 11
1086.7511
 21
71.7000
  0
LINE
  8
0_00
  6
CONTINUOUS
 62
3
 10
1076.9110
 20
91.2000
 11
1076.9110
 21
71.7000
  0
LINE
  8
0_00
  6
CONTINUOUS
 62
3
 10
1077.2110
 20
91.2000
 11
1077.2110
 21
71.7000
  0
LINE
  8
0_00
  6
CONTINUOUS
 62
3
 10
1077.5110
 20
91.2000
 11
1077.5110
 21
71.7000
  0
LINE
  8
0_00
  6
CONTINUOUS
 62
3
 10
1077.8109
 20
91.2000
 11
1077.8109
 21
71.7000
  0
LINE
  8
0_00
  6
CONTINUOUS
 62
3
 10
1078.1111
 20
91.2000
 11
1078.1111
 21
71.7000
  0
LINE
  8
0_00
  6
CONTINUOUS
 62
3
 10
1079.6411
 20
91.2000
 11
1079.6411
 21
71.7000
  0
LINE
  8
0_00
  6
CONTINUOUS
 62
3
 10
1079.9410
 20
91.2000
 11
1079.9410
 21
71.7000
  0
LINE
  8
0_00
  6
CONTINUOUS
 62
3
 10
1080.2410
 20
91.2000
 11
1080.2410
 21
71.7000
  0
LINE
  8
0_00
  6
CONTINUOUS
 62
3
 10
1080.5410
 20
91.2000
 11
1080.5410
 21
71.7000
  0
LINE
  8
0_00
  6
CONTINUOUS
 62
3
 10
1080.8410
 20
91.2000
 11
1080.8410
 21
71.7000
  0
LINE
  8
0_00
  6
CONTINUOUS
 62
3
 10
1081.1411
 20
91.2000
 11
1081.1411
 21
71.7000
  0
LINE
  8
0_00
  6
CONTINUOUS
 62
3
 10
1082.3709
 20
91.2000
 11
1082.3709
 21
71.7000
  0
LINE
  8
0_00
  6
CONTINUOUS
 62
3
 10
1082.6711
 20
91.2000
 11
1082.6711
 21
71.7000
  0
LINE
  8
0_00
  6
CONTINUOUS
 62
3
 10
1082.9711
 20
91.2000
 11
1082.9711
 21
71.7000
  0
LINE
  8
0_00
  6
CONTINUOUS
 62
3
 10
1083.2710
 20
91.2000
 11
1083.2710
 21
71.7000
  0
LINE
  8
0_00
  6
CONTINUOUS
 62
3
 10
1083.5711
 20
91.2000
 11
1083.5711
 21
71.7000
  0
LINE
  8
0_00
  6
CONTINUOUS
 62
3
 10
1083.8709
 20
91.2000
 11
1083.8709
 21
71.7000
  0
LINE
  8
0_00
  6
CONTINUOUS
 62
3
 10
1092.4061
 20
72.0001
 11
1100.0110
 21
72.0001
  0
LINE
  8
0_00
  6
CONTINUOUS
 62
3
 10
1092.4061
 20
72.3001
 11
1100.0110
 21
72.3001
  0
LINE
  8
0_00
  6
CONTINUOUS
 62
3
 10
1092.4061
 20
72.6000
 11
1100.0110
 21
72.6000
  0
LINE
  8
0_00
  6
CONTINUOUS
 62
3
 10
1092.4061
 20
72.9000
 11
1100.0110
 21
72.9000
  0
LINE
  8
0_00
  6
CONTINUOUS
 62
3
 10
1092.4061
 20
73.2000
 11
1100.0110
 21
73.2000
  0
LINE
  8
0_00
  6
CONTINUOUS
 62
3
 10
1092.4061
 20
74.5351
 11
1100.0110
 21
74.5351
  0
LINE
  8
0_00
  6
CONTINUOUS
 62
3
 10
1092.4061
 20
74.8351
 11
1100.0110
 21
74.8351
  0
LINE
  8
0_00
  6
CONTINUOUS
 62
3
 10
1092.4061
 20
75.1350
 11
1100.0110
 21
75.1350
  0
LINE
  8
0_00
  6
CONTINUOUS
 62
3
 10
1092.4061
 20
75.4350
 11
1100.0110
 21
75.4350
  0
LINE
  8
0_00
  6
CONTINUOUS
 62
3
 10
1092.4061
 20
75.7350
 11
1100.0110
 21
75.7350
  0
LINE
  8
0_00
  6
CONTINUOUS
 62
3
 10
1092.4061
 20
77.0701
 11
1100.0110
 21
77.0701
  0
LINE
  8
0_00
  6
CONTINUOUS
 62
3
 10
1092.4061
 20
77.3701
 11
1100.0110
 21
77.3701
  0
LINE
  8
0_00
  6
CONTINUOUS
 62
3
 10
1092.4061
 20
77.6700
 11
1100.0110
 21
77.6700
  0
LINE
  8
0_00
  6
CONTINUOUS
 62
3
 10
1092.4061
 20
77.9700
 11
1100.0110
 21
77.9700
  0
LINE
  8
0_00
  6
CONTINUOUS
 62
3
 10
1092.4061
 20
78.2701
 11
1100.0110
 21
78.2701
  0
LINE
  8
0_00
  6
CONTINUOUS
 62
3
 10
1092.4061
 20
79.6051
 11
1100.0110
 21
79.6051
  0
LINE
  8
0_00
  6
CONTINUOUS
 62
3
 10
1092.4061
 20
79.9051
 11
1100.0110
 21
79.9051
  0
LINE
  8
0_00
  6
CONTINUOUS
 62
3
 10
1092.4061
 20
80.2050
 11
1100.0110
 21
80.2050
  0
LINE
  8
0_00
  6
CONTINUOUS
 62
3
 10
1092.4061
 20
80.5050
 11
1100.0110
 21
80.5050
  0
LINE
  8
0_00
  6
CONTINUOUS
 62
3
 10
1092.4061
 20
80.8051
 11
1100.0110
 21
80.8051
  0
LINE
  8
0_00
  6
CONTINUOUS
 62
3
 10
1092.4061
 20
82.1401
 11
1100.0110
 21
82.1401
  0
LINE
  8
0_00
  6
CONTINUOUS
 62
3
 10
1092.4061
 20
82.4401
 11
1100.0110
 21
82.4401
  0
LINE
  8
0_00
  6
CONTINUOUS
 62
3
 10
1092.4061
 20
82.7400
 11
1100.0110
 21
82.7400
  0
LINE
  8
0_00
  6
CONTINUOUS
 62
3
 10
1092.4061
 20
83.0400
 11
1100.0110
 21
83.0400
  0
LINE
  8
0_00
  6
CONTINUOUS
 62
3
 10
1092.4061
 20
83.3401
 11
1100.0110
 21
83.3401
  0
LINE
  8
0_00
  6
CONTINUOUS
 62
3
 10
1100.0110
 20
84.6751
 11
1092.4061
 21
84.6751
  0
LINE
  8
0_00
  6
CONTINUOUS
 62
3
 10
1100.0110
 20
84.9751
 11
1092.4061
 21
84.9751
  0
LINE
  8
0_00
  6
CONTINUOUS
 62
3
 10
1100.0110
 20
85.2750
 11
1092.4061
 21
85.2750
  0
LINE
  8
0_00
  6
CONTINUOUS
 62
3
 10
1100.0110
 20
85.5750
 11
1092.4061
 21
85.5750
  0
LINE
  8
0_00
  6
CONTINUOUS
 62
3
 10
1100.0110
 20
85.8751
 11
1092.4061
 21
85.8751
  0
LINE
  8
0_00
  6
CONTINUOUS
 62
3
 10
1092.4061
 20
87.2101
 11
1100.0110
 21
87.2101
  0
LINE
  8
0_00
  6
CONTINUOUS
 62
3
 10
1092.4061
 20
87.5101
 11
1100.0110
 21
87.5101
  0
LINE
  8
0_00
  6
CONTINUOUS
 62
3
 10
1092.4061
 20
87.8100
 11
1100.0110
 21
87.8100
  0
LINE
  8
0_00
  6
CONTINUOUS
 62
3
 10
1092.4061
 20
88.1100
 11
1100.0110
 21
88.1100
  0
LINE
  8
0_00
  6
CONTINUOUS
 62
3
 10
1092.4061
 20
88.4101
 11
1100.0110
 21
88.4101
  0
LINE
  8
0_00
  6
CONTINUOUS
 62
3
 10
1092.4061
 20
89.7451
 11
1100.0110
 21
89.7451
  0
LINE
  8
0_00
  6
CONTINUOUS
 62
3
 10
1092.4061
 20
90.0451
 11
1100.0110
 21
90.0451
  0
LINE
  8
0_00
  6
CONTINUOUS
 62
3
 10
1092.4061
 20
90.3450
 11
1100.0110
 21
90.3450
  0
LINE
  8
0_00
  6
CONTINUOUS
 62
3
 10
1092.4061
 20
90.6450
 11
1100.0110
 21
90.6450
  0
LINE
  8
0_00
  6
CONTINUOUS
 62
3
 10
1092.4061
 20
90.9451
 11
1100.0110
 21
90.9451
  0
LINE
  8
0_00
  6
CONTINUOUS
 62
3
 10
1085.1010
 20
91.2000
 11
1085.1010
 21
71.7000
  0
LINE
  8
0_00
  6
CONTINUOUS
 62
3
 10
1085.4011
 20
91.2000
 11
1085.4011
 21
71.7000
  0
LINE
  8
0_00
  6
CONTINUOUS
 62
3
 10
1085.7009
 20
91.2000
 11
1085.7009
 21
71.7000
  0
LINE
  8
0_00
  6
CONTINUOUS
 62
3
 10
1086.0008
 20
91.2000
 11
1086.0008
 21
71.7000
  0
LINE
  8
0_00
  6
CONTINUOUS
 62
3
 10
1086.3010
 20
91.2000
 11
1086.3010
 21
71.7000
  0
LINE
  8
0_00
  6
CONTINUOUS
 62
3
 10
1086.6010
 20
91.2000
 11
1086.6010
 21
71.7000
  0
LINE
  8
0_00
  6
CONTINUOUS
 62
3
 10
1087.8311
 20
71.7000
 11
1087.8311
 21
77.0626
  0
LINE
  8
0_00
  6
CONTINUOUS
 62
3
 10
1088.1312
 20
71.7000
 11
1088.1312
 21
77.0626
  0
LINE
  8
0_00
  6
CONTINUOUS
 62
3
 10
1088.4310
 20
71.7000
 11
1088.4310
 21
77.0626
  0
LINE
  8
0_00
  6
CONTINUOUS
 62
3
 10
1088.7309
 20
71.7000
 11
1088.7309
 21
77.0626
  0
LINE
  8
0_00
  6
CONTINUOUS
 62
3
 10
1088.8375
 20
72.4725
 11
1089.6760
 21
72.4725
  0
LINE
  8
0_00
  6
CONTINUOUS
 62
3
 10
1088.8375
 20
72.1725
 11
1089.6760
 21
72.1725
  0
LINE
  8
0_00
  6
CONTINUOUS
 62
3
 10
1088.8375
 20
71.8725
 11
1089.6760
 21
71.8725
  0
LINE
  8
0_00
  6
CONTINUOUS
 62
3
 10
1090.2825
 20
78.4758
 11
1086.7853
 21
78.4758
  0
LINE
  8
0_00
  6
CONTINUOUS
 62
3
 10
1090.1032
 20
78.8278
 11
1086.7853
 21
78.8278
  0
LINE
  8
0_00
  6
CONTINUOUS
 62
3
 10
1089.8939
 20
79.2384
 11
1086.7779
 21
79.2384
  0
LINE
  8
0_00
  6
CONTINUOUS
 62
3
 10
1089.7204
 20
79.5787
 11
1086.7744
 21
79.5787
  0
LINE
  8
0_00
  6
CONTINUOUS
 62
3
 10
1091.0859
 20
83.5262
 11
1089.1502
 21
79.5579
  0
LINE
  8
0_00
  6
CONTINUOUS
 62
3
 10
1090.9896
 20
84.0133
 11
1088.8107
 21
79.5458
  0
LINE
  8
0_00
  6
CONTINUOUS
 62
3
 10
1090.8083
 20
84.3258
 11
1088.4914
 21
79.5758
  0
LINE
  8
0_00
  6
CONTINUOUS
 62
3
 10
1090.6029
 20
84.5893
 11
1088.1454
 21
79.5508
  0
LINE
  8
0_00
  6
CONTINUOUS
 62
3
 10
1090.4008
 20
84.8596
 11
1087.8790
 21
79.6887
  0
LINE
  8
0_00
  6
CONTINUOUS
 62
3
 10
1090.1371
 20
85.0026
 11
1087.4908
 21
79.5774
  0
LINE
  8
0_00
  6
CONTINUOUS
 62
3
 10
1089.8761
 20
85.1521
 11
1087.1534
 21
79.5697
  0
LINE
  8
0_00
  6
CONTINUOUS
 62
3
 10
1089.5665
 20
85.2017
 11
1086.8386
 21
79.6087
  0
LINE
  8
0_00
  6
CONTINUOUS
 62
3
 10
1089.2498
 20
85.2367
 11
1086.7053
 21
80.0197
  0
LINE
  8
0_00
  6
CONTINUOUS
 62
3
 10
1088.9374
 20
85.2802
 11
1086.7329
 21
80.7607
  0
LINE
  8
0_00
  6
CONTINUOUS
 62
3
 10
1088.5957
 20
85.2643
 11
1086.6388
 21
81.2521
  0
LINE
  8
0_00
  6
CONTINUOUS
 62
3
 10
1087.9926
 20
84.4801
 11
1086.7511
 21
84.4801
  0
LINE
  8
0_00
  6
CONTINUOUS
 62
3
 10
1088.2355
 20
84.7801
 11
1086.7511
 21
84.7801
  0
LINE
  8
0_00
  6
CONTINUOUS
 62
3
 10
1088.3496
 20
85.0800
 11
1086.7511
 21
85.0800
  0
LINE
  8
0_00
  6
CONTINUOUS
 62
3
 10
796.2610
 20
852.4893
 11
809.7610
 21
852.4893
  0
LINE
  8
0_00
  6
CONTINUOUS
 62
3
 10
797.1685
 20
854.0609
 11
796.2610
 21
852.4893
  0
LINE
  8
0_00
  6
CONTINUOUS
 62
3
 10
800.8929
 20
860.5119
 11
803.0110
 21
864.1806
  0
LINE
  8
0_00
  6
CONTINUOUS
 62
3
 10
808.8538
 20
854.0609
 11
809.7610
 21
852.4893
  0
LINE
  8
0_00
  6
CONTINUOUS
 62
3
 10
805.1292
 20
860.5119
 11
803.0110
 21
864.1806
  0
LINE
  8
0_00
  6
CONTINUOUS
 62
3
 10
1218.5110
 20
154.2001
 11
1221.5110
 21
154.2001
  0
LINE
  8
0_00
  6
CONTINUOUS
 62
3
 10
1218.5110
 20
175.2001
 11
1221.5110
 21
175.2001
  0
LINE
  8
0_00
  6
CONTINUOUS
 62
3
 10
1218.5110
 20
196.2001
 11
1221.5110
 21
196.2001
  0
LINE
  8
0_00
  6
CONTINUOUS
 62
3
 10
1218.5110
 20
217.2001
 11
1221.5110
 21
217.2001
  0
LINE
  8
0_00
  6
CONTINUOUS
 62
3
 10
1218.5110
 20
238.2001
 11
1221.5110
 21
238.2001
  0
LINE
  8
0_00
  6
CONTINUOUS
 62
3
 10
1218.5110
 20
259.2001
 11
1221.5110
 21
259.2001
  0
LINE
  8
0_00
  6
CONTINUOUS
 62
3
 10
1218.5110
 20
280.2001
 11
1221.5110
 21
280.2001
  0
LINE
  8
0_00
  6
CONTINUOUS
 62
3
 10
1218.5110
 20
301.2001
 11
1221.5110
 21
301.2001
  0
LINE
  8
0_00
  6
CONTINUOUS
 62
3
 10
1218.5110
 20
322.2001
 11
1221.5110
 21
322.2001
  0
LINE
  8
0_00
  6
CONTINUOUS
 62
3
 10
1218.5110
 20
343.2001
 11
1221.5110
 21
343.2001
  0
LINE
  8
0_00
  6
CONTINUOUS
 62
3
 10
1218.5110
 20
364.2001
 11
1221.5110
 21
364.2001
  0
LINE
  8
0_00
  6
CONTINUOUS
 62
3
 10
1218.5110
 20
385.2001
 11
1221.5110
 21
385.2001
  0
LINE
  8
0_00
  6
CONTINUOUS
 62
3
 10
1218.5110
 20
406.2001
 11
1221.5110
 21
406.2001
  0
LINE
  8
0_00
  6
CONTINUOUS
 62
3
 10
1218.5110
 20
427.2001
 11
1221.5110
 21
427.2001
  0
LINE
  8
0_00
  6
CONTINUOUS
 62
3
 10
1218.5110
 20
448.2001
 11
1221.5110
 21
448.2001
  0
LINE
  8
0_00
  6
CONTINUOUS
 62
3
 10
1218.5110
 20
469.2001
 11
1221.5110
 21
469.2001
  0
LINE
  8
0_00
  6
CONTINUOUS
 62
3
 10
1218.5110
 20
490.2001
 11
1221.5110
 21
490.2001
  0
LINE
  8
0_00
  6
CONTINUOUS
 62
3
 10
1218.5110
 20
833.7001
 11
1221.5110
 21
833.7001
  0
LINE
  8
0_00
  6
CONTINUOUS
 62
3
 10
1218.5110
 20
815.7001
 11
1221.5110
 21
815.7001
  0
LINE
  8
0_00
  6
CONTINUOUS
 62
3
 10
1218.5110
 20
797.7001
 11
1221.5110
 21
797.7001
  0
LINE
  8
0_00
  6
CONTINUOUS
 62
3
 10
1218.5110
 20
779.7001
 11
1221.5110
 21
779.7001
  0
LINE
  8
0_00
  6
CONTINUOUS
 62
3
 10
1218.5110
 20
761.7001
 11
1221.5110
 21
761.7001
  0
LINE
  8
0_00
  6
CONTINUOUS
 62
3
 10
1218.5110
 20
743.7001
 11
1221.5110
 21
743.7001
  0
LINE
  8
0_00
  6
CONTINUOUS
 62
3
 10
1218.5110
 20
511.2001
 11
1221.5110
 21
511.2001
  0
LINE
  8
0_00
  6
CONTINUOUS
 62
3
 10
1218.5110
 20
532.2001
 11
1221.5110
 21
532.2001
  0
LINE
  8
0_00
  6
CONTINUOUS
 62
3
 10
1218.5110
 20
553.2001
 11
1221.5110
 21
553.2001
  0
LINE
  8
0_00
  6
CONTINUOUS
 62
3
 10
1218.5110
 20
574.2001
 11
1221.5110
 21
574.2001
  0
LINE
  8
0_00
  6
CONTINUOUS
 62
3
 10
1218.5110
 20
595.2001
 11
1221.5110
 21
595.2001
  0
LINE
  8
0_00
  6
CONTINUOUS
 62
3
 10
1218.5110
 20
616.2001
 11
1221.5110
 21
616.2001
  0
LINE
  8
0_00
  6
CONTINUOUS
 62
3
 10
1218.5110
 20
637.2000
 11
1221.5110
 21
637.2000
  0
LINE
  8
0_00
  6
CONTINUOUS
 62
3
 10
1218.5110
 20
658.2000
 11
1221.5110
 21
658.2000
  0
LINE
  8
0_00
  6
CONTINUOUS
 62
3
 10
1218.5110
 20
679.2000
 11
1221.5110
 21
679.2000
  0
LINE
  8
0_00
  6
CONTINUOUS
 62
3
 10
1218.5110
 20
700.2001
 11
1221.5110
 21
700.2001
  0
LINE
  8
0_00
  6
CONTINUOUS
 62
3
 10
1218.5110
 20
721.2001
 11
1221.5110
 21
721.2001
  0
LINE
  8
0_00
  6
CENTER1
 62
3
 10
881.0410
 20
73.2001
 11
881.0410
 21
91.2001
  0
LINE
  8
0_00
  6
CONTINUOUS
 62
4
 10
891.5411
 20
78.4501
 11
891.5411
 21
85.9501
  0
LINE
  8
0_00
  6
CONTINUOUS
 62
4
 10
905.0410
 20
76.2001
 11
905.0410
 21
88.2001
  0
LINE
  8
0_00
  6
CONTINUOUS
 62
4
 10
891.5411
 20
85.9501
 11
905.0410
 21
88.2001
  0
LINE
  8
0_00
  6
CONTINUOUS
 62
4
 10
891.5411
 20
78.4501
 11
905.0410
 21
76.2001
  0
LINE
  8
0_00
  6
CENTER1
 62
3
 10
872.0411
 20
82.2001
 11
907.3555
 21
82.2001
  0
LINE
  8
0_00
  6
CONTINUOUS
 62
3
 10
1191.5110
 20
37.2000
 11
1191.5110
 21
67.2000
  0
LINE
  8
0_00
  6
CONTINUOUS
 62
3
 10
39.6905
 20
22.2000
 11
1233.5110
 21
22.2000
  0
LINE
  8
0_00
  6
CONTINUOUS
 62
3
 10
1182.5110
 20
865.2001
 11
1182.5110
 21
851.7001
  0
LINE
  8
0_00
  6
CONTINUOUS
 62
3
 10
0.0000
 20
443.7000
 11
39.6905
 21
443.7000
  0
LINE
  8
0_00
  6
CONTINUOUS
 62
3
 10
626.1610
 20
22.2000
 11
626.1610
 21
0.0000
  0
LINE
  8
0_00
  6
CONTINUOUS
 62
3
 10
626.1610
 20
865.2001
 11
626.1610
 21
891.0000
  0
LINE
  8
0_00
  6
CONTINUOUS
 62
3
 10
1233.5110
 20
443.7000
 11
1260.0000
 21
443.7000
  0
LINE
  8
0_00
  6
CONTINUOUS
 62
2
 10
805.7069
 20
698.6002
 11
799.3580
 21
692.2514
  0
LINE
  8
0_00
  6
CONTINUOUS
 62
2
 10
796.7151
 20
699.5080
 11
790.1235
 21
692.9164
  0
LINE
  8
0_00
  6
CONTINUOUS
 62
2
 10
750.2644
 20
653.0572
 11
743.3648
 21
646.1576
  0
LINE
  8
0_00
  6
CONTINUOUS
 62
2
 10
787.3451
 20
700.0374
 11
780.4652
 21
693.1575
  0
LINE
  8
0_00
  6
CONTINUOUS
 62
2
 10
750.2644
 20
662.9567
 11
743.2644
 21
655.9567
  0
LINE
  8
0_00
  6
CONTINUOUS
 62
2
 10
777.5481
 20
700.1400
 11
770.3204
 21
692.9122
  0
LINE
  8
0_00
  6
CONTINUOUS
 62
2
 10
750.2643
 20
672.8562
 11
743.2644
 21
665.8561
  0
LINE
  8
0_00
  6
CONTINUOUS
 62
2
 10
767.2607
 20
699.7519
 11
759.6050
 21
692.0963
  0
LINE
  8
0_00
  6
CONTINUOUS
 62
2
 10
750.2643
 20
682.7556
 11
743.2643
 21
675.7556
  0
LINE
  8
0_00
  6
CONTINUOUS
 62
2
 10
756.3969
 20
698.7877
 11
743.2643
 21
685.6551
  0
LINE
  8
0_00
  6
CONTINUOUS
 62
2
 10
812.6335
 20
695.6273
 11
807.6436
 21
690.6375
  0
LINE
  8
0_00
  6
CONTINUOUS
 62
2
 10
816.6217
 20
689.7160
 11
810.2642
 21
683.3587
  0
LINE
  8
0_00
  6
CONTINUOUS
 62
2
 10
817.2643
 20
680.4591
 11
810.2642
 21
673.4591
  0
LINE
  8
0_00
  6
CONTINUOUS
 62
2
 10
817.2643
 20
670.5596
 11
810.2642
 21
663.5596
  0
LINE
  8
0_00
  6
CONTINUOUS
 62
2
 10
817.2643
 20
660.6601
 11
810.2642
 21
653.6600
  0
LINE
  8
0_00
  6
CONTINUOUS
 62
2
 10
817.2643
 20
650.7606
 11
812.6613
 21
646.1576
  0
LINE
  8
0_00
  6
CONTINUOUS
 62
6
 10
503.5699
 20
246.3843
 11
721.2549
 21
246.3843
  0
LINE
  8
0_00
  6
CONTINUOUS
 62
6
 10
508.5518
 20
693.1576
 11
646.0000
 21
693.1576
  0
LINE
  8
0_00
  6
CONTINUOUS
 62
6
 10
640.0000
 20
246.3843
 11
640.0000
 21
693.1576
  0
LINE
  8
0_00
  6
CONTINUOUS
 62
6
 10
640.0000
 20
246.3843
 11
641.5593
 21
253.7204
  0
LINE
  8
0_00
  6
CONTINUOUS
 62
6
 10
640.0000
 20
246.3843
 11
638.4407
 21
253.7204
  0
LINE
  8
0_00
  6
CONTINUOUS
 62
6
 10
640.0000
 20
693.1576
 11
638.4407
 21
685.8215
  0
LINE
  8
0_00
  6
CONTINUOUS
 62
6
 10
640.0000
 20
693.1576
 11
641.5593
 21
685.8215
  0
LINE
  8
0_00
  6
CONTINUOUS
 62
6
 10
523.0795
 20
346.3843
 11
626.0000
 21
346.3843
  0
LINE
  8
0_00
  6
CONTINUOUS
 62
6
 10
523.5518
 20
246.3843
 11
626.0000
 21
246.3843
  0
LINE
  8
0_00
  6
CONTINUOUS
 62
6
 10
620.0000
 20
246.3843
 11
620.0000
 21
346.3843
  0
LINE
  8
0_00
  6
CONTINUOUS
 62
6
 10
620.0000
 20
246.3843
 11
621.5593
 21
253.7204
  0
LINE
  8
0_00
  6
CONTINUOUS
 62
6
 10
620.0000
 20
246.3843
 11
618.4407
 21
253.7204
  0
LINE
  8
0_00
  6
CONTINUOUS
 62
6
 10
620.0000
 20
346.3843
 11
618.4407
 21
339.0481
  0
LINE
  8
0_00
  6
CONTINUOUS
 62
6
 10
620.0000
 20
346.3843
 11
621.5593
 21
339.0481
  0
LINE
  8
0_00
  6
CONTINUOUS
 62
6
 10
620.0000
 20
346.3843
 11
620.0000
 21
693.1576
  0
LINE
  8
0_00
  6
CONTINUOUS
 62
6
 10
620.0000
 20
346.3843
 11
621.5593
 21
353.7204
  0
LINE
  8
0_00
  6
CONTINUOUS
 62
6
 10
620.0000
 20
346.3843
 11
618.4407
 21
353.7204
  0
LINE
  8
0_00
  6
CONTINUOUS
 62
6
 10
620.0000
 20
693.1576
 11
618.4407
 21
685.8215
  0
LINE
  8
0_00
  6
CONTINUOUS
 62
6
 10
620.0000
 20
693.1576
 11
621.5593
 21
685.8215
  0
LINE
  8
0_00
  6
CONTINUOUS
 62
6
 10
735.9638
 20
646.1576
 11
654.0000
 21
646.1576
  0
LINE
  8
0_00
  6
CONTINUOUS
 62
6
 10
735.2077
 20
693.1576
 11
654.0000
 21
693.1576
  0
LINE
  8
0_00
  6
CONTINUOUS
 62
6
 10
660.0000
 20
693.1576
 11
660.0000
 21
646.1576
  0
LINE
  8
0_00
  6
CONTINUOUS
 62
6
 10
660.0000
 20
693.1576
 11
658.4407
 21
685.8215
  0
LINE
  8
0_00
  6
CONTINUOUS
 62
6
 10
660.0000
 20
693.1576
 11
661.5593
 21
685.8215
  0
LINE
  8
0_00
  6
CONTINUOUS
 62
6
 10
660.0000
 20
646.1576
 11
661.5593
 21
653.4938
  0
LINE
  8
0_00
  6
CONTINUOUS
 62
6
 10
660.0000
 20
646.1576
 11
658.4407
 21
653.4938
  0
LINE
  8
0_00
  6
CONTINUOUS
 62
6
 10
523.5518
 20
693.1576
 11
606.0000
 21
693.1576
  0
LINE
  8
0_00
  6
CONTINUOUS
 62
6
 10
600.0000
 20
693.1576
 11
600.0000
 21
669.6576
  0
LINE
  8
0_00
  6
CONTINUOUS
 62
6
 10
600.0000
 20
732.7674
 11
600.0000
 21
693.1576
  0
LINE
  8
0_00
  6
CONTINUOUS
 62
6
 10
600.0000
 20
693.1576
 11
601.5593
 21
700.4937
  0
LINE
  8
0_00
  6
CONTINUOUS
 62
6
 10
600.0000
 20
693.1576
 11
598.4407
 21
700.4937
  0
LINE
  8
0_00
  6
CONTINUOUS
 62
6
 10
600.0000
 20
655.1576
 11
600.0000
 21
669.6576
  0
LINE
  8
0_00
  6
CONTINUOUS
 62
6
 10
600.0000
 20
669.6576
 11
598.4407
 21
662.3215
  0
LINE
  8
0_00
  6
CONTINUOUS
 62
6
 10
600.0000
 20
669.6576
 11
601.5593
 21
662.3215
  0
LINE
  8
0_00
  6
CONTINUOUS
 62
6
 10
595.6599
 20
669.6576
 11
635.1985
 21
669.6576
  0
LINE
  8
0_00
  6
CONTINUOUS
 62
6
 10
669.1033
 20
669.6576
 11
755.1211
 21
669.6576
  0
LINE
  8
0_00
  6
CONTINUOUS
 62
6
 10
493.5518
 20
708.1576
 11
493.5518
 21
746.0000
  0
LINE
  8
0_00
  6
CONTINUOUS
 62
6
 10
493.5518
 20
740.0000
 11
498.5518
 21
740.0000
  0
LINE
  8
0_00
  6
CONTINUOUS
 62
6
 10
525.7518
 20
740.0000
 11
498.5518
 21
740.0000
  0
LINE
  8
0_00
  6
CONTINUOUS
 62
6
 10
498.5518
 20
740.0000
 11
505.8879
 21
738.4407
  0
LINE
  8
0_00
  6
CONTINUOUS
 62
6
 10
498.5518
 20
740.0000
 11
505.8879
 21
741.5593
  0
LINE
  8
0_00
  6
CONTINUOUS
 62
6
 10
475.5518
 20
740.0000
 11
493.5518
 21
740.0000
  0
LINE
  8
0_00
  6
CONTINUOUS
 62
6
 10
493.5518
 20
740.0000
 11
486.2157
 21
741.5593
  0
LINE
  8
0_00
  6
CONTINUOUS
 62
6
 10
493.5518
 20
740.0000
 11
486.2157
 21
738.4407
  0
LINE
  8
0_00
  6
CONTINUOUS
 62
6
 10
973.6948
 20
466.4179
 11
973.6948
 21
486.0000
  0
LINE
  8
0_00
  6
CONTINUOUS
 62
6
 10
986.3949
 20
466.4179
 11
986.3949
 21
486.0000
  0
LINE
  8
0_00
  6
CONTINUOUS
 62
6
 10
973.6948
 20
480.0000
 11
986.3949
 21
480.0000
  0
LINE
  8
0_00
  6
CONTINUOUS
 62
6
 10
937.0949
 20
480.0000
 11
973.6948
 21
480.0000
  0
LINE
  8
0_00
  6
CONTINUOUS
 62
6
 10
973.6948
 20
480.0000
 11
966.3588
 21
481.5593
  0
LINE
  8
0_00
  6
CONTINUOUS
 62
6
 10
973.6948
 20
480.0000
 11
966.3588
 21
478.4407
  0
LINE
  8
0_00
  6
CONTINUOUS
 62
6
 10
1004.3949
 20
480.0000
 11
986.3949
 21
480.0000
  0
LINE
  8
0_00
  6
CONTINUOUS
 62
6
 10
986.3949
 20
480.0000
 11
993.7310
 21
478.4407
  0
LINE
  8
0_00
  6
CONTINUOUS
 62
6
 10
986.3949
 20
480.0000
 11
993.7310
 21
481.5593
  0
LINE
  8
0_00
  6
CONTINUOUS
 62
6
 10
750.2643
 20
708.1576
 11
750.2643
 21
745.0000
  0
LINE
  8
0_00
  6
CONTINUOUS
 62
6
 10
750.2643
 20
739.0000
 11
810.2642
 21
739.0000
  0
LINE
  8
0_00
  6
CONTINUOUS
 62
6
 10
750.2643
 20
739.0000
 11
757.6004
 21
737.4407
  0
LINE
  8
0_00
  6
CONTINUOUS
 62
6
 10
750.2643
 20
739.0000
 11
757.6004
 21
740.5594
  0
LINE
  8
0_00
  6
CONTINUOUS
 62
6
 10
810.2642
 20
739.0000
 11
802.9281
 21
740.5594
  0
LINE
  8
0_00
  6
CONTINUOUS
 62
6
 10
810.2642
 20
739.0000
 11
802.9281
 21
737.4407
  0
LINE
  8
0_00
  6
CONTINUOUS
 62
6
 10
810.2642
 20
708.1576
 11
810.2642
 21
733.8512
  0
LINE
  8
0_00
  6
CONTINUOUS
 62
6
 10
810.2642
 20
734.7546
 11
810.2642
 21
745.0000
  0
LINE
  8
0_00
  6
CONTINUOUS
 62
6
 10
1150.6948
 20
451.4179
 11
1201.0000
 21
451.4179
  0
LINE
  8
0_00
  6
CONTINUOUS
 62
6
 10
1150.6948
 20
363.4179
 11
1201.0000
 21
363.4179
  0
LINE
  8
0_00
  6
CONTINUOUS
 62
6
 10
1194.9999
 20
451.4179
 11
1194.9999
 21
363.4179
  0
LINE
  8
0_00
  6
CONTINUOUS
 62
6
 10
1194.9999
 20
451.4179
 11
1193.4406
 21
444.0818
  0
LINE
  8
0_00
  6
CONTINUOUS
 62
6
 10
1194.9999
 20
451.4179
 11
1196.5593
 21
444.0818
  0
LINE
  8
0_00
  6
CONTINUOUS
 62
6
 10
1194.9999
 20
363.4179
 11
1196.5593
 21
370.7540
  0
LINE
  8
0_00
  6
CONTINUOUS
 62
6
 10
1194.9999
 20
363.4179
 11
1193.4406
 21
370.7540
  0
LINE
  8
0_00
  6
CONTINUOUS
 62
6
 10
1150.6948
 20
371.4179
 11
1181.0000
 21
371.4179
  0
LINE
  8
0_00
  6
CONTINUOUS
 62
6
 10
1165.6948
 20
363.4179
 11
1181.0000
 21
363.4179
  0
LINE
  8
0_00
  6
CONTINUOUS
 62
6
 10
1175.0001
 20
363.4179
 11
1175.0001
 21
371.4179
  0
LINE
  8
0_00
  6
CONTINUOUS
 62
6
 10
1175.0001
 20
341.2179
 11
1175.0001
 21
363.4179
  0
LINE
  8
0_00
  6
CONTINUOUS
 62
6
 10
1175.0001
 20
363.4179
 11
1173.4406
 21
356.0818
  0
LINE
  8
0_00
  6
CONTINUOUS
 62
6
 10
1175.0001
 20
363.4179
 11
1176.5594
 21
356.0818
  0
LINE
  8
0_00
  6
CONTINUOUS
 62
6
 10
1150.6948
 20
451.4179
 11
1181.0000
 21
451.4179
  0
LINE
  8
0_00
  6
CONTINUOUS
 62
6
 10
1175.0001
 20
371.4179
 11
1175.0001
 21
451.4179
  0
LINE
  8
0_00
  6
CONTINUOUS
 62
6
 10
1175.0001
 20
371.4179
 11
1176.5594
 21
378.7540
  0
LINE
  8
0_00
  6
CONTINUOUS
 62
6
 10
1175.0001
 20
371.4179
 11
1173.4406
 21
378.7540
  0
LINE
  8
0_00
  6
CONTINUOUS
 62
6
 10
1175.0001
 20
451.4179
 11
1173.4406
 21
444.0818
  0
LINE
  8
0_00
  6
CONTINUOUS
 62
6
 10
1175.0001
 20
451.4179
 11
1176.5594
 21
444.0818
  0
LINE
  8
0_00
  6
CONTINUOUS
 62
4
 10
1095.5710
 20
297.4376
 11
1169.3711
 21
297.4376
  0
LINE
  8
0_00
  6
CONTINUOUS
 62
6
 10
291.9723
 20
502.0210
 11
324.0000
 21
502.0210
  0
LINE
  8
0_00
  6
CONTINUOUS
 62
6
 10
291.9723
 20
527.0209
 11
324.0000
 21
527.0209
  0
LINE
  8
0_00
  6
CONTINUOUS
 62
6
 10
318.0000
 20
527.0209
 11
318.0000
 21
502.0210
  0
LINE
  8
0_00
  6
CONTINUOUS
 62
6
 10
318.0000
 20
556.4209
 11
318.0000
 21
527.0209
  0
LINE
  8
0_00
  6
CONTINUOUS
 62
6
 10
318.0000
 20
527.0209
 11
319.5593
 21
534.3571
  0
LINE
  8
0_00
  6
CONTINUOUS
 62
6
 10
318.0000
 20
527.0209
 11
316.4407
 21
534.3571
  0
LINE
  8
0_00
  6
CONTINUOUS
 62
6
 10
318.0000
 20
484.0210
 11
318.0000
 21
502.0210
  0
LINE
  8
0_00
  6
CONTINUOUS
 62
6
 10
318.0000
 20
502.0210
 11
316.4407
 21
494.6848
  0
LINE
  8
0_00
  6
CONTINUOUS
 62
6
 10
318.0000
 20
502.0210
 11
319.5593
 21
494.6848
  0
LINE
  8
0_00
  6
CONTINUOUS
 62
6
 10
261.5518
 20
580.0000
 11
281.5518
 21
580.0000
  0
LINE
  8
0_00
  6
CONTINUOUS
 62
6
 10
232.1518
 20
580.0000
 11
261.5518
 21
580.0000
  0
LINE
  8
0_00
  6
CONTINUOUS
 62
6
 10
261.5518
 20
580.0000
 11
254.2157
 21
581.5594
  0
LINE
  8
0_00
  6
CONTINUOUS
 62
6
 10
261.5518
 20
580.0000
 11
254.2157
 21
578.4407
  0
LINE
  8
0_00
  6
CONTINUOUS
 62
6
 10
299.5518
 20
580.0000
 11
281.5518
 21
580.0000
  0
LINE
  8
0_00
  6
CONTINUOUS
 62
6
 10
281.5518
 20
580.0000
 11
288.8879
 21
578.4407
  0
LINE
  8
0_00
  6
CONTINUOUS
 62
6
 10
281.5518
 20
580.0000
 11
288.8879
 21
581.5594
  0
LINE
  8
0_00
  6
CONTINUOUS
 62
6
 10
744.2643
 20
346.3843
 11
654.0000
 21
346.3843
  0
LINE
  8
0_00
  6
CONTINUOUS
 62
6
 10
744.7643
 20
381.3843
 11
654.0000
 21
381.3843
  0
LINE
  8
0_00
  6
CONTINUOUS
 62
6
 10
660.0000
 20
381.3843
 11
660.0000
 21
346.3843
  0
LINE
  8
0_00
  6
CONTINUOUS
 62
6
 10
660.0000
 20
381.3843
 11
658.4407
 21
374.0482
  0
LINE
  8
0_00
  6
CONTINUOUS
 62
6
 10
660.0000
 20
381.3843
 11
661.5593
 21
374.0482
  0
LINE
  8
0_00
  6
CONTINUOUS
 62
6
 10
660.0000
 20
346.3843
 11
661.5593
 21
353.7204
  0
LINE
  8
0_00
  6
CONTINUOUS
 62
6
 10
660.0000
 20
346.3843
 11
658.4407
 21
353.7204
  0
LINE
  8
0_00
  6
CONTINUOUS
 62
6
 10
271.5518
 20
760.0000
 11
398.5518
 21
760.0000
  0
LINE
  8
0_00
  6
CONTINUOUS
 62
6
 10
271.5518
 20
760.0000
 11
278.8879
 21
758.4407
  0
LINE
  8
0_00
  6
CONTINUOUS
 62
6
 10
271.5518
 20
760.0000
 11
278.8879
 21
761.5594
  0
LINE
  8
0_00
  6
CONTINUOUS
 62
6
 10
398.5518
 20
760.0000
 11
391.2157
 21
761.5594
  0
LINE
  8
0_00
  6
CONTINUOUS
 62
6
 10
398.5518
 20
760.0000
 11
391.2157
 21
758.4407
  0
LINE
  8
0_00
  6
CONTINUOUS
 62
6
 10
398.5518
 20
760.0000
 11
498.5518
 21
760.0000
  0
LINE
  8
0_00
  6
CONTINUOUS
 62
6
 10
398.5518
 20
760.0000
 11
405.8879
 21
758.4407
  0
LINE
  8
0_00
  6
CONTINUOUS
 62
6
 10
398.5518
 20
760.0000
 11
405.8879
 21
761.5594
  0
LINE
  8
0_00
  6
CONTINUOUS
 62
6
 10
498.5518
 20
760.0000
 11
491.2157
 21
761.5594
  0
LINE
  8
0_00
  6
CONTINUOUS
 62
6
 10
498.5518
 20
760.0000
 11
491.2157
 21
758.4407
  0
LINE
  8
0_00
  6
CONTINUOUS
 62
6
 10
271.5518
 20
674.1308
 11
271.5518
 21
699.9950
  0
LINE
  8
0_00
  6
CONTINUOUS
 62
6
 10
271.5518
 20
674.1308
 11
271.5518
 21
766.0000
  0
LINE
  8
0_00
  6
CONTINUOUS
 62
6
 10
398.5518
 20
674.1308
 11
398.5518
 21
701.3294
  0
LINE
  8
0_00
  6
CONTINUOUS
 62
6
 10
398.5518
 20
725.6975
 11
398.5518
 21
766.0000
  0
LINE
  8
0_00
  6
CONTINUOUS
 62
6
 10
114.8454
 20
780.0000
 11
498.5518
 21
780.0000
  0
LINE
  8
0_00
  6
CONTINUOUS
 62
6
 10
498.5518
 20
780.0000
 11
491.2157
 21
781.5593
  0
LINE
  8
0_00
  6
CONTINUOUS
 62
6
 10
498.5518
 20
780.0000
 11
491.2157
 21
778.4407
  0
LINE
  8
0_00
  6
CONTINUOUS
 62
6
 10
802.7643
 20
394.3843
 11
802.7643
 21
426.0000
  0
LINE
  8
0_00
  6
CONTINUOUS
 62
6
 10
757.7643
 20
394.3843
 11
757.7643
 21
426.0000
  0
LINE
  8
0_00
  6
CONTINUOUS
 62
6
 10
802.7643
 20
420.0000
 11
757.7643
 21
420.0000
  0
LINE
  8
0_00
  6
CONTINUOUS
 62
6
 10
832.1643
 20
420.0000
 11
802.7643
 21
420.0000
  0
LINE
  8
0_00
  6
CONTINUOUS
 62
6
 10
802.7643
 20
420.0000
 11
810.1004
 21
418.4407
  0
LINE
  8
0_00
  6
CONTINUOUS
 62
6
 10
802.7643
 20
420.0000
 11
810.1004
 21
421.5593
  0
LINE
  8
0_00
  6
CONTINUOUS
 62
6
 10
739.7643
 20
420.0000
 11
757.7643
 21
420.0000
  0
LINE
  8
0_00
  6
CONTINUOUS
 62
6
 10
757.7643
 20
420.0000
 11
750.4282
 21
421.5593
  0
LINE
  8
0_00
  6
CONTINUOUS
 62
6
 10
757.7643
 20
420.0000
 11
750.4282
 21
418.4407
  0
LINE
  8
0_00
  6
CONTINUOUS
 62
2
 10
801.2511
 20
388.3711
 11
794.2643
 21
381.3843
  0
LINE
  8
0_00
  6
CONTINUOUS
 62
2
 10
792.7790
 20
388.3843
 11
787.7698
 21
383.3751
  0
LINE
  8
0_00
  6
CONTINUOUS
 62
2
 10
757.7643
 20
353.3696
 11
750.7790
 21
346.3843
  0
LINE
  8
0_00
  6
CONTINUOUS
 62
2
 10
784.2937
 20
388.3843
 11
781.2936
 21
385.3843
  0
LINE
  8
0_00
  6
CONTINUOUS
 62
2
 10
757.7643
 20
361.8549
 11
750.7643
 21
354.8549
  0
LINE
  8
0_00
  6
CONTINUOUS
 62
2
 10
775.8084
 20
388.3843
 11
767.8262
 21
380.4020
  0
LINE
  8
0_00
  6
CONTINUOUS
 62
2
 10
757.7643
 20
370.3401
 11
750.7643
 21
363.3401
  0
LINE
  8
0_00
  6
CONTINUOUS
 62
2
 10
767.3232
 20
388.3843
 11
760.3232
 21
381.3843
  0
LINE
  8
0_00
  6
CONTINUOUS
 62
2
 10
757.7643
 20
378.8254
 11
750.7643
 21
371.8254
  0
LINE
  8
0_00
  6
CONTINUOUS
 62
2
 10
758.7843
 20
388.3308
 11
750.8178
 21
380.3642
  0
LINE
  8
0_00
  6
CONTINUOUS
 62
2
 10
807.1208
 20
385.7556
 11
802.1711
 21
380.8058
  0
LINE
  8
0_00
  6
CONTINUOUS
 62
2
 10
809.7496
 20
379.8990
 11
802.7643
 21
372.9137
  0
LINE
  8
0_00
  6
CONTINUOUS
 62
2
 10
809.7643
 20
371.4285
 11
802.7643
 21
364.4285
  0
LINE
  8
0_00
  6
CONTINUOUS
 62
2
 10
809.7643
 20
362.9431
 11
802.7643
 21
355.9431
  0
LINE
  8
0_00
  6
CONTINUOUS
 62
2
 10
809.7643
 20
354.4579
 11
802.6717
 21
347.3652
  0
LINE
  8
0_00
  6
CONTINUOUS
 62
2
 10
801.7834
 20
346.4770
 11
801.6907
 21
346.3843
  0
LINE
  8
0_00
  6
CONTINUOUS
 62
4
 10
890.4141
 20
155.4676
 11
935.4141
 21
155.4676
  0
LINE
  8
0_00
  6
DASHED
 62
2
 10
514.8518
 20
672.6576
 11
559.6556
 21
672.6576
  0
LINE
  8
0_00
  6
CONTINUOUS
 62
2
 10
514.8518
 20
662.6576
 11
514.8518
 21
676.6576
  0
LINE
  8
0_00
  6
DASHED
 62
2
 10
564.8518
 20
669.6576
 11
559.6556
 21
672.6576
  0
LINE
  8
0_00
  6
DASHED
 62
2
 10
514.8518
 20
666.6576
 11
559.6556
 21
666.6576
  0
LINE
  8
0_00
  6
DASHED
 62
2
 10
564.8518
 20
669.6576
 11
559.6556
 21
666.6576
  0
LINE
  8
0_00
  6
CONTINUOUS
 62
2
 10
514.4372
 20
676.6576
 11
514.8518
 21
676.6576
  0
LINE
  8
0_00
  6
CONTINUOUS
 62
2
 10
514.4372
 20
662.6576
 11
514.4372
 21
676.6576
  0
LINE
  8
0_00
  6
CONTINUOUS
 62
2
 10
514.4372
 20
662.6576
 11
514.8518
 21
662.6576
  0
LINE
  8
0_00
  6
DASHED
 62
2
 10
514.8518
 20
671.8076
 11
561.1279
 21
671.8076
  0
LINE
  8
0_00
  6
DASHED
 62
2
 10
514.8518
 20
667.5076
 11
561.1279
 21
667.5076
  0
LINE
  8
0_00
  6
DASHED
 62
2
 10
514.8518
 20
356.5843
 11
559.6556
 21
356.5843
  0
LINE
  8
0_00
  6
DASHED
 62
2
 10
514.8518
 20
366.5843
 11
514.8518
 21
352.5843
  0
LINE
  8
0_00
  6
DASHED
 62
2
 10
564.8518
 20
359.5843
 11
559.6556
 21
356.5843
  0
LINE
  8
0_00
  6
DASHED
 62
2
 10
514.8518
 20
362.5843
 11
559.6556
 21
362.5843
  0
LINE
  8
0_00
  6
DASHED
 62
2
 10
564.8518
 20
359.5843
 11
559.6556
 21
362.5843
  0
LINE
  8
0_00
  6
DASHED
 62
2
 10
514.4372
 20
352.5843
 11
514.8518
 21
352.5843
  0
LINE
  8
0_00
  6
DASHED
 62
2
 10
514.4372
 20
366.5843
 11
514.4372
 21
352.5843
  0
LINE
  8
0_00
  6
DASHED
 62
2
 10
514.4372
 20
366.5843
 11
514.8518
 21
366.5843
  0
LINE
  8
0_00
  6
DASHED
 62
2
 10
514.8518
 20
357.4343
 11
561.1279
 21
357.4343
  0
LINE
  8
0_00
  6
DASHED
 62
2
 10
514.8518
 20
361.7343
 11
561.1279
 21
361.7343
  0
LINE
  8
12_0C
  6
DASHED
 62
2
 10
518.0518
 20
665.6576
 11
529.9849
 21
665.6576
  0
LINE
  8
12_0C
  6
DASHED
 62
2
 10
533.1205
 20
665.0258
 11
535.1600
 21
664.8474
  0
LINE
  8
12_0C
  6
DASHED
 62
2
 10
538.1015
 20
664.5900
 11
540.1409
 21
664.4116
  0
LINE
  8
12_0C
  6
DASHED
 62
2
 10
543.0824
 20
664.1543
 11
545.1219
 21
663.9758
  0
LINE
  8
12_0C
  6
DASHED
 62
2
 10
548.0635
 20
663.7185
 11
550.1029
 21
663.5401
  0
LINE
  8
12_0C
  6
DASHED
 62
2
 10
553.0444
 20
663.2827
 11
554.8766
 21
663.1225
  0
LINE
  8
12_0C
  6
DASHED
 62
2
 10
518.0518
 20
673.6576
 11
529.9849
 21
673.6576
  0
LINE
  8
12_0C
  6
DASHED
 62
2
 10
533.1205
 20
674.2895
 11
535.1600
 21
674.4678
  0
LINE
  8
12_0C
  6
DASHED
 62
2
 10
538.1015
 20
674.7252
 11
540.1409
 21
674.9036
  0
LINE
  8
12_0C
  6
DASHED
 62
2
 10
543.0824
 20
675.1610
 11
545.1219
 21
675.3394
  0
LINE
  8
12_0C
  6
DASHED
 62
2
 10
548.0635
 20
675.5967
 11
550.1029
 21
675.7751
  0
LINE
  8
12_0C
  6
DASHED
 62
2
 10
553.0444
 20
676.0326
 11
554.8766
 21
676.1928
  0
LINE
  8
12_0C
  6
DASHED
 62
2
 10
518.0518
 20
665.6576
 11
518.0518
 21
673.6576
  0
LINE
  8
12_0C
  6
DASHED
 62
2
 10
526.0518
 20
669.1576
 11
526.0518
 21
670.1576
  0
LINE
  8
12_0C
  6
DASHED
 62
2
 10
526.0518
 20
670.1576
 11
557.9301
 21
672.9466
  0
LINE
  8
12_0C
  6
DASHED
 62
2
 10
557.9301
 20
666.3687
 11
526.0518
 21
669.1576
  0
LINE
  8
12_0C
  6
DASHED
 62
2
 10
557.7557
 20
664.3762
 11
557.9301
 21
666.3687
  0
LINE
  8
12_0C
  6
DASHED
 62
2
 10
557.9301
 20
672.9466
 11
557.7557
 21
674.9390
  0
LINE
  8
12_0C
  6
DASHED
 62
2
 10
557.7557
 20
674.9390
 11
555.1825
 21
676.1389
  0
LINE
  8
12_0C
  6
DASHED
 62
2
 10
557.7557
 20
664.3762
 11
555.1825
 21
663.1763
  0
LINE
  8
12_0C
  6
DASHED
 62
2
 10
555.0368
 20
663.1084
 11
555.3419
 21
666.5951
  0
LINE
  8
12_0C
  6
DASHED
 62
2
 10
555.3419
 20
672.7202
 11
555.0368
 21
676.2068
  0
LINE
  8
12_0C
  6
DASHED
 62
2
 10
553.0444
 20
663.2827
 11
553.2361
 21
665.4743
  0
LINE
  8
12_0C
  6
DASHED
 62
2
 10
553.2361
 20
673.8409
 11
553.0444
 21
676.0326
  0
LINE
  8
12_0C
  6
DASHED
 62
2
 10
548.0635
 20
663.7185
 11
548.2552
 21
665.9100
  0
LINE
  8
12_0C
  6
DASHED
 62
2
 10
548.2552
 20
673.4051
 11
548.0635
 21
675.5967
  0
LINE
  8
12_0C
  6
DASHED
 62
2
 10
543.0824
 20
664.1543
 11
543.2742
 21
666.3459
  0
LINE
  8
12_0C
  6
DASHED
 62
2
 10
543.2742
 20
672.9694
 11
543.0824
 21
675.1610
  0
LINE
  8
12_0C
  6
DASHED
 62
2
 10
538.1015
 20
664.5900
 11
538.2932
 21
666.7817
  0
LINE
  8
12_0C
  6
DASHED
 62
2
 10
538.2932
 20
672.5336
 11
538.1015
 21
674.7252
  0
LINE
  8
12_0C
  6
DASHED
 62
2
 10
533.1205
 20
665.0258
 11
533.2600
 21
666.6197
  0
LINE
  8
12_0C
  6
DASHED
 62
2
 10
533.2600
 20
672.6955
 11
533.1205
 21
674.2895
  0
LINE
  8
12_0C
  6
DASHED
 62
2
 10
535.9674
 20
666.5836
 11
538.2583
 21
666.3831
  0
LINE
  8
12_0C
  6
DASHED
 62
2
 10
540.9483
 20
666.1479
 11
543.2394
 21
665.9474
  0
LINE
  8
12_0C
  6
DASHED
 62
2
 10
545.9293
 20
665.7120
 11
548.2203
 21
665.5116
  0
LINE
  8
12_0C
  6
DASHED
 62
2
 10
550.9103
 20
665.2763
 11
553.2013
 21
665.0759
  0
LINE
  8
12_0C
  6
DASHED
 62
2
 10
553.2013
 20
674.2394
 11
550.9103
 21
674.0389
  0
LINE
  8
12_0C
  6
DASHED
 62
2
 10
548.2203
 20
673.8036
 11
545.9293
 21
673.6032
  0
LINE
  8
12_0C
  6
DASHED
 62
2
 10
543.2394
 20
673.3678
 11
540.9483
 21
673.1673
  0
LINE
  8
12_0C
  6
DASHED
 62
2
 10
538.2583
 20
672.9321
 11
535.9674
 21
672.7316
  0
LINE
  8
12_0C
  6
DASHED
 62
2
 10
550.9811
 20
673.7747
 11
550.5241
 21
675.4802
  0
LINE
  8
12_0C
  6
DASHED
 62
2
 10
551.0246
 20
665.7027
 11
550.5241
 21
663.8350
  0
LINE
  8
12_0C
  6
DASHED
 62
2
 10
546.0001
 20
673.3388
 11
545.5432
 21
675.0444
  0
LINE
  8
12_0C
  6
DASHED
 62
2
 10
546.0001
 20
665.9764
 11
545.5432
 21
664.2708
  0
LINE
  8
12_0C
  6
DASHED
 62
2
 10
541.0192
 20
672.9031
 11
540.5621
 21
674.6087
  0
LINE
  8
12_0C
  6
DASHED
 62
2
 10
541.0192
 20
666.4121
 11
540.5621
 21
664.7065
  0
LINE
  8
12_0C
  6
DASHED
 62
2
 10
536.0382
 20
672.4673
 11
535.5812
 21
674.1729
  0
LINE
  8
12_0C
  6
DASHED
 62
2
 10
536.0382
 20
666.8479
 11
535.5812
 21
665.1424
  0
LINE
  8
12_0C
  6
DASHED
 62
2
 10
533.2425
 20
666.4205
 11
530.1668
 21
666.6896
  0
LINE
  8
12_0C
  6
DASHED
 62
2
 10
533.2425
 20
672.8948
 11
530.1668
 21
672.6257
  0
LINE
  8
12_0C
  6
DASHED
 62
2
 10
536.4594
 20
667.1429
 11
538.1115
 21
666.9984
  0
LINE
  8
12_0C
  6
DASHED
 62
2
 10
541.4404
 20
666.7071
 11
543.0924
 21
666.5626
  0
LINE
  8
12_0C
  6
DASHED
 62
2
 10
546.4214
 20
666.2713
 11
548.0733
 21
666.1268
  0
LINE
  8
12_0C
  6
DASHED
 62
2
 10
551.2352
 20
665.8502
 11
553.0544
 21
665.6910
  0
LINE
  8
12_0C
  6
DASHED
 62
2
 10
553.0544
 20
673.6242
 11
551.4023
 21
673.4797
  0
LINE
  8
12_0C
  6
DASHED
 62
2
 10
548.0733
 20
673.1885
 11
546.4214
 21
673.0439
  0
LINE
  8
12_0C
  6
DASHED
 62
2
 10
543.0924
 20
672.7527
 11
541.4404
 21
672.6082
  0
LINE
  8
12_0C
  6
DASHED
 62
2
 10
538.1115
 20
672.3169
 11
536.4594
 21
672.1723
  0
LINE
  8
12_0C
  6
DASHED
 62
2
 10
530.1728
 20
666.7240
 11
529.9849
 21
665.6576
  0
LINE
  8
12_0C
  6
DASHED
 62
2
 10
530.1728
 20
672.5912
 11
529.9849
 21
673.6576
  0
LINE
  8
12_0C
  6
DASHED
 62
2
 10
538.1015
 20
674.7252
 11
532.1199
 21
677.5145
  0
LINE
  8
12_0C
  6
DASHED
 62
2
 10
531.6973
 20
676.6082
 11
538.2021
 21
673.5749
  0
LINE
  8
12_0C
  6
DASHED
 62
2
 10
538.1015
 20
664.5900
 11
532.1199
 21
661.8008
  0
LINE
  8
12_0C
  6
DASHED
 62
2
 10
531.6973
 20
662.7070
 11
538.2021
 21
665.7404
  0
LINE
  8
12_0C
  6
DASHED
 62
2
 10
531.5883
 20
677.3210
 11
531.5038
 21
677.1398
  0
LINE
  8
12_0C
  6
DASHED
 62
2
 10
531.5883
 20
661.9942
 11
531.5038
 21
662.1755
  0
LINE
  8
12_0C
  6
DASHED
 62
2
 10
530.6017
 20
667.0530
 11
533.0782
 21
666.8364
  0
LINE
  8
12_0C
  6
DASHED
 62
2
 10
530.6017
 20
672.2622
 11
535.9674
 21
672.7316
  0
LINE
  8
12_0C
  6
DASHED
 62
2
 10
518.0518
 20
355.5843
 11
529.9849
 21
355.5843
  0
LINE
  8
12_0C
  6
DASHED
 62
2
 10
533.1205
 20
354.9525
 11
535.1600
 21
354.7740
  0
LINE
  8
12_0C
  6
DASHED
 62
2
 10
538.1015
 20
354.5167
 11
540.1409
 21
354.3382
  0
LINE
  8
12_0C
  6
DASHED
 62
2
 10
543.0824
 20
354.0809
 11
545.1219
 21
353.9025
  0
LINE
  8
12_0C
  6
DASHED
 62
2
 10
548.0635
 20
353.6451
 11
550.1029
 21
353.4667
  0
LINE
  8
12_0C
  6
DASHED
 62
2
 10
553.0444
 20
353.2093
 11
554.8766
 21
353.0491
  0
LINE
  8
12_0C
  6
DASHED
 62
2
 10
518.0518
 20
363.5843
 11
529.9849
 21
363.5843
  0
LINE
  8
12_0C
  6
DASHED
 62
2
 10
533.1205
 20
364.2161
 11
535.1600
 21
364.3945
  0
LINE
  8
12_0C
  6
DASHED
 62
2
 10
538.1015
 20
364.6519
 11
540.1409
 21
364.8303
  0
LINE
  8
12_0C
  6
DASHED
 62
2
 10
543.0824
 20
365.0876
 11
545.1219
 21
365.2660
  0
LINE
  8
12_0C
  6
DASHED
 62
2
 10
548.0635
 20
365.5234
 11
550.1029
 21
365.7018
  0
LINE
  8
12_0C
  6
DASHED
 62
2
 10
553.0444
 20
365.9592
 11
554.8766
 21
366.1195
  0
LINE
  8
12_0C
  6
DASHED
 62
2
 10
518.0518
 20
355.5843
 11
518.0518
 21
363.5843
  0
LINE
  8
12_0C
  6
DASHED
 62
2
 10
526.0518
 20
359.0843
 11
526.0518
 21
360.0843
  0
LINE
  8
12_0C
  6
DASHED
 62
2
 10
526.0518
 20
360.0843
 11
557.9301
 21
362.8732
  0
LINE
  8
12_0C
  6
DASHED
 62
2
 10
557.9301
 20
356.2953
 11
526.0518
 21
359.0843
  0
LINE
  8
12_0C
  6
DASHED
 62
2
 10
557.7557
 20
354.3029
 11
557.9301
 21
356.2953
  0
LINE
  8
12_0C
  6
DASHED
 62
2
 10
557.9301
 20
362.8732
 11
557.7557
 21
364.8657
  0
LINE
  8
12_0C
  6
DASHED
 62
2
 10
557.7557
 20
364.8657
 11
555.1825
 21
366.0656
  0
LINE
  8
12_0C
  6
DASHED
 62
2
 10
557.7557
 20
354.3029
 11
555.1825
 21
353.1030
  0
LINE
  8
12_0C
  6
DASHED
 62
2
 10
555.0368
 20
353.0350
 11
555.3419
 21
356.5217
  0
LINE
  8
12_0C
  6
DASHED
 62
2
 10
555.3419
 20
362.6468
 11
555.0368
 21
366.1335
  0
LINE
  8
12_0C
  6
DASHED
 62
2
 10
553.0444
 20
353.2093
 11
553.2361
 21
355.4010
  0
LINE
  8
12_0C
  6
DASHED
 62
2
 10
553.2361
 20
363.7676
 11
553.0444
 21
365.9592
  0
LINE
  8
12_0C
  6
DASHED
 62
2
 10
548.0635
 20
353.6451
 11
548.2552
 21
355.8368
  0
LINE
  8
12_0C
  6
DASHED
 62
2
 10
548.2552
 20
363.3318
 11
548.0635
 21
365.5234
  0
LINE
  8
12_0C
  6
DASHED
 62
2
 10
543.0824
 20
354.0809
 11
543.2742
 21
356.2725
  0
LINE
  8
12_0C
  6
DASHED
 62
2
 10
543.2742
 20
362.8960
 11
543.0824
 21
365.0876
  0
LINE
  8
12_0C
  6
DASHED
 62
2
 10
538.1015
 20
354.5167
 11
538.2932
 21
356.7083
  0
LINE
  8
12_0C
  6
DASHED
 62
2
 10
538.2932
 20
362.4602
 11
538.1015
 21
364.6519
  0
LINE
  8
12_0C
  6
DASHED
 62
2
 10
533.1205
 20
354.9525
 11
533.2600
 21
356.5464
  0
LINE
  8
12_0C
  6
DASHED
 62
2
 10
533.2600
 20
362.6222
 11
533.1205
 21
364.2161
  0
LINE
  8
12_0C
  6
DASHED
 62
2
 10
535.9674
 20
356.5103
 11
538.2583
 21
356.3099
  0
LINE
  8
12_0C
  6
DASHED
 62
2
 10
540.9483
 20
356.0745
 11
543.2394
 21
355.8741
  0
LINE
  8
12_0C
  6
DASHED
 62
2
 10
545.9293
 20
355.6387
 11
548.2203
 21
355.4383
  0
LINE
  8
12_0C
  6
DASHED
 62
2
 10
550.9103
 20
355.2029
 11
553.2013
 21
355.0025
  0
LINE
  8
12_0C
  6
DASHED
 62
2
 10
553.2013
 20
364.1660
 11
550.9103
 21
363.9656
  0
LINE
  8
12_0C
  6
DASHED
 62
2
 10
548.2203
 20
363.7303
 11
545.9293
 21
363.5298
  0
LINE
  8
12_0C
  6
DASHED
 62
2
 10
543.2394
 20
363.2945
 11
540.9483
 21
363.0940
  0
LINE
  8
12_0C
  6
DASHED
 62
2
 10
538.2583
 20
362.8587
 11
535.9674
 21
362.6583
  0
LINE
  8
12_0C
  6
DASHED
 62
2
 10
550.9811
 20
363.7013
 11
550.5241
 21
365.4069
  0
LINE
  8
12_0C
  6
DASHED
 62
2
 10
551.0246
 20
355.6293
 11
550.5241
 21
353.7617
  0
LINE
  8
12_0C
  6
DASHED
 62
2
 10
546.0001
 20
363.2655
 11
545.5432
 21
364.9711
  0
LINE
  8
12_0C
  6
DASHED
 62
2
 10
546.0001
 20
355.9030
 11
545.5432
 21
354.1974
  0
LINE
  8
12_0C
  6
DASHED
 62
2
 10
541.0192
 20
362.8298
 11
540.5621
 21
364.5353
  0
LINE
  8
12_0C
  6
DASHED
 62
2
 10
541.0192
 20
356.3388
 11
540.5621
 21
354.6332
  0
LINE
  8
12_0C
  6
DASHED
 62
2
 10
536.0382
 20
362.3940
 11
535.5812
 21
364.0995
  0
LINE
  8
12_0C
  6
DASHED
 62
2
 10
536.0382
 20
356.7746
 11
535.5812
 21
355.0690
  0
LINE
  8
12_0C
  6
DASHED
 62
2
 10
533.2425
 20
356.3472
 11
530.1668
 21
356.6162
  0
LINE
  8
12_0C
  6
DASHED
 62
2
 10
533.2425
 20
362.8214
 11
530.1668
 21
362.5523
  0
LINE
  8
12_0C
  6
DASHED
 62
2
 10
536.4594
 20
357.0695
 11
538.1115
 21
356.9250
  0
LINE
  8
12_0C
  6
DASHED
 62
2
 10
541.4404
 20
356.6338
 11
543.0924
 21
356.4892
  0
LINE
  8
12_0C
  6
DASHED
 62
2
 10
546.4214
 20
356.1980
 11
548.0733
 21
356.0534
  0
LINE
  8
12_0C
  6
DASHED
 62
2
 10
551.2352
 20
355.7768
 11
553.0544
 21
355.6177
  0
LINE
  8
12_0C
  6
DASHED
 62
2
 10
553.0544
 20
363.5509
 11
551.4023
 21
363.4064
  0
LINE
  8
12_0C
  6
DASHED
 62
2
 10
548.0733
 20
363.1151
 11
546.4214
 21
362.9706
  0
LINE
  8
12_0C
  6
DASHED
 62
2
 10
543.0924
 20
362.6794
 11
541.4404
 21
362.5348
  0
LINE
  8
12_0C
  6
DASHED
 62
2
 10
538.1115
 20
362.2435
 11
536.4594
 21
362.0990
  0
LINE
  8
12_0C
  6
DASHED
 62
2
 10
530.1728
 20
356.6507
 11
529.9849
 21
355.5843
  0
LINE
  8
12_0C
  6
DASHED
 62
2
 10
530.1728
 20
362.5179
 11
529.9849
 21
363.5843
  0
LINE
  8
12_0C
  6
DASHED
 62
2
 10
538.1015
 20
364.6519
 11
532.1199
 21
367.4411
  0
LINE
  8
12_0C
  6
DASHED
 62
2
 10
531.6973
 20
366.5349
 11
538.2021
 21
363.5015
  0
LINE
  8
12_0C
  6
DASHED
 62
2
 10
538.1015
 20
354.5167
 11
532.1199
 21
351.7274
  0
LINE
  8
12_0C
  6
DASHED
 62
2
 10
531.6973
 20
352.6337
 11
538.2021
 21
355.6670
  0
LINE
  8
12_0C
  6
DASHED
 62
2
 10
531.5883
 20
367.2477
 11
531.5038
 21
367.0664
  0
LINE
  8
12_0C
  6
DASHED
 62
2
 10
531.5883
 20
351.9209
 11
531.5038
 21
352.1022
  0
LINE
  8
12_0C
  6
DASHED
 62
2
 10
530.6017
 20
356.9797
 11
533.0782
 21
356.7631
  0
LINE
  8
12_0C
  6
DASHED
 62
2
 10
530.6017
 20
362.1888
 11
535.9674
 21
362.6583
  0
LINE
  8
0_00
  6
CONTINUOUS
 62
2
 10
778.6602
 20
669.1752
 11
778.8481
 21
669.6902
  0
LINE
  8
0_00
  6
CONTINUOUS
 62
2
 10
778.8481
 20
669.6902
 11
778.6707
 21
670.1773
  0
LINE
  8
0_00
  6
CONTINUOUS
 62
2
 10
778.6707
 20
670.1773
 11
777.6025
 21
671.3116
  0
LINE
  8
0_00
  6
CONTINUOUS
 62
2
 10
781.8578
 20
672.3345
 11
780.7583
 21
671.2733
  0
LINE
  8
0_00
  6
CONTINUOUS
 62
2
 10
780.7583
 20
671.2733
 11
780.2433
 21
671.0854
  0
LINE
  8
0_00
  6
CONTINUOUS
 62
2
 10
780.2433
 20
671.0854
 11
779.7562
 21
671.2629
  0
LINE
  8
0_00
  6
CONTINUOUS
 62
2
 10
779.7562
 20
671.2629
 11
778.6219
 21
672.3311
  0
LINE
  8
0_00
  6
CONTINUOUS
 62
2
 10
782.8877
 20
671.3047
 11
781.8265
 21
670.2051
  0
LINE
  8
0_00
  6
CONTINUOUS
 62
2
 10
781.8265
 20
670.2051
 11
781.6386
 21
669.6902
  0
LINE
  8
0_00
  6
CONTINUOUS
 62
2
 10
781.6386
 20
669.6902
 11
781.8160
 21
669.2031
  0
LINE
  8
0_00
  6
CONTINUOUS
 62
2
 10
781.8160
 20
669.2031
 11
781.8588
 21
669.1576
  0
LINE
  8
0_00
  6
CONTINUOUS
 62
2
 10
778.6432
 20
669.1576
 11
778.6602
 21
669.1752
  0
LINE
  8
0_00
  6
CONTINUOUS
 62
2
 10
1043.1646
 20
678.9192
 11
1043.3525
 21
679.4342
  0
LINE
  8
0_00
  6
CONTINUOUS
 62
2
 10
1043.3525
 20
679.4342
 11
1043.1751
 21
679.9213
  0
LINE
  8
0_00
  6
CONTINUOUS
 62
2
 10
1043.1751
 20
679.9213
 11
1042.1070
 21
681.0555
  0
LINE
  8
0_00
  6
CONTINUOUS
 62
2
 10
1046.3622
 20
682.0784
 11
1045.2627
 21
681.0173
  0
LINE
  8
0_00
  6
CONTINUOUS
 62
2
 10
1045.2627
 20
681.0173
 11
1044.7478
 21
680.8293
  0
LINE
  8
0_00
  6
CONTINUOUS
 62
2
 10
1044.7478
 20
680.8293
 11
1044.2607
 21
681.0069
  0
LINE
  8
0_00
  6
CONTINUOUS
 62
2
 10
1044.2607
 20
681.0069
 11
1043.1263
 21
682.0751
  0
LINE
  8
0_00
  6
CONTINUOUS
 62
2
 10
1047.3921
 20
681.0486
 11
1046.3308
 21
679.9491
  0
LINE
  8
0_00
  6
CONTINUOUS
 62
2
 10
1046.3308
 20
679.9491
 11
1046.1430
 21
679.4342
  0
LINE
  8
0_00
  6
CONTINUOUS
 62
2
 10
1046.1430
 20
679.4342
 11
1046.3204
 21
678.9471
  0
LINE
  8
0_00
  6
CONTINUOUS
 62
2
 10
1046.3204
 20
678.9471
 11
1046.3633
 21
678.9016
  0
LINE
  8
0_00
  6
CONTINUOUS
 62
2
 10
1043.1476
 20
678.9016
 11
1043.1646
 21
678.9192
  0
LINE
  8
0_00
  6
CONTINUOUS
 62
6
 10
999.7587
 20
656.0481
 11
945.1041
 21
656.0481
  0
LINE
  8
0_00
  6
CONTINUOUS
 62
6
 10
1029.7687
 20
693.1576
 11
945.1041
 21
693.1576
  0
LINE
  8
0_00
  6
CONTINUOUS
 62
6
 10
951.1042
 20
693.1576
 11
951.1042
 21
656.0481
  0
LINE
  8
0_00
  6
CONTINUOUS
 62
6
 10
951.1042
 20
693.1576
 11
949.5448
 21
685.8215
  0
LINE
  8
0_00
  6
CONTINUOUS
 62
6
 10
951.1042
 20
693.1576
 11
952.6635
 21
685.8215
  0
LINE
  8
0_00
  6
CONTINUOUS
 62
6
 10
951.1042
 20
656.0481
 11
952.6635
 21
663.3842
  0
LINE
  8
0_00
  6
CONTINUOUS
 62
6
 10
951.1042
 20
656.0481
 11
949.5448
 21
663.3842
  0
LINE
  8
0_00
  6
CONTINUOUS
 62
6
 10
1014.7687
 20
693.1576
 11
965.1042
 21
693.1576
  0
LINE
  8
0_00
  6
CONTINUOUS
 62
6
 10
1015.0668
 20
679.4016
 11
965.1042
 21
679.4016
  0
LINE
  8
0_00
  6
CONTINUOUS
 62
6
 10
971.1041
 20
693.1576
 11
971.1041
 21
679.4016
  0
LINE
  8
0_00
  6
CONTINUOUS
 62
6
 10
971.1041
 20
732.2901
 11
971.1041
 21
693.1576
  0
LINE
  8
0_00
  6
CONTINUOUS
 62
6
 10
971.1041
 20
693.1576
 11
972.6634
 21
700.4937
  0
LINE
  8
0_00
  6
CONTINUOUS
 62
6
 10
971.1041
 20
693.1576
 11
969.5447
 21
700.4937
  0
LINE
  8
0_00
  6
CONTINUOUS
 62
6
 10
971.1041
 20
593.5148
 11
971.1041
 21
679.4016
  0
LINE
  8
0_00
  6
CONTINUOUS
 62
6
 10
971.1041
 20
679.4016
 11
969.5447
 21
672.0655
  0
LINE
  8
0_00
  6
CONTINUOUS
 62
6
 10
971.1041
 20
679.4016
 11
972.6634
 21
672.0655
  0
LINE
  8
0_00
  6
CONTINUOUS
 62
6
 10
1004.7686
 20
685.3597
 11
1004.7686
 21
737.1849
  0
LINE
  8
0_00
  6
CONTINUOUS
 62
6
 10
1004.7686
 20
731.1849
 11
1084.7686
 21
731.1849
  0
LINE
  8
0_00
  6
CONTINUOUS
 62
6
 10
1004.7686
 20
731.1849
 11
1012.1048
 21
729.6255
  0
LINE
  8
0_00
  6
CONTINUOUS
 62
6
 10
1004.7686
 20
731.1849
 11
1012.1048
 21
732.7442
  0
LINE
  8
0_00
  6
CONTINUOUS
 62
6
 10
1084.7686
 20
731.1849
 11
1077.4326
 21
732.7442
  0
LINE
  8
0_00
  6
CONTINUOUS
 62
6
 10
1084.7686
 20
731.1849
 11
1077.4326
 21
729.6255
  0
LINE
  8
0_00
  6
CONTINUOUS
 62
6
 10
1084.7686
 20
685.3597
 11
1084.7686
 21
697.7711
  0
LINE
  8
0_00
  6
CONTINUOUS
 62
6
 10
1084.7686
 20
718.9077
 11
1084.7686
 21
737.1849
  0
LINE
  8
0_00
  6
CONTINUOUS
 62
4
 10
957.5356
 20
324.5204
 11
1096.1355
 21
324.5204
  0
LINE
  8
0_00
  6
CONTINUOUS
 62
2
 10
781.8018
 20
359.8843
 11
781.6805
 21
359.5517
  0
LINE
  8
0_00
  6
CONTINUOUS
 62
2
 10
781.6805
 20
359.5517
 11
781.8579
 21
359.0646
  0
LINE
  8
0_00
  6
CONTINUOUS
 62
2
 10
781.8579
 20
359.0646
 11
782.9261
 21
357.9303
  0
LINE
  8
0_00
  6
CONTINUOUS
 62
2
 10
778.6707
 20
356.9073
 11
779.7703
 21
357.9686
  0
LINE
  8
0_00
  6
CONTINUOUS
 62
2
 10
779.7703
 20
357.9686
 11
780.2853
 21
358.1564
  0
LINE
  8
0_00
  6
CONTINUOUS
 62
2
 10
780.2853
 20
358.1564
 11
780.7723
 21
357.9790
  0
LINE
  8
0_00
  6
CONTINUOUS
 62
2
 10
780.7723
 20
357.9790
 11
781.9066
 21
356.9108
  0
LINE
  8
0_00
  6
CONTINUOUS
 62
2
 10
777.6409
 20
357.9372
 11
778.7021
 21
359.0367
  0
LINE
  8
0_00
  6
CONTINUOUS
 62
2
 10
778.7021
 20
359.0367
 11
778.8900
 21
359.5517
  0
LINE
  8
0_00
  6
CONTINUOUS
 62
2
 10
778.8900
 20
359.5517
 11
778.7688
 21
359.8843
  0
LINE
  8
0_00
  6
CONTINUOUS
 62
6
 10
762.2643
 20
336.0843
 11
762.2643
 21
294.0000
  0
LINE
  8
0_00
  6
CONTINUOUS
 62
6
 10
798.2643
 20
336.0843
 11
798.2643
 21
294.0000
  0
LINE
  8
0_00
  6
CONTINUOUS
 62
6
 10
762.2643
 20
300.0000
 11
798.2643
 21
300.0000
  0
LINE
  8
0_00
  6
CONTINUOUS
 62
6
 10
762.2643
 20
300.0000
 11
769.6003
 21
298.4407
  0
LINE
  8
0_00
  6
CONTINUOUS
 62
6
 10
762.2643
 20
300.0000
 11
769.6003
 21
301.5593
  0
LINE
  8
0_00
  6
CONTINUOUS
 62
6
 10
798.2643
 20
300.0000
 11
790.9282
 21
301.5593
  0
LINE
  8
0_00
  6
CONTINUOUS
 62
6
 10
798.2643
 20
300.0000
 11
790.9282
 21
298.4407
  0
LINE
  8
0_00
  6
CONTINUOUS
 62
6
 10
518.0518
 20
625.5246
 11
518.0518
 21
594.0000
  0
LINE
  8
0_00
  6
CONTINUOUS
 62
6
 10
503.0518
 20
631.1575
 11
503.0518
 21
594.0000
  0
LINE
  8
0_00
  6
CONTINUOUS
 62
6
 10
503.0518
 20
600.0000
 11
518.0518
 21
600.0000
  0
LINE
  8
0_00
  6
CONTINUOUS
 62
6
 10
568.3688
 20
600.0000
 11
518.0518
 21
600.0000
  0
LINE
  8
0_00
  6
CONTINUOUS
 62
6
 10
518.0518
 20
600.0000
 11
525.3880
 21
598.4407
  0
LINE
  8
0_00
  6
CONTINUOUS
 62
6
 10
518.0518
 20
600.0000
 11
525.3880
 21
601.5593
  0
LINE
  8
0_00
  6
CONTINUOUS
 62
6
 10
503.0518
 20
642.2608
 11
503.0518
 21
574.0000
  0
LINE
  8
0_00
  6
CONTINUOUS
 62
6
 10
503.0518
 20
580.0000
 11
475.5518
 21
580.0000
  0
LINE
  8
0_00
  6
CONTINUOUS
 62
6
 10
434.7518
 20
580.0000
 11
475.5518
 21
580.0000
  0
LINE
  8
0_00
  6
CONTINUOUS
 62
6
 10
475.5518
 20
580.0000
 11
468.2157
 21
581.5594
  0
LINE
  8
0_00
  6
CONTINUOUS
 62
6
 10
475.5518
 20
580.0000
 11
468.2157
 21
578.4407
  0
LINE
  8
0_00
  6
CONTINUOUS
 62
6
 10
521.0518
 20
580.0000
 11
503.0518
 21
580.0000
  0
LINE
  8
0_00
  6
CONTINUOUS
 62
6
 10
503.0518
 20
580.0000
 11
510.3880
 21
578.4407
  0
LINE
  8
0_00
  6
CONTINUOUS
 62
6
 10
503.0518
 20
580.0000
 11
510.3880
 21
581.5594
  0
LINE
  8
0_00
  6
CONTINUOUS
 62
6
 10
475.5518
 20
631.1575
 11
475.5518
 21
625.4107
  0
LINE
  8
0_00
  6
CONTINUOUS
 62
6
 10
475.5518
 20
594.6829
 11
475.5518
 21
574.0000
  0
ARC
  8
0_00
  6
CONTINUOUS
 62
4
 10
780.2643
 20
491.5576
 40
201.6000
 50
82.9521
 51
97.0479
  0
ARC
  8
0_00
  6
CONTINUOUS
 62
4
 10
756.2643
 20
685.6796
 40
6.0000
 50
97.0479
 51
180.0001
  0
ARC
  8
0_00
  6
CONTINUOUS
 62
4
 10
804.2643
 20
685.6796
 40
6.0000
 50
359.9999
 51
442.9521
  0
ARC
  8
14_0E
  6
CONTINUOUS
 62
4
 10
780.2643
 20
491.5576
 40
200.0000
 50
82.8930
 51
97.1069
  0
ARC
  8
14_0E
  6
CONTINUOUS
 62
4
 10
756.0643
 20
685.6548
 40
4.4000
 50
97.1069
 51
180.0000
  0
ARC
  8
14_0E
  6
CONTINUOUS
 62
4
 10
804.4643
 20
685.6548
 40
4.4000
 50
0.0000
 51
82.8930
  0
ARC
  8
0_00
  6
CONTINUOUS
 62
4
 10
809.5642
 20
646.8576
 40
0.7000
 50
179.9999
 51
359.9999
  0
ARC
  8
0_00
  6
CONTINUOUS
 62
4
 10
750.9638
 20
646.8576
 40
0.7000
 50
177.6832
 51
360.0001
  0
ARC
  8
0_00
  6
CONTINUOUS
 62
4
 10
805.5920
 20
649.7576
 40
0.6000
 50
270.0000
 51
388.8667
  0
ARC
  8
0_00
  6
CONTINUOUS
 62
4
 10
794.2766
 20
649.5576
 40
0.4000
 50
194.0363
 51
270.0000
  0
ARC
  8
0_00
  6
CONTINUOUS
 62
4
 10
793.3276
 20
650.4675
 40
0.3000
 50
14.0362
 51
87.5372
  0
ARC
  8
0_00
  6
CONTINUOUS
 62
4
 10
766.2520
 20
649.5576
 40
0.4000
 50
270.0000
 51
345.9637
  0
ARC
  8
0_00
  6
CONTINUOUS
 62
4
 10
767.2010
 20
650.4675
 40
0.3000
 50
92.4628
 51
165.9637
  0
ARC
  8
0_00
  6
CONTINUOUS
 62
4
 10
808.5143
 20
652.4094
 40
0.3000
 50
275.0000
 51
371.6000
  0
ARC
  8
0_00
  6
CONTINUOUS
 62
4
 10
807.7143
 20
651.6869
 40
0.3500
 50
95.0000
 51
185.0988
  0
ARC
  8
0_00
  6
CONTINUOUS
 62
4
 10
806.6643
 20
652.0467
 40
1.0000
 50
95.0000
 51
180.0000
  0
ARC
  8
0_00
  6
CONTINUOUS
 62
4
 10
807.3890
 20
653.4151
 40
0.3000
 50
275.0000
 51
371.6000
  0
ARC
  8
0_00
  6
CONTINUOUS
 62
4
 10
807.6622
 20
657.0576
 40
0.7000
 50
90.0000
 51
191.6000
  0
ARC
  8
0_00
  6
CONTINUOUS
 62
4
 10
809.3578
 20
651.8335
 40
2.0000
 50
185.0988
 51
249.7122
  0
ARC
  8
0_00
  6
CONTINUOUS
 62
4
 10
809.3578
 20
651.8335
 40
3.7000
 50
183.4043
 51
208.8667
  0
ARC
  8
0_00
  6
CONTINUOUS
 62
4
 10
754.9365
 20
649.7576
 40
0.6000
 50
151.1333
 51
270.0000
  0
ARC
  8
0_00
  6
CONTINUOUS
 62
4
 10
752.0143
 20
652.4094
 40
0.3000
 50
168.4000
 51
265.0000
  0
ARC
  8
0_00
  6
CONTINUOUS
 62
4
 10
752.8143
 20
651.6869
 40
0.3500
 50
354.9012
 51
445.0000
  0
ARC
  8
0_00
  6
CONTINUOUS
 62
4
 10
753.8643
 20
652.0467
 40
1.0000
 50
0.0000
 51
85.0000
  0
ARC
  8
0_00
  6
CONTINUOUS
 62
4
 10
753.1395
 20
653.4151
 40
0.3000
 50
168.4000
 51
265.0000
  0
ARC
  8
0_00
  6
CONTINUOUS
 62
4
 10
752.8663
 20
657.0576
 40
0.7000
 50
348.4000
 51
450.0000
  0
ARC
  8
0_00
  6
CONTINUOUS
 62
4
 10
751.1708
 20
651.8335
 40
2.0000
 50
290.2878
 51
354.9012
  0
ARC
  8
0_00
  6
CONTINUOUS
 62
4
 10
751.1708
 20
651.8335
 40
3.7000
 50
331.1333
 51
356.5957
  0
ARC
  8
0_00
  6
CONTINUOUS
 62
4
 10
808.4642
 20
657.4815
 40
0.4000
 50
0.0000
 51
90.0000
  0
ARC
  8
0_00
  6
CONTINUOUS
 62
4
 10
808.4642
 20
659.2814
 40
0.4000
 50
270.0000
 51
359.9999
  0
ARC
  8
0_00
  6
CONTINUOUS
 62
4
 10
805.8642
 20
658.3815
 40
0.5000
 50
90.0000
 51
180.0000
  0
ARC
  8
0_00
  6
CONTINUOUS
 62
4
 10
805.5642
 20
657.2814
 40
0.2000
 50
180.0000
 51
270.0000
  0
ARC
  8
0_00
  6
CONTINUOUS
 62
4
 10
805.5642
 20
657.6815
 40
0.6000
 50
270.0000
 51
360.0000
  0
ARC
  8
0_00
  6
CONTINUOUS
 62
4
 10
807.8143
 20
651.6382
 40
0.3500
 50
95.0000
 51
190.8317
  0
ARC
  8
14_0E
  6
CONTINUOUS
 62
4
 10
809.4348
 20
651.9483
 40
2.0000
 50
190.8317
 51
253.4226
  0
ARC
  8
0_00
  6
CONTINUOUS
 62
4
 10
808.4642
 20
652.4480
 40
0.4000
 50
275.0000
 51
371.4000
  0
ARC
  8
0_00
  6
CONTINUOUS
 62
4
 10
808.5857
 20
654.8815
 40
0.2000
 50
90.0000
 51
191.4000
  0
ARC
  8
0_00
  6
CONTINUOUS
 62
4
 10
752.0638
 20
657.4815
 40
0.4000
 50
90.0000
 51
180.0000
  0
ARC
  8
0_00
  6
CONTINUOUS
 62
4
 10
752.0638
 20
659.2814
 40
0.4000
 50
183.0566
 51
270.0000
  0
ARC
  8
0_00
  6
CONTINUOUS
 62
4
 10
754.6638
 20
658.3815
 40
0.5000
 50
0.0000
 51
90.0000
  0
ARC
  8
0_00
  6
CONTINUOUS
 62
4
 10
754.9638
 20
657.2814
 40
0.2000
 50
270.0000
 51
360.0000
  0
ARC
  8
0_00
  6
CONTINUOUS
 62
4
 10
754.9638
 20
657.6815
 40
0.6000
 50
180.0000
 51
270.0000
  0
ARC
  8
0_00
  6
CONTINUOUS
 62
4
 10
752.7137
 20
651.6382
 40
0.3500
 50
349.1683
 51
445.0000
  0
ARC
  8
14_0E
  6
CONTINUOUS
 62
4
 10
751.0931
 20
651.9483
 40
2.0000
 50
286.5774
 51
349.1683
  0
ARC
  8
0_00
  6
CONTINUOUS
 62
4
 10
752.0638
 20
652.4480
 40
0.4000
 50
168.6000
 51
265.0000
  0
ARC
  8
0_00
  6
CONTINUOUS
 62
4
 10
751.9424
 20
654.8815
 40
0.2000
 50
348.6000
 51
450.0000
  0
ARC
  8
0_00
  6
CONTINUOUS
 62
2
 10
466.0518
 20
372.8493
 40
12.4195
 50
72.4122
 51
107.5878
  0
ARC
  8
0_00
  6
CONTINUOUS
 62
2
 10
460.4227
 20
381.9462
 40
3.3226
 50
55.6160
 51
124.3840
  0
ARC
  8
0_00
  6
CONTINUOUS
 62
2
 10
471.6810
 20
381.9462
 40
3.3226
 50
55.6160
 51
124.3840
  0
ARC
  8
0_00
  6
DASHED
 62
2
 10
466.0518
 20
375.6608
 40
10.0765
 50
248.1346
 51
291.8654
  0
ARC
  8
0_00
  6
DASHED
 62
2
 10
471.6810
 20
369.5592
 40
3.7528
 50
240.0000
 51
300.0000
  0
ARC
  8
0_00
  6
DASHED
 62
2
 10
460.4227
 20
369.5592
 40
3.7528
 50
240.0000
 51
300.0000
  0
ARC
  8
0_00
  6
CONTINUOUS
 62
2
 10
756.2643
 20
685.6796
 40
13.0000
 50
97.0479
 51
180.0001
  0
ARC
  8
0_00
  6
CONTINUOUS
 62
2
 10
780.2643
 20
491.5576
 40
208.6000
 50
82.9521
 51
97.0479
  0
ARC
  8
0_00
  6
CONTINUOUS
 62
2
 10
804.2643
 20
685.6796
 40
13.0000
 50
0.0000
 51
82.9521
  0
ARC
  8
0_00
  6
CONTINUOUS
 62
4
 10
267.5518
 20
517.7310
 40
6.0000
 50
165.0000
 51
180.0000
  0
ARC
  8
0_00
  6
CONTINUOUS
 62
4
 10
266.1314
 20
524.0209
 40
3.0000
 50
90.0000
 51
165.0000
  0
ARC
  8
0_00
  6
CONTINUOUS
 62
4
 10
276.9722
 20
524.0209
 40
3.0000
 50
15.0000
 51
90.0000
  0
ARC
  8
0_00
  6
CONTINUOUS
 62
4
 10
262.5518
 20
515.7084
 40
1.0000
 50
180.0000
 51
208.3576
  0
ARC
  8
0_00
  6
CONTINUOUS
 62
4
 10
260.3518
 20
514.5209
 40
1.5000
 50
331.6424
 51
388.3576
  0
ARC
  8
0_00
  6
CONTINUOUS
 62
4
 10
276.9722
 20
524.0209
 40
2.3000
 50
15.0000
 51
90.0000
  0
ARC
  8
0_00
  6
CONTINUOUS
 62
4
 10
266.1314
 20
524.0209
 40
2.3000
 50
90.0000
 51
165.0000
  0
ARC
  8
0_00
  6
CONTINUOUS
 62
4
 10
267.5518
 20
517.7310
 40
5.3000
 50
165.0000
 51
180.0000
  0
ARC
  8
0_00
  6
CONTINUOUS
 62
4
 10
267.5518
 20
511.3109
 40
6.0000
 50
180.0000
 51
195.0000
  0
ARC
  8
0_00
  6
CONTINUOUS
 62
4
 10
266.1314
 20
505.0210
 40
3.0000
 50
195.0000
 51
270.0000
  0
ARC
  8
0_00
  6
CONTINUOUS
 62
4
 10
276.9722
 20
505.0210
 40
3.0000
 50
270.0000
 51
345.0000
  0
ARC
  8
0_00
  6
CONTINUOUS
 62
4
 10
262.5518
 20
513.3335
 40
1.0000
 50
151.6424
 51
180.0000
  0
ARC
  8
0_00
  6
CONTINUOUS
 62
4
 10
260.3518
 20
514.5209
 40
1.5000
 50
331.6424
 51
388.3576
  0
ARC
  8
0_00
  6
CONTINUOUS
 62
4
 10
276.9722
 20
505.0210
 40
2.3000
 50
270.0000
 51
345.0000
  0
ARC
  8
0_00
  6
CONTINUOUS
 62
4
 10
266.1314
 20
505.0210
 40
2.3000
 50
195.0000
 51
270.0000
  0
ARC
  8
0_00
  6
CONTINUOUS
 62
4
 10
267.5518
 20
511.3109
 40
5.3000
 50
180.0000
 51
195.0000
  0
ARC
  8
0_00
  6
CONTINUOUS
 62
4
 10
260.3518
 20
514.5209
 40
2.2000
 50
329.7274
 51
390.2726
  0
ARC
  8
0_00
  6
CONTINUOUS
 62
4
 10
280.5518
 20
515.7084
 40
1.0000
 50
331.6424
 51
360.0000
  0
ARC
  8
0_00
  6
CONTINUOUS
 62
4
 10
275.5518
 20
517.7310
 40
6.0000
 50
0.0000
 51
15.0000
  0
ARC
  8
0_00
  6
CONTINUOUS
 62
4
 10
282.7518
 20
514.5209
 40
1.5000
 50
151.6424
 51
208.3576
  0
ARC
  8
0_00
  6
CONTINUOUS
 62
4
 10
278.0518
 20
514.5209
 40
2.1500
 50
68.1552
 51
111.8448
  0
ARC
  8
0_00
  6
CONTINUOUS
 62
4
 10
278.0518
 20
514.5209
 40
1.7000
 50
118.0725
 51
142.6303
  0
ARC
  8
0_00
  6
CONTINUOUS
 62
4
 10
278.0518
 20
514.5209
 40
1.7000
 50
38.6269
 51
61.9275
  0
ARC
  8
0_00
  6
CONTINUOUS
 62
4
 10
279.6143
 20
515.7694
 40
0.3000
 50
218.6269
 51
300.0000
  0
ARC
  8
0_00
  6
CONTINUOUS
 62
4
 10
278.0518
 20
514.5209
 40
3.2000
 50
51.5653
 51
90.0000
  0
ARC
  8
0_00
  6
CONTINUOUS
 62
4
 10
278.0518
 20
515.9210
 40
1.8000
 50
90.0000
 51
180.0000
  0
ARC
  8
0_00
  6
CONTINUOUS
 62
4
 10
280.3518
 20
517.4192
 40
0.5000
 50
231.5654
 51
360.0000
  0
ARC
  8
0_00
  6
CONTINUOUS
 62
4
 10
276.5020
 20
515.7046
 40
0.2501
 50
180.0000
 51
322.6303
  0
ARC
  8
0_00
  6
CONTINUOUS
 62
4
 10
280.2725
 20
515.4566
 40
0.3000
 50
339.3231
 51
480.0000
  0
ARC
  8
0_00
  6
CONTINUOUS
 62
4
 10
280.5518
 20
513.3335
 40
1.0000
 50
0.0000
 51
28.3576
  0
ARC
  8
0_00
  6
CONTINUOUS
 62
4
 10
275.5518
 20
511.3109
 40
6.0000
 50
345.0000
 51
360.0000
  0
ARC
  8
0_00
  6
CONTINUOUS
 62
4
 10
280.2725
 20
513.5852
 40
0.3000
 50
240.0000
 51
380.6769
  0
ARC
  8
0_00
  6
CONTINUOUS
 62
4
 10
275.5518
 20
517.7310
 40
5.3000
 50
0.0000
 51
15.0000
  0
ARC
  8
0_00
  6
CONTINUOUS
 62
4
 10
280.3518
 20
511.6227
 40
0.5000
 50
0.0000
 51
128.4346
  0
ARC
  8
0_00
  6
CONTINUOUS
 62
4
 10
275.5518
 20
511.3109
 40
5.3000
 50
345.0000
 51
360.0000
  0
ARC
  8
0_00
  6
CONTINUOUS
 62
4
 10
282.7518
 20
514.5209
 40
2.3500
 50
159.3231
 51
200.6769
  0
ARC
  8
0_00
  6
CONTINUOUS
 62
4
 10
278.0518
 20
514.5209
 40
2.1500
 50
248.1552
 51
291.8448
  0
ARC
  8
0_00
  6
CONTINUOUS
 62
4
 10
278.0518
 20
514.5209
 40
1.7000
 50
217.3697
 51
241.9275
  0
ARC
  8
0_00
  6
CONTINUOUS
 62
4
 10
278.0518
 20
514.5209
 40
1.7000
 50
298.0725
 51
321.3731
  0
ARC
  8
0_00
  6
CONTINUOUS
 62
4
 10
279.6143
 20
513.2725
 40
0.3000
 50
60.0000
 51
141.3731
  0
ARC
  8
0_00
  6
CONTINUOUS
 62
4
 10
278.0518
 20
514.5209
 40
3.2000
 50
270.0000
 51
308.4347
  0
ARC
  8
0_00
  6
CONTINUOUS
 62
4
 10
278.0518
 20
513.1210
 40
1.8000
 50
180.0000
 51
270.0000
  0
ARC
  8
0_00
  6
CONTINUOUS
 62
4
 10
276.5020
 20
513.3373
 40
0.2501
 50
37.3697
 51
180.0000
  0
ARC
  8
0_00
  6
CONTINUOUS
 62
4
 10
759.7643
 20
379.3843
 40
2.0000
 50
90.0000
 51
180.0000
  0
ARC
  8
0_00
  6
CONTINUOUS
 62
4
 10
759.2643
 20
347.8843
 40
1.5000
 50
180.0000
 51
270.0000
  0
ARC
  8
0_00
  6
CONTINUOUS
 62
4
 10
759.5615
 20
379.5843
 40
0.3000
 50
90.0000
 51
179.4629
  0
ARC
  8
0_00
  6
CONTINUOUS
 62
4
 10
759.2671
 20
348.1843
 40
0.3000
 50
179.4629
 51
270.0000
  0
ARC
  8
0_00
  6
CONTINUOUS
 62
4
 10
759.9643
 20
346.6843
 40
0.3000
 50
270.0000
 51
360.0000
  0
ARC
  8
0_00
  6
CONTINUOUS
 62
4
 10
759.9643
 20
347.5843
 40
0.3000
 50
0.0000
 51
90.0000
  0
ARC
  8
0_00
  6
CONTINUOUS
 62
4
 10
766.0277
 20
379.3843
 40
0.5000
 50
14.9314
 51
90.0000
  0
ARC
  8
0_00
  6
CONTINUOUS
 62
4
 10
794.5009
 20
379.3843
 40
0.5000
 50
90.0000
 51
165.0686
  0
ARC
  8
0_00
  6
CONTINUOUS
 62
4
 10
800.9670
 20
379.5843
 40
0.3000
 50
0.5371
 51
90.0000
  0
ARC
  8
0_00
  6
CONTINUOUS
 62
4
 10
800.7643
 20
379.3843
 40
2.0000
 50
0.0000
 51
90.0000
  0
ARC
  8
0_00
  6
CONTINUOUS
 62
4
 10
801.2643
 20
347.8843
 40
1.5000
 50
270.0000
 51
360.0000
  0
ARC
  8
0_00
  6
CONTINUOUS
 62
4
 10
800.5643
 20
346.6843
 40
0.3000
 50
180.0000
 51
270.0000
  0
ARC
  8
0_00
  6
CONTINUOUS
 62
4
 10
800.5643
 20
347.5843
 40
0.3000
 50
90.0000
 51
180.0000
  0
ARC
  8
0_00
  6
CONTINUOUS
 62
4
 10
801.2615
 20
348.1843
 40
0.3000
 50
270.0000
 51
360.5371
  0
ARC
  8
0_00
  6
CONTINUOUS
 62
2
 10
475.5518
 20
656.1926
 40
12.4195
 50
252.4122
 51
287.5878
  0
ARC
  8
0_00
  6
CONTINUOUS
 62
2
 10
469.9227
 20
647.0957
 40
3.3226
 50
235.6160
 51
304.3840
  0
ARC
  8
0_00
  6
CONTINUOUS
 62
2
 10
481.1810
 20
647.0957
 40
3.3226
 50
235.6160
 51
304.3840
  0
ARC
  8
0_00
  6
CONTINUOUS
 62
2
 10
475.5518
 20
652.7810
 40
10.0765
 50
68.1346
 51
111.8654
  0
ARC
  8
0_00
  6
CONTINUOUS
 62
2
 10
481.1810
 20
658.8827
 40
3.7528
 50
60.0000
 51
120.0000
  0
ARC
  8
0_00
  6
CONTINUOUS
 62
2
 10
469.9227
 20
658.8827
 40
3.7528
 50
60.0000
 51
120.0000
  0
ARC
  8
0_00
  6
CONTINUOUS
 62
2
 10
800.7643
 20
379.3843
 40
9.0000
 50
0.0000
 51
90.0000
  0
ARC
  8
0_00
  6
CONTINUOUS
 62
2
 10
759.7643
 20
379.3843
 40
9.0000
 50
90.0000
 51
180.0000
  0
ARC
  8
0_00
  6
CONTINUOUS
 62
2
 10
780.2643
 20
652.7810
 40
10.0765
 50
68.1346
 51
111.8654
  0
ARC
  8
0_00
  6
CONTINUOUS
 62
2
 10
785.8934
 20
658.8827
 40
3.7528
 50
60.0000
 51
120.0000
  0
ARC
  8
0_00
  6
CONTINUOUS
 62
2
 10
774.6352
 20
658.8827
 40
3.7528
 50
60.0000
 51
120.0000
  0
ARC
  8
0_00
  6
CONTINUOUS
 62
2
 10
780.2643
 20
656.1926
 40
12.4195
 50
252.4122
 51
287.5878
  0
ARC
  8
0_00
  6
CONTINUOUS
 62
2
 10
774.6352
 20
647.0957
 40
3.3226
 50
235.6160
 51
304.3840
  0
ARC
  8
0_00
  6
CONTINUOUS
 62
2
 10
785.8934
 20
647.0957
 40
3.3226
 50
235.6160
 51
304.3840
  0
ARC
  8
0_00
  6
CONTINUOUS
 62
4
 10
1058.7810
 20
659.3016
 40
0.4000
 50
194.0363
 51
270.0000
  0
ARC
  8
0_00
  6
CONTINUOUS
 62
4
 10
1057.8321
 20
660.2115
 40
0.3000
 50
14.0362
 51
87.5372
  0
ARC
  8
0_00
  6
CONTINUOUS
 62
4
 10
1030.7563
 20
659.3016
 40
0.4000
 50
270.0000
 51
345.9637
  0
ARC
  8
0_00
  6
CONTINUOUS
 62
4
 10
1031.7054
 20
660.2115
 40
0.3000
 50
92.4628
 51
165.9637
  0
ARC
  8
0_00
  6
CONTINUOUS
 62
4
 10
1058.7810
 20
659.3016
 40
0.4000
 50
194.0363
 51
270.0000
  0
ARC
  8
0_00
  6
CONTINUOUS
 62
4
 10
1057.8321
 20
660.2115
 40
0.3000
 50
14.0362
 51
87.5372
  0
ARC
  8
0_00
  6
CONTINUOUS
 62
4
 10
1070.0964
 20
659.5015
 40
0.6000
 50
270.0000
 51
388.8667
  0
ARC
  8
0_00
  6
CONTINUOUS
 62
4
 10
1073.0187
 20
662.1533
 40
0.3000
 50
275.0000
 51
371.6000
  0
ARC
  8
0_00
  6
CONTINUOUS
 62
4
 10
1072.2188
 20
661.4308
 40
0.3500
 50
95.0000
 51
185.0988
  0
ARC
  8
0_00
  6
CONTINUOUS
 62
4
 10
1071.1687
 20
661.7907
 40
1.0000
 50
95.0000
 51
180.0000
  0
ARC
  8
0_00
  6
CONTINUOUS
 62
4
 10
1071.8935
 20
663.1590
 40
0.3000
 50
275.0000
 51
371.6000
  0
ARC
  8
0_00
  6
CONTINUOUS
 62
4
 10
1072.1666
 20
666.8016
 40
0.7000
 50
90.0000
 51
191.6000
  0
ARC
  8
0_00
  6
CONTINUOUS
 62
4
 10
1073.8622
 20
661.5775
 40
2.0000
 50
185.0988
 51
249.7122
  0
ARC
  8
0_00
  6
CONTINUOUS
 62
4
 10
1073.8622
 20
661.5775
 40
3.7000
 50
183.4043
 51
208.8667
  0
ARC
  8
0_00
  6
CONTINUOUS
 62
4
 10
1075.2692
 20
658.4404
 40
0.5000
 50
179.9995
 51
296.3368
  0
ARC
  8
0_00
  6
CONTINUOUS
 62
4
 10
1072.9693
 20
667.2481
 40
0.4000
 50
359.4403
 51
449.9995
  0
ARC
  8
0_00
  6
CONTINUOUS
 62
4
 10
1070.0693
 20
667.0481
 40
0.2000
 50
179.9995
 51
269.9996
  0
ARC
  8
0_00
  6
CONTINUOUS
 62
4
 10
1070.0693
 20
667.4481
 40
0.6000
 50
269.9996
 51
359.9996
  0
ARC
  8
0_00
  6
CONTINUOUS
 62
4
 10
1072.3192
 20
661.4049
 40
0.3500
 50
94.9995
 51
190.8312
  0
ARC
  8
14_0E
  6
CONTINUOUS
 62
4
 10
1073.9398
 20
661.7150
 40
2.0000
 50
190.8312
 51
253.4221
  0
ARC
  8
0_00
  6
CONTINUOUS
 62
4
 10
1072.9693
 20
662.2147
 40
0.4000
 50
274.9996
 51
371.3995
  0
ARC
  8
0_00
  6
CONTINUOUS
 62
4
 10
1073.0907
 20
664.6481
 40
0.2000
 50
89.9995
 51
191.3996
  0
ARC
  8
0_00
  6
CONTINUOUS
 62
4
 10
1070.8693
 20
667.9481
 40
1.0000
 50
89.9995
 51
179.9995
  0
ARC
  8
0_00
  6
CONTINUOUS
 62
4
 10
1073.4692
 20
667.6481
 40
1.3000
 50
359.9996
 51
449.9995
  0
ARC
  8
0_00
  6
CONTINUOUS
 62
4
 10
1044.7687
 20
633.1576
 40
60.0000
 50
56.5252
 51
123.4747
  0
ARC
  8
0_00
  6
CONTINUOUS
 62
4
 10
1069.3686
 20
670.3597
 40
15.4000
 50
292.7488
 51
416.5252
  0
ARC
  8
0_00
  6
CONTINUOUS
 62
4
 10
1074.7787
 20
657.4576
 40
1.4095
 50
179.9994
 51
292.7488
  0
ARC
  8
0_00
  6
CONTINUOUS
 62
4
 10
1069.3686
 20
670.3597
 40
13.8000
 50
296.3368
 51
416.5252
  0
ARC
  8
0_00
  6
CONTINUOUS
 62
4
 10
1044.7687
 20
633.1576
 40
58.4000
 50
56.5252
 51
123.4747
  0
ARC
  8
0_00
  6
CONTINUOUS
 62
4
 10
1030.7563
 20
659.3016
 40
0.4000
 50
270.0000
 51
345.9637
  0
ARC
  8
0_00
  6
CONTINUOUS
 62
4
 10
1031.7054
 20
660.2115
 40
0.3000
 50
92.4628
 51
165.9637
  0
ARC
  8
0_00
  6
CONTINUOUS
 62
4
 10
1019.4409
 20
659.5015
 40
0.6000
 50
151.1333
 51
270.0000
  0
ARC
  8
0_00
  6
CONTINUOUS
 62
4
 10
1016.5187
 20
662.1533
 40
0.3000
 50
168.4000
 51
265.0000
  0
ARC
  8
0_00
  6
CONTINUOUS
 62
4
 10
1017.3188
 20
661.4308
 40
0.3500
 50
354.9012
 51
445.0000
  0
ARC
  8
0_00
  6
CONTINUOUS
 62
4
 10
1018.3686
 20
661.7907
 40
1.0000
 50
0.0000
 51
85.0000
  0
ARC
  8
0_00
  6
CONTINUOUS
 62
4
 10
1017.6439
 20
663.1590
 40
0.3000
 50
168.4000
 51
265.0000
  0
ARC
  8
0_00
  6
CONTINUOUS
 62
4
 10
1017.3707
 20
666.8016
 40
0.7000
 50
348.4000
 51
450.0000
  0
ARC
  8
0_00
  6
CONTINUOUS
 62
4
 10
1015.6752
 20
661.5775
 40
2.0000
 50
290.2878
 51
354.9012
  0
ARC
  8
0_00
  6
CONTINUOUS
 62
4
 10
1015.6752
 20
661.5775
 40
3.7000
 50
331.1333
 51
356.5957
  0
ARC
  8
0_00
  6
CONTINUOUS
 62
4
 10
1014.2682
 20
658.4404
 40
0.5000
 50
243.6632
 51
360.0004
  0
ARC
  8
0_00
  6
CONTINUOUS
 62
4
 10
1016.5681
 20
667.2481
 40
0.4000
 50
89.9999
 51
180.5597
  0
ARC
  8
0_00
  6
CONTINUOUS
 62
4
 10
1019.4681
 20
667.0481
 40
0.2000
 50
270.0005
 51
360.0004
  0
ARC
  8
0_00
  6
CONTINUOUS
 62
4
 10
1019.4681
 20
667.4481
 40
0.6000
 50
180.0005
 51
270.0005
  0
ARC
  8
0_00
  6
CONTINUOUS
 62
4
 10
1017.2182
 20
661.4049
 40
0.3500
 50
349.1688
 51
445.0004
  0
ARC
  8
14_0E
  6
CONTINUOUS
 62
4
 10
1015.5975
 20
661.7150
 40
2.0000
 50
286.5779
 51
349.1688
  0
ARC
  8
0_00
  6
CONTINUOUS
 62
4
 10
1016.5681
 20
662.2147
 40
0.4000
 50
168.6004
 51
265.0005
  0
ARC
  8
0_00
  6
CONTINUOUS
 62
4
 10
1016.4467
 20
664.6481
 40
0.2000
 50
348.6005
 51
450.0004
  0
ARC
  8
0_00
  6
CONTINUOUS
 62
4
 10
1018.6681
 20
667.9481
 40
1.0000
 50
0.0004
 51
90.0004
  0
ARC
  8
0_00
  6
CONTINUOUS
 62
4
 10
1016.0681
 20
667.6481
 40
1.3000
 50
90.0004
 51
180.0005
  0
ARC
  8
0_00
  6
CONTINUOUS
 62
4
 10
1020.1686
 20
670.3597
 40
15.4000
 50
123.4747
 51
247.2512
  0
ARC
  8
0_00
  6
CONTINUOUS
 62
4
 10
1014.7586
 20
657.4576
 40
1.4095
 50
247.2512
 51
360.0006
  0
ARC
  8
0_00
  6
CONTINUOUS
 62
4
 10
1020.1686
 20
670.3597
 40
13.8000
 50
123.4747
 51
243.6632
  0
ARC
  8
0_00
  6
CONTINUOUS
 62
2
 10
1044.7687
 20
662.5250
 40
10.0765
 50
68.1346
 51
111.8654
  0
ARC
  8
0_00
  6
CONTINUOUS
 62
2
 10
1050.3979
 20
668.6267
 40
3.7528
 50
60.0000
 51
120.0000
  0
ARC
  8
0_00
  6
CONTINUOUS
 62
2
 10
1039.1396
 20
668.6267
 40
3.7528
 50
60.0000
 51
120.0000
  0
ARC
  8
0_00
  6
CONTINUOUS
 62
2
 10
1044.7687
 20
665.9366
 40
12.4195
 50
252.4122
 51
287.5878
  0
ARC
  8
0_00
  6
CONTINUOUS
 62
2
 10
1039.1396
 20
656.8396
 40
3.3226
 50
235.6160
 51
304.3840
  0
ARC
  8
0_00
  6
CONTINUOUS
 62
2
 10
1050.3979
 20
656.8396
 40
3.3226
 50
235.6160
 51
304.3840
  0
ARC
  8
0_00
  6
CONTINUOUS
 62
2
 10
780.2643
 20
376.4608
 40
10.0765
 50
248.1346
 51
291.8654
  0
ARC
  8
0_00
  6
CONTINUOUS
 62
2
 10
774.6352
 20
370.3592
 40
3.7528
 50
240.0000
 51
300.0000
  0
ARC
  8
0_00
  6
CONTINUOUS
 62
2
 10
785.8934
 20
370.3592
 40
3.7528
 50
240.0000
 51
300.0000
  0
ARC
  8
0_00
  6
CONTINUOUS
 62
2
 10
780.2643
 20
372.8493
 40
12.4195
 50
72.4122
 51
107.5878
  0
ARC
  8
0_00
  6
CONTINUOUS
 62
2
 10
785.8934
 20
381.9462
 40
3.3226
 50
55.6160
 51
124.3840
  0
ARC
  8
0_00
  6
CONTINUOUS
 62
2
 10
774.6352
 20
381.9462
 40
3.3226
 50
55.6160
 51
124.3840
  0
CIRCLE
  8
0_00
  6
CONTINUOUS
 62
2
 10
862.6255
 20
240.6952
 40
0.2000
  0
CIRCLE
  8
0_00
  6
CONTINUOUS
 62
2
 10
869.9155
 20
234.9240
 40
0.2000
  0
CIRCLE
  8
0_00
  6
CONTINUOUS
 62
2
 10
861.4106
 20
230.6716
 40
0.2000
  0
CIRCLE
  8
0_00
  6
CONTINUOUS
 62
2
 10
866.5743
 20
220.0405
 40
0.2000
  0
CIRCLE
  8
0_00
  6
CONTINUOUS
 62
2
 10
873.5604
 20
224.5967
 40
0.2000
  0
CIRCLE
  8
0_00
  6
CONTINUOUS
 62
2
 10
875.9904
 20
210.6243
 40
0.2000
  0
CIRCLE
  8
0_00
  6
CONTINUOUS
 62
2
 10
866.2705
 20
206.9794
 40
0.2000
  0
CIRCLE
  8
0_00
  6
CONTINUOUS
 62
2
 10
870.8267
 20
198.1707
 40
0.2000
  0
CIRCLE
  8
0_00
  6
CONTINUOUS
 62
2
 10
876.2942
 20
192.0958
 40
0.2000
  0
CIRCLE
  8
0_00
  6
CONTINUOUS
 62
2
 10
850.1720
 20
238.5690
 40
0.2000
  0
CIRCLE
  8
0_00
  6
CONTINUOUS
 62
2
 10
853.5132
 20
231.8866
 40
0.2000
  0
CIRCLE
  8
0_00
  6
CONTINUOUS
 62
2
 10
840.1483
 20
230.9753
 40
0.2000
  0
CIRCLE
  8
0_00
  6
CONTINUOUS
 62
2
 10
834.0733
 20
239.1765
 40
0.2000
  0
CIRCLE
  8
0_00
  6
CONTINUOUS
 62
2
 10
841.6671
 20
239.7840
 40
0.2000
  0
CIRCLE
  8
0_00
  6
CONTINUOUS
 62
2
 10
830.7321
 20
230.6716
 40
0.2000
  0
CIRCLE
  8
0_00
  6
CONTINUOUS
 62
2
 10
825.2647
 20
238.2653
 40
0.2000
  0
CIRCLE
  8
0_00
  6
CONTINUOUS
 62
2
 10
820.4048
 20
228.5454
 40
0.2000
  0
CIRCLE
  8
0_00
  6
CONTINUOUS
 62
2
 10
813.1148
 20
229.7604
 40
0.2000
  0
CIRCLE
  8
0_00
  6
CONTINUOUS
 62
2
 10
811.5961
 20
240.3915
 40
0.2000
  0
CIRCLE
  8
0_00
  6
CONTINUOUS
 62
2
 10
773.0203
 20
241.9102
 40
0.2000
  0
CIRCLE
  8
0_00
  6
CONTINUOUS
 62
2
 10
772.1091
 20
231.2791
 40
0.2000
  0
CIRCLE
  8
0_00
  6
CONTINUOUS
 62
2
 10
786.3851
 20
230.6716
 40
0.2000
  0
CIRCLE
  8
0_00
  6
CONTINUOUS
 62
2
 10
794.5864
 20
230.3679
 40
0.2000
  0
CIRCLE
  8
0_00
  6
CONTINUOUS
 62
2
 10
789.1189
 20
241.6065
 40
0.2000
  0
CIRCLE
  8
0_00
  6
CONTINUOUS
 62
2
 10
796.1050
 20
242.2140
 40
0.2000
  0
CIRCLE
  8
0_00
  6
CONTINUOUS
 62
2
 10
766.9454
 20
230.0641
 40
0.2000
  0
CIRCLE
  8
0_00
  6
CONTINUOUS
 62
2
 10
751.1505
 20
242.5177
 40
0.2000
  0
CIRCLE
  8
0_00
  6
CONTINUOUS
 62
2
 10
748.7206
 20
230.9753
 40
0.2000
  0
CIRCLE
  8
0_00
  6
CONTINUOUS
 62
2
 10
734.4445
 20
231.5828
 40
0.2000
  0
CIRCLE
  8
0_00
  6
CONTINUOUS
 62
2
 10
738.3932
 20
239.4802
 40
0.2000
  0
CIRCLE
  8
0_00
  6
CONTINUOUS
 62
2
 10
739.9119
 20
234.3165
 40
0.2000
  0
CIRCLE
  8
0_00
  6
CONTINUOUS
 62
2
 10
728.6732
 20
241.3027
 40
0.2000
  0
CIRCLE
  8
0_00
  6
CONTINUOUS
 62
2
 10
744.7719
 20
242.2140
 40
0.2000
  0
CIRCLE
  8
0_00
  6
CONTINUOUS
 62
2
 10
718.3459
 20
242.2140
 40
0.2000
  0
CIRCLE
  8
0_00
  6
CONTINUOUS
 62
2
 10
715.3085
 20
229.7604
 40
0.2000
  0
CIRCLE
  8
0_00
  6
CONTINUOUS
 62
2
 10
723.5096
 20
235.2278
 40
0.2000
  0
CIRCLE
  8
0_00
  6
CONTINUOUS
 62
2
 10
723.5096
 20
231.2791
 40
0.2000
  0
CIRCLE
  8
0_00
  6
CONTINUOUS
 62
2
 10
709.5372
 20
236.1390
 40
0.2000
  0
CIRCLE
  8
0_00
  6
CONTINUOUS
 62
2
 10
702.8549
 20
231.8866
 40
0.2000
  0
CIRCLE
  8
0_00
  6
CONTINUOUS
 62
2
 10
694.0461
 20
231.8866
 40
0.2000
  0
CIRCLE
  8
0_00
  6
CONTINUOUS
 62
2
 10
694.3499
 20
238.8728
 40
0.2000
  0
CIRCLE
  8
0_00
  6
CONTINUOUS
 62
2
 10
703.7661
 20
239.1765
 40
0.2000
  0
CIRCLE
  8
0_00
  6
CONTINUOUS
 62
2
 10
711.3598
 20
242.2140
 40
0.2000
  0
CIRCLE
  8
0_00
  6
CONTINUOUS
 62
2
 10
709.8410
 20
229.7604
 40
0.2000
  0
CIRCLE
  8
0_00
  6
CONTINUOUS
 62
2
 10
846.5270
 20
234.0128
 40
0.2000
  0
CIRCLE
  8
0_00
  6
CONTINUOUS
 62
2
 10
870.2193
 20
213.9655
 40
0.2000
  0
CIRCLE
  8
0_00
  6
CONTINUOUS
 62
2
 10
871.1305
 20
177.5159
 40
0.2000
  0
CIRCLE
  8
0_00
  6
CONTINUOUS
 62
2
 10
688.5787
 20
230.3679
 40
0.2000
  0
CIRCLE
  8
0_00
  6
CONTINUOUS
 62
2
 10
684.3263
 20
223.9892
 40
0.2000
  0
CIRCLE
  8
0_00
  6
CONTINUOUS
 62
2
 10
684.9338
 20
213.6618
 40
0.2000
  0
CIRCLE
  8
0_00
  6
CONTINUOUS
 62
2
 10
693.1349
 20
208.4981
 40
0.2000
  0
CIRCLE
  8
0_00
  6
CONTINUOUS
 62
2
 10
694.6537
 20
220.3442
 40
0.2000
  0
CIRCLE
  8
0_00
  6
CONTINUOUS
 62
2
 10
691.6162
 20
218.8255
 40
0.2000
  0
CIRCLE
  8
0_00
  6
CONTINUOUS
 62
2
 10
697.6912
 20
227.0266
 40
0.2000
  0
CIRCLE
  8
0_00
  6
CONTINUOUS
 62
2
 10
697.0836
 20
201.2082
 40
0.2000
  0
CIRCLE
  8
0_00
  6
CONTINUOUS
 62
2
 10
686.4525
 20
199.3857
 40
0.2000
  0
CIRCLE
  8
0_00
  6
CONTINUOUS
 62
2
 10
684.3263
 20
188.4508
 40
0.2000
  0
CIRCLE
  8
0_00
  6
CONTINUOUS
 62
2
 10
694.3499
 20
189.0583
 40
0.2000
  0
CIRCLE
  8
0_00
  6
CONTINUOUS
 62
2
 10
688.8825
 20
194.8295
 40
0.2000
  0
CIRCLE
  8
0_00
  6
CONTINUOUS
 62
2
 10
692.2237
 20
182.3759
 40
0.2000
  0
CIRCLE
  8
0_00
  6
CONTINUOUS
 62
2
 10
686.1487
 20
180.5534
 40
0.2000
  0
CIRCLE
  8
0_00
  6
CONTINUOUS
 62
2
 10
698.9061
 20
182.6796
 40
0.2000
  0
CIRCLE
  8
0_00
  6
CONTINUOUS
 62
2
 10
686.4525
 20
206.3719
 40
0.2000
  0
CIRCLE
  8
0_00
  6
CONTINUOUS
 62
2
 10
820.1747
 20
243.6538
 40
0.2000
  0
CIRCLE
  8
0_00
  6
CONTINUOUS
 62
2
 10
864.9972
 20
187.0835
 40
0.2000
  0
CIRCLE
  8
0_00
  6
CONTINUOUS
 62
2
 10
864.3780
 20
178.6213
 40
0.2000
  0
CIRCLE
  8
0_00
  6
CONTINUOUS
 62
2
 10
870.9826
 20
184.4004
 40
0.2000
  0
CIRCLE
  8
0_00
  6
CONTINUOUS
 62
2
 10
877.7938
 20
177.1765
 40
0.2000
  0
CIRCLE
  8
0_00
  6
CONTINUOUS
 62
2
 10
804.1100
 20
235.3805
 40
0.2000
  0
CIRCLE
  8
0_00
  6
CONTINUOUS
 62
2
 10
803.6971
 20
230.0142
 40
0.2000
  0
CIRCLE
  8
0_00
  6
CONTINUOUS
 62
2
 10
761.1793
 20
237.4445
 40
0.2000
  0
CIRCLE
  8
0_00
  6
CONTINUOUS
 62
2
 10
753.7489
 20
232.2846
 40
0.2000
  0
CIRCLE
  8
0_00
  6
CONTINUOUS
 62
2
 10
759.3217
 20
230.0142
 40
0.2000
  0
CIRCLE
  8
0_00
  6
CONTINUOUS
 62
2
 10
764.2753
 20
241.5724
 40
0.2000
  0
CIRCLE
  8
0_00
  6
CONTINUOUS
 62
2
 10
778.1039
 20
237.0317
 40
0.2000
  0
CIRCLE
  8
0_00
  6
CONTINUOUS
 62
2
 10
784.5022
 20
238.0637
 40
0.2000
  0
ARC
  8
2_02
  6
CONTINUOUS
 62
4
 10
514.8518
 20
654.3576
 40
3.2000
 50
270.0000
 51
360.0000
  0
ARC
  8
0_00
  6
CONTINUOUS
 62
2
 10
489.2281
 20
701.9813
 40
9.0102
 50
281.6774
 51
348.3226
  0
CIRCLE
  8
0_00
  6
CONTINUOUS
 62
2
 10
504.1169
 20
707.3711
 40
0.2000
  0
CIRCLE
  8
0_00
  6
CONTINUOUS
 62
2
 10
511.3451
 20
698.0505
 40
0.2000
  0
CIRCLE
  8
0_00
  6
CONTINUOUS
 62
2
 10
514.3886
 20
707.7516
 40
0.2000
  0
CIRCLE
  8
0_00
  6
CONTINUOUS
 62
2
 10
503.5462
 20
700.7135
 40
0.2000
  0
CIRCLE
  8
0_00
  6
CONTINUOUS
 62
2
 10
505.8288
 20
638.7026
 40
0.2000
  0
CIRCLE
  8
0_00
  6
CONTINUOUS
 62
2
 10
510.9646
 20
632.9961
 40
0.2000
  0
CIRCLE
  8
0_00
  6
CONTINUOUS
 62
2
 10
501.6441
 20
632.2352
 40
0.2000
  0
CIRCLE
  8
0_00
  6
CONTINUOUS
 62
2
 10
509.2527
 20
629.7625
 40
0.2000
  0
CIRCLE
  8
0_00
  6
CONTINUOUS
 62
2
 10
512.6766
 20
643.0777
 40
0.2000
  0
ARC
  8
2_02
  6
DASHED
 62
2
 10
514.8518
 20
374.8843
 40
3.2000
 50
0.0000
 51
90.0000
  0
ARC
  8
0_00
  6
CONTINUOUS
 62
2
 10
489.2281
 20
390.2080
 40
9.0102
 50
281.6774
 51
348.3226
  0
ARC
  8
0_00
  6
CONTINUOUS
 62
3
 10
1089.6760
 20
72.2363
 40
0.5362
 50
270.0000
 51
450.0000
  0
ARC
  8
0_00
  6
CONTINUOUS
 62
3
 10
1088.1842
 20
77.0626
 40
0.6532
 50
0.0000
 51
180.0000
  0
ARC
  8
0_00
  6
CONTINUOUS
 62
3
 10
1089.1886
 20
83.4001
 40
1.9500
 50
333.9999
 51
450.0000
  0
CIRCLE
  8
0_00
  6
CONTINUOUS
 62
3
 10
1090.0660
 20
87.3000
 40
1.5600
  0
ARC
  8
0_00
  6
CONTINUOUS
 62
3
 10
1088.2811
 20
77.0626
 40
0.4500
 50
0.0000
 51
180.0000
  0
ARC
  8
0_00
  6
CONTINUOUS
 62
3
 10
1088.2811
 20
77.0626
 40
0.1500
 50
0.0000
 51
180.0000
  0
ARC
  8
0_00
  6
CONTINUOUS
 62
3
 10
1089.6760
 20
72.1725
 40
0.3000
 50
270.0000
 51
450.0000
  0
CIRCLE
  8
0_00
  6
CONTINUOUS
 62
3
 10
1090.0660
 20
87.3000
 40
1.3244
  0
CIRCLE
  8
0_00
  6
CONTINUOUS
 62
3
 10
1090.0660
 20
87.3000
 40
1.0256
  0
CIRCLE
  8
0_00
  6
CONTINUOUS
 62
3
 10
1090.0660
 20
87.3000
 40
0.7027
  0
CIRCLE
  8
0_00
  6
CONTINUOUS
 62
3
 10
1090.0660
 20
87.3000
 40
0.3440
  0
CIRCLE
  8
0_00
  6
CONTINUOUS
 62
3
 10
1090.0660
 20
87.3000
 40
0.1699
  0
CIRCLE
  8
0_00
  6
CONTINUOUS
 62
4
 10
881.0410
 20
82.2001
 40
3.7500
  0
CIRCLE
  8
0_00
  6
CONTINUOUS
 62
4
 10
881.0410
 20
82.2001
 40
6.0000
  0
ARC
  8
0_00
  6
CONTINUOUS
 62
2
 10
520.2518
 20
669.6576
 40
9.1000
 50
129.7151
 51
230.2849
  0
ARC
  8
0_00
  6
DASHED
 62
2
 10
520.2518
 20
359.5843
 40
9.1000
 50
129.7151
 51
230.2849
  0
ARC
  8
12_0C
  6
DASHED
 62
2
 10
535.1948
 20
665.2458
 40
0.4000
 50
265.0000
 51
345.0000
  0
ARC
  8
12_0C
  6
DASHED
 62
2
 10
540.1758
 20
664.8100
 40
0.4000
 50
265.0000
 51
345.0000
  0
ARC
  8
12_0C
  6
DASHED
 62
2
 10
545.1568
 20
664.3743
 40
0.4000
 50
265.0000
 51
345.0000
  0
ARC
  8
12_0C
  6
DASHED
 62
2
 10
550.1377
 20
663.9386
 40
0.4000
 50
265.0000
 51
345.0000
  0
ARC
  8
12_0C
  6
DASHED
 62
2
 10
554.9290
 20
663.7201
 40
0.6000
 50
265.0000
 51
295.0000
  0
ARC
  8
12_0C
  6
DASHED
 62
2
 10
535.1948
 20
674.0694
 40
0.4000
 50
15.0000
 51
95.0000
  0
ARC
  8
12_0C
  6
DASHED
 62
2
 10
540.1758
 20
674.5051
 40
0.4000
 50
15.0000
 51
95.0000
  0
ARC
  8
12_0C
  6
DASHED
 62
2
 10
545.1568
 20
674.9409
 40
0.4000
 50
15.0000
 51
95.0000
  0
ARC
  8
12_0C
  6
DASHED
 62
2
 10
550.1377
 20
675.3767
 40
0.4000
 50
15.0000
 51
95.0000
  0
ARC
  8
12_0C
  6
DASHED
 62
2
 10
554.9290
 20
675.5951
 40
0.6000
 50
65.0000
 51
95.0000
  0
ARC
  8
12_0C
  6
DASHED
 62
2
 10
553.0369
 20
665.4918
 40
0.2000
 50
355.0000
 51
445.0000
  0
ARC
  8
12_0C
  6
DASHED
 62
2
 10
553.0369
 20
673.8235
 40
0.2000
 50
275.0000
 51
365.0000
  0
ARC
  8
12_0C
  6
DASHED
 62
2
 10
548.0560
 20
665.9275
 40
0.2000
 50
355.0000
 51
445.0000
  0
ARC
  8
12_0C
  6
DASHED
 62
2
 10
548.0560
 20
673.3877
 40
0.2000
 50
275.0000
 51
365.0000
  0
ARC
  8
12_0C
  6
DASHED
 62
2
 10
543.0749
 20
666.3632
 40
0.2000
 50
355.0000
 51
445.0000
  0
ARC
  8
12_0C
  6
DASHED
 62
2
 10
543.0749
 20
672.9519
 40
0.2000
 50
275.0000
 51
365.0000
  0
ARC
  8
12_0C
  6
DASHED
 62
2
 10
538.0940
 20
666.7991
 40
0.2000
 50
355.0000
 51
445.0000
  0
ARC
  8
12_0C
  6
DASHED
 62
2
 10
538.0940
 20
672.5161
 40
0.2000
 50
275.0000
 51
365.0000
  0
ARC
  8
12_0C
  6
DASHED
 62
2
 10
533.0607
 20
666.6372
 40
0.2000
 50
355.0000
 51
445.0000
  0
ARC
  8
12_0C
  6
DASHED
 62
2
 10
533.0607
 20
672.6781
 40
0.2000
 50
275.0000
 51
365.0000
  0
ARC
  8
12_0C
  6
DASHED
 62
2
 10
551.3675
 20
673.8782
 40
0.4000
 50
195.0000
 51
275.0000
  0
ARC
  8
12_0C
  6
DASHED
 62
2
 10
551.2177
 20
665.6509
 40
0.2000
 50
85.0000
 51
165.0000
  0
ARC
  8
12_0C
  6
DASHED
 62
2
 10
546.3865
 20
673.4424
 40
0.4000
 50
195.0000
 51
275.0000
  0
ARC
  8
12_0C
  6
DASHED
 62
2
 10
546.3865
 20
665.8728
 40
0.4000
 50
85.0000
 51
165.0000
  0
ARC
  8
12_0C
  6
DASHED
 62
2
 10
541.4055
 20
673.0066
 40
0.4000
 50
195.0000
 51
275.0000
  0
ARC
  8
12_0C
  6
DASHED
 62
2
 10
541.4055
 20
666.3086
 40
0.4000
 50
85.0000
 51
165.0000
  0
ARC
  8
12_0C
  6
DASHED
 62
2
 10
536.4246
 20
672.5708
 40
0.4000
 50
195.0000
 51
275.0000
  0
ARC
  8
12_0C
  6
DASHED
 62
2
 10
536.4246
 20
666.7444
 40
0.4000
 50
85.0000
 51
165.0000
  0
ARC
  8
12_0C
  6
DASHED
 62
2
 10
530.5668
 20
666.6546
 40
0.4000
 50
85.0000
 51
170.0000
  0
ARC
  8
12_0C
  6
DASHED
 62
2
 10
530.5668
 20
672.6606
 40
0.4000
 50
190.0000
 51
275.0000
  0
ARC
  8
12_0C
  6
DASHED
 62
2
 10
531.9508
 20
677.1520
 40
0.4000
 50
65.0000
 51
155.0000
  0
ARC
  8
12_0C
  6
DASHED
 62
2
 10
531.8663
 20
676.9707
 40
0.4000
 50
155.0000
 51
245.0000
  0
ARC
  8
12_0C
  6
DASHED
 62
2
 10
531.9508
 20
662.1633
 40
0.4000
 50
205.0000
 51
295.0000
  0
ARC
  8
12_0C
  6
DASHED
 62
2
 10
531.8663
 20
662.3446
 40
0.4000
 50
115.0000
 51
205.0000
  0
ARC
  8
12_0C
  6
DASHED
 62
2
 10
535.1948
 20
355.1725
 40
0.4000
 50
265.0000
 51
345.0000
  0
ARC
  8
12_0C
  6
DASHED
 62
2
 10
540.1758
 20
354.7368
 40
0.4000
 50
265.0000
 51
345.0000
  0
ARC
  8
12_0C
  6
DASHED
 62
2
 10
545.1568
 20
354.3010
 40
0.4000
 50
265.0000
 51
345.0000
  0
ARC
  8
12_0C
  6
DASHED
 62
2
 10
550.1377
 20
353.8652
 40
0.4000
 50
265.0000
 51
345.0000
  0
ARC
  8
12_0C
  6
DASHED
 62
2
 10
554.9290
 20
353.6468
 40
0.6000
 50
265.0000
 51
295.0000
  0
ARC
  8
12_0C
  6
DASHED
 62
2
 10
535.1948
 20
363.9960
 40
0.4000
 50
15.0000
 51
95.0000
  0
ARC
  8
12_0C
  6
DASHED
 62
2
 10
540.1758
 20
364.4318
 40
0.4000
 50
15.0000
 51
95.0000
  0
ARC
  8
12_0C
  6
DASHED
 62
2
 10
545.1568
 20
364.8676
 40
0.4000
 50
15.0000
 51
95.0000
  0
ARC
  8
12_0C
  6
DASHED
 62
2
 10
550.1377
 20
365.3034
 40
0.4000
 50
15.0000
 51
95.0000
  0
ARC
  8
12_0C
  6
DASHED
 62
2
 10
554.9290
 20
365.5218
 40
0.6000
 50
65.0000
 51
95.0000
  0
ARC
  8
12_0C
  6
DASHED
 62
2
 10
553.0369
 20
355.4184
 40
0.2000
 50
355.0000
 51
445.0000
  0
ARC
  8
12_0C
  6
DASHED
 62
2
 10
553.0369
 20
363.7501
 40
0.2000
 50
275.0000
 51
365.0000
  0
ARC
  8
12_0C
  6
DASHED
 62
2
 10
548.0560
 20
355.8542
 40
0.2000
 50
355.0000
 51
445.0000
  0
ARC
  8
12_0C
  6
DASHED
 62
2
 10
548.0560
 20
363.3144
 40
0.2000
 50
275.0000
 51
365.0000
  0
ARC
  8
12_0C
  6
DASHED
 62
2
 10
543.0749
 20
356.2900
 40
0.2000
 50
355.0000
 51
445.0000
  0
ARC
  8
12_0C
  6
DASHED
 62
2
 10
543.0749
 20
362.8786
 40
0.2000
 50
275.0000
 51
365.0000
  0
ARC
  8
12_0C
  6
DASHED
 62
2
 10
538.0940
 20
356.7258
 40
0.2000
 50
355.0000
 51
445.0000
  0
ARC
  8
12_0C
  6
DASHED
 62
2
 10
538.0940
 20
362.4428
 40
0.2000
 50
275.0000
 51
365.0000
  0
ARC
  8
12_0C
  6
DASHED
 62
2
 10
533.0607
 20
356.5638
 40
0.2000
 50
355.0000
 51
445.0000
  0
ARC
  8
12_0C
  6
DASHED
 62
2
 10
533.0607
 20
362.6047
 40
0.2000
 50
275.0000
 51
365.0000
  0
ARC
  8
12_0C
  6
DASHED
 62
2
 10
551.3675
 20
363.8048
 40
0.4000
 50
195.0000
 51
275.0000
  0
ARC
  8
12_0C
  6
DASHED
 62
2
 10
551.2177
 20
355.5776
 40
0.2000
 50
85.0000
 51
165.0000
  0
ARC
  8
12_0C
  6
DASHED
 62
2
 10
546.3865
 20
363.3691
 40
0.4000
 50
195.0000
 51
275.0000
  0
ARC
  8
12_0C
  6
DASHED
 62
2
 10
546.3865
 20
355.7995
 40
0.4000
 50
85.0000
 51
165.0000
  0
ARC
  8
12_0C
  6
DASHED
 62
2
 10
541.4055
 20
362.9333
 40
0.4000
 50
195.0000
 51
275.0000
  0
ARC
  8
12_0C
  6
DASHED
 62
2
 10
541.4055
 20
356.2353
 40
0.4000
 50
85.0000
 51
165.0000
  0
ARC
  8
12_0C
  6
DASHED
 62
2
 10
536.4246
 20
362.4975
 40
0.4000
 50
195.0000
 51
275.0000
  0
ARC
  8
12_0C
  6
DASHED
 62
2
 10
536.4246
 20
356.6711
 40
0.4000
 50
85.0000
 51
165.0000
  0
ARC
  8
12_0C
  6
DASHED
 62
2
 10
530.5668
 20
356.5812
 40
0.4000
 50
85.0000
 51
170.0000
  0
ARC
  8
12_0C
  6
DASHED
 62
2
 10
530.5668
 20
362.5873
 40
0.4000
 50
190.0000
 51
275.0000
  0
ARC
  8
12_0C
  6
DASHED
 62
2
 10
531.9508
 20
367.0786
 40
0.4000
 50
65.0000
 51
155.0000
  0
ARC
  8
12_0C
  6
DASHED
 62
2
 10
531.8663
 20
366.8973
 40
0.4000
 50
155.0000
 51
245.0000
  0
ARC
  8
12_0C
  6
DASHED
 62
2
 10
531.9508
 20
352.0900
 40
0.4000
 50
205.0000
 51
295.0000
  0
ARC
  8
12_0C
  6
DASHED
 62
2
 10
531.8663
 20
352.2712
 40
0.4000
 50
115.0000
 51
205.0000
  0
ARC
  8
0_00
  6
CONTINUOUS
 62
2
 10
780.2433
 20
669.6902
 40
3.1000
 50
135.0000
 51
148.5444
  0
ARC
  8
0_00
  6
CONTINUOUS
 62
2
 10
780.2433
 20
669.6902
 40
3.1000
 50
121.4556
 51
135.0000
  0
ARC
  8
0_00
  6
CONTINUOUS
 62
2
 10
780.2433
 20
669.6902
 40
3.1000
 50
45.0000
 51
58.6333
  0
ARC
  8
0_00
  6
CONTINUOUS
 62
2
 10
780.2433
 20
669.6902
 40
3.1000
 50
31.3667
 51
45.0000
  0
ARC
  8
0_00
  6
CONTINUOUS
 62
2
 10
780.2433
 20
669.6902
 40
7.0000
 50
305.0590
 51
595.3587
  0
ARC
  8
0_00
  6
CONTINUOUS
 62
2
 10
1044.7478
 20
679.4342
 40
3.1000
 50
135.0000
 51
148.5444
  0
ARC
  8
0_00
  6
CONTINUOUS
 62
2
 10
1044.7478
 20
679.4342
 40
3.1000
 50
121.4556
 51
135.0000
  0
ARC
  8
0_00
  6
CONTINUOUS
 62
2
 10
1044.7478
 20
679.4342
 40
3.1000
 50
45.0000
 51
58.6333
  0
ARC
  8
0_00
  6
CONTINUOUS
 62
2
 10
1044.7478
 20
679.4342
 40
3.1000
 50
31.3667
 51
45.0000
  0
ARC
  8
0_00
  6
CONTINUOUS
 62
2
 10
1044.7478
 20
679.4342
 40
7.0000
 50
305.0590
 51
595.3587
  0
ARC
  8
0_00
  6
CONTINUOUS
 62
2
 10
780.2853
 20
359.5517
 40
3.1000
 50
315.0000
 51
328.5444
  0
ARC
  8
0_00
  6
CONTINUOUS
 62
2
 10
780.2853
 20
359.5517
 40
3.1000
 50
301.4556
 51
315.0000
  0
ARC
  8
0_00
  6
CONTINUOUS
 62
2
 10
780.2853
 20
359.5517
 40
3.1000
 50
225.0000
 51
238.6333
  0
ARC
  8
0_00
  6
CONTINUOUS
 62
2
 10
780.2853
 20
359.5517
 40
3.1000
 50
211.3667
 51
225.0000
  0
ARC
  8
0_00
  6
CONTINUOUS
 62
2
 10
780.2853
 20
359.5517
 40
7.0000
 50
125.0590
 51
415.3587
  0
TEXT
  8
15_0F
 62
7
 10
204.6905
 20
100.2001
 40
7.50
 41
1.00
 50
0.0000
  1
１）［　］内寸法は標準寸法とする。
  0
TEXT
  8
15_0F
 62
7
 10
204.6905
 20
85.2001
 40
7.50
 41
1.00
 50
0.0000
  1
２）Ｈ、Ｈ１、Ｌ、ＬＷ２は発注寸法とする。
  0
TEXT
  8
0_00
 62
7
 10
667.9184
 20
737.6879
 40
7.50
 41
1.00
 50
0.0000
  1
ナイロンアンカー
  0
TEXT
  8
0_00
 62
7
 10
686.1184
 20
725.6879
 40
7.50
 41
1.00
 50
0.0000
  1
φ８
  0
TEXT
  8
0_00
 62
7
 10
641.4026
 20
762.0355
 40
7.50
 41
1.00
 50
0.0000
  1
タッピンねじ・トラス
  0
TEXT
  8
0_00
 62
7
 10
648.6025
 20
750.0355
 40
7.50
 41
1.00
 50
0.0000
  1
φ６×５０（１種）
  0
TEXT
  8
0_00
 62
7
 10
663.9425
 20
713.3400
 40
7.50
 41
1.00
 50
0.0000
  1
下穴（φ８）現場加工
  0
TEXT
  8
0_00
 62
7
 10
667.1425
 20
701.3400
 40
7.50
 41
1.00
 50
0.0000
  1
下穴コーキング処理
  0
TEXT
  8
0_00
 62
7
 10
707.7482
 20
587.9989
 40
7.50
 41
1.00
 50
0.0000
  1
ばね座金
  0
TEXT
  8
0_00
 62
7
 10
716.2971
 20
574.8997
 40
7.50
 41
1.00
 50
0.0000
  1
φ８
  0
TEXT
  8
0_00
 62
7
 10
700.0879
 20
615.2224
 40
7.50
 41
1.00
 50
0.0000
  1
ボルト・ナット
  0
TEXT
  8
0_00
 62
7
 10
708.6367
 20
602.1232
 40
7.50
 41
1.00
 50
0.0000
  1
Ｍ８×２０
  0
TEXT
  8
0_00
 62
7
 10
830.8126
 20
695.6317
 40
7.50
 41
1.00
 50
0.0000
  1
コーキング処理（別途手配）
  0
TEXT
  8
0_00
 62
7
 10
816.5389
 20
620.7806
 40
7.50
 41
1.00
 50
0.0000
  1
先付用壁支持金具
  0
TEXT
  8
0_00
 62
7
 10
908.8949
 20
503.0000
 40
7.50
 41
1.00
 50
0.0000
  1
２５０≦Ｌ（柱スパン寸法）≦１８２０
  0
TEXT
  8
0_00
 62
7
 10
1069.9783
 20
503.0000
 40
6.75
 41
0.75
 50
0.0000
  1
LW2
  0
TEXT
  8
0_00
 62
7
 10
435.6704
 20
720.0718
 40
7.50
 41
1.00
 50
0.0000
  1
Ａ
  0
TEXT
  8
15_0F
 62
7
 10
824.1611
 20
70.2000
 40
7.50
 41
1.00
 50
0.0000
  1
１
  0
TEXT
  8
15_0F
 62
7
 10
704.3110
 20
74.7000
 40
7.50
 41
1.00
 50
0.0000
  1
納まり図
  0
TEXT
  8
15_0F
 62
7
 10
508.1110
 20
41.7000
 40
7.50
 41
1.00
 50
0.0000
  1
ＲＣ造
  0
TEXT
  8
15_0F
 62
7
 10
497.3110
 20
71.7000
 40
7.50
 41
1.00
 50
0.0000
  1
低・中・高層
  0
TEXT
  8
15_0F
 62
7
 10
576.0610
 20
71.7000
 40
7.50
 41
1.00
 50
0.0000
  1
アルミ手すり
  0
TEXT
  8
15_0F
 62
7
 10
575.6610
 20
42.4500
 40
6.00
 41
1.00
 50
0.0000
  1
Ｋ、Ｄ型
  0
TEXT
  8
15_0F
 62
7
 10
631.2310
 20
45.1501
 40
7.50
 41
1.00
 50
0.0000
  1
床支持標準手すり［壁付部］（直線格子）先付工法納まり図
  0
TEXT
  8
15_0F
 62
7
 10
852.6611
 20
70.2000
 40
7.50
 41
1.00
 50
0.0000
  1
３
  0
TEXT
  8
0_00
 62
7
 10
435.6704
 20
188.5379
 40
7.50
 41
1.00
 50
0.0000
  1
Ａ
  0
TEXT
  8
0_00
 62
7
 10
1074.2519
 20
704.5199
 40
7.50
 41
1.00
 50
0.0000
  1
先付用壁支持金具
  0
TEXT
  8
0_00
 62
7
 10
597.0000
 20
308.5843
 40
6.75
 41
0.75
 50
90.0000
  1
(13)
  0
TEXT
  8
0_00
 62
7
 10
597.0000
 20
489.4210
 40
7.50
 41
1.00
 50
90.0000
  1
Ｈ１－３６．５
  0
TEXT
  8
0_00
 62
7
 10
969.2920
 20
594.9455
 40
7.50
 41
1.00
 50
90.0000
  1
Ｈ１－２６．５
  0
TEXT
  8
0_00
 62
7
 10
1095.8308
 20
685.3582
 40
7.50
 41
1.00
 50
0.0000
  1
Ｄ型笠木カバー
  0
TEXT
  8
0_00
 62
7
 10
307.6282
 20
709.5395
 40
7.50
 41
1.00
 50
0.0000
  1
Ｋ型笠木カバー
  0
TEXT
  8
15_0F
 62
7
 10
1029.7356
 20
782.8496
 40
7.50
 41
1.00
 50
0.0000
  1
［Ｄ型］
  0
TEXT
  8
15_0F
 62
7
 10
765.2312
 20
782.8496
 40
7.50
 41
1.00
 50
0.0000
  1
［Ｋ型］
  0
TEXT
  8
0_00
 62
7
 10
453.0518
 20
603.0000
 40
7.50
 41
1.00
 50
0.0000
  1
（５以上）
  0
TEXT
  8
0_00
 62
7
 10
450.1133
 20
614.4388
 40
7.50
 41
1.00
 50
0.0000
  1
部材埋込寸法
  0
TEXT
  8
0_00
 62
7
 10
70.2905
 20
40.2001
 40
7.50
 41
1.00
 50
0.0000
  1
適用製品
  0
TEXT
  8
0_00
 62
7
 10
130.2905
 20
40.2001
 40
7.50
 41
1.00
 50
0.0000
  1
適用日付
  0
TEXT
  8
0_00
 62
7
 10
178.5905
 20
100.2001
 40
7.50
 41
1.00
 50
0.0000
  1
記事
  0
TEXT
  8
0_00
 62
7
 10
472.5611
 20
85.2001
 40
7.50
 41
1.00
 50
0.0000
  1
階層仕様
  0
TEXT
  8
0_00
 62
7
 10
472.5611
 20
55.2000
 40
7.50
 41
1.00
 50
0.0000
  1
適用躯体
  0
TEXT
  8
0_00
 62
7
 10
630.0610
 20
85.2001
 40
7.50
 41
1.00
 50
0.0000
  1
名　称
  0
TEXT
  8
0_00
 62
7
 10
630.0610
 20
55.2000
 40
7.50
 41
1.00
 50
0.0000
  1
図　名
  0
TEXT
  8
0_00
 62
7
 10
814.9368
 20
100.2458
 40
7.50
 41
1.00
 50
0.0000
  1
Ｎｏ．
  0
TEXT
  8
0_00
 62
7
 10
1123.5610
 20
100.2001
 40
7.50
 41
1.00
 50
0.0000
  1
適　　　　　　　　用
  0
TEXT
  8
0_00
 62
7
 10
1078.4111
 20
100.2001
 40
7.50
 41
1.00
 50
0.0000
  1
個数
  0
TEXT
  8
0_00
 62
7
 10
1023.2110
 20
100.2001
 40
7.50
 41
1.00
 50
0.0000
  1
材　　質
  0
TEXT
  8
0_00
 62
7
 10
926.1610
 20
100.2001
 40
7.50
 41
1.00
 50
0.0000
  1
部　　　品　　　名
  0
TEXT
  8
0_00
 62
7
 10
895.9360
 20
100.2001
 40
7.50
 41
1.00
 50
0.0000
  1
品番
  0
TEXT
  8
0_00
 62
7
 10
850.8611
 20
100.2001
 40
7.50
 41
1.00
 50
0.0000
  1
図　　番
  0
TEXT
  8
0_00
 62
7
 10
816.6610
 20
85.2001
 40
7.50
 41
1.00
 50
0.0000
  1
尺度
  0
TEXT
  8
0_00
 62
7
 10
816.6610
 20
55.2000
 40
7.50
 41
1.00
 50
0.0000
  1
日付
  0
TEXT
  8
0_00
 62
7
 10
928.3942
 20
85.2001
 40
7.50
 41
1.00
 50
0.0000
  1
承認
  0
TEXT
  8
0_00
 62
7
 10
970.5611
 20
85.2001
 40
7.50
 41
1.00
 50
0.0000
  1
検図
  0
TEXT
  8
0_00
 62
7
 10
1006.8610
 20
85.2001
 40
7.50
 41
1.00
 50
0.0000
  1
設計
  0
TEXT
  8
0_00
 62
7
 10
1044.2110
 20
85.2001
 40
7.50
 41
1.00
 50
0.0000
  1
製図
  0
TEXT
  8
0_00
 62
7
 10
1074.5110
 20
55.2000
 40
7.50
 41
1.00
 50
0.0000
  1
図番
  0
TEXT
  8
0_00
 62
2
 10
1103.9219
 20
74.2350
 40
12.00
 41
1.00
 50
0.0000
  1
文化シヤッター株式会社
  0
TEXT
  8
0_00
 62
7
 10
200.7905
 20
862.9501
 40
7.50
 41
1.00
 50
180.0000
  1
図番
  0
TEXT
  8
0_00
 62
7
 10
799.0510
 20
854.0169
 40
6.00
 41
1.00
 50
0.0000
  1
ＮＯ
  0
TEXT
  8
0_00
 62
7
 10
825.2111
 20
853.9501
 40
7.50
 41
1.00
 50
0.0000
  1
個　数
  0
TEXT
  8
0_00
 62
7
 10
870.3611
 20
853.9501
 40
7.50
 41
1.00
 50
0.0000
  1
日　　付
  0
TEXT
  8
0_00
 62
7
 10
984.2111
 20
853.9501
 40
7.50
 41
1.00
 50
0.0000
  1
訂　　　正　　　記　　　事
  0
TEXT
  8
0_00
 62
7
 10
838.4111
 20
70.2000
 40
6.75
 41
0.75
 50
0.0000
  1
:
  0
TEXT
  8
0_00
 62
7
 10
1137.8712
 20
26.7000
 40
6.00
 41
1.00
 50
0.0000
  1
ＪＩＳ　Ａ－３
  0
TEXT
  8
0_00
 62
7
 10
1179.4986
 20
26.6983
 40
6.00
 41
1.00
 50
0.0000
  1
（２９７×４２０）
  0
TEXT
  8
0_00
 62
7
 10
1153.1111
 20
853.9501
 40
7.50
 41
1.00
 50
0.0000
  1
担　当
  0
TEXT
  8
0_00
 62
7
 10
1189.1111
 20
853.9501
 40
7.50
 41
1.00
 50
0.0000
  1
承　認
  0
TEXT
  8
0_00
 62
7
 10
551.3111
 20
85.2001
 40
7.50
 41
1.00
 50
0.0000
  1
機種名
  0
TEXT
  8
0_00
 62
7
 10
551.3111
 20
55.2000
 40
7.50
 41
1.00
 50
0.0000
  1
型　式
  0
TEXT
  8
0_00
 62
7
 10
637.0000
 20
401.3709
 40
7.50
 41
1.00
 50
90.0000
  1
３０１≦Ｈ（手すり高さ寸法）≦１２００
  0
TEXT
  8
0_00
 62
7
 10
617.0000
 20
249.5843
 40
7.50
 41
1.00
 50
90.0000
  1
３０≦ｇ［１００］≦１００
  0
TEXT
  8
0_00
 62
7
 10
620.0000
 20
512.5709
 40
7.50
 41
1.00
 50
90.0000
  1
Ｈ１
  0
TEXT
  8
0_00
 62
7
 10
657.0000
 20
662.4576
 40
6.75
 41
0.75
 50
90.0000
  1
47
  0
TEXT
  8
0_00
 62
7
 10
597.0000
 20
702.1576
 40
6.75
 41
0.75
 50
90.0000
  1
23.5
  0
TEXT
  8
0_00
 62
7
 10
512.5518
 20
743.0000
 40
6.75
 41
0.75
 50
0.0000
  1
5
  0
TEXT
  8
0_00
 62
7
 10
943.0948
 20
483.0000
 40
6.75
 41
0.75
 50
0.0000
  1
127
  0
TEXT
  8
0_00
 62
7
 10
773.0642
 20
742.0000
 40
6.75
 41
0.75
 50
0.0000
  1
60
  0
TEXT
  8
0_00
 62
7
 10
1191.9999
 20
403.8179
 40
6.75
 41
0.75
 50
90.0000
  1
H
  0
TEXT
  8
0_00
 62
7
 10
1172.0001
 20
347.2179
 40
6.75
 41
0.75
 50
90.0000
  1
g
  0
TEXT
  8
0_00
 62
7
 10
1172.0001
 20
404.2179
 40
6.75
 41
0.75
 50
90.0000
  1
H1
  0
TEXT
  8
0_00
 62
7
 10
1096.4711
 20
298.3377
 40
7.50
 41
1.00
 50
0.0000
  1
外観姿図（１：３０）
  0
TEXT
  8
0_00
 62
7
 10
315.0000
 20
536.0209
 40
6.75
 41
0.75
 50
90.0000
  1
25
  0
TEXT
  8
0_00
 62
7
 10
238.1518
 20
583.0000
 40
6.75
 41
0.75
 50
0.0000
  1
20
  0
TEXT
  8
0_00
 62
7
 10
657.0000
 20
356.6843
 40
6.75
 41
0.75
 50
90.0000
  1
35
  0
TEXT
  8
0_00
 62
7
 10
324.2518
 20
763.0000
 40
6.75
 41
0.75
 50
0.0000
  1
127
  0
TEXT
  8
0_00
 62
7
 10
412.5518
 20
763.0000
 40
7.50
 41
1.00
 50
0.0000
  1
（５３．５～１１７）
  0
TEXT
  8
0_00
 62
7
 10
248.4058
 20
783.0000
 40
7.50
 41
1.00
 50
0.0000
  1
２５０≦ＬＷ２（壁付スパン寸法）≦１８００
  0
TEXT
  8
0_00
 62
7
 10
811.7642
 20
423.0000
 40
6.75
 41
0.75
 50
0.0000
  1
45
  0
TEXT
  8
0_00
 62
7
 10
891.3141
 20
156.3676
 40
7.50
 41
1.00
 50
0.0000
  1
Ａ－Ａ矢視図
  0
TEXT
  8
0_00
 62
7
 10
948.1042
 20
667.4028
 40
6.75
 41
0.75
 50
90.0000
  1
37
  0
TEXT
  8
0_00
 62
7
 10
968.1041
 20
702.1576
 40
6.75
 41
0.75
 50
90.0000
  1
13.5
  0
TEXT
  8
0_00
 62
7
 10
1037.5687
 20
734.1849
 40
6.75
 41
0.75
 50
0.0000
  1
80
  0
TEXT
  8
0_00
 62
7
 10
958.4355
 20
325.4204
 40
7.50
 41
1.00
 50
0.0000
  1
二段手すりの場合はＬ≦１３６５とする。
  0
TEXT
  8
0_00
 62
7
 10
773.0642
 20
303.0000
 40
6.75
 41
0.75
 50
0.0000
  1
36
  0
TEXT
  8
0_00
 62
7
 10
527.0518
 20
603.0000
 40
6.75
 41
0.75
 50
0.0000
  1
(15以下）
  0
TEXT
  8
0_00
 62
7
 10
440.7518
 20
583.0000
 40
6.75
 41
0.75
 50
0.0000
  1
27.5
  0
POINT
  8
0_00
 62
5
 10
780.2853
 20
359.5517
  0
POINT
  8
0_00
 62
5
 10
780.2433
 20
669.6902
  0
POINT
  8
0_00
 62
5
 10
1044.7478
 20
679.4342
  0
POINT
  8
0_00
 62
5
 10
780.2853
 20
359.5517
  0
POINT
  8
0_00
 62
6
 10
503.0518
 20
600.0000
  0
POINT
  8
0_00
 62
2
 10
24.0905
 20
14.9991
  0
POINT
  8
0_00
 62
2
 10
24.0905
 20
14.9991
  0
POINT
  8
0_00
 62
2
 10
84.6905
 20
59.7001
  0
POINT
  8
0_00
 62
2
 10
84.6905
 20
74.7001
  0
POINT
  8
0_00
 62
2
 10
84.6905
 20
89.7001
  0
POINT
  8
0_00
 62
2
 10
84.6905
 20
104.7001
  0
POINT
  8
0_00
 62
2
 10
518.9110
 20
76.2000
  0
POINT
  8
0_00
 62
2
 10
518.9110
 20
46.2000
  0
POINT
  8
0_00
 62
2
 10
718.7110
 20
79.2000
  0
POINT
  8
0_00
 62
2
 10
718.7110
 20
49.2000
  0
POINT
  8
0_00
 62
2
 10
1097.7610
 20
52.2000
  0
POINT
  8
0_00
 62
2
 10
1014.0610
 20
59.7001
  0
POINT
  8
0_00
 62
2
 10
144.6905
 20
59.7001
  0
POINT
  8
0_00
 62
2
 10
144.6905
 20
74.7001
  0
POINT
  8
0_00
 62
2
 10
144.6905
 20
89.7001
  0
POINT
  8
0_00
 62
2
 10
144.6905
 20
104.7001
  0
POINT
  8
0_00
 62
2
 10
856.2610
 20
74.7000
  0
POINT
  8
0_00
 62
2
 10
827.7610
 20
74.7000
  0
POINT
  8
0_00
 62
2
 10
204.6905
 20
104.7001
  0
POINT
  8
0_00
 62
2
 10
204.6905
 20
89.7001
  0
POINT
  8
0_00
 62
2
 10
204.6905
 20
74.7001
  0
POINT
  8
0_00
 62
2
 10
204.6905
 20
59.7001
  0
POINT
  8
0_00
 62
2
 10
204.6905
 20
44.7001
  0
POINT
  8
0_00
 62
2
 10
1051.4110
 20
59.7001
  0
POINT
  8
0_00
 62
2
 10
84.6905
 20
44.7001
  0
POINT
  8
0_00
 62
2
 10
144.6905
 20
44.7001
  0
POINT
  8
0_00
 62
2
 10
174.6905
 20
858.4501
  0
POINT
  8
0_00
 62
2
 10
862.6360
 20
49.2000
  0
POINT
  8
0_00
 62
2
 10
597.6610
 20
76.2000
  0
POINT
  8
0_00
 62
2
 10
597.6610
 20
46.2000
  0
POINT
  8
0_00
 62
2
 10
514.8518
 20
669.6576
  0
POINT
  8
0_00
 62
2
 10
514.8518
 20
359.5843
  0
POINT
  8
0_00
 62
5
 10
780.2108
 20
669.6693
  0
POINT
  8
0_00
 62
5
 10
1044.7152
 20
679.4133
  0
POINT
  8
0_00
 62
5
 10
780.3179
 20
359.5727
  0
ENDSEC
  0
EOF
