999
  
  0
SECTION
  2
HEADER
  9
$EXTMIN
 10
0
 20
0
  9
$EXTMAX
 10
6300
 20
4440
  9
$LTSCALE
 40
15.00
  9
$PDMODE
 70
33
  9
$PDSIZE
 40
9.00
  0
ENDSEC
  0
SECTION
  2
TABLES
  0
TABLE
  2
LTYPE
 70
9
  0
LTYPE
  2
CONTINUOUS
 70
64
  3
実線
 72
65
 73
0
 40
0.00
  0
LTYPE
  2
DASHED
 70
64
  3
__  __  __  __  __  __  __ 
 72
65
 73
2
 40
1.00
 49
0.50
 49
-0.50
  0
LTYPE
  2
HIDDEN1
 70
64
  3
____    ____    ____    ___
 72
65
 73
2
 40
2.20
 49
1.20
 49
-1.00
  0
LTYPE
  2
HIDDEN2
 70
64
  3
______  ______  ______  ___
 72
65
 73
2
 40
4.50
 49
3.50
 49
-1.00
  0
LTYPE
  2
CENTER1
 70
64
  3
_______ _ _______ _ _______
 72
65
 73
4
 40
20.00
 49
17.00
 49
-1.00
 49
1.00
 49
-1.00
  0
LTYPE
  2
CENTER2
 70
64
  3
___________  __  __________
 72
65
 73
4
 40
40.00
 49
34.00
 49
-2.00
 49
2.00
 49
-2.00
  0
LTYPE
  2
PHANTOM1
 70
64
  3
______ _ _ ______ _ _ _____
 72
65
 73
6
 40
20.00
 49
15.00
 49
-1.00
 49
1.00
 49
-1.00
 49
1.00
 49
-1.00
  0
LTYPE
  2
PHANTOM2
 70
64
  3
__________  _  _  _________
 72
65
 73
6
 40
40.00
 49
30.00
 49
-2.00
 49
2.00
 49
-2.00
 49
2.00
 49
-2.00
  0
LTYPE
  2
DOT
 70
64
  3
 .  .  .  .  .  .  .  .  . 
 72
65
 73
2
 40
1.00
 49
0.00
 49
-1.00
  0
ENDTAB
  0
TABLE
  2
STYLE
 70
1
  0
STYLE
  2
STANDARD
 70
64
 40
0.0
 41
1.0
 42
0.0
 50
0.0
 71
0
  3
ROMANS
  4
BIGFONT
  0
ENDTAB
  0
TABLE
  2
LAYER
 70
6
  0
LAYER
  2
0_00
 70
64
 62
7
  6
CONTINUOUS
  0
LAYER
  2
2_02
 70
64
 62
7
  6
CONTINUOUS
  0
LAYER
  2
3_03
 70
64
 62
7
  6
CONTINUOUS
  0
LAYER
  2
4_04
 70
64
 62
7
  6
CONTINUOUS
  0
LAYER
  2
12_0C
 70
64
 62
7
  6
CONTINUOUS
  0
LAYER
  2
15_0F
 70
64
 62
7
  6
CONTINUOUS
  0
ENDTAB
  0
ENDSEC
  0
SECTION
  2
ENTITIES
  0
LINE
  8
0_00
  6
CONTINUOUS
 62
2
 10
4403.0466
 20
2528.8284
 11
4401.3130
 21
2528.8284
  0
LINE
  8
0_00
  6
DASHED
 62
2
 10
4137.2827
 20
2833.3862
 11
5471.1269
 21
2833.3862
  0
LINE
  8
0_00
  6
DASHED
 62
2
 10
4151.0861
 20
2630.4959
 11
3844.4957
 21
2630.4959
  0
LINE
  8
0_00
  6
DASHED
 62
2
 10
4137.2827
 20
2833.3862
 11
4151.0861
 21
2630.4959
  0
LINE
  8
0_00
  6
DASHED
 62
2
 10
3844.4957
 20
2630.4959
 11
3858.2991
 21
2427.6061
  0
LINE
  8
0_00
  6
CONTINUOUS
 62
4
 10
4401.3130
 20
2528.8284
 11
5513.6403
 21
2528.8284
  0
LINE
  8
0_00
  6
DASHED
 62
2
 10
3858.2991
 20
2427.6061
 11
3551.7091
 21
2427.6061
  0
LINE
  8
0_00
  6
DASHED
 62
2
 10
3551.7091
 20
2427.6061
 11
3565.5125
 21
2224.7161
  0
LINE
  8
0_00
  6
DASHED
 62
2
 10
3565.5125
 20
2224.7161
 11
3258.9228
 21
2224.7161
  0
LINE
  8
0_00
  6
CONTINUOUS
 62
4
 10
1795.2347
 20
702.8187
 11
4403.0466
 21
2528.8284
  0
LINE
  8
0_00
  6
CONTINUOUS
 62
4
 10
4266.4050
 20
3933.3861
 11
5471.1269
 21
3933.3861
  0
LINE
  8
0_00
  6
DASHED
 62
2
 10
3272.7258
 20
2021.8261
 11
2966.1356
 21
2021.8261
  0
LINE
  8
0_00
  6
DASHED
 62
2
 10
3258.9228
 20
2224.7161
 11
3272.7258
 21
2021.8261
  0
LINE
  8
0_00
  6
DASHED
 62
2
 10
2966.1356
 20
2021.8261
 11
2979.9390
 21
1818.9362
  0
LINE
  8
0_00
  6
DASHED
 62
2
 10
2979.9390
 20
1818.9362
 11
2673.3488
 21
1818.9362
  0
LINE
  8
0_00
  6
DASHED
 62
2
 10
2673.3488
 20
1818.9362
 11
2687.1522
 21
1616.0462
  0
LINE
  8
0_00
  6
DASHED
 62
2
 10
2687.1522
 20
1616.0462
 11
2380.5622
 21
1616.0462
  0
LINE
  8
0_00
  6
DASHED
 62
2
 10
2394.3654
 20
1413.1562
 11
2087.7754
 21
1413.1562
  0
LINE
  8
0_00
  6
DASHED
 62
2
 10
2380.5622
 20
1616.0462
 11
2394.3654
 21
1413.1562
  0
LINE
  8
0_00
  6
DASHED
 62
2
 10
2087.7754
 20
1413.1562
 11
2101.5784
 21
1210.2664
  0
LINE
  8
0_00
  6
DASHED
 62
2
 10
2101.5784
 20
1210.2664
 11
1794.9886
 21
1210.2664
  0
LINE
  8
0_00
  6
DASHED
 62
2
 10
1794.9886
 20
1210.2664
 11
1808.7920
 21
1007.3764
  0
LINE
  8
0_00
  6
DASHED
 62
2
 10
1808.7920
 20
1007.3764
 11
454.7752
 21
1007.3764
  0
LINE
  8
0_00
  6
CONTINUOUS
 62
4
 10
454.7752
 20
702.8187
 11
1795.2347
 21
702.8187
  0
LINE
  8
0_00
  6
CONTINUOUS
 62
4
 10
4261.1623
 20
2978.8284
 11
1653.3504
 21
1152.8186
  0
LINE
  8
0_00
  6
CONTINUOUS
 62
4
 10
4261.1623
 20
2978.8284
 11
5471.1269
 21
2978.8284
  0
LINE
  8
0_00
  6
CONTINUOUS
 62
4
 10
1653.3504
 20
1152.8186
 11
454.7752
 21
1152.8186
  0
LINE
  8
0_00
  6
CONTINUOUS
 62
7
 10
4261.1623
 20
3980.0963
 11
4261.1623
 21
2919.7240
  0
LINE
  8
0_00
  6
CONTINUOUS
 62
4
 10
5471.1269
 20
3886.3861
 11
4281.2247
 21
3886.3861
  0
LINE
  8
0_00
  6
CONTINUOUS
 62
4
 10
4271.6872
 20
3883.3791
 11
1672.4872
 21
2063.3995
  0
LINE
  8
0_00
  6
CONTINUOUS
 62
7
 10
1653.3504
 20
2154.0864
 11
1653.3504
 21
1120.5448
  0
LINE
  8
0_00
  6
CONTINUOUS
 62
4
 10
1648.1361
 20
2107.3762
 11
454.7752
 21
2107.3762
  0
LINE
  8
0_00
  6
CONTINUOUS
 62
4
 10
1662.9552
 20
2060.3762
 11
454.7752
 21
2060.3762
  0
LINE
  8
0_00
  6
CENTER1
 62
6
 10
4431.1624
 20
3980.0963
 11
4431.1624
 21
2929.7607
  0
LINE
  8
0_00
  6
CONTINUOUS
 62
4
 10
4451.1626
 20
3886.3861
 11
4451.1626
 21
3013.8286
  0
LINE
  8
0_00
  6
CONTINUOUS
 62
4
 10
4411.1623
 20
3886.3861
 11
4411.1623
 21
3013.8286
  0
LINE
  8
0_00
  6
CENTER1
 62
6
 10
3687.7563
 20
3618.9871
 11
3687.7563
 21
2505.7281
  0
LINE
  8
0_00
  6
CONTINUOUS
 62
4
 10
4411.1623
 20
3078.8285
 11
4266.4050
 21
3078.8285
  0
LINE
  8
0_00
  6
CONTINUOUS
 62
4
 10
4411.1623
 20
3113.8287
 11
4255.3702
 21
3113.8287
  0
LINE
  8
0_00
  6
CENTER1
 62
6
 10
5281.1627
 20
3980.0963
 11
5281.1627
 21
2930.6001
  0
LINE
  8
0_00
  6
CONTINUOUS
 62
4
 10
5301.1624
 20
3886.3861
 11
5301.1624
 21
3013.8286
  0
LINE
  8
0_00
  6
CONTINUOUS
 62
4
 10
5261.1626
 20
3886.3861
 11
5261.1626
 21
3013.8286
  0
LINE
  8
0_00
  6
CONTINUOUS
 62
4
 10
4383.1627
 20
2978.8284
 11
4479.1626
 21
2978.8284
  0
LINE
  8
0_00
  6
CONTINUOUS
 62
4
 10
4385.4808
 20
2988.3286
 11
4476.8440
 21
2988.3286
  0
LINE
  8
0_00
  6
CONTINUOUS
 62
4
 10
4407.0877
 20
3013.8286
 11
4455.2380
 21
3013.8286
  0
LINE
  8
0_00
  6
CONTINUOUS
 62
4
 10
4382.1625
 20
2980.3285
 11
4480.1624
 21
2980.3285
  0
LINE
  8
0_00
  6
CONTINUOUS
 62
4
 10
4479.1626
 20
2978.8284
 11
4480.1624
 21
2980.3285
  0
LINE
  8
0_00
  6
CONTINUOUS
 62
4
 10
4480.1624
 20
2980.3285
 11
4479.8383
 21
2985.5154
  0
LINE
  8
0_00
  6
CONTINUOUS
 62
4
 10
4457.9457
 20
2991.0940
 11
4456.2350
 21
3012.9066
  0
LINE
  8
0_00
  6
CONTINUOUS
 62
4
 10
4383.1627
 20
2978.8284
 11
4382.1625
 21
2980.3285
  0
LINE
  8
0_00
  6
CONTINUOUS
 62
4
 10
4382.1625
 20
2980.3285
 11
4382.4861
 21
2985.5154
  0
LINE
  8
0_00
  6
CONTINUOUS
 62
4
 10
4404.3796
 20
2991.0940
 11
4406.0902
 21
3012.9066
  0
LINE
  8
0_00
  6
CONTINUOUS
 62
2
 10
4477.1626
 20
2988.3286
 11
4477.1626
 21
2989.3284
  0
LINE
  8
0_00
  6
CONTINUOUS
 62
2
 10
4460.1622
 20
2988.3286
 11
4460.1622
 21
2989.3284
  0
LINE
  8
0_00
  6
CONTINUOUS
 62
2
 10
4460.1622
 20
2989.3284
 11
4477.1626
 21
2989.3284
  0
LINE
  8
0_00
  6
CONTINUOUS
 62
2
 10
4460.1622
 20
2988.3286
 11
4477.1626
 21
2988.3286
  0
LINE
  8
0_00
  6
CONTINUOUS
 62
2
 10
4461.6623
 20
2989.3284
 11
4475.6621
 21
2989.3284
  0
LINE
  8
0_00
  6
CONTINUOUS
 62
2
 10
4475.6621
 20
2989.7431
 11
4475.6621
 21
2989.3284
  0
LINE
  8
0_00
  6
CONTINUOUS
 62
2
 10
4461.6623
 20
2989.7431
 11
4475.6621
 21
2989.7431
  0
LINE
  8
0_00
  6
CONTINUOUS
 62
2
 10
4461.6623
 20
2989.7431
 11
4461.6623
 21
2989.3284
  0
LINE
  8
0_00
  6
CONTINUOUS
 62
2
 10
4385.1622
 20
2988.3286
 11
4385.1622
 21
2989.3284
  0
LINE
  8
0_00
  6
CONTINUOUS
 62
2
 10
4402.1622
 20
2988.3286
 11
4402.1622
 21
2989.3284
  0
LINE
  8
0_00
  6
CONTINUOUS
 62
2
 10
4402.1622
 20
2989.3284
 11
4385.1622
 21
2989.3284
  0
LINE
  8
0_00
  6
CONTINUOUS
 62
2
 10
4402.1622
 20
2988.3286
 11
4385.1622
 21
2988.3286
  0
LINE
  8
0_00
  6
CONTINUOUS
 62
2
 10
4400.6625
 20
2989.3284
 11
4386.6623
 21
2989.3284
  0
LINE
  8
0_00
  6
CONTINUOUS
 62
2
 10
4386.6623
 20
2989.7431
 11
4386.6623
 21
2989.3284
  0
LINE
  8
0_00
  6
CONTINUOUS
 62
2
 10
4400.6625
 20
2989.7431
 11
4386.6623
 21
2989.7431
  0
LINE
  8
0_00
  6
CONTINUOUS
 62
2
 10
4400.6625
 20
2989.7431
 11
4400.6625
 21
2989.3284
  0
LINE
  8
3_03
  6
CONTINUOUS
 62
2
 10
4431.1624
 20
3006.9939
 11
4430.8315
 21
3007.1210
  0
LINE
  8
3_03
  6
CONTINUOUS
 62
2
 10
4431.1624
 20
3006.9939
 11
4431.4929
 21
3007.1210
  0
LINE
  8
3_03
  6
CONTINUOUS
 62
2
 10
4430.8315
 20
3007.1210
 11
4429.9814
 21
3007.9422
  0
LINE
  8
3_03
  6
CONTINUOUS
 62
2
 10
4431.4934
 20
3007.1210
 11
4431.4929
 21
3007.1217
  0
LINE
  8
3_03
  6
CONTINUOUS
 62
2
 10
4431.4929
 20
3007.1217
 11
4432.3430
 21
3007.9429
  0
LINE
  8
3_03
  6
CONTINUOUS
 62
2
 10
4430.4964
 20
3006.3286
 11
4430.3700
 21
3006.6595
  0
LINE
  8
3_03
  6
CONTINUOUS
 62
2
 10
4430.4964
 20
3006.3286
 11
4430.3700
 21
3005.9981
  0
LINE
  8
3_03
  6
CONTINUOUS
 62
2
 10
4430.3700
 20
3006.6595
 11
4429.5479
 21
3007.5103
  0
LINE
  8
3_03
  6
CONTINUOUS
 62
2
 10
4430.3700
 20
3005.9974
 11
4430.3691
 21
3005.9981
  0
LINE
  8
3_03
  6
CONTINUOUS
 62
2
 10
4430.3691
 20
3005.9981
 11
4429.5479
 21
3005.1478
  0
LINE
  8
3_03
  6
CONTINUOUS
 62
2
 10
4431.8280
 20
3006.3286
 11
4431.9553
 21
3005.9974
  0
LINE
  8
3_03
  6
CONTINUOUS
 62
2
 10
4431.8280
 20
3006.3286
 11
4431.9553
 21
3006.6591
  0
LINE
  8
3_03
  6
CONTINUOUS
 62
2
 10
4431.9553
 20
3005.9974
 11
4432.7760
 21
3005.1471
  0
LINE
  8
3_03
  6
CONTINUOUS
 62
2
 10
4431.9553
 20
3006.6595
 11
4431.9562
 21
3006.6589
  0
LINE
  8
3_03
  6
CONTINUOUS
 62
2
 10
4431.9562
 20
3006.6589
 11
4432.7765
 21
3007.5092
  0
LINE
  8
3_03
  6
CONTINUOUS
 62
2
 10
4431.1624
 20
3005.6630
 11
4431.4934
 21
3005.5360
  0
LINE
  8
3_03
  6
CONTINUOUS
 62
2
 10
4431.1624
 20
3005.6630
 11
4430.8319
 21
3005.5360
  0
LINE
  8
3_03
  6
CONTINUOUS
 62
2
 10
4431.4934
 20
3005.5360
 11
4432.3434
 21
3004.7147
  0
LINE
  8
3_03
  6
CONTINUOUS
 62
2
 10
4430.8315
 20
3005.5360
 11
4430.8319
 21
3005.5353
  0
LINE
  8
3_03
  6
CONTINUOUS
 62
2
 10
4430.8319
 20
3005.5353
 11
4429.9814
 21
3004.7138
  0
LINE
  8
0_00
  6
CONTINUOUS
 62
4
 10
5233.1621
 20
2978.8284
 11
5329.1624
 21
2978.8284
  0
LINE
  8
0_00
  6
CONTINUOUS
 62
4
 10
5235.4807
 20
2988.3286
 11
5326.8439
 21
2988.3286
  0
LINE
  8
0_00
  6
CONTINUOUS
 62
4
 10
5257.0866
 20
3013.8286
 11
5305.2379
 21
3013.8286
  0
LINE
  8
0_00
  6
CONTINUOUS
 62
4
 10
5232.1628
 20
2980.3285
 11
5330.1622
 21
2980.3285
  0
LINE
  8
0_00
  6
CONTINUOUS
 62
4
 10
5329.1624
 20
2978.8284
 11
5330.1622
 21
2980.3285
  0
LINE
  8
0_00
  6
CONTINUOUS
 62
4
 10
5330.1622
 20
2980.3285
 11
5329.8381
 21
2985.5154
  0
LINE
  8
0_00
  6
CONTINUOUS
 62
4
 10
5307.9456
 20
2991.0940
 11
5306.2344
 21
3012.9066
  0
LINE
  8
0_00
  6
CONTINUOUS
 62
4
 10
5233.1621
 20
2978.8284
 11
5232.1628
 21
2980.3285
  0
LINE
  8
0_00
  6
CONTINUOUS
 62
4
 10
5232.1628
 20
2980.3285
 11
5232.4869
 21
2985.5154
  0
LINE
  8
0_00
  6
CONTINUOUS
 62
4
 10
5254.3799
 20
2991.0940
 11
5256.0901
 21
3012.9066
  0
LINE
  8
0_00
  6
CONTINUOUS
 62
2
 10
5327.1620
 20
2988.3286
 11
5327.1620
 21
2989.3284
  0
LINE
  8
0_00
  6
CONTINUOUS
 62
2
 10
5310.1625
 20
2988.3286
 11
5310.1625
 21
2989.3284
  0
LINE
  8
0_00
  6
CONTINUOUS
 62
2
 10
5310.1625
 20
2989.3284
 11
5327.1620
 21
2989.3284
  0
LINE
  8
0_00
  6
CONTINUOUS
 62
2
 10
5310.1625
 20
2988.3286
 11
5327.1620
 21
2988.3286
  0
LINE
  8
0_00
  6
CONTINUOUS
 62
2
 10
5311.6626
 20
2989.3284
 11
5325.6624
 21
2989.3284
  0
LINE
  8
0_00
  6
CONTINUOUS
 62
2
 10
5325.6624
 20
2989.7431
 11
5325.6624
 21
2989.3284
  0
LINE
  8
0_00
  6
CONTINUOUS
 62
2
 10
5311.6626
 20
2989.7431
 11
5325.6624
 21
2989.7431
  0
LINE
  8
0_00
  6
CONTINUOUS
 62
2
 10
5311.6626
 20
2989.7431
 11
5311.6626
 21
2989.3284
  0
LINE
  8
0_00
  6
CONTINUOUS
 62
2
 10
5235.1625
 20
2988.3286
 11
5235.1625
 21
2989.3284
  0
LINE
  8
0_00
  6
CONTINUOUS
 62
2
 10
5252.1620
 20
2988.3286
 11
5252.1620
 21
2989.3284
  0
LINE
  8
0_00
  6
CONTINUOUS
 62
2
 10
5252.1620
 20
2989.3284
 11
5235.1625
 21
2989.3284
  0
LINE
  8
0_00
  6
CONTINUOUS
 62
2
 10
5252.1620
 20
2988.3286
 11
5235.1625
 21
2988.3286
  0
LINE
  8
0_00
  6
CONTINUOUS
 62
2
 10
5250.6624
 20
2989.3284
 11
5236.6626
 21
2989.3284
  0
LINE
  8
0_00
  6
CONTINUOUS
 62
2
 10
5236.6626
 20
2989.7431
 11
5236.6626
 21
2989.3284
  0
LINE
  8
0_00
  6
CONTINUOUS
 62
2
 10
5250.6624
 20
2989.7431
 11
5236.6626
 21
2989.7431
  0
LINE
  8
0_00
  6
CONTINUOUS
 62
2
 10
5250.6624
 20
2989.7431
 11
5250.6624
 21
2989.3284
  0
LINE
  8
3_03
  6
CONTINUOUS
 62
2
 10
5281.1627
 20
3006.9939
 11
5280.8318
 21
3007.1210
  0
LINE
  8
3_03
  6
CONTINUOUS
 62
2
 10
5281.1627
 20
3006.9939
 11
5281.4928
 21
3007.1210
  0
LINE
  8
3_03
  6
CONTINUOUS
 62
2
 10
5280.8318
 20
3007.1210
 11
5279.9812
 21
3007.9422
  0
LINE
  8
3_03
  6
CONTINUOUS
 62
2
 10
5281.4932
 20
3007.1210
 11
5281.4928
 21
3007.1217
  0
LINE
  8
3_03
  6
CONTINUOUS
 62
2
 10
5281.4928
 20
3007.1217
 11
5282.3433
 21
3007.9429
  0
LINE
  8
3_03
  6
CONTINUOUS
 62
2
 10
5280.4971
 20
3006.3286
 11
5280.3699
 21
3006.6595
  0
LINE
  8
3_03
  6
CONTINUOUS
 62
2
 10
5280.4971
 20
3006.3286
 11
5280.3699
 21
3005.9981
  0
LINE
  8
3_03
  6
CONTINUOUS
 62
2
 10
5280.3699
 20
3006.6595
 11
5279.5482
 21
3007.5103
  0
LINE
  8
3_03
  6
CONTINUOUS
 62
2
 10
5280.3699
 20
3005.9974
 11
5280.3690
 21
3005.9981
  0
LINE
  8
3_03
  6
CONTINUOUS
 62
2
 10
5280.3690
 20
3005.9981
 11
5279.5482
 21
3005.1478
  0
LINE
  8
3_03
  6
CONTINUOUS
 62
2
 10
5281.8279
 20
3006.3286
 11
5281.9547
 21
3005.9974
  0
LINE
  8
3_03
  6
CONTINUOUS
 62
2
 10
5281.8279
 20
3006.3286
 11
5281.9547
 21
3006.6591
  0
LINE
  8
3_03
  6
CONTINUOUS
 62
2
 10
5281.9547
 20
3005.9974
 11
5282.7759
 21
3005.1471
  0
LINE
  8
3_03
  6
CONTINUOUS
 62
2
 10
5281.9547
 20
3006.6595
 11
5281.9560
 21
3006.6589
  0
LINE
  8
3_03
  6
CONTINUOUS
 62
2
 10
5281.9560
 20
3006.6589
 11
5282.7768
 21
3007.5092
  0
LINE
  8
3_03
  6
CONTINUOUS
 62
2
 10
5281.1627
 20
3005.6630
 11
5281.4932
 21
3005.5360
  0
LINE
  8
3_03
  6
CONTINUOUS
 62
2
 10
5281.1627
 20
3005.6630
 11
5280.8322
 21
3005.5360
  0
LINE
  8
3_03
  6
CONTINUOUS
 62
2
 10
5281.4932
 20
3005.5360
 11
5282.3433
 21
3004.7147
  0
LINE
  8
3_03
  6
CONTINUOUS
 62
2
 10
5280.8318
 20
3005.5360
 11
5280.8322
 21
3005.5353
  0
LINE
  8
3_03
  6
CONTINUOUS
 62
2
 10
5280.8322
 20
3005.5353
 11
5279.9812
 21
3004.7138
  0
LINE
  8
0_00
  6
CONTINUOUS
 62
4
 10
5471.1269
 20
3113.8287
 11
5301.1624
 21
3113.8287
  0
LINE
  8
0_00
  6
CONTINUOUS
 62
4
 10
5261.1626
 20
3113.8287
 11
4451.1626
 21
3113.8287
  0
LINE
  8
0_00
  6
CONTINUOUS
 62
4
 10
5471.1269
 20
3078.8285
 11
5301.1624
 21
3078.8285
  0
LINE
  8
0_00
  6
CONTINUOUS
 62
4
 10
5261.1626
 20
3078.8285
 11
4451.1626
 21
3078.8285
  0
LINE
  8
0_00
  6
CONTINUOUS
 62
4
 10
1503.3501
 20
2060.3762
 11
1503.3501
 21
1187.8187
  0
LINE
  8
0_00
  6
CONTINUOUS
 62
4
 10
1463.3503
 20
2060.3762
 11
1463.3503
 21
1187.8187
  0
LINE
  8
0_00
  6
CONTINUOUS
 62
4
 10
1435.3503
 20
1152.8186
 11
1531.3503
 21
1152.8186
  0
LINE
  8
0_00
  6
CONTINUOUS
 62
4
 10
1437.6686
 20
1162.3186
 11
1529.0318
 21
1162.3186
  0
LINE
  8
0_00
  6
CONTINUOUS
 62
4
 10
1459.2749
 20
1187.8187
 11
1507.4255
 21
1187.8187
  0
LINE
  8
0_00
  6
CONTINUOUS
 62
4
 10
1434.3503
 20
1154.3186
 11
1532.3503
 21
1154.3186
  0
LINE
  8
0_00
  6
CONTINUOUS
 62
4
 10
1531.3503
 20
1152.8186
 11
1532.3503
 21
1154.3186
  0
LINE
  8
0_00
  6
CONTINUOUS
 62
4
 10
1532.3503
 20
1154.3186
 11
1532.0259
 21
1159.5059
  0
LINE
  8
0_00
  6
CONTINUOUS
 62
4
 10
1510.1334
 20
1165.0841
 11
1508.4225
 21
1186.8970
  0
LINE
  8
0_00
  6
CONTINUOUS
 62
4
 10
1435.3503
 20
1152.8186
 11
1434.3503
 21
1154.3186
  0
LINE
  8
0_00
  6
CONTINUOUS
 62
4
 10
1434.3503
 20
1154.3186
 11
1434.6744
 21
1159.5059
  0
LINE
  8
0_00
  6
CONTINUOUS
 62
4
 10
1456.5670
 20
1165.0841
 11
1458.2779
 21
1186.8970
  0
LINE
  8
0_00
  6
CONTINUOUS
 62
2
 10
1529.3503
 20
1162.3186
 11
1529.3503
 21
1163.3187
  0
LINE
  8
0_00
  6
CONTINUOUS
 62
2
 10
1512.3502
 20
1162.3186
 11
1512.3502
 21
1163.3187
  0
LINE
  8
0_00
  6
CONTINUOUS
 62
2
 10
1512.3502
 20
1163.3187
 11
1529.3503
 21
1163.3187
  0
LINE
  8
0_00
  6
CONTINUOUS
 62
2
 10
1512.3502
 20
1162.3186
 11
1529.3503
 21
1162.3186
  0
LINE
  8
0_00
  6
CONTINUOUS
 62
2
 10
1513.8503
 20
1163.3187
 11
1527.8502
 21
1163.3187
  0
LINE
  8
0_00
  6
CONTINUOUS
 62
2
 10
1527.8502
 20
1163.7333
 11
1527.8502
 21
1163.3187
  0
LINE
  8
0_00
  6
CONTINUOUS
 62
2
 10
1513.8503
 20
1163.7333
 11
1527.8502
 21
1163.7333
  0
LINE
  8
0_00
  6
CONTINUOUS
 62
2
 10
1513.8503
 20
1163.7333
 11
1513.8503
 21
1163.3187
  0
LINE
  8
0_00
  6
CONTINUOUS
 62
2
 10
1437.3502
 20
1162.3186
 11
1437.3502
 21
1163.3187
  0
LINE
  8
0_00
  6
CONTINUOUS
 62
2
 10
1454.3503
 20
1162.3186
 11
1454.3503
 21
1163.3187
  0
LINE
  8
0_00
  6
CONTINUOUS
 62
2
 10
1454.3503
 20
1163.3187
 11
1437.3502
 21
1163.3187
  0
LINE
  8
0_00
  6
CONTINUOUS
 62
2
 10
1454.3503
 20
1162.3186
 11
1437.3502
 21
1162.3186
  0
LINE
  8
0_00
  6
CONTINUOUS
 62
2
 10
1452.8502
 20
1163.3187
 11
1438.8503
 21
1163.3187
  0
LINE
  8
0_00
  6
CONTINUOUS
 62
2
 10
1438.8503
 20
1163.7333
 11
1438.8503
 21
1163.3187
  0
LINE
  8
0_00
  6
CONTINUOUS
 62
2
 10
1452.8502
 20
1163.7333
 11
1438.8503
 21
1163.7333
  0
LINE
  8
0_00
  6
CONTINUOUS
 62
2
 10
1452.8502
 20
1163.7333
 11
1452.8502
 21
1163.3187
  0
LINE
  8
3_03
  6
CONTINUOUS
 62
2
 10
1483.3502
 20
1180.9843
 11
1483.0191
 21
1181.1114
  0
LINE
  8
3_03
  6
CONTINUOUS
 62
2
 10
1483.3502
 20
1180.9843
 11
1483.6808
 21
1181.1112
  0
LINE
  8
3_03
  6
CONTINUOUS
 62
2
 10
1483.0191
 20
1181.1114
 11
1482.1687
 21
1181.9324
  0
LINE
  8
3_03
  6
CONTINUOUS
 62
2
 10
1483.6812
 20
1181.1114
 11
1483.6806
 21
1181.1119
  0
LINE
  8
3_03
  6
CONTINUOUS
 62
2
 10
1483.6806
 20
1181.1119
 11
1484.5308
 21
1181.9331
  0
LINE
  8
3_03
  6
CONTINUOUS
 62
2
 10
1482.6847
 20
1180.3187
 11
1482.5577
 21
1180.6498
  0
LINE
  8
3_03
  6
CONTINUOUS
 62
2
 10
1482.6847
 20
1180.3187
 11
1482.5578
 21
1179.9879
  0
LINE
  8
3_03
  6
CONTINUOUS
 62
2
 10
1482.5577
 20
1180.6498
 11
1481.7360
 21
1181.5005
  0
LINE
  8
3_03
  6
CONTINUOUS
 62
2
 10
1482.5577
 20
1179.9876
 11
1482.5570
 21
1179.9883
  0
LINE
  8
3_03
  6
CONTINUOUS
 62
2
 10
1482.5570
 20
1179.9883
 11
1481.7359
 21
1179.1380
  0
LINE
  8
3_03
  6
CONTINUOUS
 62
2
 10
1484.0157
 20
1180.3187
 11
1484.1427
 21
1179.9876
  0
LINE
  8
3_03
  6
CONTINUOUS
 62
2
 10
1484.0157
 20
1180.3187
 11
1484.1426
 21
1180.6494
  0
LINE
  8
3_03
  6
CONTINUOUS
 62
2
 10
1484.1427
 20
1179.9876
 11
1484.9641
 21
1179.1373
  0
LINE
  8
3_03
  6
CONTINUOUS
 62
2
 10
1484.1427
 20
1180.6498
 11
1484.1434
 21
1180.6491
  0
LINE
  8
3_03
  6
CONTINUOUS
 62
2
 10
1484.1434
 20
1180.6491
 11
1484.9646
 21
1181.4994
  0
LINE
  8
3_03
  6
CONTINUOUS
 62
2
 10
1483.3502
 20
1179.6532
 11
1483.6812
 21
1179.5262
  0
LINE
  8
3_03
  6
CONTINUOUS
 62
2
 10
1483.3502
 20
1179.6532
 11
1483.0196
 21
1179.5262
  0
LINE
  8
3_03
  6
CONTINUOUS
 62
2
 10
1483.6812
 20
1179.5262
 11
1484.5317
 21
1178.7049
  0
LINE
  8
3_03
  6
CONTINUOUS
 62
2
 10
1483.0191
 20
1179.5262
 11
1483.0198
 21
1179.5255
  0
LINE
  8
3_03
  6
CONTINUOUS
 62
2
 10
1483.0198
 20
1179.5255
 11
1482.1692
 21
1178.7040
  0
LINE
  8
0_00
  6
CONTINUOUS
 62
4
 10
1637.0720
 20
1287.8186
 11
1503.3501
 21
1287.8186
  0
LINE
  8
0_00
  6
CONTINUOUS
 62
4
 10
1648.1077
 20
1252.8187
 11
1503.3501
 21
1252.8187
  0
LINE
  8
0_00
  6
CENTER1
 62
6
 10
633.3503
 20
2154.0864
 11
633.3503
 21
1103.7511
  0
LINE
  8
0_00
  6
CONTINUOUS
 62
4
 10
653.3504
 20
2060.3762
 11
653.3504
 21
1187.8187
  0
LINE
  8
0_00
  6
CONTINUOUS
 62
4
 10
613.3503
 20
2060.3762
 11
613.3503
 21
1187.8187
  0
LINE
  8
0_00
  6
CONTINUOUS
 62
4
 10
585.3504
 20
1152.8186
 11
681.3503
 21
1152.8186
  0
LINE
  8
0_00
  6
CONTINUOUS
 62
4
 10
587.6686
 20
1162.3186
 11
679.0320
 21
1162.3186
  0
LINE
  8
0_00
  6
CONTINUOUS
 62
4
 10
609.2749
 20
1187.8187
 11
657.4255
 21
1187.8187
  0
LINE
  8
0_00
  6
CONTINUOUS
 62
4
 10
584.3503
 20
1154.3186
 11
682.3504
 21
1154.3186
  0
LINE
  8
0_00
  6
CONTINUOUS
 62
4
 10
681.3503
 20
1152.8186
 11
682.3504
 21
1154.3186
  0
LINE
  8
0_00
  6
CONTINUOUS
 62
4
 10
682.3504
 20
1154.3186
 11
682.0262
 21
1159.5059
  0
LINE
  8
0_00
  6
CONTINUOUS
 62
4
 10
660.1333
 20
1165.0841
 11
658.4226
 21
1186.8970
  0
LINE
  8
0_00
  6
CONTINUOUS
 62
4
 10
585.3504
 20
1152.8186
 11
584.3503
 21
1154.3186
  0
LINE
  8
0_00
  6
CONTINUOUS
 62
4
 10
584.3503
 20
1154.3186
 11
584.6745
 21
1159.5059
  0
LINE
  8
0_00
  6
CONTINUOUS
 62
4
 10
606.5671
 20
1165.0841
 11
608.2780
 21
1186.8970
  0
LINE
  8
0_00
  6
CONTINUOUS
 62
2
 10
679.3503
 20
1162.3186
 11
679.3503
 21
1163.3187
  0
LINE
  8
0_00
  6
CONTINUOUS
 62
2
 10
662.3503
 20
1162.3186
 11
662.3503
 21
1163.3187
  0
LINE
  8
0_00
  6
CONTINUOUS
 62
2
 10
662.3503
 20
1163.3187
 11
679.3503
 21
1163.3187
  0
LINE
  8
0_00
  6
CONTINUOUS
 62
2
 10
662.3503
 20
1162.3186
 11
679.3503
 21
1162.3186
  0
LINE
  8
0_00
  6
CONTINUOUS
 62
2
 10
663.8503
 20
1163.3187
 11
677.8503
 21
1163.3187
  0
LINE
  8
0_00
  6
CONTINUOUS
 62
2
 10
677.8503
 20
1163.7333
 11
677.8503
 21
1163.3187
  0
LINE
  8
0_00
  6
CONTINUOUS
 62
2
 10
663.8503
 20
1163.7333
 11
677.8503
 21
1163.7333
  0
LINE
  8
0_00
  6
CONTINUOUS
 62
2
 10
663.8503
 20
1163.7333
 11
663.8503
 21
1163.3187
  0
LINE
  8
0_00
  6
CONTINUOUS
 62
2
 10
587.3503
 20
1162.3186
 11
587.3503
 21
1163.3187
  0
LINE
  8
0_00
  6
CONTINUOUS
 62
2
 10
604.3503
 20
1162.3186
 11
604.3503
 21
1163.3187
  0
LINE
  8
0_00
  6
CONTINUOUS
 62
2
 10
604.3503
 20
1163.3187
 11
587.3503
 21
1163.3187
  0
LINE
  8
0_00
  6
CONTINUOUS
 62
2
 10
604.3503
 20
1162.3186
 11
587.3503
 21
1162.3186
  0
LINE
  8
0_00
  6
CONTINUOUS
 62
2
 10
602.8503
 20
1163.3187
 11
588.8503
 21
1163.3187
  0
LINE
  8
0_00
  6
CONTINUOUS
 62
2
 10
588.8503
 20
1163.7333
 11
588.8503
 21
1163.3187
  0
LINE
  8
0_00
  6
CONTINUOUS
 62
2
 10
602.8503
 20
1163.7333
 11
588.8503
 21
1163.7333
  0
LINE
  8
0_00
  6
CONTINUOUS
 62
2
 10
602.8503
 20
1163.7333
 11
602.8503
 21
1163.3187
  0
LINE
  8
3_03
  6
CONTINUOUS
 62
2
 10
633.3503
 20
1180.9843
 11
633.0192
 21
1181.1114
  0
LINE
  8
3_03
  6
CONTINUOUS
 62
2
 10
633.3503
 20
1180.9843
 11
633.6809
 21
1181.1112
  0
LINE
  8
3_03
  6
CONTINUOUS
 62
2
 10
633.0192
 20
1181.1114
 11
632.1689
 21
1181.9324
  0
LINE
  8
3_03
  6
CONTINUOUS
 62
2
 10
633.6814
 20
1181.1114
 11
633.6806
 21
1181.1119
  0
LINE
  8
3_03
  6
CONTINUOUS
 62
2
 10
633.6806
 20
1181.1119
 11
634.5309
 21
1181.9331
  0
LINE
  8
3_03
  6
CONTINUOUS
 62
2
 10
632.6848
 20
1180.3187
 11
632.5576
 21
1180.6498
  0
LINE
  8
3_03
  6
CONTINUOUS
 62
2
 10
632.6848
 20
1180.3187
 11
632.5578
 21
1179.9879
  0
LINE
  8
3_03
  6
CONTINUOUS
 62
2
 10
632.5576
 20
1180.6498
 11
631.7361
 21
1181.5005
  0
LINE
  8
3_03
  6
CONTINUOUS
 62
2
 10
632.5576
 20
1179.9876
 11
632.5571
 21
1179.9883
  0
LINE
  8
3_03
  6
CONTINUOUS
 62
2
 10
632.5571
 20
1179.9883
 11
631.7358
 21
1179.1380
  0
LINE
  8
3_03
  6
CONTINUOUS
 62
2
 10
634.0159
 20
1180.3187
 11
634.1428
 21
1179.9876
  0
LINE
  8
3_03
  6
CONTINUOUS
 62
2
 10
634.0159
 20
1180.3187
 11
634.1428
 21
1180.6494
  0
LINE
  8
3_03
  6
CONTINUOUS
 62
2
 10
634.1428
 20
1179.9876
 11
634.9640
 21
1179.1373
  0
LINE
  8
3_03
  6
CONTINUOUS
 62
2
 10
634.1428
 20
1180.6498
 11
634.1436
 21
1180.6491
  0
LINE
  8
3_03
  6
CONTINUOUS
 62
2
 10
634.1436
 20
1180.6491
 11
634.9646
 21
1181.4994
  0
LINE
  8
3_03
  6
CONTINUOUS
 62
2
 10
633.3503
 20
1179.6532
 11
633.6814
 21
1179.5262
  0
LINE
  8
3_03
  6
CONTINUOUS
 62
2
 10
633.3503
 20
1179.6532
 11
633.0195
 21
1179.5262
  0
LINE
  8
3_03
  6
CONTINUOUS
 62
2
 10
633.6814
 20
1179.5262
 11
634.5317
 21
1178.7049
  0
LINE
  8
3_03
  6
CONTINUOUS
 62
2
 10
633.0192
 20
1179.5262
 11
633.0200
 21
1179.5255
  0
LINE
  8
3_03
  6
CONTINUOUS
 62
2
 10
633.0200
 20
1179.5255
 11
632.1692
 21
1178.7040
  0
LINE
  8
0_00
  6
CENTER1
 62
6
 10
1483.3502
 20
2154.0864
 11
1483.3502
 21
1104.5901
  0
LINE
  8
12_0C
  6
CONTINUOUS
 62
2
 10
3687.7563
 20
2620.8227
 11
3687.4251
 21
2620.9497
  0
LINE
  8
12_0C
  6
CONTINUOUS
 62
2
 10
3687.7563
 20
2620.8227
 11
3688.0870
 21
2620.9497
  0
LINE
  8
12_0C
  6
CONTINUOUS
 62
2
 10
3687.4251
 20
2620.9497
 11
3686.5746
 21
2621.7709
  0
LINE
  8
12_0C
  6
CONTINUOUS
 62
2
 10
3688.0872
 20
2620.9497
 11
3688.0865
 21
2620.9504
  0
LINE
  8
12_0C
  6
CONTINUOUS
 62
2
 10
3688.0865
 20
2620.9504
 11
3688.9366
 21
2621.7714
  0
LINE
  8
12_0C
  6
CONTINUOUS
 62
2
 10
3687.0907
 20
2620.1573
 11
3686.9634
 21
2620.4883
  0
LINE
  8
12_0C
  6
CONTINUOUS
 62
2
 10
3687.0907
 20
2620.1573
 11
3686.9639
 21
2619.8264
  0
LINE
  8
12_0C
  6
CONTINUOUS
 62
2
 10
3686.9634
 20
2620.4883
 11
3686.1420
 21
2621.3390
  0
LINE
  8
12_0C
  6
CONTINUOUS
 62
2
 10
3686.9634
 20
2619.8261
 11
3686.9627
 21
2619.8268
  0
LINE
  8
12_0C
  6
CONTINUOUS
 62
2
 10
3686.9627
 20
2619.8268
 11
3686.1417
 21
2618.9763
  0
LINE
  8
12_0C
  6
CONTINUOUS
 62
2
 10
3688.4214
 20
2620.1573
 11
3688.5487
 21
2619.8261
  0
LINE
  8
12_0C
  6
CONTINUOUS
 62
2
 10
3688.4214
 20
2620.1573
 11
3688.5482
 21
2620.4878
  0
LINE
  8
12_0C
  6
CONTINUOUS
 62
2
 10
3688.5487
 20
2619.8261
 11
3689.3701
 21
2618.9756
  0
LINE
  8
12_0C
  6
CONTINUOUS
 62
2
 10
3688.5487
 20
2620.4883
 11
3688.5491
 21
2620.4876
  0
LINE
  8
12_0C
  6
CONTINUOUS
 62
2
 10
3688.5491
 20
2620.4876
 11
3689.3703
 21
2621.3377
  0
LINE
  8
12_0C
  6
CONTINUOUS
 62
2
 10
3687.7563
 20
2619.4915
 11
3688.0872
 21
2619.3645
  0
LINE
  8
12_0C
  6
CONTINUOUS
 62
2
 10
3687.7563
 20
2619.4915
 11
3687.4255
 21
2619.3647
  0
LINE
  8
12_0C
  6
CONTINUOUS
 62
2
 10
3688.0872
 20
2619.3645
 11
3688.9373
 21
2618.5435
  0
LINE
  8
12_0C
  6
CONTINUOUS
 62
2
 10
3687.4251
 20
2619.3645
 11
3687.4260
 21
2619.3638
  0
LINE
  8
12_0C
  6
CONTINUOUS
 62
2
 10
3687.4260
 20
2619.3638
 11
3686.5752
 21
2618.5423
  0
LINE
  8
4_04
  6
CONTINUOUS
 62
4
 10
3710.3776
 20
2607.5237
 11
3712.3322
 21
2605.1937
  0
LINE
  8
4_04
  6
CONTINUOUS
 62
4
 10
3674.0199
 20
2573.0669
 11
3672.0680
 21
2575.3926
  0
LINE
  8
4_04
  6
CONTINUOUS
 62
4
 10
3664.7562
 20
2573.6570
 11
3669.7245
 21
2573.6570
  0
LINE
  8
4_04
  6
CONTINUOUS
 62
4
 10
3665.7179
 20
2627.6571
 11
3709.8640
 21
2627.6571
  0
LINE
  8
4_04
  6
CONTINUOUS
 62
4
 10
3663.7184
 20
2625.6953
 11
3662.7564
 21
2575.6954
  0
LINE
  8
4_04
  6
CONTINUOUS
 62
4
 10
3711.8607
 20
2625.7681
 11
3712.7531
 21
2609.6857
  0
LINE
  8
3_03
  6
CONTINUOUS
 62
4
 10
3705.2055
 20
2594.3932
 11
3707.4841
 21
2591.1388
  0
LINE
  8
3_03
  6
CONTINUOUS
 62
4
 10
3682.0905
 20
2573.3578
 11
3728.7820
 21
2606.0516
  0
LINE
  8
3_03
  6
CONTINUOUS
 62
4
 10
3728.7820
 20
2606.0516
 11
3728.8696
 21
2606.7208
  0
LINE
  8
3_03
  6
CONTINUOUS
 62
4
 10
3728.8696
 20
2606.7208
 11
3727.9372
 21
2607.8261
  0
LINE
  8
3_03
  6
CONTINUOUS
 62
4
 10
3725.9070
 20
2604.6059
 11
3725.6358
 21
2604.7852
  0
LINE
  8
3_03
  6
CONTINUOUS
 62
4
 10
3725.9070
 20
2604.6059
 11
3725.9152
 21
2604.0445
  0
LINE
  8
3_03
  6
CONTINUOUS
 62
4
 10
3701.1099
 20
2591.5253
 11
3703.3887
 21
2588.2709
  0
LINE
  8
3_03
  6
CONTINUOUS
 62
4
 10
3682.0905
 20
2573.3578
 11
3681.4320
 21
2573.5048
  0
LINE
  8
3_03
  6
CONTINUOUS
 62
4
 10
3681.4320
 20
2573.5048
 11
3680.7488
 21
2574.6954
  0
LINE
  8
3_03
  6
CONTINUOUS
 62
4
 10
3684.4322
 20
2575.5650
 11
3684.3567
 21
2575.8817
  0
LINE
  8
3_03
  6
CONTINUOUS
 62
4
 10
3684.9573
 20
2575.3654
 11
3684.4322
 21
2575.5650
  0
LINE
  8
0_00
  6
CONTINUOUS
 62
4
 10
3707.7562
 20
3488.5103
 11
3707.7562
 21
2627.6571
  0
LINE
  8
0_00
  6
CONTINUOUS
 62
4
 10
3667.7563
 20
2627.6571
 11
3667.7563
 21
3460.5018
  0
LINE
  8
0_00
  6
CENTER1
 62
6
 10
2960.5490
 20
3109.7912
 11
2960.5490
 21
1996.5324
  0
LINE
  8
12_0C
  6
CONTINUOUS
 62
2
 10
2960.5490
 20
2111.6270
 11
2960.2178
 21
2111.7540
  0
LINE
  8
12_0C
  6
CONTINUOUS
 62
2
 10
2960.5490
 20
2111.6270
 11
2960.8797
 21
2111.7538
  0
LINE
  8
12_0C
  6
CONTINUOUS
 62
2
 10
2960.2178
 20
2111.7540
 11
2959.3675
 21
2112.5752
  0
LINE
  8
12_0C
  6
CONTINUOUS
 62
2
 10
2960.8800
 20
2111.7540
 11
2960.8793
 21
2111.7547
  0
LINE
  8
12_0C
  6
CONTINUOUS
 62
2
 10
2960.8793
 20
2111.7547
 11
2961.7296
 21
2112.5757
  0
LINE
  8
12_0C
  6
CONTINUOUS
 62
2
 10
2959.8834
 20
2110.9614
 11
2959.7564
 21
2111.2923
  0
LINE
  8
12_0C
  6
CONTINUOUS
 62
2
 10
2959.8834
 20
2110.9614
 11
2959.7564
 21
2110.6306
  0
LINE
  8
12_0C
  6
CONTINUOUS
 62
2
 10
2959.7564
 20
2111.2923
 11
2958.9347
 21
2112.1431
  0
LINE
  8
12_0C
  6
CONTINUOUS
 62
2
 10
2959.7564
 20
2110.6302
 11
2959.7557
 21
2110.6309
  0
LINE
  8
12_0C
  6
CONTINUOUS
 62
2
 10
2959.7557
 20
2110.6309
 11
2958.9347
 21
2109.7806
  0
LINE
  8
12_0C
  6
CONTINUOUS
 62
2
 10
2961.2146
 20
2110.9614
 11
2961.3416
 21
2110.6302
  0
LINE
  8
12_0C
  6
CONTINUOUS
 62
2
 10
2961.2146
 20
2110.9614
 11
2961.3416
 21
2111.2921
  0
LINE
  8
12_0C
  6
CONTINUOUS
 62
2
 10
2961.3416
 20
2110.6302
 11
2962.1626
 21
2109.7799
  0
LINE
  8
12_0C
  6
CONTINUOUS
 62
2
 10
2961.3416
 20
2111.2923
 11
2961.3423
 21
2111.2917
  0
LINE
  8
12_0C
  6
CONTINUOUS
 62
2
 10
2961.3423
 20
2111.2917
 11
2962.1635
 21
2112.1420
  0
LINE
  8
12_0C
  6
CONTINUOUS
 62
2
 10
2960.5490
 20
2110.2958
 11
2960.8800
 21
2110.1685
  0
LINE
  8
12_0C
  6
CONTINUOUS
 62
2
 10
2960.5490
 20
2110.2958
 11
2960.2185
 21
2110.1690
  0
LINE
  8
12_0C
  6
CONTINUOUS
 62
2
 10
2960.8800
 20
2110.1685
 11
2961.7303
 21
2109.3475
  0
LINE
  8
12_0C
  6
CONTINUOUS
 62
2
 10
2960.2178
 20
2110.1685
 11
2960.2185
 21
2110.1678
  0
LINE
  8
12_0C
  6
CONTINUOUS
 62
2
 10
2960.2185
 20
2110.1678
 11
2959.3678
 21
2109.3464
  0
LINE
  8
4_04
  6
CONTINUOUS
 62
4
 10
2983.1703
 20
2098.3276
 11
2985.1254
 21
2095.9980
  0
LINE
  8
4_04
  6
CONTINUOUS
 62
4
 10
2946.8129
 20
2063.8710
 11
2944.8612
 21
2066.1967
  0
LINE
  8
4_04
  6
CONTINUOUS
 62
4
 10
2937.5489
 20
2064.4613
 11
2942.5177
 21
2064.4613
  0
LINE
  8
4_04
  6
CONTINUOUS
 62
4
 10
2938.5109
 20
2118.4614
 11
2982.6569
 21
2118.4614
  0
LINE
  8
4_04
  6
CONTINUOUS
 62
4
 10
2936.5114
 20
2116.4996
 11
2935.5494
 21
2066.4997
  0
LINE
  8
4_04
  6
CONTINUOUS
 62
4
 10
2984.6539
 20
2116.5722
 11
2985.5461
 21
2100.4900
  0
LINE
  8
3_03
  6
CONTINUOUS
 62
4
 10
2977.9985
 20
2085.1975
 11
2980.2773
 21
2081.9431
  0
LINE
  8
3_03
  6
CONTINUOUS
 62
4
 10
2954.8833
 20
2064.1621
 11
3001.5752
 21
2096.8559
  0
LINE
  8
3_03
  6
CONTINUOUS
 62
4
 10
3001.5752
 20
2096.8559
 11
3001.6624
 21
2097.5249
  0
LINE
  8
3_03
  6
CONTINUOUS
 62
4
 10
3001.6624
 20
2097.5249
 11
3000.7304
 21
2098.6299
  0
LINE
  8
3_03
  6
CONTINUOUS
 62
4
 10
2998.7000
 20
2095.4102
 11
2998.4283
 21
2095.5894
  0
LINE
  8
3_03
  6
CONTINUOUS
 62
4
 10
2998.7000
 20
2095.4102
 11
2998.7082
 21
2094.8486
  0
LINE
  8
3_03
  6
CONTINUOUS
 62
4
 10
2973.9029
 20
2082.3296
 11
2976.1814
 21
2079.0749
  0
LINE
  8
3_03
  6
CONTINUOUS
 62
4
 10
2954.8833
 20
2064.1621
 11
2954.2250
 21
2064.3091
  0
LINE
  8
3_03
  6
CONTINUOUS
 62
4
 10
2954.2250
 20
2064.3091
 11
2953.5418
 21
2065.4995
  0
LINE
  8
3_03
  6
CONTINUOUS
 62
4
 10
2957.2252
 20
2066.3695
 11
2957.1499
 21
2066.6860
  0
LINE
  8
3_03
  6
CONTINUOUS
 62
4
 10
2957.7507
 20
2066.1697
 11
2957.2252
 21
2066.3695
  0
LINE
  8
0_00
  6
CONTINUOUS
 62
4
 10
2980.5489
 20
2979.3143
 11
2980.5489
 21
2118.4614
  0
LINE
  8
0_00
  6
CONTINUOUS
 62
4
 10
2940.5489
 20
2118.4614
 11
2940.5489
 21
2951.3061
  0
LINE
  8
12_0C
  6
CONTINUOUS
 62
2
 10
2226.7568
 20
1597.8199
 11
2226.4259
 21
1597.9469
  0
LINE
  8
12_0C
  6
CONTINUOUS
 62
2
 10
2226.7568
 20
1597.8199
 11
2227.0873
 21
1597.9468
  0
LINE
  8
12_0C
  6
CONTINUOUS
 62
2
 10
2226.4259
 20
1597.9469
 11
2225.5751
 21
1598.7679
  0
LINE
  8
12_0C
  6
CONTINUOUS
 62
2
 10
2227.0880
 20
1597.9469
 11
2227.0871
 21
1597.9475
  0
LINE
  8
12_0C
  6
CONTINUOUS
 62
2
 10
2227.0871
 20
1597.9475
 11
2227.9374
 21
1598.7687
  0
LINE
  8
12_0C
  6
CONTINUOUS
 62
2
 10
2226.0912
 20
1597.1543
 11
2225.9640
 21
1597.4852
  0
LINE
  8
12_0C
  6
CONTINUOUS
 62
2
 10
2226.0912
 20
1597.1543
 11
2225.9642
 21
1596.8238
  0
LINE
  8
12_0C
  6
CONTINUOUS
 62
2
 10
2225.9640
 20
1597.4852
 11
2225.1425
 21
1598.3361
  0
LINE
  8
12_0C
  6
CONTINUOUS
 62
2
 10
2225.9640
 20
1596.8232
 11
2225.9633
 21
1596.8240
  0
LINE
  8
12_0C
  6
CONTINUOUS
 62
2
 10
2225.9633
 20
1596.8240
 11
2225.1423
 21
1595.9735
  0
LINE
  8
12_0C
  6
CONTINUOUS
 62
2
 10
2227.4224
 20
1597.1543
 11
2227.5492
 21
1596.8232
  0
LINE
  8
12_0C
  6
CONTINUOUS
 62
2
 10
2227.4224
 20
1597.1543
 11
2227.5492
 21
1597.4849
  0
LINE
  8
12_0C
  6
CONTINUOUS
 62
2
 10
2227.5492
 20
1596.8232
 11
2228.3707
 21
1595.9729
  0
LINE
  8
12_0C
  6
CONTINUOUS
 62
2
 10
2227.5492
 20
1597.4852
 11
2227.5499
 21
1597.4844
  0
LINE
  8
12_0C
  6
CONTINUOUS
 62
2
 10
2227.5499
 20
1597.4844
 11
2228.3711
 21
1598.3350
  0
LINE
  8
12_0C
  6
CONTINUOUS
 62
2
 10
2226.7568
 20
1596.4887
 11
2227.0880
 21
1596.3618
  0
LINE
  8
12_0C
  6
CONTINUOUS
 62
2
 10
2226.7568
 20
1596.4887
 11
2226.4259
 21
1596.3618
  0
LINE
  8
12_0C
  6
CONTINUOUS
 62
2
 10
2227.0880
 20
1596.3618
 11
2227.9379
 21
1595.5405
  0
LINE
  8
12_0C
  6
CONTINUOUS
 62
2
 10
2226.4259
 20
1596.3618
 11
2226.4261
 21
1596.3610
  0
LINE
  8
12_0C
  6
CONTINUOUS
 62
2
 10
2226.4261
 20
1596.3610
 11
2225.5753
 21
1595.5396
  0
LINE
  8
4_04
  6
CONTINUOUS
 62
4
 10
2249.3784
 20
1584.5206
 11
2251.3332
 21
1582.1910
  0
LINE
  8
4_04
  6
CONTINUOUS
 62
4
 10
2213.0205
 20
1550.0640
 11
2211.0690
 21
1552.3899
  0
LINE
  8
4_04
  6
CONTINUOUS
 62
4
 10
2203.7567
 20
1550.6543
 11
2208.7251
 21
1550.6543
  0
LINE
  8
4_04
  6
CONTINUOUS
 62
4
 10
2204.7189
 20
1604.6542
 11
2248.8645
 21
1604.6542
  0
LINE
  8
4_04
  6
CONTINUOUS
 62
4
 10
2202.7190
 20
1602.6930
 11
2201.7570
 21
1552.6928
  0
LINE
  8
4_04
  6
CONTINUOUS
 62
4
 10
2250.8615
 20
1602.7652
 11
2251.7537
 21
1586.6828
  0
LINE
  8
3_03
  6
CONTINUOUS
 62
4
 10
2244.2061
 20
1571.3904
 11
2246.4848
 21
1568.1359
  0
LINE
  8
3_03
  6
CONTINUOUS
 62
4
 10
2221.0911
 20
1550.3551
 11
2267.7825
 21
1583.0490
  0
LINE
  8
3_03
  6
CONTINUOUS
 62
4
 10
2267.7825
 20
1583.0490
 11
2267.8702
 21
1583.7180
  0
LINE
  8
3_03
  6
CONTINUOUS
 62
4
 10
2267.8702
 20
1583.7180
 11
2266.9379
 21
1584.8232
  0
LINE
  8
3_03
  6
CONTINUOUS
 62
4
 10
2264.9078
 20
1581.6035
 11
2264.6361
 21
1581.7826
  0
LINE
  8
3_03
  6
CONTINUOUS
 62
4
 10
2264.9078
 20
1581.6035
 11
2264.9158
 21
1581.0413
  0
LINE
  8
3_03
  6
CONTINUOUS
 62
4
 10
2240.1105
 20
1568.5226
 11
2242.3890
 21
1565.2682
  0
LINE
  8
3_03
  6
CONTINUOUS
 62
4
 10
2221.0911
 20
1550.3551
 11
2220.4324
 21
1550.5020
  0
LINE
  8
3_03
  6
CONTINUOUS
 62
4
 10
2220.4324
 20
1550.5020
 11
2219.7494
 21
1551.6925
  0
LINE
  8
3_03
  6
CONTINUOUS
 62
4
 10
2223.4328
 20
1552.5621
 11
2223.3575
 21
1552.8789
  0
LINE
  8
3_03
  6
CONTINUOUS
 62
4
 10
2223.9583
 20
1552.3628
 11
2223.4328
 21
1552.5621
  0
LINE
  8
0_00
  6
CONTINUOUS
 62
4
 10
2246.7567
 20
2465.5076
 11
2246.7567
 21
1604.6542
  0
LINE
  8
0_00
  6
CONTINUOUS
 62
4
 10
2206.7567
 20
1604.6542
 11
2206.7567
 21
2437.4993
  0
LINE
  8
0_00
  6
CENTER1
 62
6
 10
2226.7568
 20
2595.9840
 11
2226.7568
 21
1482.7253
  0
LINE
  8
2_02
  6
CONTINUOUS
 62
4
 10
4266.0860
 20
3934.3996
 11
4282.1127
 21
3883.5667
  0
LINE
  8
2_02
  6
CONTINUOUS
 62
4
 10
4272.5761
 20
3880.5602
 11
4256.4967
 21
3931.5564
  0
LINE
  8
2_02
  6
CONTINUOUS
 62
4
 10
4245.5127
 20
3111.8356
 11
4257.5404
 21
3073.6869
  0
LINE
  8
2_02
  6
CONTINUOUS
 62
4
 10
4255.0493
 20
3114.8426
 11
4267.0779
 21
3076.6942
  0
LINE
  8
2_02
  6
CONTINUOUS
 62
4
 10
1663.7658
 20
2057.8054
 11
1648.0084
 21
2107.7813
  0
LINE
  8
2_02
  6
CONTINUOUS
 62
4
 10
1673.3031
 20
2060.8120
 11
1657.5462
 21
2110.7858
  0
LINE
  8
2_02
  6
CONTINUOUS
 62
4
 10
1636.8300
 20
1288.5871
 11
1648.8586
 21
1250.4370
  0
LINE
  8
2_02
  6
CONTINUOUS
 62
4
 10
1646.3679
 20
1291.5913
 11
1658.3957
 21
1253.4441
  0
LINE
  8
0_00
  6
CONTINUOUS
 62
4
 10
2206.7567
 20
1683.0452
 11
1646.6093
 21
1290.8258
  0
LINE
  8
0_00
  6
CONTINUOUS
 62
4
 10
2206.7567
 20
1640.3182
 11
1657.6447
 21
1255.8258
  0
LINE
  8
0_00
  6
CONTINUOUS
 62
4
 10
5163.6626
 20
3886.3861
 11
5163.6626
 21
3113.8287
  0
LINE
  8
0_00
  6
CONTINUOUS
 62
4
 10
5183.6623
 20
3113.8287
 11
5183.6623
 21
3886.3861
  0
LINE
  8
0_00
  6
CONTINUOUS
 62
4
 10
5036.6624
 20
3886.3861
 11
5036.6624
 21
3113.8287
  0
LINE
  8
0_00
  6
CONTINUOUS
 62
4
 10
5056.6621
 20
3113.8287
 11
5056.6621
 21
3886.3861
  0
LINE
  8
0_00
  6
CONTINUOUS
 62
4
 10
4909.6623
 20
3886.3861
 11
4909.6623
 21
3113.8287
  0
LINE
  8
0_00
  6
CONTINUOUS
 62
4
 10
4929.6625
 20
3113.8287
 11
4929.6625
 21
3886.3861
  0
LINE
  8
0_00
  6
CONTINUOUS
 62
4
 10
4782.6627
 20
3886.3861
 11
4782.6627
 21
3113.8287
  0
LINE
  8
0_00
  6
CONTINUOUS
 62
4
 10
4802.6624
 20
3113.8287
 11
4802.6624
 21
3886.3861
  0
LINE
  8
0_00
  6
CONTINUOUS
 62
4
 10
4655.6625
 20
3886.3861
 11
4655.6625
 21
3113.8287
  0
LINE
  8
0_00
  6
CONTINUOUS
 62
4
 10
4675.6622
 20
3113.8287
 11
4675.6622
 21
3886.3861
  0
LINE
  8
0_00
  6
CONTINUOUS
 62
4
 10
4528.6624
 20
3886.3861
 11
4528.6624
 21
3113.8287
  0
LINE
  8
0_00
  6
CONTINUOUS
 62
4
 10
4548.6626
 20
3113.8287
 11
4548.6626
 21
3886.3861
  0
LINE
  8
0_00
  6
CONTINUOUS
 62
4
 10
1365.8503
 20
2060.3762
 11
1365.8503
 21
1287.8186
  0
LINE
  8
0_00
  6
CONTINUOUS
 62
4
 10
1385.8503
 20
1287.8186
 11
1385.8503
 21
2060.3762
  0
LINE
  8
0_00
  6
CONTINUOUS
 62
4
 10
1238.8503
 20
2060.3762
 11
1238.8503
 21
1287.8186
  0
LINE
  8
0_00
  6
CONTINUOUS
 62
4
 10
1258.8502
 20
1287.8186
 11
1258.8502
 21
2060.3762
  0
LINE
  8
0_00
  6
CONTINUOUS
 62
4
 10
1111.8504
 20
2060.3762
 11
1111.8504
 21
1287.8186
  0
LINE
  8
0_00
  6
CONTINUOUS
 62
4
 10
1131.8503
 20
1287.8186
 11
1131.8503
 21
2060.3762
  0
LINE
  8
0_00
  6
CONTINUOUS
 62
4
 10
984.8503
 20
2060.3762
 11
984.8503
 21
1287.8186
  0
LINE
  8
0_00
  6
CONTINUOUS
 62
4
 10
1004.8503
 20
1287.8186
 11
1004.8503
 21
2060.3762
  0
LINE
  8
0_00
  6
CONTINUOUS
 62
4
 10
857.8504
 20
2060.3762
 11
857.8504
 21
1287.8186
  0
LINE
  8
0_00
  6
CONTINUOUS
 62
4
 10
877.8503
 20
1287.8186
 11
877.8503
 21
2060.3762
  0
LINE
  8
0_00
  6
CONTINUOUS
 62
4
 10
730.8504
 20
2060.3762
 11
730.8504
 21
1287.8186
  0
LINE
  8
0_00
  6
CONTINUOUS
 62
4
 10
750.8504
 20
1287.8186
 11
750.8504
 21
2060.3762
  0
LINE
  8
0_00
  6
CONTINUOUS
 62
4
 10
5398.6624
 20
3886.3861
 11
5398.6624
 21
3113.8287
  0
LINE
  8
0_00
  6
CONTINUOUS
 62
4
 10
5378.6623
 20
3113.8287
 11
5378.6623
 21
3886.3861
  0
LINE
  8
0_00
  6
CONTINUOUS
 62
4
 10
535.8503
 20
2060.3762
 11
535.8503
 21
1287.8186
  0
LINE
  8
0_00
  6
CONTINUOUS
 62
4
 10
515.8503
 20
1287.8186
 11
515.8503
 21
2060.3762
  0
LINE
  8
0_00
  6
CONTINUOUS
 62
4
 10
1463.3503
 20
1287.8186
 11
653.3504
 21
1287.8186
  0
LINE
  8
0_00
  6
CONTINUOUS
 62
4
 10
613.3503
 20
1287.8186
 11
454.7752
 21
1287.8186
  0
LINE
  8
0_00
  6
CONTINUOUS
 62
4
 10
1463.3503
 20
1252.8187
 11
653.3504
 21
1252.8187
  0
LINE
  8
0_00
  6
CONTINUOUS
 62
4
 10
613.3503
 20
1252.8187
 11
454.7752
 21
1252.8187
  0
LINE
  8
0_00
  6
CONTINUOUS
 62
4
 10
1591.0534
 20
2060.3762
 11
1591.0534
 21
1287.8186
  0
LINE
  8
0_00
  6
CONTINUOUS
 62
4
 10
1611.0534
 20
1287.8186
 11
1611.0534
 21
2060.3762
  0
LINE
  8
0_00
  6
CONTINUOUS
 62
4
 10
1738.0535
 20
2105.8086
 11
1738.0535
 21
1351.3544
  0
LINE
  8
0_00
  6
CONTINUOUS
 62
4
 10
1718.0533
 20
2091.8042
 11
1718.0533
 21
1337.3503
  0
LINE
  8
0_00
  6
CONTINUOUS
 62
4
 10
1865.0534
 20
2194.7349
 11
1865.0534
 21
1440.2808
  0
LINE
  8
0_00
  6
CONTINUOUS
 62
4
 10
1845.0532
 20
2180.7307
 11
1845.0532
 21
1426.2767
  0
LINE
  8
0_00
  6
CONTINUOUS
 62
4
 10
1992.0531
 20
2283.6612
 11
1992.0531
 21
1529.2073
  0
LINE
  8
0_00
  6
CONTINUOUS
 62
4
 10
1972.0532
 20
2269.6571
 11
1972.0532
 21
1515.2031
  0
LINE
  8
0_00
  6
CONTINUOUS
 62
4
 10
2119.0533
 20
2372.5877
 11
2119.0533
 21
1618.1336
  0
LINE
  8
0_00
  6
CONTINUOUS
 62
4
 10
2099.0531
 20
2358.5834
 11
2099.0531
 21
1604.1293
  0
LINE
  8
0_00
  6
CONTINUOUS
 62
4
 10
2329.6527
 20
2523.5520
 11
2329.6527
 21
1769.0980
  0
LINE
  8
0_00
  6
CONTINUOUS
 62
4
 10
2349.6526
 20
2537.5559
 11
2349.6526
 21
1783.1020
  0
LINE
  8
0_00
  6
CONTINUOUS
 62
4
 10
2456.6526
 20
2612.4781
 11
2456.6526
 21
1858.0242
  0
LINE
  8
0_00
  6
CONTINUOUS
 62
4
 10
2476.6528
 20
2626.4825
 11
2476.6528
 21
1872.0283
  0
LINE
  8
0_00
  6
CONTINUOUS
 62
4
 10
2583.6530
 20
2701.4049
 11
2583.6530
 21
1946.9506
  0
LINE
  8
0_00
  6
CONTINUOUS
 62
4
 10
2603.6526
 20
2715.4088
 11
2603.6526
 21
1960.9550
  0
LINE
  8
0_00
  6
CONTINUOUS
 62
4
 10
2710.6528
 20
2790.3310
 11
2710.6528
 21
2035.8769
  0
LINE
  8
0_00
  6
CONTINUOUS
 62
4
 10
2730.6525
 20
2804.3351
 11
2730.6525
 21
2049.8811
  0
LINE
  8
0_00
  6
CONTINUOUS
 62
4
 10
2837.6527
 20
2879.2573
 11
2837.6527
 21
2124.8032
  0
LINE
  8
0_00
  6
CONTINUOUS
 62
4
 10
2857.6527
 20
2893.2614
 11
2857.6527
 21
2138.8076
  0
LINE
  8
0_00
  6
CONTINUOUS
 62
4
 10
3056.8597
 20
3032.7477
 11
3056.8597
 21
2278.2935
  0
LINE
  8
0_00
  6
CONTINUOUS
 62
4
 10
3076.8599
 20
3046.7519
 11
3076.8599
 21
2292.2978
  0
LINE
  8
0_00
  6
CONTINUOUS
 62
4
 10
3183.8599
 20
3121.6743
 11
3183.8599
 21
2367.2202
  0
LINE
  8
0_00
  6
CONTINUOUS
 62
4
 10
3203.8598
 20
3135.6784
 11
3203.8598
 21
2381.2241
  0
LINE
  8
0_00
  6
CONTINUOUS
 62
4
 10
3310.8598
 20
3210.6008
 11
3310.8598
 21
2456.1463
  0
LINE
  8
0_00
  6
CONTINUOUS
 62
4
 10
3330.8599
 20
3224.6045
 11
3330.8599
 21
2470.1505
  0
LINE
  8
0_00
  6
CONTINUOUS
 62
4
 10
3564.8598
 20
3388.4530
 11
3564.8598
 21
2633.9992
  0
LINE
  8
0_00
  6
CONTINUOUS
 62
4
 10
3584.8597
 20
3402.4576
 11
3584.8597
 21
2648.0033
  0
LINE
  8
0_00
  6
CONTINUOUS
 62
4
 10
4196.4587
 20
3830.7040
 11
4196.4587
 21
3076.2497
  0
LINE
  8
0_00
  6
CONTINUOUS
 62
4
 10
4176.4586
 20
3816.6998
 11
4176.4586
 21
3062.2456
  0
LINE
  8
0_00
  6
CONTINUOUS
 62
4
 10
4323.4584
 20
3886.3861
 11
4323.4584
 21
3113.8287
  0
LINE
  8
0_00
  6
CONTINUOUS
 62
4
 10
4303.4587
 20
3886.3861
 11
4303.4587
 21
3113.8287
  0
LINE
  8
0_00
  6
CONTINUOUS
 62
2
 10
1967.1007
 20
714.5884
 11
2229.7151
 21
898.4731
  0
LINE
  8
0_00
  6
CONTINUOUS
 62
2
 10
1967.1007
 20
714.5884
 11
2290.4155
 21
714.5884
  0
LINE
  8
15_0F
  6
CONTINUOUS
 62
6
 10
2259.7279
 20
714.5884
 11
2266.9638
 21
751.3838
  0
LINE
  8
15_0F
  6
CONTINUOUS
 62
6
 10
2259.7279
 20
714.5884
 11
2251.3721
 21
751.1456
  0
LINE
  8
15_0F
  6
CONTINUOUS
 62
6
 10
2206.8070
 20
882.4325
 11
2220.9306
 21
847.6939
  0
LINE
  8
15_0F
  6
CONTINUOUS
 62
6
 10
2206.8070
 20
882.4325
 11
2233.8389
 21
856.4418
  0
LINE
  8
0_00
  6
CENTER1
 62
6
 10
1413.0176
 20
1939.0933
 11
1653.3504
 21
2107.3762
  0
LINE
  8
0_00
  6
CONTINUOUS
 62
4
 10
4256.8680
 20
3930.3790
 11
1653.3504
 21
2107.3762
  0
LINE
  8
0_00
  6
CONTINUOUS
 62
6
 10
5735.6863
 20
3354.6922
 11
5735.6863
 21
3259.8294
  0
LINE
  8
0_00
  6
CONTINUOUS
 62
6
 10
3406.1893
 20
2570.7866
 11
3406.1893
 21
2475.9240
  0
LINE
  8
0_00
  6
CONTINUOUS
 62
4
 10
3457.8598
 20
3313.5308
 11
3457.8598
 21
2782.5851
  0
LINE
  8
0_00
  6
CONTINUOUS
 62
4
 10
3437.8596
 20
3299.5269
 11
3437.8596
 21
2782.5851
  0
LINE
  8
0_00
  6
CONTINUOUS
 62
4
 10
3667.7563
 20
2706.0480
 11
3528.7825
 21
2608.7375
  0
LINE
  8
0_00
  6
CONTINUOUS
 62
4
 10
3667.7563
 20
2663.3210
 11
3548.8575
 21
2580.0671
  0
LINE
  8
15_0F
  6
CONTINUOUS
 62
6
 10
3141.6296
 20
2294.9233
 11
3428.6890
 21
2294.9233
  0
LINE
  8
15_0F
  6
CONTINUOUS
 62
6
 10
3141.6296
 20
3149.4811
 11
3428.6890
 21
3149.4811
  0
LINE
  8
15_0F
  6
CONTINUOUS
 62
6
 10
3406.1893
 20
2294.9233
 11
3406.1893
 21
3149.4811
  0
LINE
  8
15_0F
  6
CONTINUOUS
 62
6
 10
3406.1893
 20
2294.9233
 11
3413.9859
 21
2331.6037
  0
LINE
  8
15_0F
  6
CONTINUOUS
 62
6
 10
3406.1893
 20
2294.9233
 11
3398.3926
 21
2331.6037
  0
LINE
  8
15_0F
  6
CONTINUOUS
 62
6
 10
3406.1893
 20
3149.4811
 11
3398.3926
 21
3112.8001
  0
LINE
  8
15_0F
  6
CONTINUOUS
 62
6
 10
3406.1893
 20
3149.4811
 11
3413.9859
 21
3112.8001
  0
LINE
  8
15_0F
  6
CONTINUOUS
 62
6
 10
3164.1300
 20
3149.4811
 11
3518.6893
 21
3149.4811
  0
LINE
  8
15_0F
  6
CONTINUOUS
 62
6
 10
3496.1893
 20
3149.4811
 11
3496.1893
 21
2194.9232
  0
LINE
  8
15_0F
  6
CONTINUOUS
 62
6
 10
3496.1893
 20
3149.4811
 11
3488.3926
 21
3112.8001
  0
LINE
  8
15_0F
  6
CONTINUOUS
 62
6
 10
3496.1893
 20
3149.4811
 11
3503.9857
 21
3112.8001
  0
LINE
  8
15_0F
  6
CONTINUOUS
 62
6
 10
3496.1893
 20
2194.9232
 11
3503.9857
 21
2231.6036
  0
LINE
  8
15_0F
  6
CONTINUOUS
 62
6
 10
3496.1893
 20
2194.9232
 11
3488.3926
 21
2231.6036
  0
LINE
  8
15_0F
  6
CONTINUOUS
 62
6
 10
3141.6296
 20
2194.9232
 11
3518.6893
 21
2194.9232
  0
LINE
  8
0_00
  6
CONTINUOUS
 62
4
 10
3387.5441
 20
2467.1141
 11
2980.5489
 21
2182.1333
  0
LINE
  8
0_00
  6
CONTINUOUS
 62
4
 10
2940.5489
 20
2154.1251
 11
2246.7567
 21
1668.3265
  0
LINE
  8
0_00
  6
CONTINUOUS
 62
4
 10
3367.4691
 20
2495.7845
 11
2980.5489
 21
2224.8603
  0
LINE
  8
0_00
  6
CONTINUOUS
 62
4
 10
2940.5489
 20
2196.8520
 11
2246.7567
 21
1711.0534
  0
LINE
  8
0_00
  6
CONTINUOUS
 62
6
 10
4431.1624
 20
2978.8284
 11
4754.9789
 21
2417.9622
  0
LINE
  8
0_00
  6
CONTINUOUS
 62
6
 10
4431.1624
 20
2978.8284
 11
4442.7507
 21
2943.1638
  0
LINE
  8
0_00
  6
CONTINUOUS
 62
6
 10
4431.1624
 20
2978.8284
 11
4456.2547
 21
2950.9607
  0
LINE
  8
0_00
  6
CONTINUOUS
 62
6
 10
4754.9789
 20
2417.9622
 11
5015.9789
 21
2417.9622
  0
LINE
  8
0_00
  6
CONTINUOUS
 62
6
 10
3703.3887
 20
2588.2709
 11
4031.1626
 21
2020.5499
  0
LINE
  8
0_00
  6
CONTINUOUS
 62
6
 10
3703.3887
 20
2588.2709
 11
3714.9767
 21
2552.6063
  0
LINE
  8
0_00
  6
CONTINUOUS
 62
6
 10
3703.3887
 20
2588.2709
 11
3728.4805
 21
2560.4029
  0
LINE
  8
0_00
  6
CONTINUOUS
 62
6
 10
4031.1626
 20
2020.5499
 11
4256.1626
 21
2020.5499
  0
LINE
  8
0_00
  6
CONTINUOUS
 62
6
 10
3979.2133
 20
2110.5290
 11
4312.2546
 21
2110.5290
  0
LINE
  8
0_00
  6
CONTINUOUS
 62
6
 10
4274.0996
 20
3908.9836
 11
4334.1563
 21
4013.0049
  0
LINE
  8
0_00
  6
CONTINUOUS
 62
6
 10
4274.0996
 20
3908.9836
 11
4299.1919
 21
3936.8513
  0
LINE
  8
0_00
  6
CONTINUOUS
 62
6
 10
4274.0996
 20
3908.9836
 11
4285.6874
 21
3944.6480
  0
LINE
  8
0_00
  6
CONTINUOUS
 62
6
 10
4334.1563
 20
4013.0049
 11
4811.1562
 21
4013.0049
  0
LINE
  8
0_00
  6
CONTINUOUS
 62
6
 10
4252.8397
 20
3093.4454
 11
4190.2089
 21
2984.9661
  0
LINE
  8
0_00
  6
CONTINUOUS
 62
6
 10
4252.8397
 20
3093.4454
 11
4227.7469
 21
3065.5774
  0
LINE
  8
0_00
  6
CONTINUOUS
 62
6
 10
4252.8397
 20
3093.4454
 11
4241.2514
 21
3057.7810
  0
LINE
  8
0_00
  6
CONTINUOUS
 62
6
 10
4190.2089
 20
2984.9661
 11
3713.2088
 21
2984.9661
  0
LINE
  8
0_00
  6
CONTINUOUS
 62
4
 10
4256.8680
 20
3075.8215
 11
4170.8450
 21
3015.5878
  0
LINE
  8
0_00
  6
CONTINUOUS
 62
4
 10
4095.2055
 20
2962.6245
 11
3707.7562
 21
2691.3293
  0
LINE
  8
0_00
  6
CONTINUOUS
 62
4
 10
3922.4593
 20
3638.8470
 11
3922.4593
 21
3044.2415
  0
LINE
  8
0_00
  6
CONTINUOUS
 62
4
 10
3922.4593
 20
2966.7911
 11
3922.4593
 21
2884.3929
  0
LINE
  8
0_00
  6
CONTINUOUS
 62
4
 10
3942.4590
 20
3652.8509
 11
3942.4590
 21
3044.2415
  0
LINE
  8
0_00
  6
CONTINUOUS
 62
4
 10
3942.4590
 20
2966.7911
 11
3942.4590
 21
2898.3971
  0
LINE
  8
0_00
  6
CONTINUOUS
 62
4
 10
4049.4594
 20
3727.7733
 11
4049.4594
 21
3044.2415
  0
LINE
  8
0_00
  6
CONTINUOUS
 62
4
 10
4069.4591
 20
3741.7774
 11
4069.4591
 21
3044.2415
  0
LINE
  8
0_00
  6
CONTINUOUS
 62
4
 10
4245.8322
 20
3110.8214
 11
4150.7469
 21
3044.2415
  0
LINE
  8
0_00
  6
CONTINUOUS
 62
4
 10
4040.1361
 20
2966.7911
 11
3707.7562
 21
2734.0565
  0
LINE
  8
0_00
  6
CONTINUOUS
 62
4
 10
3815.4588
 20
2809.4705
 11
3815.4588
 21
2966.7911
  0
LINE
  8
0_00
  6
CONTINUOUS
 62
4
 10
3815.4588
 20
3044.2415
 11
3815.4588
 21
3563.9248
  0
LINE
  8
0_00
  6
CONTINUOUS
 62
4
 10
3795.4594
 20
3549.9204
 11
3795.4594
 21
3044.2415
  0
LINE
  8
0_00
  6
CONTINUOUS
 62
4
 10
3795.4594
 20
2966.7911
 11
3795.4594
 21
2795.4666
  0
LINE
  8
15_0F
  6
CONTINUOUS
 62
6
 10
4261.1623
 20
4002.5963
 11
4261.1623
 21
4144.9004
  0
LINE
  8
15_0F
  6
CONTINUOUS
 62
6
 10
4431.1624
 20
4091.6661
 11
4431.1624
 21
4144.9004
  0
LINE
  8
15_0F
  6
CONTINUOUS
 62
6
 10
4261.1623
 20
4122.4004
 11
4431.1624
 21
4122.4004
  0
LINE
  8
15_0F
  6
CONTINUOUS
 62
6
 10
4261.1623
 20
4122.4004
 11
4297.8433
 21
4114.6033
  0
LINE
  8
15_0F
  6
CONTINUOUS
 62
6
 10
4261.1623
 20
4122.4004
 11
4297.8433
 21
4130.1970
  0
LINE
  8
15_0F
  6
CONTINUOUS
 62
6
 10
4431.1624
 20
4122.4004
 11
4394.4818
 21
4130.1970
  0
LINE
  8
15_0F
  6
CONTINUOUS
 62
6
 10
4431.1624
 20
4122.4004
 11
4394.4818
 21
4114.6033
  0
LINE
  8
15_0F
  6
CONTINUOUS
 62
6
 10
5281.1627
 20
4002.5963
 11
5281.1627
 21
4144.9004
  0
LINE
  8
15_0F
  6
CONTINUOUS
 62
6
 10
4431.1624
 20
4122.4004
 11
5281.1627
 21
4122.4004
  0
LINE
  8
15_0F
  6
CONTINUOUS
 62
6
 10
4431.1624
 20
4122.4004
 11
4467.8435
 21
4114.6033
  0
LINE
  8
15_0F
  6
CONTINUOUS
 62
6
 10
4431.1624
 20
4122.4004
 11
4467.8435
 21
4130.1970
  0
LINE
  8
15_0F
  6
CONTINUOUS
 62
6
 10
5281.1627
 20
4122.4004
 11
5244.4821
 21
4130.1970
  0
LINE
  8
15_0F
  6
CONTINUOUS
 62
6
 10
5281.1627
 20
4122.4004
 11
5244.4821
 21
4114.6033
  0
LINE
  8
15_0F
  6
CONTINUOUS
 62
6
 10
633.3503
 20
1066.1927
 11
633.3503
 21
781.0448
  0
LINE
  8
15_0F
  6
CONTINUOUS
 62
6
 10
1483.3502
 20
1066.1927
 11
1483.3502
 21
781.0448
  0
LINE
  8
15_0F
  6
CONTINUOUS
 62
6
 10
633.3503
 20
803.5448
 11
1483.3502
 21
803.5448
  0
LINE
  8
15_0F
  6
CONTINUOUS
 62
6
 10
633.3503
 20
803.5448
 11
670.0307
 21
795.7481
  0
LINE
  8
15_0F
  6
CONTINUOUS
 62
6
 10
633.3503
 20
803.5448
 11
670.0307
 21
811.3414
  0
LINE
  8
15_0F
  6
CONTINUOUS
 62
6
 10
1483.3502
 20
803.5448
 11
1446.6696
 21
811.3414
  0
LINE
  8
15_0F
  6
CONTINUOUS
 62
6
 10
1483.3502
 20
803.5448
 11
1446.6696
 21
795.7481
  0
LINE
  8
15_0F
  6
CONTINUOUS
 62
6
 10
1653.3504
 20
1085.4695
 11
1653.3504
 21
781.0448
  0
LINE
  8
15_0F
  6
CONTINUOUS
 62
6
 10
1483.3502
 20
803.5448
 11
1653.3504
 21
803.5448
  0
LINE
  8
15_0F
  6
CONTINUOUS
 62
6
 10
1483.3502
 20
803.5448
 11
1520.0307
 21
795.7481
  0
LINE
  8
15_0F
  6
CONTINUOUS
 62
6
 10
1483.3502
 20
803.5448
 11
1520.0307
 21
811.3414
  0
LINE
  8
15_0F
  6
CONTINUOUS
 62
6
 10
1653.3504
 20
803.5448
 11
1616.6698
 21
811.3414
  0
LINE
  8
15_0F
  6
CONTINUOUS
 62
6
 10
1653.3504
 20
803.5448
 11
1616.6698
 21
795.7481
  0
LINE
  8
15_0F
  6
CONTINUOUS
 62
6
 10
1470.4448
 20
2006.7719
 11
1379.8886
 21
2136.0997
  0
LINE
  8
15_0F
  6
CONTINUOUS
 62
6
 10
1392.7939
 20
2117.6688
 11
2136.2006
 21
2638.2074
  0
LINE
  8
15_0F
  6
CONTINUOUS
 62
6
 10
1392.7939
 20
2117.6688
 11
1427.3130
 21
2132.3209
  0
LINE
  8
15_0F
  6
CONTINUOUS
 62
6
 10
1392.7939
 20
2117.6688
 11
1418.3689
 21
2145.0945
  0
LINE
  8
15_0F
  6
CONTINUOUS
 62
6
 10
2136.2006
 20
2638.2074
 11
2101.6816
 21
2623.5551
  0
LINE
  8
15_0F
  6
CONTINUOUS
 62
6
 10
2136.2006
 20
2638.2074
 11
2110.6254
 21
2610.7816
  0
LINE
  8
15_0F
  6
CONTINUOUS
 62
6
 10
5493.6269
 20
2978.8284
 11
5848.1863
 21
2978.8284
  0
LINE
  8
15_0F
  6
CONTINUOUS
 62
6
 10
5493.6269
 20
3933.3861
 11
5848.1863
 21
3933.3861
  0
LINE
  8
15_0F
  6
CONTINUOUS
 62
6
 10
5825.6859
 20
3933.3861
 11
5825.6859
 21
2978.8284
  0
LINE
  8
15_0F
  6
CONTINUOUS
 62
6
 10
5825.6859
 20
3933.3861
 11
5817.8893
 21
3896.7055
  0
LINE
  8
15_0F
  6
CONTINUOUS
 62
6
 10
5825.6859
 20
3933.3861
 11
5833.4830
 21
3896.7055
  0
LINE
  8
15_0F
  6
CONTINUOUS
 62
6
 10
5825.6859
 20
2978.8284
 11
5833.4830
 21
3015.5090
  0
LINE
  8
15_0F
  6
CONTINUOUS
 62
6
 10
5825.6859
 20
2978.8284
 11
5817.8893
 21
3015.5090
  0
LINE
  8
15_0F
  6
CONTINUOUS
 62
6
 10
5493.6269
 20
3078.8285
 11
5758.1863
 21
3078.8285
  0
LINE
  8
15_0F
  6
CONTINUOUS
 62
6
 10
5516.1264
 20
2978.8284
 11
5758.1863
 21
2978.8284
  0
LINE
  8
15_0F
  6
CONTINUOUS
 62
6
 10
5735.6863
 20
2978.8284
 11
5735.6863
 21
3078.8285
  0
LINE
  8
15_0F
  6
CONTINUOUS
 62
6
 10
5735.6863
 20
2440.8151
 11
5735.6863
 21
2978.8284
  0
LINE
  8
15_0F
  6
CONTINUOUS
 62
6
 10
5735.6863
 20
2978.8284
 11
5727.8897
 21
2942.1478
  0
LINE
  8
15_0F
  6
CONTINUOUS
 62
6
 10
5735.6863
 20
2978.8284
 11
5743.4830
 21
2942.1478
  0
LINE
  8
15_0F
  6
CONTINUOUS
 62
6
 10
5493.6269
 20
3933.3861
 11
5758.1863
 21
3933.3861
  0
LINE
  8
15_0F
  6
CONTINUOUS
 62
6
 10
5735.6863
 20
3078.8285
 11
5735.6863
 21
3933.3861
  0
LINE
  8
15_0F
  6
CONTINUOUS
 62
6
 10
5735.6863
 20
3078.8285
 11
5743.4830
 21
3115.5091
  0
LINE
  8
15_0F
  6
CONTINUOUS
 62
6
 10
5735.6863
 20
3078.8285
 11
5727.8897
 21
3115.5091
  0
LINE
  8
15_0F
  6
CONTINUOUS
 62
6
 10
5735.6863
 20
3933.3861
 11
5727.8897
 21
3896.7055
  0
LINE
  8
15_0F
  6
CONTINUOUS
 62
6
 10
5735.6863
 20
3933.3861
 11
5743.4830
 21
3896.7055
  0
LINE
  8
0_00
  6
CONTINUOUS
 62
2
 10
5279.8865
 20
3085.9184
 11
5280.7558
 21
3085.0797
  0
LINE
  8
0_00
  6
CONTINUOUS
 62
2
 10
5280.7558
 20
3085.0797
 11
5281.1627
 21
3084.9310
  0
LINE
  8
0_00
  6
CONTINUOUS
 62
2
 10
5281.1627
 20
3084.9310
 11
5281.5477
 21
3085.0713
  0
LINE
  8
0_00
  6
CONTINUOUS
 62
2
 10
5281.5477
 20
3085.0713
 11
5282.4445
 21
3085.9156
  0
LINE
  8
0_00
  6
CONTINUOUS
 62
2
 10
5279.0726
 20
3085.1044
 11
5279.9112
 21
3084.2354
  0
LINE
  8
0_00
  6
CONTINUOUS
 62
2
 10
5279.9112
 20
3084.2354
 11
5280.0600
 21
3083.8284
  0
LINE
  8
0_00
  6
CONTINUOUS
 62
2
 10
5280.0600
 20
3083.8284
 11
5279.9194
 21
3083.4435
  0
LINE
  8
0_00
  6
CONTINUOUS
 62
2
 10
5279.9194
 20
3083.4435
 11
5279.0753
 21
3082.5469
  0
LINE
  8
0_00
  6
CONTINUOUS
 62
2
 10
5283.2520
 20
3082.5526
 11
5282.4138
 21
3083.4212
  0
LINE
  8
0_00
  6
CONTINUOUS
 62
2
 10
5282.4138
 20
3083.4212
 11
5282.2650
 21
3083.8284
  0
LINE
  8
0_00
  6
CONTINUOUS
 62
2
 10
5282.2650
 20
3083.8284
 11
5282.4055
 21
3084.2134
  0
LINE
  8
0_00
  6
CONTINUOUS
 62
2
 10
5282.4055
 20
3084.2134
 11
5283.2501
 21
3085.1099
  0
LINE
  8
0_00
  6
CONTINUOUS
 62
2
 10
5282.4385
 20
3081.7385
 11
5281.5688
 21
3082.5774
  0
LINE
  8
0_00
  6
CONTINUOUS
 62
2
 10
5281.5688
 20
3082.5774
 11
5281.1627
 21
3082.7257
  0
LINE
  8
0_00
  6
CONTINUOUS
 62
2
 10
5281.1627
 20
3082.7257
 11
5280.7773
 21
3082.5856
  0
LINE
  8
0_00
  6
CONTINUOUS
 62
2
 10
5280.7773
 20
3082.5856
 11
5279.8810
 21
3081.7413
  0
LINE
  8
0_00
  6
CONTINUOUS
 62
2
 10
4429.8866
 20
3085.9184
 11
4430.7555
 21
3085.0797
  0
LINE
  8
0_00
  6
CONTINUOUS
 62
2
 10
4430.7555
 20
3085.0797
 11
4431.1624
 21
3084.9310
  0
LINE
  8
0_00
  6
CONTINUOUS
 62
2
 10
4431.1624
 20
3084.9310
 11
4431.5479
 21
3085.0713
  0
LINE
  8
0_00
  6
CONTINUOUS
 62
2
 10
4431.5479
 20
3085.0713
 11
4432.4442
 21
3085.9156
  0
LINE
  8
0_00
  6
CONTINUOUS
 62
2
 10
4429.0723
 20
3085.1044
 11
4429.9113
 21
3084.2354
  0
LINE
  8
0_00
  6
CONTINUOUS
 62
2
 10
4429.9113
 20
3084.2354
 11
4430.0597
 21
3083.8284
  0
LINE
  8
0_00
  6
CONTINUOUS
 62
2
 10
4430.0597
 20
3083.8284
 11
4429.9196
 21
3083.4435
  0
LINE
  8
0_00
  6
CONTINUOUS
 62
2
 10
4429.9196
 20
3083.4435
 11
4429.0750
 21
3082.5469
  0
LINE
  8
0_00
  6
CONTINUOUS
 62
2
 10
4433.2521
 20
3082.5526
 11
4432.4139
 21
3083.4212
  0
LINE
  8
0_00
  6
CONTINUOUS
 62
2
 10
4432.4139
 20
3083.4212
 11
4432.2656
 21
3083.8284
  0
LINE
  8
0_00
  6
CONTINUOUS
 62
2
 10
4432.2656
 20
3083.8284
 11
4432.4052
 21
3084.2134
  0
LINE
  8
0_00
  6
CONTINUOUS
 62
2
 10
4432.4052
 20
3084.2134
 11
4433.2498
 21
3085.1099
  0
LINE
  8
0_00
  6
CONTINUOUS
 62
2
 10
4432.4382
 20
3081.7385
 11
4431.5694
 21
3082.5774
  0
LINE
  8
0_00
  6
CONTINUOUS
 62
2
 10
4431.5694
 20
3082.5774
 11
4431.1624
 21
3082.7257
  0
LINE
  8
0_00
  6
CONTINUOUS
 62
2
 10
4431.1624
 20
3082.7257
 11
4430.7779
 21
3082.5856
  0
LINE
  8
0_00
  6
CONTINUOUS
 62
2
 10
4430.7779
 20
3082.5856
 11
4429.8811
 21
3081.7413
  0
LINE
  8
0_00
  6
CONTINUOUS
 62
2
 10
1482.0742
 20
1259.9087
 11
1482.9433
 21
1259.0698
  0
LINE
  8
0_00
  6
CONTINUOUS
 62
2
 10
1482.9433
 20
1259.0698
 11
1483.3502
 21
1258.9214
  0
LINE
  8
0_00
  6
CONTINUOUS
 62
2
 10
1483.3502
 20
1258.9214
 11
1483.7352
 21
1259.0617
  0
LINE
  8
0_00
  6
CONTINUOUS
 62
2
 10
1483.7352
 20
1259.0617
 11
1484.6317
 21
1259.9058
  0
LINE
  8
0_00
  6
CONTINUOUS
 62
2
 10
1481.2603
 20
1259.0947
 11
1482.0990
 21
1258.2257
  0
LINE
  8
0_00
  6
CONTINUOUS
 62
2
 10
1482.0990
 20
1258.2257
 11
1482.2475
 21
1257.8186
  0
LINE
  8
0_00
  6
CONTINUOUS
 62
2
 10
1482.2475
 20
1257.8186
 11
1482.1073
 21
1257.4338
  0
LINE
  8
0_00
  6
CONTINUOUS
 62
2
 10
1482.1073
 20
1257.4338
 11
1481.2632
 21
1256.5374
  0
LINE
  8
0_00
  6
CONTINUOUS
 62
2
 10
1485.4401
 20
1256.5427
 11
1484.6013
 21
1257.4118
  0
LINE
  8
0_00
  6
CONTINUOUS
 62
2
 10
1484.6013
 20
1257.4118
 11
1484.4530
 21
1257.8186
  0
LINE
  8
0_00
  6
CONTINUOUS
 62
2
 10
1484.4530
 20
1257.8186
 11
1484.5932
 21
1258.2036
  0
LINE
  8
0_00
  6
CONTINUOUS
 62
2
 10
1484.5932
 20
1258.2036
 11
1485.4373
 21
1259.1000
  0
LINE
  8
0_00
  6
CONTINUOUS
 62
2
 10
1484.6262
 20
1255.7287
 11
1483.7573
 21
1256.5676
  0
LINE
  8
0_00
  6
CONTINUOUS
 62
2
 10
1483.7573
 20
1256.5676
 11
1483.3502
 21
1256.7160
  0
LINE
  8
0_00
  6
CONTINUOUS
 62
2
 10
1483.3502
 20
1256.7160
 11
1482.9652
 21
1256.5757
  0
LINE
  8
0_00
  6
CONTINUOUS
 62
2
 10
1482.9652
 20
1256.5757
 11
1482.0688
 21
1255.7316
  0
LINE
  8
0_00
  6
CONTINUOUS
 62
2
 10
632.0745
 20
1259.9087
 11
632.9433
 21
1259.0698
  0
LINE
  8
0_00
  6
CONTINUOUS
 62
2
 10
632.9433
 20
1259.0698
 11
633.3503
 21
1258.9214
  0
LINE
  8
0_00
  6
CONTINUOUS
 62
2
 10
633.3503
 20
1258.9214
 11
633.7354
 21
1259.0617
  0
LINE
  8
0_00
  6
CONTINUOUS
 62
2
 10
633.7354
 20
1259.0617
 11
634.6318
 21
1259.9058
  0
LINE
  8
0_00
  6
CONTINUOUS
 62
2
 10
631.2605
 20
1259.0947
 11
632.0991
 21
1258.2257
  0
LINE
  8
0_00
  6
CONTINUOUS
 62
2
 10
632.0991
 20
1258.2257
 11
632.2476
 21
1257.8186
  0
LINE
  8
0_00
  6
CONTINUOUS
 62
2
 10
632.2476
 20
1257.8186
 11
632.1074
 21
1257.4338
  0
LINE
  8
0_00
  6
CONTINUOUS
 62
2
 10
632.1074
 20
1257.4338
 11
631.2632
 21
1256.5374
  0
LINE
  8
0_00
  6
CONTINUOUS
 62
2
 10
635.4401
 20
1256.5427
 11
634.6016
 21
1257.4118
  0
LINE
  8
0_00
  6
CONTINUOUS
 62
2
 10
634.6016
 20
1257.4118
 11
634.4528
 21
1257.8186
  0
LINE
  8
0_00
  6
CONTINUOUS
 62
2
 10
634.4528
 20
1257.8186
 11
634.5932
 21
1258.2036
  0
LINE
  8
0_00
  6
CONTINUOUS
 62
2
 10
634.5932
 20
1258.2036
 11
635.4375
 21
1259.1000
  0
LINE
  8
0_00
  6
CONTINUOUS
 62
2
 10
634.6262
 20
1255.7287
 11
633.7573
 21
1256.5676
  0
LINE
  8
0_00
  6
CONTINUOUS
 62
2
 10
633.7573
 20
1256.5676
 11
633.3503
 21
1256.7160
  0
LINE
  8
0_00
  6
CONTINUOUS
 62
2
 10
633.3503
 20
1256.7160
 11
632.9653
 21
1256.5757
  0
LINE
  8
0_00
  6
CONTINUOUS
 62
2
 10
632.9653
 20
1256.5757
 11
632.0688
 21
1255.7316
  0
LINE
  8
0_00
  6
CONTINUOUS
 62
2
 10
3686.4803
 20
2691.2714
 11
3687.3491
 21
2690.4325
  0
LINE
  8
0_00
  6
CONTINUOUS
 62
2
 10
3687.3491
 20
2690.4325
 11
3687.7563
 21
2690.2842
  0
LINE
  8
0_00
  6
CONTINUOUS
 62
2
 10
3687.7563
 20
2690.2842
 11
3688.1410
 21
2690.4240
  0
LINE
  8
0_00
  6
CONTINUOUS
 62
2
 10
3688.1410
 20
2690.4240
 11
3689.0376
 21
2691.2684
  0
LINE
  8
0_00
  6
CONTINUOUS
 62
2
 10
3685.6661
 20
2690.4575
 11
3686.5047
 21
2689.5882
  0
LINE
  8
0_00
  6
CONTINUOUS
 62
2
 10
3686.5047
 20
2689.5882
 11
3686.6535
 21
2689.1812
  0
LINE
  8
0_00
  6
CONTINUOUS
 62
2
 10
3686.6535
 20
2689.1812
 11
3686.5128
 21
2688.7962
  0
LINE
  8
0_00
  6
CONTINUOUS
 62
2
 10
3686.5128
 20
2688.7962
 11
3685.6689
 21
2687.8999
  0
LINE
  8
0_00
  6
CONTINUOUS
 62
2
 10
3689.8460
 20
2687.9054
 11
3689.0071
 21
2688.7745
  0
LINE
  8
0_00
  6
CONTINUOUS
 62
2
 10
3689.0071
 20
2688.7745
 11
3688.8586
 21
2689.1812
  0
LINE
  8
0_00
  6
CONTINUOUS
 62
2
 10
3688.8586
 20
2689.1812
 11
3688.9989
 21
2689.5664
  0
LINE
  8
0_00
  6
CONTINUOUS
 62
2
 10
3688.9989
 20
2689.5664
 11
3689.8432
 21
2690.4627
  0
LINE
  8
0_00
  6
CONTINUOUS
 62
2
 10
3689.0323
 20
2687.0915
 11
3688.1630
 21
2687.9304
  0
LINE
  8
0_00
  6
CONTINUOUS
 62
2
 10
3688.1630
 20
2687.9304
 11
3687.7563
 21
2688.0789
  0
LINE
  8
0_00
  6
CONTINUOUS
 62
2
 10
3687.7563
 20
2688.0789
 11
3687.3711
 21
2687.9384
  0
LINE
  8
0_00
  6
CONTINUOUS
 62
2
 10
3687.3711
 20
2687.9384
 11
3686.4750
 21
2687.0940
  0
LINE
  8
0_00
  6
CONTINUOUS
 62
2
 10
2959.2732
 20
2182.0754
 11
2960.1418
 21
2181.2368
  0
LINE
  8
0_00
  6
CONTINUOUS
 62
2
 10
2960.1418
 20
2181.2368
 11
2960.5490
 21
2181.0883
  0
LINE
  8
0_00
  6
CONTINUOUS
 62
2
 10
2960.5490
 20
2181.0883
 11
2960.9340
 21
2181.2283
  0
LINE
  8
0_00
  6
CONTINUOUS
 62
2
 10
2960.9340
 20
2181.2283
 11
2961.8305
 21
2182.0724
  0
LINE
  8
0_00
  6
CONTINUOUS
 62
2
 10
2958.4591
 20
2181.2615
 11
2959.2977
 21
2180.3925
  0
LINE
  8
0_00
  6
CONTINUOUS
 62
2
 10
2959.2977
 20
2180.3925
 11
2959.4465
 21
2179.9855
  0
LINE
  8
0_00
  6
CONTINUOUS
 62
2
 10
2959.4465
 20
2179.9855
 11
2959.3062
 21
2179.6005
  0
LINE
  8
0_00
  6
CONTINUOUS
 62
2
 10
2959.3062
 20
2179.6005
 11
2958.4618
 21
2178.7040
  0
LINE
  8
0_00
  6
CONTINUOUS
 62
2
 10
2962.6392
 20
2178.7097
 11
2961.8003
 21
2179.5783
  0
LINE
  8
0_00
  6
CONTINUOUS
 62
2
 10
2961.8003
 20
2179.5783
 11
2961.6518
 21
2179.9855
  0
LINE
  8
0_00
  6
CONTINUOUS
 62
2
 10
2961.6518
 20
2179.9855
 11
2961.7918
 21
2180.3705
  0
LINE
  8
0_00
  6
CONTINUOUS
 62
2
 10
2961.7918
 20
2180.3705
 11
2962.6362
 21
2181.2670
  0
LINE
  8
0_00
  6
CONTINUOUS
 62
2
 10
2961.8250
 20
2177.8956
 11
2960.9560
 21
2178.7344
  0
LINE
  8
0_00
  6
CONTINUOUS
 62
2
 10
2960.9560
 20
2178.7344
 11
2960.5490
 21
2178.8828
  0
LINE
  8
0_00
  6
CONTINUOUS
 62
2
 10
2960.5490
 20
2178.8828
 11
2960.1640
 21
2178.7424
  0
LINE
  8
0_00
  6
CONTINUOUS
 62
2
 10
2960.1640
 20
2178.7424
 11
2959.2677
 21
2177.8983
  0
LINE
  8
0_00
  6
CONTINUOUS
 62
2
 10
2225.4808
 20
1668.2685
 11
2226.3494
 21
1667.4299
  0
LINE
  8
0_00
  6
CONTINUOUS
 62
2
 10
2226.3494
 20
1667.4299
 11
2226.7568
 21
1667.2813
  0
LINE
  8
0_00
  6
CONTINUOUS
 62
2
 10
2226.7568
 20
1667.2813
 11
2227.1416
 21
1667.4216
  0
LINE
  8
0_00
  6
CONTINUOUS
 62
2
 10
2227.1416
 20
1667.4216
 11
2228.0381
 21
1668.2658
  0
LINE
  8
0_00
  6
CONTINUOUS
 62
2
 10
2224.6667
 20
1667.4545
 11
2225.5055
 21
1666.5857
  0
LINE
  8
0_00
  6
CONTINUOUS
 62
2
 10
2225.5055
 20
1666.5857
 11
2225.6538
 21
1666.1787
  0
LINE
  8
0_00
  6
CONTINUOUS
 62
2
 10
2225.6538
 20
1666.1787
 11
2225.5135
 21
1665.7936
  0
LINE
  8
0_00
  6
CONTINUOUS
 62
2
 10
2225.5135
 20
1665.7936
 11
2224.6694
 21
1664.8971
  0
LINE
  8
0_00
  6
CONTINUOUS
 62
2
 10
2228.8467
 20
1664.9027
 11
2228.0079
 21
1665.7718
  0
LINE
  8
0_00
  6
CONTINUOUS
 62
2
 10
2228.0079
 20
1665.7718
 11
2227.8593
 21
1666.1787
  0
LINE
  8
0_00
  6
CONTINUOUS
 62
2
 10
2227.8593
 20
1666.1787
 11
2227.9994
 21
1666.5636
  0
LINE
  8
0_00
  6
CONTINUOUS
 62
2
 10
2227.9994
 20
1666.5636
 11
2228.8438
 21
1667.4599
  0
LINE
  8
0_00
  6
CONTINUOUS
 62
2
 10
2228.0326
 20
1664.0887
 11
2227.1635
 21
1664.9276
  0
LINE
  8
0_00
  6
CONTINUOUS
 62
2
 10
2227.1635
 20
1664.9276
 11
2226.7568
 21
1665.0760
  0
LINE
  8
0_00
  6
CONTINUOUS
 62
2
 10
2226.7568
 20
1665.0760
 11
2226.3718
 21
1664.9357
  0
LINE
  8
0_00
  6
CONTINUOUS
 62
2
 10
2226.3718
 20
1664.9357
 11
2225.4753
 21
1664.0915
  0
LINE
  8
0_00
  6
CONTINUOUS
 62
3
 10
2737.0551
 20
486.0004
 11
2737.0551
 21
186.0002
  0
LINE
  8
0_00
  6
CONTINUOUS
 62
7
 10
273.4524
 20
561.0003
 11
6092.5552
 21
561.0003
  0
LINE
  8
0_00
  6
CONTINUOUS
 62
3
 10
6092.5552
 20
4258.5004
 11
6092.5552
 21
4325.9999
  0
LINE
  8
0_00
  6
CONTINUOUS
 62
7
 10
6092.5552
 20
186.0002
 11
6092.5552
 21
4258.5004
  0
LINE
  8
0_00
  6
CONTINUOUS
 62
3
 10
273.4524
 20
4258.5004
 11
273.4524
 21
4325.9999
  0
LINE
  8
0_00
  6
CONTINUOUS
 62
7
 10
273.4524
 20
186.0002
 11
273.4524
 21
4258.5004
  0
LINE
  8
0_00
  6
CONTINUOUS
 62
7
 10
273.4524
 20
4258.5004
 11
6092.5552
 21
4258.5004
  0
LINE
  8
0_00
  6
CONTINUOUS
 62
7
 10
273.4524
 20
186.0002
 11
6092.5552
 21
186.0002
  0
LINE
  8
0_00
  6
CONTINUOUS
 62
3
 10
198.4524
 20
111.0002
 11
198.4524
 21
4325.9999
  0
LINE
  8
0_00
  6
CONTINUOUS
 62
3
 10
6167.5548
 20
111.0002
 11
6167.5548
 21
4325.9999
  0
LINE
  8
0_00
  6
CONTINUOUS
 62
3
 10
198.4524
 20
4325.9999
 11
6167.5548
 21
4325.9999
  0
LINE
  8
0_00
  6
CONTINUOUS
 62
3
 10
5353.0550
 20
186.0002
 11
5353.0550
 21
561.0003
  0
LINE
  8
0_00
  6
CONTINUOUS
 62
3
 10
273.4524
 20
486.0004
 11
4063.8048
 21
486.0004
  0
LINE
  8
0_00
  6
CONTINUOUS
 62
7
 10
4063.8048
 20
486.0004
 11
6092.5552
 21
486.0004
  0
LINE
  8
0_00
  6
CONTINUOUS
 62
3
 10
5353.0550
 20
336.0002
 11
6092.5552
 21
336.0002
  0
LINE
  8
0_00
  6
CONTINUOUS
 62
3
 10
5503.0545
 20
561.0003
 11
5503.0545
 21
486.0004
  0
LINE
  8
0_00
  6
CONTINUOUS
 62
3
 10
4063.8048
 20
186.0002
 11
4063.8048
 21
486.0004
  0
LINE
  8
0_00
  6
CONTINUOUS
 62
7
 10
4063.8048
 20
486.0004
 11
4063.8048
 21
561.0003
  0
LINE
  8
0_00
  6
CONTINUOUS
 62
3
 10
4183.8052
 20
486.0004
 11
4183.8052
 21
561.0003
  0
LINE
  8
0_00
  6
CONTINUOUS
 62
3
 10
4562.5548
 20
186.0002
 11
4562.5548
 21
561.0003
  0
LINE
  8
0_00
  6
CONTINUOUS
 62
3
 10
5023.0554
 20
486.0004
 11
5023.0554
 21
561.0003
  0
LINE
  8
0_00
  6
CONTINUOUS
 62
3
 10
5161.0547
 20
186.0002
 11
5161.0547
 21
486.0004
  0
LINE
  8
0_00
  6
CONTINUOUS
 62
3
 10
4979.5546
 20
186.0002
 11
4979.5546
 21
486.0004
  0
LINE
  8
0_00
  6
CONTINUOUS
 62
3
 10
4798.0554
 20
186.0002
 11
4798.0554
 21
486.0004
  0
LINE
  8
0_00
  6
CONTINUOUS
 62
3
 10
2343.3051
 20
186.0002
 11
2343.3051
 21
561.0003
  0
LINE
  8
0_00
  6
CONTINUOUS
 62
3
 10
3130.8051
 20
186.0002
 11
3130.8051
 21
486.0004
  0
LINE
  8
0_00
  6
CONTINUOUS
 62
3
 10
273.4524
 20
411.0004
 11
2343.3051
 21
411.0004
  0
LINE
  8
0_00
  6
CONTINUOUS
 62
3
 10
273.4524
 20
336.0002
 11
4562.5548
 21
336.0002
  0
LINE
  8
0_00
  6
CONTINUOUS
 62
3
 10
873.4524
 20
261.0003
 11
2343.3051
 21
261.0003
  0
LINE
  8
0_00
  6
CONTINUOUS
 62
7
 10
273.4524
 20
261.0003
 11
873.4524
 21
261.0003
  0
LINE
  8
0_00
  6
CONTINUOUS
 62
3
 10
4090.0552
 20
4258.5004
 11
4090.0552
 21
4325.9999
  0
LINE
  8
0_00
  6
CONTINUOUS
 62
3
 10
3940.0552
 20
4258.5004
 11
3940.0552
 21
4325.9999
  0
LINE
  8
0_00
  6
CONTINUOUS
 62
3
 10
1023.4523
 20
4258.5004
 11
1023.4523
 21
4325.9999
  0
LINE
  8
0_00
  6
CONTINUOUS
 62
3
 10
4270.0552
 20
4258.5004
 11
4270.0552
 21
4325.9999
  0
LINE
  8
0_00
  6
CONTINUOUS
 62
3
 10
4577.5552
 20
4258.5004
 11
4577.5552
 21
4325.9999
  0
LINE
  8
0_00
  6
CONTINUOUS
 62
3
 10
5732.5548
 20
4258.5004
 11
5732.5548
 21
4325.9999
  0
LINE
  8
0_00
  6
CONTINUOUS
 62
3
 10
573.4523
 20
561.0003
 11
573.4523
 21
186.0002
  0
LINE
  8
0_00
  6
CONTINUOUS
 62
7
 10
873.4524
 20
561.0003
 11
873.4524
 21
186.0002
  0
LINE
  8
0_00
  6
CONTINUOUS
 62
3
 10
4348.8052
 20
336.0002
 11
4348.8052
 21
486.0004
  0
LINE
  8
0_00
  6
CONTINUOUS
 62
3
 10
4468.8048
 20
561.0003
 11
4468.8048
 21
486.0004
  0
LINE
  8
0_00
  6
CONTINUOUS
 62
3
 10
4562.5548
 20
411.0004
 11
5353.0550
 21
411.0004
  0
LINE
  8
0_00
  6
CONTINUOUS
 62
3
 10
5383.0550
 20
358.5002
 11
5392.8049
 21
358.5002
  0
LINE
  8
0_00
  6
CONTINUOUS
 62
3
 10
5392.8049
 20
358.5002
 11
5392.8049
 21
456.0003
  0
LINE
  8
0_00
  6
CONTINUOUS
 62
3
 10
5392.8049
 20
456.0003
 11
5383.0550
 21
456.0003
  0
LINE
  8
0_00
  6
CONTINUOUS
 62
3
 10
5383.0550
 20
358.5002
 11
5383.0550
 21
456.0003
  0
LINE
  8
0_00
  6
CONTINUOUS
 62
3
 10
5396.7050
 20
358.5002
 11
5406.4549
 21
358.5002
  0
LINE
  8
0_00
  6
CONTINUOUS
 62
3
 10
5406.4549
 20
358.5002
 11
5406.4549
 21
456.0003
  0
LINE
  8
0_00
  6
CONTINUOUS
 62
3
 10
5406.4549
 20
456.0003
 11
5396.7050
 21
456.0003
  0
LINE
  8
0_00
  6
CONTINUOUS
 62
3
 10
5396.7050
 20
358.5002
 11
5396.7050
 21
456.0003
  0
LINE
  8
0_00
  6
CONTINUOUS
 62
3
 10
5410.3555
 20
358.5002
 11
5420.1041
 21
358.5002
  0
LINE
  8
0_00
  6
CONTINUOUS
 62
3
 10
5420.1041
 20
358.5002
 11
5420.1041
 21
456.0003
  0
LINE
  8
0_00
  6
CONTINUOUS
 62
3
 10
5420.1041
 20
456.0003
 11
5410.3555
 21
456.0003
  0
LINE
  8
0_00
  6
CONTINUOUS
 62
3
 10
5410.3555
 20
358.5002
 11
5410.3555
 21
456.0003
  0
LINE
  8
0_00
  6
CONTINUOUS
 62
3
 10
5424.0047
 20
358.5002
 11
5433.7555
 21
358.5002
  0
LINE
  8
0_00
  6
CONTINUOUS
 62
3
 10
5433.7555
 20
456.0003
 11
5424.0047
 21
456.0003
  0
LINE
  8
0_00
  6
CONTINUOUS
 62
3
 10
5424.0047
 20
358.5002
 11
5424.0047
 21
456.0003
  0
LINE
  8
0_00
  6
CONTINUOUS
 62
3
 10
5462.0302
 20
358.5002
 11
5500.0548
 21
358.5002
  0
LINE
  8
0_00
  6
CONTINUOUS
 62
3
 10
5500.0548
 20
358.5002
 11
5500.0548
 21
367.2751
  0
LINE
  8
0_00
  6
CONTINUOUS
 62
3
 10
5500.0548
 20
367.2751
 11
5462.0302
 21
367.2751
  0
LINE
  8
0_00
  6
CONTINUOUS
 62
3
 10
5462.0302
 20
367.2751
 11
5462.0302
 21
358.5002
  0
LINE
  8
0_00
  6
CONTINUOUS
 62
3
 10
5462.0302
 20
371.1753
 11
5500.0548
 21
371.1753
  0
LINE
  8
0_00
  6
CONTINUOUS
 62
3
 10
5500.0548
 20
371.1753
 11
5500.0548
 21
379.9502
  0
LINE
  8
0_00
  6
CONTINUOUS
 62
3
 10
5500.0548
 20
379.9502
 11
5462.0302
 21
379.9502
  0
LINE
  8
0_00
  6
CONTINUOUS
 62
3
 10
5462.0302
 20
379.9502
 11
5462.0302
 21
371.1753
  0
LINE
  8
0_00
  6
CONTINUOUS
 62
3
 10
5462.0302
 20
383.8503
 11
5500.0548
 21
383.8503
  0
LINE
  8
0_00
  6
CONTINUOUS
 62
3
 10
5500.0548
 20
383.8503
 11
5500.0548
 21
392.6251
  0
LINE
  8
0_00
  6
CONTINUOUS
 62
3
 10
5500.0548
 20
392.6251
 11
5462.0302
 21
392.6251
  0
LINE
  8
0_00
  6
CONTINUOUS
 62
3
 10
5462.0302
 20
392.6251
 11
5462.0302
 21
383.8503
  0
LINE
  8
0_00
  6
CONTINUOUS
 62
3
 10
5462.0302
 20
396.5252
 11
5500.0548
 21
396.5252
  0
LINE
  8
0_00
  6
CONTINUOUS
 62
3
 10
5500.0548
 20
396.5252
 11
5500.0548
 21
405.3001
  0
LINE
  8
0_00
  6
CONTINUOUS
 62
3
 10
5500.0548
 20
405.3001
 11
5462.0302
 21
405.3001
  0
LINE
  8
0_00
  6
CONTINUOUS
 62
3
 10
5462.0302
 20
405.3001
 11
5462.0302
 21
396.5252
  0
LINE
  8
0_00
  6
CONTINUOUS
 62
3
 10
5462.0302
 20
409.2003
 11
5500.0548
 21
409.2003
  0
LINE
  8
0_00
  6
CONTINUOUS
 62
3
 10
5500.0548
 20
409.2003
 11
5500.0548
 21
417.9752
  0
LINE
  8
0_00
  6
CONTINUOUS
 62
3
 10
5500.0548
 20
417.9752
 11
5462.0302
 21
417.9752
  0
LINE
  8
0_00
  6
CONTINUOUS
 62
3
 10
5462.0302
 20
417.9752
 11
5462.0302
 21
409.2003
  0
LINE
  8
0_00
  6
CONTINUOUS
 62
3
 10
5462.0302
 20
421.8754
 11
5500.0548
 21
421.8754
  0
LINE
  8
0_00
  6
CONTINUOUS
 62
3
 10
5500.0548
 20
421.8754
 11
5500.0548
 21
430.6502
  0
LINE
  8
0_00
  6
CONTINUOUS
 62
3
 10
5500.0548
 20
430.6502
 11
5462.0302
 21
430.6502
  0
LINE
  8
0_00
  6
CONTINUOUS
 62
3
 10
5462.0302
 20
430.6502
 11
5462.0302
 21
421.8754
  0
LINE
  8
0_00
  6
CONTINUOUS
 62
3
 10
5462.0302
 20
434.5504
 11
5500.0548
 21
434.5504
  0
LINE
  8
0_00
  6
CONTINUOUS
 62
3
 10
5500.0548
 20
434.5504
 11
5500.0548
 21
443.3252
  0
LINE
  8
0_00
  6
CONTINUOUS
 62
3
 10
5500.0548
 20
443.3252
 11
5462.0302
 21
443.3252
  0
LINE
  8
0_00
  6
CONTINUOUS
 62
3
 10
5462.0302
 20
443.3252
 11
5462.0302
 21
434.5504
  0
LINE
  8
0_00
  6
CONTINUOUS
 62
3
 10
5462.0302
 20
447.2254
 11
5500.0548
 21
447.2254
  0
LINE
  8
0_00
  6
CONTINUOUS
 62
3
 10
5500.0548
 20
447.2254
 11
5500.0548
 21
456.0003
  0
LINE
  8
0_00
  6
CONTINUOUS
 62
3
 10
5500.0548
 20
456.0003
 11
5462.0302
 21
456.0003
  0
LINE
  8
0_00
  6
CONTINUOUS
 62
3
 10
5462.0302
 20
456.0003
 11
5462.0302
 21
447.2254
  0
LINE
  8
0_00
  6
CONTINUOUS
 62
3
 10
5437.6547
 20
358.5002
 11
5437.6547
 21
385.3129
  0
LINE
  8
0_00
  6
CONTINUOUS
 62
3
 10
5444.1875
 20
363.8625
 11
5444.1875
 21
385.3129
  0
LINE
  8
0_00
  6
CONTINUOUS
 62
3
 10
5437.6547
 20
358.5002
 11
5448.3797
 21
358.5002
  0
LINE
  8
0_00
  6
CONTINUOUS
 62
3
 10
5444.1875
 20
363.8625
 11
5448.3797
 21
363.8625
  0
LINE
  8
0_00
  6
CONTINUOUS
 62
3
 10
5448.0244
 20
399.0279
 11
5452.2798
 21
390.6753
  0
LINE
  8
0_00
  6
CONTINUOUS
 62
3
 10
5454.7050
 20
412.7262
 11
5448.0235
 21
399.0275
  0
LINE
  8
0_00
  6
CONTINUOUS
 62
3
 10
5433.7555
 20
426.7505
 11
5433.7555
 21
456.0003
  0
LINE
  8
0_00
  6
CONTINUOUS
 62
3
 10
5433.7555
 20
426.7505
 11
5445.9430
 21
426.7505
  0
LINE
  8
0_00
  6
CONTINUOUS
 62
3
 10
5433.7555
 20
420.9002
 11
5439.1658
 21
420.9002
  0
LINE
  8
0_00
  6
CONTINUOUS
 62
3
 10
5433.7555
 20
390.6753
 11
5452.2798
 21
390.6753
  0
LINE
  8
0_00
  6
CONTINUOUS
 62
3
 10
5433.7555
 20
409.8055
 11
5439.1672
 21
420.9005
  0
LINE
  8
0_00
  6
CONTINUOUS
 62
3
 10
5433.7555
 20
409.8064
 11
5433.7555
 21
420.9002
  0
LINE
  8
0_00
  6
CONTINUOUS
 62
3
 10
5433.7555
 20
390.6753
 11
5433.7555
 21
358.5002
  0
LINE
  8
0_00
  6
CONTINUOUS
 62
3
 10
5384.5546
 20
456.0003
 11
5384.5546
 21
358.5002
  0
LINE
  8
0_00
  6
CONTINUOUS
 62
3
 10
5386.0556
 20
456.0003
 11
5386.0556
 21
358.5002
  0
LINE
  8
0_00
  6
CONTINUOUS
 62
3
 10
5387.5548
 20
456.0003
 11
5387.5548
 21
358.5002
  0
LINE
  8
0_00
  6
CONTINUOUS
 62
3
 10
5389.0544
 20
456.0003
 11
5389.0544
 21
358.5002
  0
LINE
  8
0_00
  6
CONTINUOUS
 62
3
 10
5390.5545
 20
456.0003
 11
5390.5545
 21
358.5002
  0
LINE
  8
0_00
  6
CONTINUOUS
 62
3
 10
5398.2047
 20
456.0003
 11
5398.2047
 21
358.5002
  0
LINE
  8
0_00
  6
CONTINUOUS
 62
3
 10
5399.7047
 20
456.0003
 11
5399.7047
 21
358.5002
  0
LINE
  8
0_00
  6
CONTINUOUS
 62
3
 10
5401.2048
 20
456.0003
 11
5401.2048
 21
358.5002
  0
LINE
  8
0_00
  6
CONTINUOUS
 62
3
 10
5402.7049
 20
456.0003
 11
5402.7049
 21
358.5002
  0
LINE
  8
0_00
  6
CONTINUOUS
 62
3
 10
5404.2050
 20
456.0003
 11
5404.2050
 21
358.5002
  0
LINE
  8
0_00
  6
CONTINUOUS
 62
3
 10
5405.7051
 20
456.0003
 11
5405.7051
 21
358.5002
  0
LINE
  8
0_00
  6
CONTINUOUS
 62
3
 10
5411.8547
 20
456.0003
 11
5411.8547
 21
358.5002
  0
LINE
  8
0_00
  6
CONTINUOUS
 62
3
 10
5413.3553
 20
456.0003
 11
5413.3553
 21
358.5002
  0
LINE
  8
0_00
  6
CONTINUOUS
 62
3
 10
5414.8553
 20
456.0003
 11
5414.8553
 21
358.5002
  0
LINE
  8
0_00
  6
CONTINUOUS
 62
3
 10
5416.3545
 20
456.0003
 11
5416.3545
 21
358.5002
  0
LINE
  8
0_00
  6
CONTINUOUS
 62
3
 10
5417.8555
 20
456.0003
 11
5417.8555
 21
358.5002
  0
LINE
  8
0_00
  6
CONTINUOUS
 62
3
 10
5419.3547
 20
456.0003
 11
5419.3547
 21
358.5002
  0
LINE
  8
0_00
  6
CONTINUOUS
 62
3
 10
5462.0302
 20
360.0003
 11
5500.0548
 21
360.0003
  0
LINE
  8
0_00
  6
CONTINUOUS
 62
3
 10
5462.0302
 20
361.5005
 11
5500.0548
 21
361.5005
  0
LINE
  8
0_00
  6
CONTINUOUS
 62
3
 10
5462.0302
 20
363.0001
 11
5500.0548
 21
363.0001
  0
LINE
  8
0_00
  6
CONTINUOUS
 62
3
 10
5462.0302
 20
364.5001
 11
5500.0548
 21
364.5001
  0
LINE
  8
0_00
  6
CONTINUOUS
 62
3
 10
5462.0302
 20
366.0002
 11
5500.0548
 21
366.0002
  0
LINE
  8
0_00
  6
CONTINUOUS
 62
3
 10
5462.0302
 20
372.6754
 11
5500.0548
 21
372.6754
  0
LINE
  8
0_00
  6
CONTINUOUS
 62
3
 10
5462.0302
 20
374.1754
 11
5500.0548
 21
374.1754
  0
LINE
  8
0_00
  6
CONTINUOUS
 62
3
 10
5462.0302
 20
375.6750
 11
5500.0548
 21
375.6750
  0
LINE
  8
0_00
  6
CONTINUOUS
 62
3
 10
5462.0302
 20
377.1751
 11
5500.0548
 21
377.1751
  0
LINE
  8
0_00
  6
CONTINUOUS
 62
3
 10
5462.0302
 20
378.6753
 11
5500.0548
 21
378.6753
  0
LINE
  8
0_00
  6
CONTINUOUS
 62
3
 10
5462.0302
 20
385.3503
 11
5500.0548
 21
385.3503
  0
LINE
  8
0_00
  6
CONTINUOUS
 62
3
 10
5462.0302
 20
386.8505
 11
5500.0548
 21
386.8505
  0
LINE
  8
0_00
  6
CONTINUOUS
 62
3
 10
5462.0302
 20
388.3501
 11
5500.0548
 21
388.3501
  0
LINE
  8
0_00
  6
CONTINUOUS
 62
3
 10
5462.0302
 20
389.8502
 11
5500.0548
 21
389.8502
  0
LINE
  8
0_00
  6
CONTINUOUS
 62
3
 10
5462.0302
 20
391.3503
 11
5500.0548
 21
391.3503
  0
LINE
  8
0_00
  6
CONTINUOUS
 62
3
 10
5462.0302
 20
398.0254
 11
5500.0548
 21
398.0254
  0
LINE
  8
0_00
  6
CONTINUOUS
 62
3
 10
5462.0302
 20
399.5255
 11
5500.0548
 21
399.5255
  0
LINE
  8
0_00
  6
CONTINUOUS
 62
3
 10
5462.0302
 20
401.0252
 11
5500.0548
 21
401.0252
  0
LINE
  8
0_00
  6
CONTINUOUS
 62
3
 10
5462.0302
 20
402.5252
 11
5500.0548
 21
402.5252
  0
LINE
  8
0_00
  6
CONTINUOUS
 62
3
 10
5462.0302
 20
404.0253
 11
5500.0548
 21
404.0253
  0
LINE
  8
0_00
  6
CONTINUOUS
 62
3
 10
5462.0302
 20
410.7004
 11
5500.0548
 21
410.7004
  0
LINE
  8
0_00
  6
CONTINUOUS
 62
3
 10
5462.0302
 20
412.2005
 11
5500.0548
 21
412.2005
  0
LINE
  8
0_00
  6
CONTINUOUS
 62
3
 10
5462.0302
 20
413.7002
 11
5500.0548
 21
413.7002
  0
LINE
  8
0_00
  6
CONTINUOUS
 62
3
 10
5462.0302
 20
415.2002
 11
5500.0548
 21
415.2002
  0
LINE
  8
0_00
  6
CONTINUOUS
 62
3
 10
5462.0302
 20
416.7003
 11
5500.0548
 21
416.7003
  0
LINE
  8
0_00
  6
CONTINUOUS
 62
3
 10
5500.0548
 20
423.3755
 11
5462.0302
 21
423.3755
  0
LINE
  8
0_00
  6
CONTINUOUS
 62
3
 10
5500.0548
 20
424.8754
 11
5462.0302
 21
424.8754
  0
LINE
  8
0_00
  6
CONTINUOUS
 62
3
 10
5500.0548
 20
426.3751
 11
5462.0302
 21
426.3751
  0
LINE
  8
0_00
  6
CONTINUOUS
 62
3
 10
5500.0548
 20
427.8753
 11
5462.0302
 21
427.8753
  0
LINE
  8
0_00
  6
CONTINUOUS
 62
3
 10
5500.0548
 20
429.3753
 11
5462.0302
 21
429.3753
  0
LINE
  8
0_00
  6
CONTINUOUS
 62
3
 10
5462.0302
 20
436.0504
 11
5500.0548
 21
436.0504
  0
LINE
  8
0_00
  6
CONTINUOUS
 62
3
 10
5462.0302
 20
437.5505
 11
5500.0548
 21
437.5505
  0
LINE
  8
0_00
  6
CONTINUOUS
 62
3
 10
5462.0302
 20
439.0501
 11
5500.0548
 21
439.0501
  0
LINE
  8
0_00
  6
CONTINUOUS
 62
3
 10
5462.0302
 20
440.5503
 11
5500.0548
 21
440.5503
  0
LINE
  8
0_00
  6
CONTINUOUS
 62
3
 10
5462.0302
 20
442.0504
 11
5500.0548
 21
442.0504
  0
LINE
  8
0_00
  6
CONTINUOUS
 62
3
 10
5462.0302
 20
448.7254
 11
5500.0548
 21
448.7254
  0
LINE
  8
0_00
  6
CONTINUOUS
 62
3
 10
5462.0302
 20
450.2256
 11
5500.0548
 21
450.2256
  0
LINE
  8
0_00
  6
CONTINUOUS
 62
3
 10
5462.0302
 20
451.7252
 11
5500.0548
 21
451.7252
  0
LINE
  8
0_00
  6
CONTINUOUS
 62
3
 10
5462.0302
 20
453.2253
 11
5500.0548
 21
453.2253
  0
LINE
  8
0_00
  6
CONTINUOUS
 62
3
 10
5462.0302
 20
454.7253
 11
5500.0548
 21
454.7253
  0
LINE
  8
0_00
  6
CONTINUOUS
 62
3
 10
5425.5048
 20
456.0003
 11
5425.5048
 21
358.5002
  0
LINE
  8
0_00
  6
CONTINUOUS
 62
3
 10
5427.0049
 20
456.0003
 11
5427.0049
 21
358.5002
  0
LINE
  8
0_00
  6
CONTINUOUS
 62
3
 10
5428.5045
 20
456.0003
 11
5428.5045
 21
358.5002
  0
LINE
  8
0_00
  6
CONTINUOUS
 62
3
 10
5430.0041
 20
456.0003
 11
5430.0041
 21
358.5002
  0
LINE
  8
0_00
  6
CONTINUOUS
 62
3
 10
5431.5047
 20
456.0003
 11
5431.5047
 21
358.5002
  0
LINE
  8
0_00
  6
CONTINUOUS
 62
3
 10
5433.0048
 20
456.0003
 11
5433.0048
 21
358.5002
  0
LINE
  8
0_00
  6
CONTINUOUS
 62
3
 10
5439.1553
 20
358.5002
 11
5439.1553
 21
385.3129
  0
LINE
  8
0_00
  6
CONTINUOUS
 62
3
 10
5440.6554
 20
358.5002
 11
5440.6554
 21
385.3129
  0
LINE
  8
0_00
  6
CONTINUOUS
 62
3
 10
5442.1550
 20
358.5002
 11
5442.1550
 21
385.3129
  0
LINE
  8
0_00
  6
CONTINUOUS
 62
3
 10
5443.6551
 20
358.5002
 11
5443.6551
 21
385.3129
  0
LINE
  8
0_00
  6
CONTINUOUS
 62
3
 10
5444.1875
 20
362.3624
 11
5448.3797
 21
362.3624
  0
LINE
  8
0_00
  6
CONTINUOUS
 62
3
 10
5444.1875
 20
360.8623
 11
5448.3797
 21
360.8623
  0
LINE
  8
0_00
  6
CONTINUOUS
 62
3
 10
5444.1875
 20
359.3626
 11
5448.3797
 21
359.3626
  0
LINE
  8
0_00
  6
CONTINUOUS
 62
3
 10
5451.4124
 20
392.3789
 11
5433.9267
 21
392.3789
  0
LINE
  8
0_00
  6
CONTINUOUS
 62
3
 10
5450.5156
 20
394.1388
 11
5433.9267
 21
394.1388
  0
LINE
  8
0_00
  6
CONTINUOUS
 62
3
 10
5449.4696
 20
396.1920
 11
5433.8896
 21
396.1920
  0
LINE
  8
0_00
  6
CONTINUOUS
 62
3
 10
5448.6021
 20
397.8933
 11
5433.8718
 21
397.8933
  0
LINE
  8
0_00
  6
CONTINUOUS
 62
3
 10
5455.4297
 20
417.6310
 11
5445.7512
 21
397.7894
  0
LINE
  8
0_00
  6
CONTINUOUS
 62
3
 10
5454.9481
 20
420.0667
 11
5444.0529
 21
397.7293
  0
LINE
  8
0_00
  6
CONTINUOUS
 62
3
 10
5454.0417
 20
421.6288
 11
5442.4571
 21
397.8791
  0
LINE
  8
0_00
  6
CONTINUOUS
 62
3
 10
5453.0145
 20
422.9465
 11
5440.7268
 21
397.7539
  0
LINE
  8
0_00
  6
CONTINUOUS
 62
3
 10
5452.0047
 20
424.2981
 11
5439.3947
 21
398.4436
  0
LINE
  8
0_00
  6
CONTINUOUS
 62
3
 10
5450.6850
 20
425.0128
 11
5437.4542
 21
397.8872
  0
LINE
  8
0_00
  6
CONTINUOUS
 62
3
 10
5449.3803
 20
425.7604
 11
5435.7664
 21
397.8488
  0
LINE
  8
0_00
  6
CONTINUOUS
 62
3
 10
5447.8322
 20
426.0087
 11
5434.1927
 21
398.0437
  0
LINE
  8
0_00
  6
CONTINUOUS
 62
3
 10
5446.2492
 20
426.1836
 11
5433.5262
 21
400.0986
  0
LINE
  8
0_00
  6
CONTINUOUS
 62
3
 10
5444.6860
 20
426.4013
 11
5433.6649
 21
403.8035
  0
LINE
  8
0_00
  6
CONTINUOUS
 62
3
 10
5442.9785
 20
426.3217
 11
5433.1943
 21
406.2606
  0
LINE
  8
0_00
  6
CONTINUOUS
 62
3
 10
5439.9628
 20
422.4004
 11
5433.7555
 21
422.4004
  0
LINE
  8
0_00
  6
CONTINUOUS
 62
3
 10
5441.1777
 20
423.9005
 11
5433.7555
 21
423.9005
  0
LINE
  8
0_00
  6
CONTINUOUS
 62
3
 10
5441.7476
 20
425.4001
 11
5433.7555
 21
425.4001
  0
LINE
  8
0_00
  6
CONTINUOUS
 62
3
 10
3981.3048
 20
4262.4458
 11
4048.8048
 21
4262.4458
  0
LINE
  8
0_00
  6
CONTINUOUS
 62
3
 10
3985.8426
 20
4270.3043
 11
3981.3048
 21
4262.4458
  0
LINE
  8
0_00
  6
CONTINUOUS
 62
3
 10
4004.4644
 20
4302.5592
 11
4015.0552
 21
4320.9032
  0
LINE
  8
0_00
  6
CONTINUOUS
 62
3
 10
4044.2683
 20
4270.3043
 11
4048.8048
 21
4262.4458
  0
LINE
  8
0_00
  6
CONTINUOUS
 62
3
 10
4025.6461
 20
4302.5592
 11
4015.0552
 21
4320.9032
  0
LINE
  8
0_00
  6
CONTINUOUS
 62
6
 10
6092.5552
 20
771.0004
 11
6107.5548
 21
771.0004
  0
LINE
  8
0_00
  6
CONTINUOUS
 62
6
 10
6092.5552
 20
876.0004
 11
6107.5548
 21
876.0004
  0
LINE
  8
0_00
  6
CONTINUOUS
 62
6
 10
6092.5552
 20
981.0004
 11
6107.5548
 21
981.0004
  0
LINE
  8
0_00
  6
CONTINUOUS
 62
6
 10
6092.5552
 20
1086.0003
 11
6107.5548
 21
1086.0003
  0
LINE
  8
0_00
  6
CONTINUOUS
 62
6
 10
6092.5552
 20
1191.0004
 11
6107.5548
 21
1191.0004
  0
LINE
  8
0_00
  6
CONTINUOUS
 62
6
 10
6092.5552
 20
1296.0004
 11
6107.5548
 21
1296.0004
  0
LINE
  8
0_00
  6
CONTINUOUS
 62
6
 10
6092.5552
 20
1401.0003
 11
6107.5548
 21
1401.0003
  0
LINE
  8
0_00
  6
CONTINUOUS
 62
6
 10
6092.5552
 20
1506.0003
 11
6107.5548
 21
1506.0003
  0
LINE
  8
0_00
  6
CONTINUOUS
 62
6
 10
6092.5552
 20
1611.0003
 11
6107.5548
 21
1611.0003
  0
LINE
  8
0_00
  6
CONTINUOUS
 62
6
 10
6092.5552
 20
1716.0003
 11
6107.5548
 21
1716.0003
  0
LINE
  8
0_00
  6
CONTINUOUS
 62
6
 10
6092.5552
 20
1821.0003
 11
6107.5548
 21
1821.0003
  0
LINE
  8
0_00
  6
CONTINUOUS
 62
6
 10
6092.5552
 20
1926.0004
 11
6107.5548
 21
1926.0004
  0
LINE
  8
0_00
  6
CONTINUOUS
 62
6
 10
6092.5552
 20
2031.0004
 11
6107.5548
 21
2031.0004
  0
LINE
  8
0_00
  6
CONTINUOUS
 62
6
 10
6092.5552
 20
2136.0004
 11
6107.5548
 21
2136.0004
  0
LINE
  8
0_00
  6
CONTINUOUS
 62
6
 10
6092.5552
 20
2241.0004
 11
6107.5548
 21
2241.0004
  0
LINE
  8
0_00
  6
CONTINUOUS
 62
6
 10
6092.5552
 20
2346.0004
 11
6107.5548
 21
2346.0004
  0
LINE
  8
0_00
  6
CONTINUOUS
 62
6
 10
6092.5552
 20
2451.0004
 11
6107.5548
 21
2451.0004
  0
LINE
  8
0_00
  6
CONTINUOUS
 62
6
 10
6092.5552
 20
4168.5004
 11
6107.5548
 21
4168.5004
  0
LINE
  8
0_00
  6
CONTINUOUS
 62
6
 10
6092.5552
 20
4078.5004
 11
6107.5548
 21
4078.5004
  0
LINE
  8
0_00
  6
CONTINUOUS
 62
6
 10
6092.5552
 20
3988.5004
 11
6107.5548
 21
3988.5004
  0
LINE
  8
0_00
  6
CONTINUOUS
 62
6
 10
6092.5552
 20
3898.5004
 11
6107.5548
 21
3898.5004
  0
LINE
  8
0_00
  6
CONTINUOUS
 62
6
 10
6092.5552
 20
3808.5004
 11
6107.5548
 21
3808.5004
  0
LINE
  8
0_00
  6
CONTINUOUS
 62
6
 10
6092.5552
 20
3718.5006
 11
6107.5548
 21
3718.5006
  0
LINE
  8
0_00
  6
CONTINUOUS
 62
6
 10
6092.5552
 20
2556.0004
 11
6107.5548
 21
2556.0004
  0
LINE
  8
0_00
  6
CONTINUOUS
 62
6
 10
6092.5552
 20
2661.0004
 11
6107.5548
 21
2661.0004
  0
LINE
  8
0_00
  6
CONTINUOUS
 62
6
 10
6092.5552
 20
2766.0004
 11
6107.5548
 21
2766.0004
  0
LINE
  8
0_00
  6
CONTINUOUS
 62
6
 10
6092.5552
 20
2871.0006
 11
6107.5548
 21
2871.0006
  0
LINE
  8
0_00
  6
CONTINUOUS
 62
6
 10
6092.5552
 20
2976.0004
 11
6107.5548
 21
2976.0004
  0
LINE
  8
0_00
  6
CONTINUOUS
 62
6
 10
6092.5552
 20
3081.0004
 11
6107.5548
 21
3081.0004
  0
LINE
  8
0_00
  6
CONTINUOUS
 62
6
 10
6092.5552
 20
3186.0001
 11
6107.5548
 21
3186.0001
  0
LINE
  8
0_00
  6
CONTINUOUS
 62
6
 10
6092.5552
 20
3291.0006
 11
6107.5548
 21
3291.0006
  0
LINE
  8
0_00
  6
CONTINUOUS
 62
6
 10
6092.5552
 20
3396.0001
 11
6107.5548
 21
3396.0001
  0
LINE
  8
0_00
  6
CONTINUOUS
 62
6
 10
6092.5552
 20
3501.0006
 11
6107.5548
 21
3501.0006
  0
LINE
  8
0_00
  6
CONTINUOUS
 62
6
 10
6092.5552
 20
3606.0006
 11
6107.5548
 21
3606.0006
  0
LINE
  8
0_00
  6
CENTER1
 62
3
 10
4405.2049
 20
366.0003
 11
4405.2049
 21
456.0003
  0
LINE
  8
0_00
  6
CONTINUOUS
 62
4
 10
4457.7049
 20
392.2504
 11
4457.7049
 21
429.7504
  0
LINE
  8
0_00
  6
CONTINUOUS
 62
4
 10
4525.2045
 20
381.0004
 11
4525.2045
 21
441.0003
  0
LINE
  8
0_00
  6
CONTINUOUS
 62
4
 10
4457.7049
 20
429.7504
 11
4525.2045
 21
441.0003
  0
LINE
  8
0_00
  6
CONTINUOUS
 62
4
 10
4457.7049
 20
392.2504
 11
4525.2045
 21
381.0004
  0
LINE
  8
0_00
  6
CENTER1
 62
3
 10
4360.2049
 20
411.0004
 11
4536.7781
 21
411.0004
  0
LINE
  8
0_00
  6
CONTINUOUS
 62
3
 10
5957.5548
 20
186.0002
 11
5957.5548
 21
336.0002
  0
LINE
  8
0_00
  6
CONTINUOUS
 62
3
 10
198.4524
 20
111.0002
 11
6167.5548
 21
111.0002
  0
LINE
  8
0_00
  6
CONTINUOUS
 62
3
 10
5912.5548
 20
4325.9999
 11
5912.5548
 21
4258.5004
  0
LINE
  8
0_00
  6
CONTINUOUS
 62
3
 10
0.0000
 20
2218.5001
 11
198.4524
 21
2218.5001
  0
LINE
  8
0_00
  6
CONTINUOUS
 62
3
 10
3130.8051
 20
111.0002
 11
3130.8051
 21
0.0000
  0
LINE
  8
0_00
  6
CONTINUOUS
 62
3
 10
3130.8051
 20
4325.9999
 11
3130.8051
 21
4455.0000
  0
LINE
  8
0_00
  6
CONTINUOUS
 62
3
 10
6167.5548
 20
2218.5001
 11
6300.0000
 21
2218.5001
  0
LINE
  8
15_0F
  6
CONTINUOUS
 62
6
 10
4248.2570
 20
3952.8607
 11
4054.9475
 21
4228.9352
  0
LINE
  8
15_0F
  6
CONTINUOUS
 62
6
 10
1640.4448
 20
2127.3672
 11
1447.3778
 21
2403.0952
  0
LINE
  8
15_0F
  6
CONTINUOUS
 62
6
 10
1460.2833
 20
2384.6645
 11
4067.8528
 21
4210.5052
  0
LINE
  8
15_0F
  6
CONTINUOUS
 62
6
 10
1460.2833
 20
2384.6645
 11
1494.8020
 21
2399.3168
  0
LINE
  8
15_0F
  6
CONTINUOUS
 62
6
 10
1460.2833
 20
2384.6645
 11
1485.8581
 21
2412.0902
  0
LINE
  8
15_0F
  6
CONTINUOUS
 62
6
 10
4067.8528
 20
4210.5052
 11
4033.3342
 21
4195.8522
  0
LINE
  8
15_0F
  6
CONTINUOUS
 62
6
 10
4067.8528
 20
4210.5052
 11
4042.2784
 21
4183.0792
  0
LINE
  8
15_0F
  6
CONTINUOUS
 62
6
 10
2213.8513
 20
2527.3109
 11
2071.6734
 21
2730.3619
  0
LINE
  8
15_0F
  6
CONTINUOUS
 62
6
 10
1511.9051
 20
2310.9407
 11
2084.5786
 21
2711.9312
  0
LINE
  8
15_0F
  6
CONTINUOUS
 62
6
 10
1511.9051
 20
2310.9407
 11
1546.4240
 21
2325.5933
  0
LINE
  8
15_0F
  6
CONTINUOUS
 62
6
 10
1511.9051
 20
2310.9407
 11
1537.4801
 21
2338.3667
  0
LINE
  8
15_0F
  6
CONTINUOUS
 62
6
 10
2084.5786
 20
2711.9312
 11
2050.0596
 21
2697.2786
  0
LINE
  8
15_0F
  6
CONTINUOUS
 62
6
 10
2084.5786
 20
2711.9312
 11
2059.0036
 21
2684.5054
  0
LINE
  8
15_0F
  6
CONTINUOUS
 62
6
 10
2947.6435
 20
3041.1177
 11
2805.4655
 21
3244.1689
  0
LINE
  8
15_0F
  6
CONTINUOUS
 62
6
 10
2084.5786
 20
2711.9312
 11
2818.3710
 21
3225.7381
  0
LINE
  8
15_0F
  6
CONTINUOUS
 62
6
 10
2084.5786
 20
2711.9312
 11
2119.0977
 21
2726.5835
  0
LINE
  8
15_0F
  6
CONTINUOUS
 62
6
 10
2084.5786
 20
2711.9312
 11
2110.1534
 21
2739.3569
  0
LINE
  8
15_0F
  6
CONTINUOUS
 62
6
 10
2818.3710
 20
3225.7381
 11
2783.8520
 21
3211.0854
  0
LINE
  8
15_0F
  6
CONTINUOUS
 62
6
 10
2818.3710
 20
3225.7381
 11
2792.7962
 21
3198.3124
  0
LINE
  8
15_0F
  6
CONTINUOUS
 62
6
 10
3674.8503
 20
3550.3136
 11
3532.6723
 21
3753.3646
  0
LINE
  8
15_0F
  6
CONTINUOUS
 62
6
 10
2818.3710
 20
3225.7381
 11
3545.5779
 21
3734.9341
  0
LINE
  8
15_0F
  6
CONTINUOUS
 62
6
 10
2818.3710
 20
3225.7381
 11
2852.8901
 21
3240.3907
  0
LINE
  8
15_0F
  6
CONTINUOUS
 62
6
 10
2818.3710
 20
3225.7381
 11
2843.9458
 21
3253.1639
  0
LINE
  8
15_0F
  6
CONTINUOUS
 62
6
 10
3545.5779
 20
3734.9341
 11
3511.0590
 21
3720.2818
  0
LINE
  8
15_0F
  6
CONTINUOUS
 62
6
 10
3545.5779
 20
3734.9341
 11
3520.0033
 21
3707.5083
  0
LINE
  8
15_0F
  6
CONTINUOUS
 62
6
 10
3545.5779
 20
3734.9341
 11
4119.4753
 21
4136.7810
  0
LINE
  8
15_0F
  6
CONTINUOUS
 62
6
 10
3545.5779
 20
3734.9341
 11
3580.0969
 21
3749.5862
  0
LINE
  8
15_0F
  6
CONTINUOUS
 62
6
 10
3545.5779
 20
3734.9341
 11
3571.1531
 21
3762.3596
  0
LINE
  8
15_0F
  6
CONTINUOUS
 62
6
 10
4119.4753
 20
4136.7810
 11
4084.9557
 21
4122.1280
  0
LINE
  8
15_0F
  6
CONTINUOUS
 62
6
 10
4119.4753
 20
4136.7810
 11
4093.9000
 21
4109.3550
  0
LINE
  8
15_0F
  6
CONTINUOUS
 62
6
 10
1690.2475
 20
1100.1240
 11
1854.5029
 21
865.5428
  0
LINE
  8
15_0F
  6
CONTINUOUS
 62
6
 10
4298.0594
 20
2926.1334
 11
4462.3155
 21
2691.5527
  0
LINE
  8
15_0F
  6
CONTINUOUS
 62
6
 10
1841.5977
 20
883.9736
 11
4449.4102
 21
2709.9831
  0
LINE
  8
15_0F
  6
CONTINUOUS
 62
6
 10
1841.5977
 20
883.9736
 11
1876.1165
 21
898.6261
  0
LINE
  8
15_0F
  6
CONTINUOUS
 62
6
 10
1841.5977
 20
883.9736
 11
1867.1725
 21
911.3994
  0
LINE
  8
15_0F
  6
CONTINUOUS
 62
6
 10
4449.4102
 20
2709.9831
 11
4414.8912
 21
2695.3308
  0
LINE
  8
15_0F
  6
CONTINUOUS
 62
6
 10
4449.4102
 20
2709.9831
 11
4423.8345
 21
2682.5576
  0
ARC
  8
0_00
  6
CONTINUOUS
 62
4
 10
4476.8440
 20
2985.3287
 40
3.0000
 50
3.5763
 51
90.0000
  0
ARC
  8
0_00
  6
CONTINUOUS
 62
4
 10
4460.9363
 20
2991.3284
 40
3.0000
 50
184.4846
 51
270.0000
  0
ARC
  8
0_00
  6
CONTINUOUS
 62
4
 10
4455.2380
 20
3012.8286
 40
1.0000
 50
4.4846
 51
90.0000
  0
ARC
  8
0_00
  6
CONTINUOUS
 62
4
 10
4385.4808
 20
2985.3287
 40
3.0000
 50
90.0000
 51
176.4237
  0
ARC
  8
0_00
  6
CONTINUOUS
 62
4
 10
4401.3885
 20
2991.3284
 40
3.0000
 50
270.0000
 51
355.5154
  0
ARC
  8
0_00
  6
CONTINUOUS
 62
4
 10
4407.0877
 20
3012.8286
 40
1.0000
 50
90.0000
 51
175.5154
  0
ARC
  8
0_00
  6
CONTINUOUS
 62
2
 10
4468.6624
 20
2983.9286
 40
9.1000
 50
39.7151
 51
140.2849
  0
ARC
  8
0_00
  6
CONTINUOUS
 62
2
 10
4393.6624
 20
2983.9286
 40
9.1000
 50
39.7151
 51
140.2849
  0
CIRCLE
  8
3_03
  6
CONTINUOUS
 62
2
 10
4431.1624
 20
3006.3286
 40
4.0000
  0
ARC
  8
3_03
  6
CONTINUOUS
 62
2
 10
4431.1624
 20
3006.3286
 40
2.0000
 50
36.1800
 51
53.8200
  0
ARC
  8
3_03
  6
CONTINUOUS
 62
2
 10
4431.1624
 20
3006.3286
 40
2.0000
 50
126.2068
 51
143.6799
  0
ARC
  8
3_03
  6
CONTINUOUS
 62
2
 10
4431.1624
 20
3006.3286
 40
2.0000
 50
216.1800
 51
233.7058
  0
ARC
  8
3_03
  6
CONTINUOUS
 62
2
 10
4431.1624
 20
3006.3286
 40
2.0000
 50
306.2068
 51
323.7932
  0
ARC
  8
0_00
  6
CONTINUOUS
 62
4
 10
5326.8439
 20
2985.3287
 40
3.0000
 50
3.5763
 51
90.0000
  0
ARC
  8
0_00
  6
CONTINUOUS
 62
4
 10
5310.9361
 20
2991.3284
 40
3.0000
 50
184.4846
 51
270.0000
  0
ARC
  8
0_00
  6
CONTINUOUS
 62
4
 10
5305.2379
 20
3012.8286
 40
1.0000
 50
4.4846
 51
90.0000
  0
ARC
  8
0_00
  6
CONTINUOUS
 62
4
 10
5235.4807
 20
2985.3287
 40
3.0000
 50
90.0000
 51
176.4237
  0
ARC
  8
0_00
  6
CONTINUOUS
 62
4
 10
5251.3889
 20
2991.3284
 40
3.0000
 50
270.0000
 51
355.5154
  0
ARC
  8
0_00
  6
CONTINUOUS
 62
4
 10
5257.0866
 20
3012.8286
 40
1.0000
 50
90.0000
 51
175.5154
  0
ARC
  8
0_00
  6
CONTINUOUS
 62
2
 10
5318.6627
 20
2983.9286
 40
9.1000
 50
39.7151
 51
140.2849
  0
ARC
  8
0_00
  6
CONTINUOUS
 62
2
 10
5243.6627
 20
2983.9286
 40
9.1000
 50
39.7151
 51
140.2849
  0
CIRCLE
  8
3_03
  6
CONTINUOUS
 62
2
 10
5281.1627
 20
3006.3286
 40
4.0000
  0
ARC
  8
3_03
  6
CONTINUOUS
 62
2
 10
5281.1627
 20
3006.3286
 40
2.0000
 50
36.1800
 51
53.8200
  0
ARC
  8
3_03
  6
CONTINUOUS
 62
2
 10
5281.1627
 20
3006.3286
 40
2.0000
 50
126.2068
 51
143.6799
  0
ARC
  8
3_03
  6
CONTINUOUS
 62
2
 10
5281.1627
 20
3006.3286
 40
2.0000
 50
216.1800
 51
233.7058
  0
ARC
  8
3_03
  6
CONTINUOUS
 62
2
 10
5281.1627
 20
3006.3286
 40
2.0000
 50
306.2068
 51
323.7932
  0
ARC
  8
0_00
  6
CONTINUOUS
 62
4
 10
1529.0318
 20
1159.3188
 40
3.0000
 50
3.5763
 51
90.0000
  0
ARC
  8
0_00
  6
CONTINUOUS
 62
4
 10
1513.1241
 20
1165.3187
 40
3.0000
 50
184.4846
 51
270.0000
  0
ARC
  8
0_00
  6
CONTINUOUS
 62
4
 10
1507.4255
 20
1186.8187
 40
1.0000
 50
4.4846
 51
90.0000
  0
ARC
  8
0_00
  6
CONTINUOUS
 62
4
 10
1437.6686
 20
1159.3188
 40
3.0000
 50
90.0000
 51
176.4237
  0
ARC
  8
0_00
  6
CONTINUOUS
 62
4
 10
1453.5764
 20
1165.3187
 40
3.0000
 50
270.0000
 51
355.5154
  0
ARC
  8
0_00
  6
CONTINUOUS
 62
4
 10
1459.2749
 20
1186.8187
 40
1.0000
 50
90.0000
 51
175.5154
  0
ARC
  8
0_00
  6
CONTINUOUS
 62
2
 10
1520.8503
 20
1157.9187
 40
9.1000
 50
39.7151
 51
140.2849
  0
ARC
  8
0_00
  6
CONTINUOUS
 62
2
 10
1445.8503
 20
1157.9187
 40
9.1000
 50
39.7151
 51
140.2849
  0
CIRCLE
  8
3_03
  6
CONTINUOUS
 62
2
 10
1483.3502
 20
1180.3187
 40
4.0000
  0
ARC
  8
3_03
  6
CONTINUOUS
 62
2
 10
1483.3502
 20
1180.3187
 40
2.0000
 50
36.1800
 51
53.8200
  0
ARC
  8
3_03
  6
CONTINUOUS
 62
2
 10
1483.3502
 20
1180.3187
 40
2.0000
 50
126.2068
 51
143.6799
  0
ARC
  8
3_03
  6
CONTINUOUS
 62
2
 10
1483.3502
 20
1180.3187
 40
2.0000
 50
216.1800
 51
233.7058
  0
ARC
  8
3_03
  6
CONTINUOUS
 62
2
 10
1483.3502
 20
1180.3187
 40
2.0000
 50
306.2068
 51
323.7932
  0
ARC
  8
0_00
  6
CONTINUOUS
 62
4
 10
679.0320
 20
1159.3188
 40
3.0000
 50
3.5763
 51
90.0000
  0
ARC
  8
0_00
  6
CONTINUOUS
 62
4
 10
663.1243
 20
1165.3187
 40
3.0000
 50
184.4846
 51
270.0000
  0
ARC
  8
0_00
  6
CONTINUOUS
 62
4
 10
657.4255
 20
1186.8187
 40
1.0000
 50
4.4846
 51
90.0000
  0
ARC
  8
0_00
  6
CONTINUOUS
 62
4
 10
587.6686
 20
1159.3188
 40
3.0000
 50
90.0000
 51
176.4237
  0
ARC
  8
0_00
  6
CONTINUOUS
 62
4
 10
603.5764
 20
1165.3187
 40
3.0000
 50
270.0000
 51
355.5154
  0
ARC
  8
0_00
  6
CONTINUOUS
 62
4
 10
609.2749
 20
1186.8187
 40
1.0000
 50
90.0000
 51
175.5154
  0
ARC
  8
0_00
  6
CONTINUOUS
 62
2
 10
670.8503
 20
1157.9187
 40
9.1000
 50
39.7151
 51
140.2849
  0
ARC
  8
0_00
  6
CONTINUOUS
 62
2
 10
595.8503
 20
1157.9187
 40
9.1000
 50
39.7151
 51
140.2849
  0
CIRCLE
  8
3_03
  6
CONTINUOUS
 62
2
 10
633.3503
 20
1180.3187
 40
4.0000
  0
ARC
  8
3_03
  6
CONTINUOUS
 62
2
 10
633.3503
 20
1180.3187
 40
2.0000
 50
36.1800
 51
53.8200
  0
ARC
  8
3_03
  6
CONTINUOUS
 62
2
 10
633.3503
 20
1180.3187
 40
2.0000
 50
126.2068
 51
143.6799
  0
ARC
  8
3_03
  6
CONTINUOUS
 62
2
 10
633.3503
 20
1180.3187
 40
2.0000
 50
216.1800
 51
233.7058
  0
ARC
  8
3_03
  6
CONTINUOUS
 62
2
 10
633.3503
 20
1180.3187
 40
2.0000
 50
306.2068
 51
323.7932
  0
CIRCLE
  8
12_0C
  6
CONTINUOUS
 62
2
 10
3687.7563
 20
2620.1573
 40
4.0000
  0
ARC
  8
12_0C
  6
CONTINUOUS
 62
2
 10
3687.7563
 20
2620.1573
 40
2.0000
 50
36.1800
 51
53.8200
  0
ARC
  8
12_0C
  6
CONTINUOUS
 62
2
 10
3687.7563
 20
2620.1573
 40
2.0000
 50
126.2068
 51
143.6799
  0
ARC
  8
12_0C
  6
CONTINUOUS
 62
2
 10
3687.7563
 20
2620.1573
 40
2.0000
 50
216.1800
 51
233.7058
  0
ARC
  8
12_0C
  6
CONTINUOUS
 62
2
 10
3687.7563
 20
2620.1573
 40
2.0000
 50
306.2068
 51
323.7932
  0
ARC
  8
4_04
  6
CONTINUOUS
 62
4
 10
3702.7174
 20
2601.0956
 40
10.0000
 50
40.0000
 51
122.7680
  0
ARC
  8
4_04
  6
CONTINUOUS
 62
4
 10
3709.6513
 20
2602.9440
 40
3.5000
 50
299.4351
 51
400.0000
  0
ARC
  8
4_04
  6
CONTINUOUS
 62
4
 10
3679.7287
 20
2581.8205
 40
10.0000
 50
137.1899
 51
220.0000
  0
ARC
  8
4_04
  6
CONTINUOUS
 62
4
 10
3676.7008
 20
2575.3166
 40
3.5000
 50
220.0000
 51
320.5217
  0
ARC
  8
4_04
  6
CONTINUOUS
 62
4
 10
3669.7245
 20
2575.6570
 40
2.0000
 50
270.0000
 51
322.1278
  0
ARC
  8
4_04
  6
CONTINUOUS
 62
4
 10
3709.8640
 20
2625.6573
 40
2.0000
 50
3.1751
 51
90.0000
  0
ARC
  8
4_04
  6
CONTINUOUS
 62
4
 10
3665.7179
 20
2625.6573
 40
2.0000
 50
90.0000
 51
178.8979
  0
ARC
  8
4_04
  6
CONTINUOUS
 62
4
 10
3664.7562
 20
2575.6570
 40
2.0000
 50
178.8979
 51
270.0000
  0
ARC
  8
4_04
  6
CONTINUOUS
 62
4
 10
3710.7561
 20
2609.5750
 40
2.0000
 50
297.0283
 51
363.1751
  0
ARC
  8
4_04
  6
CONTINUOUS
 62
4
 10
3766.4236
 20
2500.4539
 40
120.5000
 50
141.5423
 51
142.1278
  0
ARC
  8
4_04
  6
CONTINUOUS
 62
4
 10
3766.4236
 20
2500.4539
 40
120.5000
 50
117.0283
 51
117.5934
  0
ARC
  8
4_04
  6
CONTINUOUS
 62
4
 10
3767.3952
 20
2500.6119
 40
114.0000
 50
119.4351
 51
140.5217
  0
ARC
  8
4_04
  6
CONTINUOUS
 62
4
 10
3767.3952
 20
2500.6119
 40
129.5000
 50
122.7680
 51
137.1899
  0
ARC
  8
3_03
  6
CONTINUOUS
 62
4
 10
3724.1151
 20
2604.6021
 40
5.0000
 50
40.1463
 51
112.9797
  0
ARC
  8
3_03
  6
CONTINUOUS
 62
4
 10
3769.3900
 20
2498.3695
 40
115.5000
 50
112.7644
 51
137.2356
  0
ARC
  8
3_03
  6
CONTINUOUS
 62
4
 10
3725.0853
 20
2603.9504
 40
1.0000
 50
56.6146
 51
112.7644
  0
ARC
  8
3_03
  6
CONTINUOUS
 62
4
 10
3685.3297
 20
2576.1131
 40
1.0000
 50
137.2356
 51
193.3854
  0
ARC
  8
3_03
  6
CONTINUOUS
 62
4
 10
3683.9188
 20
2575.2486
 40
0.5000
 50
305.0000
 51
384.7824
  0
ARC
  8
0_00
  6
CONTINUOUS
 62
4
 10
3769.3900
 20
2498.3695
 40
120.5000
 50
113.0105
 51
118.0730
  0
CIRCLE
  8
12_0C
  6
CONTINUOUS
 62
2
 10
2960.5490
 20
2110.9614
 40
4.0000
  0
ARC
  8
12_0C
  6
CONTINUOUS
 62
2
 10
2960.5490
 20
2110.9614
 40
2.0000
 50
36.1800
 51
53.8200
  0
ARC
  8
12_0C
  6
CONTINUOUS
 62
2
 10
2960.5490
 20
2110.9614
 40
2.0000
 50
126.2068
 51
143.6799
  0
ARC
  8
12_0C
  6
CONTINUOUS
 62
2
 10
2960.5490
 20
2110.9614
 40
2.0000
 50
216.1800
 51
233.7058
  0
ARC
  8
12_0C
  6
CONTINUOUS
 62
2
 10
2960.5490
 20
2110.9614
 40
2.0000
 50
306.2068
 51
323.7932
  0
ARC
  8
4_04
  6
CONTINUOUS
 62
4
 10
2975.5101
 20
2091.8999
 40
10.0000
 50
40.0000
 51
122.7680
  0
ARC
  8
4_04
  6
CONTINUOUS
 62
4
 10
2982.4441
 20
2093.7483
 40
3.5000
 50
299.4351
 51
400.0000
  0
ARC
  8
4_04
  6
CONTINUOUS
 62
4
 10
2952.5219
 20
2072.6246
 40
10.0000
 50
137.1899
 51
220.0000
  0
ARC
  8
4_04
  6
CONTINUOUS
 62
4
 10
2949.4940
 20
2066.1207
 40
3.5000
 50
220.0000
 51
320.5217
  0
ARC
  8
4_04
  6
CONTINUOUS
 62
4
 10
2942.5177
 20
2066.4613
 40
2.0000
 50
270.0000
 51
322.1278
  0
ARC
  8
4_04
  6
CONTINUOUS
 62
4
 10
2982.6569
 20
2116.4616
 40
2.0000
 50
3.1751
 51
90.0000
  0
ARC
  8
4_04
  6
CONTINUOUS
 62
4
 10
2938.5109
 20
2116.4616
 40
2.0000
 50
90.0000
 51
178.8979
  0
ARC
  8
4_04
  6
CONTINUOUS
 62
4
 10
2937.5489
 20
2066.4613
 40
2.0000
 50
178.8979
 51
270.0000
  0
ARC
  8
4_04
  6
CONTINUOUS
 62
4
 10
2983.5489
 20
2100.3793
 40
2.0000
 50
297.0283
 51
363.1751
  0
ARC
  8
4_04
  6
CONTINUOUS
 62
4
 10
3039.2168
 20
1991.2582
 40
120.5000
 50
141.5423
 51
142.1278
  0
ARC
  8
4_04
  6
CONTINUOUS
 62
4
 10
3039.2168
 20
1991.2582
 40
120.5000
 50
117.0283
 51
117.5934
  0
ARC
  8
4_04
  6
CONTINUOUS
 62
4
 10
3040.1882
 20
1991.4159
 40
114.0000
 50
119.4351
 51
140.5217
  0
ARC
  8
4_04
  6
CONTINUOUS
 62
4
 10
3040.1882
 20
1991.4159
 40
129.5000
 50
122.7680
 51
137.1899
  0
ARC
  8
3_03
  6
CONTINUOUS
 62
4
 10
2996.9080
 20
2095.4063
 40
5.0000
 50
40.1463
 51
112.9797
  0
ARC
  8
3_03
  6
CONTINUOUS
 62
4
 10
3042.1832
 20
1989.1736
 40
115.5000
 50
112.7644
 51
137.2356
  0
ARC
  8
3_03
  6
CONTINUOUS
 62
4
 10
2997.8780
 20
2094.7547
 40
1.0000
 50
56.6146
 51
112.7644
  0
ARC
  8
3_03
  6
CONTINUOUS
 62
4
 10
2958.1226
 20
2066.9174
 40
1.0000
 50
137.2356
 51
193.3854
  0
ARC
  8
3_03
  6
CONTINUOUS
 62
4
 10
2956.7116
 20
2066.0527
 40
0.5000
 50
305.0000
 51
384.7824
  0
ARC
  8
0_00
  6
CONTINUOUS
 62
4
 10
3042.1832
 20
1989.1736
 40
120.5000
 50
113.0105
 51
118.0730
  0
CIRCLE
  8
12_0C
  6
CONTINUOUS
 62
2
 10
2226.7568
 20
1597.1543
 40
4.0000
  0
ARC
  8
12_0C
  6
CONTINUOUS
 62
2
 10
2226.7568
 20
1597.1543
 40
2.0000
 50
36.1800
 51
53.8200
  0
ARC
  8
12_0C
  6
CONTINUOUS
 62
2
 10
2226.7568
 20
1597.1543
 40
2.0000
 50
126.2068
 51
143.6799
  0
ARC
  8
12_0C
  6
CONTINUOUS
 62
2
 10
2226.7568
 20
1597.1543
 40
2.0000
 50
216.1800
 51
233.7058
  0
ARC
  8
12_0C
  6
CONTINUOUS
 62
2
 10
2226.7568
 20
1597.1543
 40
2.0000
 50
306.2068
 51
323.7932
  0
ARC
  8
4_04
  6
CONTINUOUS
 62
4
 10
2241.7177
 20
1578.0929
 40
10.0000
 50
40.0000
 51
122.7680
  0
ARC
  8
4_04
  6
CONTINUOUS
 62
4
 10
2248.6519
 20
1579.9412
 40
3.5000
 50
299.4351
 51
400.0000
  0
ARC
  8
4_04
  6
CONTINUOUS
 62
4
 10
2218.7295
 20
1558.8176
 40
10.0000
 50
137.1899
 51
220.0000
  0
ARC
  8
4_04
  6
CONTINUOUS
 62
4
 10
2215.7016
 20
1552.3138
 40
3.5000
 50
220.0000
 51
320.5217
  0
ARC
  8
4_04
  6
CONTINUOUS
 62
4
 10
2208.7251
 20
1552.6543
 40
2.0000
 50
270.0000
 51
322.1278
  0
ARC
  8
4_04
  6
CONTINUOUS
 62
4
 10
2248.8645
 20
1602.6543
 40
2.0000
 50
3.1751
 51
90.0000
  0
ARC
  8
4_04
  6
CONTINUOUS
 62
4
 10
2204.7189
 20
1602.6543
 40
2.0000
 50
90.0000
 51
178.8979
  0
ARC
  8
4_04
  6
CONTINUOUS
 62
4
 10
2203.7567
 20
1552.6543
 40
2.0000
 50
178.8979
 51
270.0000
  0
ARC
  8
4_04
  6
CONTINUOUS
 62
4
 10
2249.7569
 20
1586.5720
 40
2.0000
 50
297.0283
 51
363.1751
  0
ARC
  8
4_04
  6
CONTINUOUS
 62
4
 10
2305.4244
 20
1477.4514
 40
120.5000
 50
141.5423
 51
142.1278
  0
ARC
  8
4_04
  6
CONTINUOUS
 62
4
 10
2305.4244
 20
1477.4514
 40
120.5000
 50
117.0283
 51
117.5934
  0
ARC
  8
4_04
  6
CONTINUOUS
 62
4
 10
2306.3960
 20
1477.6089
 40
114.0000
 50
119.4351
 51
140.5217
  0
ARC
  8
4_04
  6
CONTINUOUS
 62
4
 10
2306.3960
 20
1477.6089
 40
129.5000
 50
122.7680
 51
137.1899
  0
ARC
  8
3_03
  6
CONTINUOUS
 62
4
 10
2263.1156
 20
1581.5996
 40
5.0000
 50
40.1463
 51
112.9797
  0
ARC
  8
3_03
  6
CONTINUOUS
 62
4
 10
2308.3907
 20
1475.3666
 40
115.5000
 50
112.7644
 51
137.2356
  0
ARC
  8
3_03
  6
CONTINUOUS
 62
4
 10
2264.0858
 20
1580.9475
 40
1.0000
 50
56.6146
 51
112.7644
  0
ARC
  8
3_03
  6
CONTINUOUS
 62
4
 10
2224.3302
 20
1553.1104
 40
1.0000
 50
137.2356
 51
193.3854
  0
ARC
  8
3_03
  6
CONTINUOUS
 62
4
 10
2222.9194
 20
1552.2458
 40
0.5000
 50
305.0000
 51
384.7824
  0
ARC
  8
0_00
  6
CONTINUOUS
 62
4
 10
2308.3907
 20
1475.3666
 40
120.5000
 50
113.0105
 51
118.0730
  0
ARC
  8
2_02
  6
CONTINUOUS
 62
4
 10
4264.1689
 20
3923.8486
 40
11.0000
 50
82.3638
 51
132.8736
  0
ARC
  8
2_02
  6
CONTINUOUS
 62
4
 10
4257.0250
 20
3931.5436
 40
0.5000
 50
132.8736
 51
197.5000
  0
ARC
  8
2_02
  6
CONTINUOUS
 62
4
 10
4265.6090
 20
3934.2499
 40
0.5000
 50
17.5000
 51
87.4754
  0
ARC
  8
2_02
  6
CONTINUOUS
 62
4
 10
4280.1970
 20
3873.0153
 40
10.0000
 50
81.8513
 51
132.8736
  0
ARC
  8
2_02
  6
CONTINUOUS
 62
4
 10
4273.0527
 20
3880.7108
 40
0.5000
 50
197.5000
 51
312.8736
  0
ARC
  8
2_02
  6
CONTINUOUS
 62
4
 10
4281.6357
 20
3883.4166
 40
0.5000
 50
267.4709
 51
377.5000
  0
ARC
  8
2_02
  6
CONTINUOUS
 62
4
 10
4253.1340
 20
3104.2914
 40
11.0000
 50
82.1231
 51
132.8769
  0
ARC
  8
2_02
  6
CONTINUOUS
 62
4
 10
4265.1622
 20
3066.1427
 40
10.0000
 50
82.1231
 51
133.0207
  0
ARC
  8
2_02
  6
CONTINUOUS
 62
4
 10
4258.0179
 20
3073.8373
 40
0.5000
 50
197.5000
 51
310.0040
  0
ARC
  8
2_02
  6
CONTINUOUS
 62
4
 10
4266.6014
 20
3076.5436
 40
0.5000
 50
262.1231
 51
377.5000
  0
ARC
  8
2_02
  6
CONTINUOUS
 62
4
 10
4245.9897
 20
3111.9857
 40
0.5000
 50
132.8769
 51
197.5000
  0
ARC
  8
2_02
  6
CONTINUOUS
 62
4
 10
4254.5728
 20
3114.6922
 40
0.5000
 50
17.5000
 51
82.1231
  0
ARC
  8
2_02
  6
CONTINUOUS
 62
4
 10
1665.6821
 20
2068.3566
 40
11.0000
 50
262.3639
 51
312.8736
  0
ARC
  8
2_02
  6
CONTINUOUS
 62
4
 10
1672.8262
 20
2060.6616
 40
0.5000
 50
312.8736
 51
377.5000
  0
ARC
  8
2_02
  6
CONTINUOUS
 62
4
 10
1664.2427
 20
2057.9558
 40
0.5000
 50
197.5000
 51
267.4753
  0
ARC
  8
2_02
  6
CONTINUOUS
 62
4
 10
1649.9274
 20
2118.3323
 40
10.0000
 50
262.1049
 51
313.1263
  0
ARC
  8
2_02
  6
CONTINUOUS
 62
4
 10
1648.4851
 20
2107.9314
 40
0.5000
 50
82.1049
 51
197.5000
  0
ARC
  8
2_02
  6
CONTINUOUS
 62
4
 10
1657.0695
 20
2110.6352
 40
0.5000
 50
17.5000
 51
127.5257
  0
ARC
  8
2_02
  6
CONTINUOUS
 62
4
 10
1638.7463
 20
1299.1370
 40
10.0000
 50
262.1049
 51
313.1263
  0
ARC
  8
2_02
  6
CONTINUOUS
 62
4
 10
1637.3039
 20
1288.7366
 40
0.5000
 50
82.1049
 51
197.5000
  0
ARC
  8
2_02
  6
CONTINUOUS
 62
4
 10
1645.8881
 20
1291.4401
 40
0.5000
 50
17.5000
 51
127.5257
  0
ARC
  8
2_02
  6
CONTINUOUS
 62
4
 10
1650.7744
 20
1260.9883
 40
11.0000
 50
262.1231
 51
312.8770
  0
ARC
  8
2_02
  6
CONTINUOUS
 62
4
 10
1649.3354
 20
1250.5873
 40
0.5000
 50
197.5000
 51
262.1231
  0
ARC
  8
2_02
  6
CONTINUOUS
 62
4
 10
1657.9190
 20
1253.2935
 40
0.5000
 50
312.8770
 51
377.5000
  0
ARC
  8
15_0F
  6
CONTINUOUS
 62
6
 10
1967.1007
 20
714.5884
 40
292.6273
 50
0.0000
 51
35.0000
  0
ARC
  8
0_00
  6
CONTINUOUS
 62
2
 10
5281.1627
 20
3083.8284
 40
2.4500
 50
45.0000
 51
58.5444
  0
ARC
  8
0_00
  6
CONTINUOUS
 62
2
 10
5281.1627
 20
3083.8284
 40
2.4500
 50
121.3667
 51
135.0000
  0
ARC
  8
0_00
  6
CONTINUOUS
 62
2
 10
5281.1627
 20
3083.8284
 40
2.4500
 50
211.4556
 51
225.0000
  0
ARC
  8
0_00
  6
CONTINUOUS
 62
2
 10
5281.1627
 20
3083.8284
 40
2.4500
 50
135.0000
 51
148.6333
  0
ARC
  8
0_00
  6
CONTINUOUS
 62
2
 10
5281.1627
 20
3083.8284
 40
2.4500
 50
31.4556
 51
45.0000
  0
ARC
  8
0_00
  6
CONTINUOUS
 62
2
 10
5281.1627
 20
3083.8284
 40
2.4500
 50
315.0000
 51
328.6334
  0
ARC
  8
0_00
  6
CONTINUOUS
 62
2
 10
5281.1627
 20
3083.8284
 40
2.4500
 50
225.0000
 51
238.5444
  0
ARC
  8
0_00
  6
CONTINUOUS
 62
2
 10
5281.1627
 20
3083.8284
 40
2.4500
 50
301.3667
 51
315.0000
  0
CIRCLE
  8
0_00
  6
CONTINUOUS
 62
2
 10
5281.1627
 20
3083.8284
 40
5.9000
  0
ARC
  8
0_00
  6
CONTINUOUS
 62
2
 10
4431.1624
 20
3083.8284
 40
2.4500
 50
45.0000
 51
58.5444
  0
ARC
  8
0_00
  6
CONTINUOUS
 62
2
 10
4431.1624
 20
3083.8284
 40
2.4500
 50
121.3667
 51
135.0000
  0
ARC
  8
0_00
  6
CONTINUOUS
 62
2
 10
4431.1624
 20
3083.8284
 40
2.4500
 50
211.4556
 51
225.0000
  0
ARC
  8
0_00
  6
CONTINUOUS
 62
2
 10
4431.1624
 20
3083.8284
 40
2.4500
 50
135.0000
 51
148.6333
  0
ARC
  8
0_00
  6
CONTINUOUS
 62
2
 10
4431.1624
 20
3083.8284
 40
2.4500
 50
31.4556
 51
45.0000
  0
ARC
  8
0_00
  6
CONTINUOUS
 62
2
 10
4431.1624
 20
3083.8284
 40
2.4500
 50
315.0000
 51
328.6334
  0
ARC
  8
0_00
  6
CONTINUOUS
 62
2
 10
4431.1624
 20
3083.8284
 40
2.4500
 50
225.0000
 51
238.5444
  0
ARC
  8
0_00
  6
CONTINUOUS
 62
2
 10
4431.1624
 20
3083.8284
 40
2.4500
 50
301.3667
 51
315.0000
  0
CIRCLE
  8
0_00
  6
CONTINUOUS
 62
2
 10
4431.1624
 20
3083.8284
 40
5.9000
  0
ARC
  8
0_00
  6
CONTINUOUS
 62
2
 10
1483.3502
 20
1257.8186
 40
2.4500
 50
45.0000
 51
58.5444
  0
ARC
  8
0_00
  6
CONTINUOUS
 62
2
 10
1483.3502
 20
1257.8186
 40
2.4500
 50
121.3667
 51
135.0000
  0
ARC
  8
0_00
  6
CONTINUOUS
 62
2
 10
1483.3502
 20
1257.8186
 40
2.4500
 50
211.4556
 51
225.0000
  0
ARC
  8
0_00
  6
CONTINUOUS
 62
2
 10
1483.3502
 20
1257.8186
 40
2.4500
 50
135.0000
 51
148.6333
  0
ARC
  8
0_00
  6
CONTINUOUS
 62
2
 10
1483.3502
 20
1257.8186
 40
2.4500
 50
31.4556
 51
45.0000
  0
ARC
  8
0_00
  6
CONTINUOUS
 62
2
 10
1483.3502
 20
1257.8186
 40
2.4500
 50
315.0000
 51
328.6334
  0
ARC
  8
0_00
  6
CONTINUOUS
 62
2
 10
1483.3502
 20
1257.8186
 40
2.4500
 50
225.0000
 51
238.5444
  0
ARC
  8
0_00
  6
CONTINUOUS
 62
2
 10
1483.3502
 20
1257.8186
 40
2.4500
 50
301.3667
 51
315.0000
  0
CIRCLE
  8
0_00
  6
CONTINUOUS
 62
2
 10
1483.3502
 20
1257.8186
 40
5.9000
  0
ARC
  8
0_00
  6
CONTINUOUS
 62
2
 10
633.3503
 20
1257.8186
 40
2.4500
 50
45.0000
 51
58.5444
  0
ARC
  8
0_00
  6
CONTINUOUS
 62
2
 10
633.3503
 20
1257.8186
 40
2.4500
 50
121.3667
 51
135.0000
  0
ARC
  8
0_00
  6
CONTINUOUS
 62
2
 10
633.3503
 20
1257.8186
 40
2.4500
 50
211.4556
 51
225.0000
  0
ARC
  8
0_00
  6
CONTINUOUS
 62
2
 10
633.3503
 20
1257.8186
 40
2.4500
 50
135.0000
 51
148.6333
  0
ARC
  8
0_00
  6
CONTINUOUS
 62
2
 10
633.3503
 20
1257.8186
 40
2.4500
 50
31.4556
 51
45.0000
  0
ARC
  8
0_00
  6
CONTINUOUS
 62
2
 10
633.3503
 20
1257.8186
 40
2.4500
 50
315.0000
 51
328.6334
  0
ARC
  8
0_00
  6
CONTINUOUS
 62
2
 10
633.3503
 20
1257.8186
 40
2.4500
 50
225.0000
 51
238.5444
  0
ARC
  8
0_00
  6
CONTINUOUS
 62
2
 10
633.3503
 20
1257.8186
 40
2.4500
 50
301.3667
 51
315.0000
  0
CIRCLE
  8
0_00
  6
CONTINUOUS
 62
2
 10
633.3503
 20
1257.8186
 40
5.9000
  0
ARC
  8
0_00
  6
CONTINUOUS
 62
2
 10
3687.7563
 20
2689.1812
 40
2.4500
 50
45.0000
 51
58.5444
  0
ARC
  8
0_00
  6
CONTINUOUS
 62
2
 10
3687.7563
 20
2689.1812
 40
2.4500
 50
121.3667
 51
135.0000
  0
ARC
  8
0_00
  6
CONTINUOUS
 62
2
 10
3687.7563
 20
2689.1812
 40
2.4500
 50
211.4556
 51
225.0000
  0
ARC
  8
0_00
  6
CONTINUOUS
 62
2
 10
3687.7563
 20
2689.1812
 40
2.4500
 50
135.0000
 51
148.6333
  0
ARC
  8
0_00
  6
CONTINUOUS
 62
2
 10
3687.7563
 20
2689.1812
 40
2.4500
 50
31.4556
 51
45.0000
  0
ARC
  8
0_00
  6
CONTINUOUS
 62
2
 10
3687.7563
 20
2689.1812
 40
2.4500
 50
315.0000
 51
328.6334
  0
ARC
  8
0_00
  6
CONTINUOUS
 62
2
 10
3687.7563
 20
2689.1812
 40
2.4500
 50
225.0000
 51
238.5444
  0
ARC
  8
0_00
  6
CONTINUOUS
 62
2
 10
3687.7563
 20
2689.1812
 40
2.4500
 50
301.3667
 51
315.0000
  0
CIRCLE
  8
0_00
  6
CONTINUOUS
 62
2
 10
3687.7563
 20
2689.1812
 40
5.9000
  0
ARC
  8
0_00
  6
CONTINUOUS
 62
2
 10
2960.5490
 20
2179.9855
 40
2.4500
 50
45.0000
 51
58.5444
  0
ARC
  8
0_00
  6
CONTINUOUS
 62
2
 10
2960.5490
 20
2179.9855
 40
2.4500
 50
121.3667
 51
135.0000
  0
ARC
  8
0_00
  6
CONTINUOUS
 62
2
 10
2960.5490
 20
2179.9855
 40
2.4500
 50
211.4556
 51
225.0000
  0
ARC
  8
0_00
  6
CONTINUOUS
 62
2
 10
2960.5490
 20
2179.9855
 40
2.4500
 50
135.0000
 51
148.6333
  0
ARC
  8
0_00
  6
CONTINUOUS
 62
2
 10
2960.5490
 20
2179.9855
 40
2.4500
 50
31.4556
 51
45.0000
  0
ARC
  8
0_00
  6
CONTINUOUS
 62
2
 10
2960.5490
 20
2179.9855
 40
2.4500
 50
315.0000
 51
328.6334
  0
ARC
  8
0_00
  6
CONTINUOUS
 62
2
 10
2960.5490
 20
2179.9855
 40
2.4500
 50
225.0000
 51
238.5444
  0
ARC
  8
0_00
  6
CONTINUOUS
 62
2
 10
2960.5490
 20
2179.9855
 40
2.4500
 50
301.3667
 51
315.0000
  0
CIRCLE
  8
0_00
  6
CONTINUOUS
 62
2
 10
2960.5490
 20
2179.9855
 40
5.9000
  0
ARC
  8
0_00
  6
CONTINUOUS
 62
2
 10
2226.7568
 20
1666.1787
 40
2.4500
 50
45.0000
 51
58.5444
  0
ARC
  8
0_00
  6
CONTINUOUS
 62
2
 10
2226.7568
 20
1666.1787
 40
2.4500
 50
121.3667
 51
135.0000
  0
ARC
  8
0_00
  6
CONTINUOUS
 62
2
 10
2226.7568
 20
1666.1787
 40
2.4500
 50
211.4556
 51
225.0000
  0
ARC
  8
0_00
  6
CONTINUOUS
 62
2
 10
2226.7568
 20
1666.1787
 40
2.4500
 50
135.0000
 51
148.6333
  0
ARC
  8
0_00
  6
CONTINUOUS
 62
2
 10
2226.7568
 20
1666.1787
 40
2.4500
 50
31.4556
 51
45.0000
  0
ARC
  8
0_00
  6
CONTINUOUS
 62
2
 10
2226.7568
 20
1666.1787
 40
2.4500
 50
315.0000
 51
328.6334
  0
ARC
  8
0_00
  6
CONTINUOUS
 62
2
 10
2226.7568
 20
1666.1787
 40
2.4500
 50
225.0000
 51
238.5444
  0
ARC
  8
0_00
  6
CONTINUOUS
 62
2
 10
2226.7568
 20
1666.1787
 40
2.4500
 50
301.3667
 51
315.0000
  0
CIRCLE
  8
0_00
  6
CONTINUOUS
 62
2
 10
2226.7568
 20
1666.1787
 40
5.9000
  0
ARC
  8
0_00
  6
CONTINUOUS
 62
3
 10
5448.3797
 20
361.1814
 40
2.6812
 50
270.0000
 51
450.0000
  0
ARC
  8
0_00
  6
CONTINUOUS
 62
3
 10
5440.9209
 20
385.3129
 40
3.2662
 50
0.0000
 51
180.0000
  0
ARC
  8
0_00
  6
CONTINUOUS
 62
3
 10
5445.9430
 20
417.0004
 40
9.7501
 50
333.9999
 51
450.0000
  0
CIRCLE
  8
0_00
  6
CONTINUOUS
 62
3
 10
5450.3297
 20
436.5002
 40
7.8000
  0
ARC
  8
0_00
  6
CONTINUOUS
 62
3
 10
5441.4052
 20
385.3129
 40
2.2500
 50
0.0000
 51
180.0000
  0
ARC
  8
0_00
  6
CONTINUOUS
 62
3
 10
5441.4052
 20
385.3129
 40
0.7500
 50
0.0000
 51
180.0000
  0
ARC
  8
0_00
  6
CONTINUOUS
 62
3
 10
5448.3797
 20
360.8628
 40
1.5000
 50
270.0000
 51
450.0000
  0
CIRCLE
  8
0_00
  6
CONTINUOUS
 62
3
 10
5450.3297
 20
436.5002
 40
6.6221
  0
CIRCLE
  8
0_00
  6
CONTINUOUS
 62
3
 10
5450.3297
 20
436.5002
 40
5.1278
  0
CIRCLE
  8
0_00
  6
CONTINUOUS
 62
3
 10
5450.3297
 20
436.5002
 40
3.5133
  0
CIRCLE
  8
0_00
  6
CONTINUOUS
 62
3
 10
5450.3297
 20
436.5002
 40
1.7201
  0
CIRCLE
  8
0_00
  6
CONTINUOUS
 62
3
 10
5450.3297
 20
436.5002
 40
0.8497
  0
CIRCLE
  8
0_00
  6
CONTINUOUS
 62
4
 10
4405.2049
 20
411.0004
 40
18.7500
  0
CIRCLE
  8
0_00
  6
CONTINUOUS
 62
4
 10
4405.2049
 20
411.0004
 40
30.0000
  0
TEXT
  8
0_00
 62
7
 10
2276.5814
 20
793.2256
 40
30.00
 41
1.00
 50
0.0000
  1
３５°≦θ≦４５゜
  0
TEXT
  8
15_0F
 62
7
 10
3398.6893
 20
2686.2021
 40
30.00
 41
1.00
 50
90.0000
  1
Ｈ１
  0
TEXT
  8
15_0F
 62
7
 10
3488.6893
 20
2600.2023
 40
30.00
 41
1.00
 50
90.0000
  1
ＨＫ＝Ｈ
  0
TEXT
  8
0_00
 62
7
 10
4777.4785
 20
2425.4620
 40
30.00
 41
1.00
 50
0.0000
  1
間柱基礎金具
  0
TEXT
  8
0_00
 62
7
 10
4053.6626
 20
2028.0499
 40
30.00
 41
1.00
 50
0.0000
  1
階段ベース
  0
TEXT
  8
0_00
 62
7
 10
4001.7549
 20
2118.0290
 40
30.00
 41
1.00
 50
0.0000
  1
間柱階段基礎金具
  0
TEXT
  8
0_00
 62
7
 10
4356.6563
 20
4020.5045
 40
30.00
 41
1.00
 50
0.0000
  1
笠木階段ジョイント（上）
  0
TEXT
  8
0_00
 62
7
 10
3735.7088
 20
2992.4661
 40
30.00
 41
1.00
 50
0.0000
  1
胴縁階段ジョイント（上）
  0
TEXT
  8
0_00
 62
7
 10
1005.6590
 20
350.2863
 40
30.00
 41
1.00
 50
0.0000
  1
３）二段手すりは製作できません。
  0
TEXT
  8
15_0F
 62
7
 10
1005.4524
 20
501.0004
 40
30.00
 41
1.00
 50
0.0000
  1
１）Ｈ、Ｈ１、Ｌは発注寸法とする。
  0
TEXT
  8
0_00
 62
7
 10
1005.6590
 20
425.2862
 40
30.00
 41
1.00
 50
0.0000
  1
２）［　］内寸法は標準寸法とする。
  0
TEXT
  8
15_0F
 62
7
 10
4120.8051
 20
351.0002
 40
30.00
 41
1.00
 50
0.0000
  1
１
  0
TEXT
  8
15_0F
 62
7
 10
4245.3049
 20
351.0002
 40
30.00
 41
1.00
 50
0.0000
  1
１５
  0
TEXT
  8
15_0F
 62
7
 10
3521.5551
 20
373.5003
 40
30.00
 41
1.00
 50
0.0000
  1
納まり図
  0
TEXT
  8
15_0F
 62
7
 10
2540.5550
 20
208.5002
 40
30.00
 41
1.00
 50
0.0000
  1
ＲＣ造
  0
TEXT
  8
15_0F
 62
7
 10
2486.5549
 20
358.5002
 40
30.00
 41
1.00
 50
0.0000
  1
低・中・高層
  0
TEXT
  8
15_0F
 62
7
 10
2880.3049
 20
358.5002
 40
30.00
 41
1.00
 50
0.0000
  1
アルミ手すり
  0
TEXT
  8
15_0F
 62
7
 10
2927.3053
 20
208.5002
 40
30.00
 41
1.00
 50
0.0000
  1
Ｋ型
  0
TEXT
  8
15_0F
 62
7
 10
3161.5549
 20
223.5002
 40
30.00
 41
1.00
 50
0.0000
  1
床支持階段標準手すり（直線格子）後付工法納まり図
  0
TEXT
  8
15_0F
 62
7
 10
4292.1625
 20
4129.9004
 40
27.00
 41
0.75
 50
0.0000
  1
170
  0
TEXT
  8
15_0F
 62
7
 10
4676.1626
 20
4129.9004
 40
30.00
 41
1.00
 50
0.0000
  1
２５０≦Ｌ≦１８２０
  0
TEXT
  8
15_0F
 62
7
 10
878.3504
 20
811.0448
 40
30.00
 41
1.00
 50
0.0000
  1
２５０≦Ｌ≦１８２０
  0
TEXT
  8
15_0F
 62
7
 10
1513.7700
 20
811.0448
 40
27.00
 41
0.75
 50
0.0000
  1
170
  0
TEXT
  8
15_0F
 62
7
 10
1583.2586
 20
2260.1891
 40
30.00
 41
1.00
 50
35.0000
  1
（２５０≦Ｌ≦１８２０）
  0
TEXT
  8
15_0F
 62
7
 10
5818.1863
 20
3114.1074
 40
30.00
 41
1.00
 50
90.0000
  1
３０１≦Ｈ（手すり高さ寸法）≦１２００
  0
TEXT
  8
15_0F
 62
7
 10
5728.1863
 20
2443.3285
 40
30.00
 41
1.00
 50
90.0000
  1
７５≦ｇ［１００］≦１００
  0
TEXT
  8
15_0F
 62
7
 10
5728.1863
 20
3470.1075
 40
30.00
 41
1.00
 50
90.0000
  1
Ｈ１
  0
TEXT
  8
0_00
 62
7
 10
351.4524
 20
201.0004
 40
30.00
 41
1.00
 50
0.0000
  1
適用製品
  0
TEXT
  8
0_00
 62
7
 10
651.4524
 20
201.0004
 40
30.00
 41
1.00
 50
0.0000
  1
適用日付
  0
TEXT
  8
0_00
 62
7
 10
892.9524
 20
501.0004
 40
30.00
 41
1.00
 50
0.0000
  1
記事
  0
TEXT
  8
0_00
 62
7
 10
2362.8051
 20
426.0003
 40
30.00
 41
1.00
 50
0.0000
  1
階層仕様
  0
TEXT
  8
0_00
 62
7
 10
2362.8051
 20
276.0002
 40
30.00
 41
1.00
 50
0.0000
  1
適用躯体
  0
TEXT
  8
0_00
 62
7
 10
3150.3051
 20
426.0003
 40
30.00
 41
1.00
 50
0.0000
  1
名　称
  0
TEXT
  8
0_00
 62
7
 10
3150.3051
 20
276.0002
 40
30.00
 41
1.00
 50
0.0000
  1
図　名
  0
TEXT
  8
0_00
 62
7
 10
4074.6835
 20
501.2288
 40
30.00
 41
1.00
 50
0.0000
  1
Ｎｏ．
  0
TEXT
  8
0_00
 62
7
 10
5617.8049
 20
501.0004
 40
30.00
 41
1.00
 50
0.0000
  1
適　　　　　　　　用
  0
TEXT
  8
0_00
 62
7
 10
5392.0551
 20
501.0004
 40
30.00
 41
1.00
 50
0.0000
  1
個数
  0
TEXT
  8
0_00
 62
7
 10
5116.0551
 20
501.0004
 40
30.00
 41
1.00
 50
0.0000
  1
材　　質
  0
TEXT
  8
0_00
 62
7
 10
4630.8051
 20
501.0004
 40
30.00
 41
1.00
 50
0.0000
  1
部　　　品　　　名
  0
TEXT
  8
0_00
 62
7
 10
4479.6799
 20
501.0004
 40
30.00
 41
1.00
 50
0.0000
  1
品番
  0
TEXT
  8
0_00
 62
7
 10
4254.3054
 20
501.0004
 40
30.00
 41
1.00
 50
0.0000
  1
図　　番
  0
TEXT
  8
0_00
 62
7
 10
4083.3051
 20
426.0003
 40
30.00
 41
1.00
 50
0.0000
  1
尺度
  0
TEXT
  8
0_00
 62
7
 10
4083.3051
 20
276.0002
 40
30.00
 41
1.00
 50
0.0000
  1
日付
  0
TEXT
  8
0_00
 62
7
 10
4641.9708
 20
426.0003
 40
30.00
 41
1.00
 50
0.0000
  1
承認
  0
TEXT
  8
0_00
 62
7
 10
4852.8053
 20
426.0003
 40
30.00
 41
1.00
 50
0.0000
  1
検図
  0
TEXT
  8
0_00
 62
7
 10
5034.3050
 20
426.0003
 40
30.00
 41
1.00
 50
0.0000
  1
設計
  0
TEXT
  8
0_00
 62
7
 10
5221.0551
 20
426.0003
 40
30.00
 41
1.00
 50
0.0000
  1
製図
  0
TEXT
  8
0_00
 62
7
 10
5372.5548
 20
276.0002
 40
30.00
 41
1.00
 50
0.0000
  1
図番
  0
TEXT
  8
0_00
 62
7
 10
5519.6091
 20
371.1753
 40
37.50
 41
1.00
 50
0.0000
  1
文化シヤッター株式会社
  0
TEXT
  8
0_00
 62
7
 10
1003.9524
 20
4314.7504
 40
30.00
 41
1.00
 50
180.0000
  1
図番
  0
TEXT
  8
0_00
 62
7
 10
3995.2556
 20
4270.0845
 40
30.00
 41
1.00
 50
0.0000
  1
ＮＯ
  0
TEXT
  8
0_00
 62
7
 10
4126.0551
 20
4269.7504
 40
30.00
 41
1.00
 50
0.0000
  1
個　数
  0
TEXT
  8
0_00
 62
7
 10
4351.8050
 20
4269.7504
 40
30.00
 41
1.00
 50
0.0000
  1
日　　付
  0
TEXT
  8
0_00
 62
7
 10
4921.0551
 20
4269.7504
 40
30.00
 41
1.00
 50
0.0000
  1
訂　　　正　　　記　　　事
  0
TEXT
  8
0_00
 62
7
 10
4192.0555
 20
351.0002
 40
27.00
 41
0.75
 50
0.0000
  1
:
  0
TEXT
  8
0_00
 62
7
 10
5689.3561
 20
133.5002
 40
30.00
 41
1.00
 50
0.0000
  1
ＪＩＳ　Ａ－３
  0
TEXT
  8
0_00
 62
7
 10
5897.4930
 20
133.4912
 40
30.00
 41
1.00
 50
0.0000
  1
（２９７×４２０）
  0
TEXT
  8
0_00
 62
7
 10
5765.5550
 20
4269.7504
 40
30.00
 41
1.00
 50
0.0000
  1
担　当
  0
TEXT
  8
0_00
 62
7
 10
5945.5550
 20
4269.7504
 40
30.00
 41
1.00
 50
0.0000
  1
承　認
  0
TEXT
  8
0_00
 62
7
 10
2756.5551
 20
426.0003
 40
30.00
 41
1.00
 50
0.0000
  1
機種名
  0
TEXT
  8
0_00
 62
7
 10
2756.5551
 20
276.0002
 40
30.00
 41
1.00
 50
0.0000
  1
型　式
  0
TEXT
  8
15_0F
 62
7
 10
2627.0638
 20
3210.8086
 40
30.00
 41
1.00
 50
35.0000
  1
（階段部躯体寸法）
  0
TEXT
  8
15_0F
 62
7
 10
1617.0030
 20
2393.6868
 40
30.00
 41
1.00
 50
35.0000
  1
Ｌ－（１７０／ｃｏｓθ）
  0
TEXT
  8
15_0F
 62
7
 10
2299.7255
 20
2871.7344
 40
30.00
 41
1.00
 50
35.0000
  1
２５０≦Ｌ≦１８２０
  0
TEXT
  8
15_0F
 62
7
 10
3030.2252
 20
3383.2361
 40
30.00
 41
1.00
 50
35.0000
  1
２５０≦Ｌ≦１８２０
  0
TEXT
  8
15_0F
 62
7
 10
3651.2876
 20
3818.1086
 40
30.00
 41
1.00
 50
35.0000
  1
Ｌ－（１７０／ｃｏｓθ）
  0
TEXT
  8
15_0F
 62
7
 10
3037.9889
 20
1730.8515
 40
30.00
 41
1.00
 50
35.0000
  1
階段部躯体寸法
  0
POINT
  8
0_00
 62
2
 10
4431.1624
 20
3006.3286
  0
POINT
  8
0_00
 62
2
 10
4468.6624
 20
2988.3286
  0
POINT
  8
0_00
 62
2
 10
4468.6624
 20
2989.3284
  0
POINT
  8
0_00
 62
2
 10
4393.6624
 20
2988.3286
  0
POINT
  8
0_00
 62
2
 10
4393.6624
 20
2989.3284
  0
POINT
  8
0_00
 62
2
 10
4431.1624
 20
3006.3286
  0
POINT
  8
0_00
 62
2
 10
5281.1627
 20
3006.3286
  0
POINT
  8
0_00
 62
2
 10
5318.6627
 20
2988.3286
  0
POINT
  8
0_00
 62
2
 10
5318.6627
 20
2989.3284
  0
POINT
  8
0_00
 62
2
 10
5243.6627
 20
2988.3286
  0
POINT
  8
0_00
 62
2
 10
5243.6627
 20
2989.3284
  0
POINT
  8
0_00
 62
2
 10
5281.1627
 20
3006.3286
  0
POINT
  8
0_00
 62
2
 10
1483.3502
 20
1180.3187
  0
POINT
  8
0_00
 62
2
 10
1520.8503
 20
1162.3186
  0
POINT
  8
0_00
 62
2
 10
1520.8503
 20
1163.3187
  0
POINT
  8
0_00
 62
2
 10
1445.8503
 20
1162.3186
  0
POINT
  8
0_00
 62
2
 10
1445.8503
 20
1163.3187
  0
POINT
  8
0_00
 62
2
 10
1483.3502
 20
1180.3187
  0
POINT
  8
0_00
 62
2
 10
633.3503
 20
1180.3187
  0
POINT
  8
0_00
 62
2
 10
670.8503
 20
1162.3186
  0
POINT
  8
0_00
 62
2
 10
670.8503
 20
1163.3187
  0
POINT
  8
0_00
 62
2
 10
595.8503
 20
1162.3186
  0
POINT
  8
0_00
 62
2
 10
595.8503
 20
1163.3187
  0
POINT
  8
0_00
 62
2
 10
633.3503
 20
1180.3187
  0
POINT
  8
0_00
 62
2
 10
5281.1627
 20
3083.8284
  0
POINT
  8
0_00
 62
2
 10
4431.1624
 20
3083.8284
  0
POINT
  8
0_00
 62
2
 10
1483.3502
 20
1257.8186
  0
POINT
  8
0_00
 62
2
 10
633.3503
 20
1257.8186
  0
POINT
  8
0_00
 62
2
 10
3687.7563
 20
2689.1812
  0
POINT
  8
0_00
 62
2
 10
2960.5490
 20
2179.9855
  0
POINT
  8
0_00
 62
2
 10
2226.7568
 20
1666.1787
  0
POINT
  8
0_00
 62
2
 10
120.4524
 20
74.9951
  0
POINT
  8
0_00
 62
2
 10
120.4524
 20
74.9951
  0
POINT
  8
0_00
 62
2
 10
423.4524
 20
298.5004
  0
POINT
  8
0_00
 62
2
 10
423.4524
 20
373.5004
  0
POINT
  8
0_00
 62
2
 10
423.4524
 20
448.5003
  0
POINT
  8
0_00
 62
2
 10
423.4524
 20
523.5004
  0
POINT
  8
0_00
 62
2
 10
2594.5551
 20
381.0003
  0
POINT
  8
0_00
 62
2
 10
2594.5551
 20
231.0002
  0
POINT
  8
0_00
 62
2
 10
3593.5551
 20
396.0003
  0
POINT
  8
0_00
 62
2
 10
3593.5551
 20
246.0003
  0
POINT
  8
0_00
 62
2
 10
5488.8048
 20
261.0003
  0
POINT
  8
0_00
 62
2
 10
5070.3049
 20
298.5004
  0
POINT
  8
0_00
 62
2
 10
723.4524
 20
298.5004
  0
POINT
  8
0_00
 62
2
 10
723.4524
 20
373.5004
  0
POINT
  8
0_00
 62
2
 10
723.4524
 20
448.5003
  0
POINT
  8
0_00
 62
2
 10
723.4524
 20
523.5004
  0
POINT
  8
0_00
 62
2
 10
4281.3048
 20
373.5003
  0
POINT
  8
0_00
 62
2
 10
4138.8052
 20
373.5003
  0
POINT
  8
0_00
 62
2
 10
1023.4523
 20
523.5004
  0
POINT
  8
0_00
 62
2
 10
1023.4523
 20
448.5003
  0
POINT
  8
0_00
 62
2
 10
1023.4523
 20
373.5004
  0
POINT
  8
0_00
 62
2
 10
1023.4523
 20
298.5004
  0
POINT
  8
0_00
 62
2
 10
1023.4523
 20
223.5004
  0
POINT
  8
0_00
 62
2
 10
5257.0551
 20
298.5004
  0
POINT
  8
0_00
 62
2
 10
423.4524
 20
223.5004
  0
POINT
  8
0_00
 62
2
 10
723.4524
 20
223.5004
  0
POINT
  8
0_00
 62
2
 10
873.4524
 20
4292.2499
  0
POINT
  8
0_00
 62
2
 10
4313.1802
 20
246.0003
  0
POINT
  8
0_00
 62
2
 10
2988.3051
 20
381.0003
  0
POINT
  8
0_00
 62
2
 10
2988.3051
 20
231.0002
  0
ENDSEC
  0
EOF
