999
  
  0
SECTION
  2
HEADER
  9
$EXTMIN
 10
0
 20
0
  9
$EXTMAX
 10
1260
 20
888
  9
$LTSCALE
 40
3.00
  9
$PDMODE
 70
33
  9
$PDSIZE
 40
1.80
  0
ENDSEC
  0
SECTION
  2
TABLES
  0
TABLE
  2
LTYPE
 70
9
  0
LTYPE
  2
CONTINUOUS
 70
64
  3
実線
 72
65
 73
0
 40
0.00
  0
LTYPE
  2
DASHED
 70
64
  3
__  __  __  __  __  __  __ 
 72
65
 73
2
 40
1.00
 49
0.50
 49
-0.50
  0
LTYPE
  2
HIDDEN1
 70
64
  3
____    ____    ____    ___
 72
65
 73
2
 40
2.20
 49
1.20
 49
-1.00
  0
LTYPE
  2
HIDDEN2
 70
64
  3
______  ______  ______  ___
 72
65
 73
2
 40
4.50
 49
3.50
 49
-1.00
  0
LTYPE
  2
CENTER1
 70
64
  3
_______ _ _______ _ _______
 72
65
 73
4
 40
20.00
 49
17.00
 49
-1.00
 49
1.00
 49
-1.00
  0
LTYPE
  2
CENTER2
 70
64
  3
___________  __  __________
 72
65
 73
4
 40
40.00
 49
34.00
 49
-2.00
 49
2.00
 49
-2.00
  0
LTYPE
  2
PHANTOM1
 70
64
  3
______ _ _ ______ _ _ _____
 72
65
 73
6
 40
20.00
 49
15.00
 49
-1.00
 49
1.00
 49
-1.00
 49
1.00
 49
-1.00
  0
LTYPE
  2
PHANTOM2
 70
64
  3
__________  _  _  _________
 72
65
 73
6
 40
40.00
 49
30.00
 49
-2.00
 49
2.00
 49
-2.00
 49
2.00
 49
-2.00
  0
LTYPE
  2
DOT
 70
64
  3
 .  .  .  .  .  .  .  .  . 
 72
65
 73
2
 40
1.00
 49
0.00
 49
-1.00
  0
ENDTAB
  0
TABLE
  2
STYLE
 70
1
  0
STYLE
  2
STANDARD
 70
64
 40
0.0
 41
1.0
 42
0.0
 50
0.0
 71
0
  3
ROMANS
  4
BIGFONT
  0
ENDTAB
  0
TABLE
  2
LAYER
 70
6
  0
LAYER
  2
0_00
 70
64
 62
7
  6
CONTINUOUS
  0
LAYER
  2
2_02
 70
64
 62
7
  6
CONTINUOUS
  0
LAYER
  2
3_03
 70
64
 62
7
  6
CONTINUOUS
  0
LAYER
  2
12_0C
 70
64
 62
7
  6
CONTINUOUS
  0
LAYER
  2
14_0E
 70
64
 62
7
  6
CONTINUOUS
  0
LAYER
  2
15_0F
 70
64
 62
7
  6
CONTINUOUS
  0
ENDTAB
  0
ENDSEC
  0
SECTION
  2
ENTITIES
  0
LINE
  8
0_00
  6
CONTINUOUS
 62
4
 10
731.7817
 20
703.8042
 11
1085.5818
 21
703.8042
  0
LINE
  8
0_00
  6
CONTINUOUS
 62
4
 10
731.7817
 20
699.1042
 11
1085.5818
 21
699.1042
  0
LINE
  8
0_00
  6
CONTINUOUS
 62
4
 10
721.1818
 20
583.8042
 11
1096.1819
 21
583.8042
  0
LINE
  8
3_03
  6
CONTINUOUS
 62
4
 10
731.7318
 20
703.8741
 11
728.7454
 21
703.8741
  0
LINE
  8
3_03
  6
CONTINUOUS
 62
4
 10
725.6818
 20
699.0742
 11
731.7318
 21
699.0742
  0
LINE
  8
3_03
  6
CONTINUOUS
 62
4
 10
731.7817
 20
699.1243
 11
731.7817
 21
703.8241
  0
LINE
  8
3_03
  6
CONTINUOUS
 62
4
 10
725.6318
 20
703.0765
 11
725.6318
 21
699.1243
  0
LINE
  8
0_00
  6
CENTER1
 62
6
 10
728.6818
 20
707.0146
 11
728.6818
 21
607.5895
  0
LINE
  8
0_00
  6
CENTER1
 62
6
 10
857.0151
 20
707.0146
 11
857.0151
 21
607.5895
  0
LINE
  8
0_00
  6
CENTER1
 62
6
 10
960.3485
 20
707.0146
 11
960.3485
 21
607.5895
  0
LINE
  8
0_00
  6
CONTINUOUS
 62
4
 10
958.3485
 20
699.1042
 11
958.3485
 21
619.3042
  0
LINE
  8
0_00
  6
CONTINUOUS
 62
4
 10
962.3485
 20
699.1042
 11
962.3485
 21
619.3042
  0
LINE
  8
0_00
  6
CONTINUOUS
 62
4
 10
855.0151
 20
699.1042
 11
855.0151
 21
619.3042
  0
LINE
  8
0_00
  6
CONTINUOUS
 62
4
 10
859.0151
 20
699.1042
 11
859.0151
 21
619.3042
  0
LINE
  8
0_00
  6
CONTINUOUS
 62
4
 10
859.0151
 20
627.3042
 11
958.3485
 21
627.3042
  0
LINE
  8
0_00
  6
CONTINUOUS
 62
4
 10
859.0151
 20
623.8042
 11
958.3485
 21
623.8042
  0
LINE
  8
0_00
  6
CONTINUOUS
 62
4
 10
742.7318
 20
699.1042
 11
742.7318
 21
627.3042
  0
LINE
  8
0_00
  6
CONTINUOUS
 62
4
 10
740.7318
 20
627.3042
 11
740.7318
 21
699.1042
  0
LINE
  8
0_00
  6
CONTINUOUS
 62
4
 10
1096.1819
 20
614.8042
 11
1096.1819
 21
583.8042
  0
LINE
  8
0_00
  6
CONTINUOUS
 62
2
 10
856.8876
 20
624.5132
 11
856.9745
 21
624.4293
  0
LINE
  8
0_00
  6
CONTINUOUS
 62
2
 10
856.9745
 20
624.4293
 11
857.0151
 21
624.4145
  0
LINE
  8
0_00
  6
CONTINUOUS
 62
2
 10
857.0151
 20
624.4145
 11
857.0537
 21
624.4285
  0
LINE
  8
0_00
  6
CONTINUOUS
 62
2
 10
857.0537
 20
624.4285
 11
857.1432
 21
624.5128
  0
LINE
  8
0_00
  6
CONTINUOUS
 62
2
 10
856.8062
 20
624.4318
 11
856.8900
 21
624.3449
  0
LINE
  8
0_00
  6
CONTINUOUS
 62
2
 10
856.8900
 20
624.3449
 11
856.9050
 21
624.3042
  0
LINE
  8
0_00
  6
CONTINUOUS
 62
2
 10
856.9050
 20
624.3042
 11
856.8909
 21
624.2657
  0
LINE
  8
0_00
  6
CONTINUOUS
 62
2
 10
856.8909
 20
624.2657
 11
856.8064
 21
624.1761
  0
LINE
  8
0_00
  6
CONTINUOUS
 62
2
 10
857.2241
 20
624.1765
 11
857.1402
 21
624.2635
  0
LINE
  8
0_00
  6
CONTINUOUS
 62
2
 10
857.1402
 20
624.2635
 11
857.1255
 21
624.3042
  0
LINE
  8
0_00
  6
CONTINUOUS
 62
2
 10
857.1255
 20
624.3042
 11
857.1395
 21
624.3427
  0
LINE
  8
0_00
  6
CONTINUOUS
 62
2
 10
857.1395
 20
624.3427
 11
857.2238
 21
624.4323
  0
LINE
  8
0_00
  6
CONTINUOUS
 62
2
 10
857.1428
 20
624.0952
 11
857.0558
 21
624.1791
  0
LINE
  8
0_00
  6
CONTINUOUS
 62
2
 10
857.0558
 20
624.1791
 11
857.0151
 21
624.1939
  0
LINE
  8
0_00
  6
CONTINUOUS
 62
2
 10
857.0151
 20
624.1939
 11
856.9767
 21
624.1798
  0
LINE
  8
0_00
  6
CONTINUOUS
 62
2
 10
856.9767
 20
624.1798
 11
856.8870
 21
624.0955
  0
LINE
  8
0_00
  6
CONTINUOUS
 62
2
 10
960.2209
 20
624.5132
 11
960.3079
 21
624.4293
  0
LINE
  8
0_00
  6
CONTINUOUS
 62
2
 10
960.3079
 20
624.4293
 11
960.3485
 21
624.4145
  0
LINE
  8
0_00
  6
CONTINUOUS
 62
2
 10
960.3485
 20
624.4145
 11
960.3870
 21
624.4285
  0
LINE
  8
0_00
  6
CONTINUOUS
 62
2
 10
960.3870
 20
624.4285
 11
960.4767
 21
624.5128
  0
LINE
  8
0_00
  6
CONTINUOUS
 62
2
 10
960.1395
 20
624.4318
 11
960.2234
 21
624.3449
  0
LINE
  8
0_00
  6
CONTINUOUS
 62
2
 10
960.2234
 20
624.3449
 11
960.2383
 21
624.3042
  0
LINE
  8
0_00
  6
CONTINUOUS
 62
2
 10
960.2383
 20
624.3042
 11
960.2242
 21
624.2657
  0
LINE
  8
0_00
  6
CONTINUOUS
 62
2
 10
960.2242
 20
624.2657
 11
960.1398
 21
624.1761
  0
LINE
  8
0_00
  6
CONTINUOUS
 62
2
 10
960.5575
 20
624.1765
 11
960.4736
 21
624.2635
  0
LINE
  8
0_00
  6
CONTINUOUS
 62
2
 10
960.4736
 20
624.2635
 11
960.4588
 21
624.3042
  0
LINE
  8
0_00
  6
CONTINUOUS
 62
2
 10
960.4588
 20
624.3042
 11
960.4728
 21
624.3427
  0
LINE
  8
0_00
  6
CONTINUOUS
 62
2
 10
960.4728
 20
624.3427
 11
960.5571
 21
624.4323
  0
LINE
  8
0_00
  6
CONTINUOUS
 62
2
 10
960.4761
 20
624.0952
 11
960.3891
 21
624.1791
  0
LINE
  8
0_00
  6
CONTINUOUS
 62
2
 10
960.3891
 20
624.1791
 11
960.3485
 21
624.1939
  0
LINE
  8
0_00
  6
CONTINUOUS
 62
2
 10
960.3485
 20
624.1939
 11
960.3100
 21
624.1798
  0
LINE
  8
0_00
  6
CONTINUOUS
 62
2
 10
960.3100
 20
624.1798
 11
960.2203
 21
624.0955
  0
LINE
  8
0_00
  6
CONTINUOUS
 62
4
 10
751.6818
 20
699.1042
 11
751.6818
 21
619.3042
  0
LINE
  8
0_00
  6
CONTINUOUS
 62
4
 10
755.6818
 20
699.1042
 11
755.6818
 21
619.3042
  0
LINE
  8
0_00
  6
CONTINUOUS
 62
2
 10
753.5541
 20
624.5132
 11
753.6411
 21
624.4293
  0
LINE
  8
0_00
  6
CONTINUOUS
 62
2
 10
753.6411
 20
624.4293
 11
753.6818
 21
624.4145
  0
LINE
  8
0_00
  6
CONTINUOUS
 62
2
 10
753.6818
 20
624.4145
 11
753.7203
 21
624.4285
  0
LINE
  8
0_00
  6
CONTINUOUS
 62
2
 10
753.7203
 20
624.4285
 11
753.8099
 21
624.5128
  0
LINE
  8
0_00
  6
CONTINUOUS
 62
2
 10
753.4728
 20
624.4318
 11
753.5567
 21
624.3449
  0
LINE
  8
0_00
  6
CONTINUOUS
 62
2
 10
753.5567
 20
624.3449
 11
753.5715
 21
624.3042
  0
LINE
  8
0_00
  6
CONTINUOUS
 62
2
 10
753.5715
 20
624.3042
 11
753.5575
 21
624.2657
  0
LINE
  8
0_00
  6
CONTINUOUS
 62
2
 10
753.5575
 20
624.2657
 11
753.4731
 21
624.1761
  0
LINE
  8
0_00
  6
CONTINUOUS
 62
2
 10
753.8908
 20
624.1765
 11
753.8069
 21
624.2635
  0
LINE
  8
0_00
  6
CONTINUOUS
 62
2
 10
753.8069
 20
624.2635
 11
753.7921
 21
624.3042
  0
LINE
  8
0_00
  6
CONTINUOUS
 62
2
 10
753.7921
 20
624.3042
 11
753.8061
 21
624.3427
  0
LINE
  8
0_00
  6
CONTINUOUS
 62
2
 10
753.8061
 20
624.3427
 11
753.8905
 21
624.4323
  0
LINE
  8
0_00
  6
CONTINUOUS
 62
2
 10
753.8094
 20
624.0952
 11
753.7225
 21
624.1791
  0
LINE
  8
0_00
  6
CONTINUOUS
 62
2
 10
753.7225
 20
624.1791
 11
753.6818
 21
624.1939
  0
LINE
  8
0_00
  6
CONTINUOUS
 62
2
 10
753.6818
 20
624.1939
 11
753.6432
 21
624.1798
  0
LINE
  8
0_00
  6
CONTINUOUS
 62
2
 10
753.6432
 20
624.1798
 11
753.5537
 21
624.0955
  0
LINE
  8
0_00
  6
CONTINUOUS
 62
4
 10
731.7817
 20
627.3042
 11
751.6818
 21
627.3042
  0
LINE
  8
0_00
  6
CONTINUOUS
 62
4
 10
755.6818
 20
627.3042
 11
855.0151
 21
627.3042
  0
LINE
  8
0_00
  6
CONTINUOUS
 62
4
 10
731.7817
 20
623.8042
 11
751.6818
 21
623.8042
  0
LINE
  8
0_00
  6
CONTINUOUS
 62
4
 10
755.6818
 20
623.8042
 11
855.0151
 21
623.8042
  0
LINE
  8
0_00
  6
CENTER1
 62
6
 10
753.6818
 20
707.0146
 11
753.6818
 21
607.5895
  0
LINE
  8
0_00
  6
CONTINUOUS
 62
4
 10
726.1818
 20
619.3042
 11
726.1818
 21
699.0742
  0
LINE
  8
0_00
  6
CONTINUOUS
 62
2
 10
726.1818
 20
625.6077
 11
726.1818
 21
626.7876
  0
LINE
  8
0_00
  6
CONTINUOUS
 62
2
 10
726.1469
 20
626.7876
 11
726.1818
 21
626.7876
  0
LINE
  8
0_00
  6
CONTINUOUS
 62
2
 10
726.1469
 20
625.6077
 11
726.1818
 21
625.6077
  0
LINE
  8
0_00
  6
CONTINUOUS
 62
2
 10
726.1469
 20
625.6077
 11
726.1469
 21
626.7876
  0
LINE
  8
2_02
  6
CONTINUOUS
 62
4
 10
726.3818
 20
627.1042
 11
726.3818
 21
623.9542
  0
LINE
  8
2_02
  6
CONTINUOUS
 62
4
 10
731.7817
 20
627.3542
 11
731.7817
 21
623.9542
  0
LINE
  8
2_02
  6
CONTINUOUS
 62
4
 10
726.5817
 20
623.7542
 11
731.5817
 21
623.7542
  0
LINE
  8
0_00
  6
CONTINUOUS
 62
4
 10
731.7817
 20
624.6096
 11
731.7817
 21
624.4754
  0
LINE
  8
0_00
  6
CONTINUOUS
 62
4
 10
731.7817
 20
627.3042
 11
731.7817
 21
623.8042
  0
LINE
  8
0_00
  6
CONTINUOUS
 62
4
 10
731.1818
 20
699.1042
 11
731.1818
 21
627.3542
  0
LINE
  8
0_00
  6
CONTINUOUS
 62
4
 10
731.1818
 20
623.7542
 11
731.1818
 21
619.3042
  0
LINE
  8
0_00
  6
CONTINUOUS
 62
4
 10
729.9318
 20
627.3542
 11
729.9318
 21
699.0742
  0
LINE
  8
0_00
  6
CONTINUOUS
 62
4
 10
727.4318
 20
627.3542
 11
727.4318
 21
699.0742
  0
LINE
  8
2_02
  6
CONTINUOUS
 62
4
 10
726.6318
 20
627.3542
 11
731.7817
 21
627.3542
  0
LINE
  8
0_00
  6
CONTINUOUS
 62
4
 10
1085.6319
 20
703.8741
 11
1088.6183
 21
703.8741
  0
LINE
  8
0_00
  6
CONTINUOUS
 62
4
 10
1091.6819
 20
699.0742
 11
1085.6319
 21
699.0742
  0
LINE
  8
0_00
  6
CONTINUOUS
 62
4
 10
1085.5818
 20
699.1243
 11
1085.5818
 21
703.8241
  0
LINE
  8
0_00
  6
CONTINUOUS
 62
4
 10
1091.7318
 20
703.0765
 11
1091.7318
 21
699.1243
  0
LINE
  8
0_00
  6
CONTINUOUS
 62
4
 10
1074.6319
 20
699.1042
 11
1074.6319
 21
627.3042
  0
LINE
  8
0_00
  6
CONTINUOUS
 62
4
 10
1076.6319
 20
627.3042
 11
1076.6319
 21
699.1042
  0
LINE
  8
0_00
  6
CONTINUOUS
 62
4
 10
1065.6820
 20
699.1042
 11
1065.6820
 21
619.3042
  0
LINE
  8
0_00
  6
CONTINUOUS
 62
4
 10
1061.6819
 20
699.1042
 11
1061.6819
 21
619.3042
  0
LINE
  8
0_00
  6
CONTINUOUS
 62
2
 10
1063.8095
 20
624.5132
 11
1063.7226
 21
624.4293
  0
LINE
  8
0_00
  6
CONTINUOUS
 62
2
 10
1063.7226
 20
624.4293
 11
1063.6819
 21
624.4145
  0
LINE
  8
0_00
  6
CONTINUOUS
 62
2
 10
1063.6819
 20
624.4145
 11
1063.6433
 21
624.4285
  0
LINE
  8
0_00
  6
CONTINUOUS
 62
2
 10
1063.6433
 20
624.4285
 11
1063.5538
 21
624.5128
  0
LINE
  8
0_00
  6
CONTINUOUS
 62
2
 10
1063.8909
 20
624.4318
 11
1063.8069
 21
624.3449
  0
LINE
  8
0_00
  6
CONTINUOUS
 62
2
 10
1063.8069
 20
624.3449
 11
1063.7921
 21
624.3042
  0
LINE
  8
0_00
  6
CONTINUOUS
 62
2
 10
1063.7921
 20
624.3042
 11
1063.8062
 21
624.2657
  0
LINE
  8
0_00
  6
CONTINUOUS
 62
2
 10
1063.8062
 20
624.2657
 11
1063.8906
 21
624.1761
  0
LINE
  8
0_00
  6
CONTINUOUS
 62
2
 10
1063.4730
 20
624.1765
 11
1063.5567
 21
624.2635
  0
LINE
  8
0_00
  6
CONTINUOUS
 62
2
 10
1063.5567
 20
624.2635
 11
1063.5716
 21
624.3042
  0
LINE
  8
0_00
  6
CONTINUOUS
 62
2
 10
1063.5716
 20
624.3042
 11
1063.5575
 21
624.3427
  0
LINE
  8
0_00
  6
CONTINUOUS
 62
2
 10
1063.5575
 20
624.3427
 11
1063.4732
 21
624.4323
  0
LINE
  8
0_00
  6
CONTINUOUS
 62
2
 10
1063.5542
 20
624.0952
 11
1063.6412
 21
624.1791
  0
LINE
  8
0_00
  6
CONTINUOUS
 62
2
 10
1063.6412
 20
624.1791
 11
1063.6819
 21
624.1939
  0
LINE
  8
0_00
  6
CONTINUOUS
 62
2
 10
1063.6819
 20
624.1939
 11
1063.7204
 21
624.1798
  0
LINE
  8
0_00
  6
CONTINUOUS
 62
2
 10
1063.7204
 20
624.1798
 11
1063.8100
 21
624.0955
  0
LINE
  8
0_00
  6
CONTINUOUS
 62
4
 10
1085.5818
 20
627.3042
 11
1065.6820
 21
627.3042
  0
LINE
  8
0_00
  6
CONTINUOUS
 62
4
 10
1085.5818
 20
623.8042
 11
1065.6820
 21
623.8042
  0
LINE
  8
0_00
  6
CONTINUOUS
 62
4
 10
1091.1819
 20
619.3042
 11
1091.1819
 21
699.0742
  0
LINE
  8
0_00
  6
CONTINUOUS
 62
2
 10
1091.1819
 20
625.6077
 11
1091.1819
 21
626.7876
  0
LINE
  8
0_00
  6
CONTINUOUS
 62
2
 10
1091.2166
 20
626.7876
 11
1091.1819
 21
626.7876
  0
LINE
  8
0_00
  6
CONTINUOUS
 62
2
 10
1091.2166
 20
625.6077
 11
1091.1819
 21
625.6077
  0
LINE
  8
0_00
  6
CONTINUOUS
 62
2
 10
1091.2166
 20
625.6077
 11
1091.2166
 21
626.7876
  0
LINE
  8
0_00
  6
CONTINUOUS
 62
4
 10
1090.9818
 20
627.1042
 11
1090.9818
 21
623.9542
  0
LINE
  8
0_00
  6
CONTINUOUS
 62
4
 10
1085.5818
 20
627.3542
 11
1085.5818
 21
623.9542
  0
LINE
  8
0_00
  6
CONTINUOUS
 62
4
 10
1090.7819
 20
623.7542
 11
1085.7819
 21
623.7542
  0
LINE
  8
0_00
  6
CONTINUOUS
 62
4
 10
1085.5818
 20
624.6096
 11
1085.5818
 21
624.4754
  0
LINE
  8
0_00
  6
CONTINUOUS
 62
4
 10
1085.5818
 20
627.3042
 11
1085.5818
 21
623.8042
  0
LINE
  8
0_00
  6
CONTINUOUS
 62
4
 10
1086.1819
 20
699.1042
 11
1086.1819
 21
627.3542
  0
LINE
  8
0_00
  6
CONTINUOUS
 62
4
 10
1086.1819
 20
623.7542
 11
1086.1819
 21
619.3042
  0
LINE
  8
0_00
  6
CONTINUOUS
 62
4
 10
1087.4319
 20
627.3542
 11
1087.4319
 21
699.0742
  0
LINE
  8
0_00
  6
CONTINUOUS
 62
4
 10
1089.9319
 20
627.3542
 11
1089.9319
 21
699.0742
  0
LINE
  8
0_00
  6
CONTINUOUS
 62
4
 10
1090.7318
 20
627.3542
 11
1085.5818
 21
627.3542
  0
LINE
  8
0_00
  6
CENTER1
 62
6
 10
1063.6819
 20
707.0146
 11
1063.6819
 21
607.7106
  0
LINE
  8
0_00
  6
CENTER1
 62
6
 10
1088.6819
 20
707.0146
 11
1088.6819
 21
607.5895
  0
LINE
  8
0_00
  6
CONTINUOUS
 62
4
 10
962.3485
 20
627.3042
 11
1061.6819
 21
627.3042
  0
LINE
  8
0_00
  6
CONTINUOUS
 62
4
 10
962.3485
 20
623.8042
 11
1061.6819
 21
623.8042
  0
LINE
  8
0_00
  6
CONTINUOUS
 62
4
 10
1049.1152
 20
699.1042
 11
1049.1152
 21
627.3042
  0
LINE
  8
0_00
  6
CONTINUOUS
 62
4
 10
1051.1152
 20
627.3042
 11
1051.1152
 21
699.1042
  0
LINE
  8
0_00
  6
CONTINUOUS
 62
4
 10
1036.4152
 20
699.1042
 11
1036.4152
 21
627.3042
  0
LINE
  8
0_00
  6
CONTINUOUS
 62
4
 10
1038.4152
 20
627.3042
 11
1038.4152
 21
699.1042
  0
LINE
  8
0_00
  6
CONTINUOUS
 62
4
 10
1023.7152
 20
699.1042
 11
1023.7152
 21
627.3042
  0
LINE
  8
0_00
  6
CONTINUOUS
 62
4
 10
1025.7151
 20
627.3042
 11
1025.7151
 21
699.1042
  0
LINE
  8
0_00
  6
CONTINUOUS
 62
4
 10
1011.0152
 20
699.1042
 11
1011.0152
 21
627.3042
  0
LINE
  8
0_00
  6
CONTINUOUS
 62
4
 10
1013.0152
 20
627.3042
 11
1013.0152
 21
699.1042
  0
LINE
  8
0_00
  6
CONTINUOUS
 62
4
 10
974.9151
 20
699.1042
 11
974.9151
 21
627.3042
  0
LINE
  8
0_00
  6
CONTINUOUS
 62
4
 10
972.9151
 20
627.3042
 11
972.9151
 21
699.1042
  0
LINE
  8
0_00
  6
CONTINUOUS
 62
4
 10
987.6152
 20
699.1042
 11
987.6152
 21
627.3042
  0
LINE
  8
0_00
  6
CONTINUOUS
 62
4
 10
985.6152
 20
627.3042
 11
985.6152
 21
699.1042
  0
LINE
  8
0_00
  6
CONTINUOUS
 62
4
 10
1000.3152
 20
699.1042
 11
1000.3152
 21
627.3042
  0
LINE
  8
0_00
  6
CONTINUOUS
 62
4
 10
998.3152
 20
627.3042
 11
998.3152
 21
699.1042
  0
LINE
  8
0_00
  6
CONTINUOUS
 62
4
 10
945.7819
 20
699.1042
 11
945.7819
 21
627.3042
  0
LINE
  8
0_00
  6
CONTINUOUS
 62
4
 10
947.7819
 20
627.3042
 11
947.7819
 21
699.1042
  0
LINE
  8
0_00
  6
CONTINUOUS
 62
4
 10
933.0818
 20
699.1042
 11
933.0818
 21
627.3042
  0
LINE
  8
0_00
  6
CONTINUOUS
 62
4
 10
935.0817
 20
627.3042
 11
935.0817
 21
699.1042
  0
LINE
  8
0_00
  6
CONTINUOUS
 62
4
 10
920.3819
 20
699.1042
 11
920.3819
 21
627.3042
  0
LINE
  8
0_00
  6
CONTINUOUS
 62
4
 10
922.3819
 20
627.3042
 11
922.3819
 21
699.1042
  0
LINE
  8
0_00
  6
CONTINUOUS
 62
4
 10
907.6818
 20
699.1042
 11
907.6818
 21
627.3042
  0
LINE
  8
0_00
  6
CONTINUOUS
 62
4
 10
909.6818
 20
627.3042
 11
909.6818
 21
699.1042
  0
LINE
  8
0_00
  6
CONTINUOUS
 62
4
 10
896.9818
 20
699.1042
 11
896.9818
 21
627.3042
  0
LINE
  8
0_00
  6
CONTINUOUS
 62
4
 10
894.9818
 20
627.3042
 11
894.9818
 21
699.1042
  0
LINE
  8
0_00
  6
CONTINUOUS
 62
4
 10
871.5817
 20
699.1042
 11
871.5817
 21
627.3042
  0
LINE
  8
0_00
  6
CONTINUOUS
 62
4
 10
869.5817
 20
627.3042
 11
869.5817
 21
699.1042
  0
LINE
  8
0_00
  6
CONTINUOUS
 62
4
 10
884.2818
 20
699.1042
 11
884.2818
 21
627.3042
  0
LINE
  8
0_00
  6
CONTINUOUS
 62
4
 10
882.2818
 20
627.3042
 11
882.2818
 21
699.1042
  0
LINE
  8
0_00
  6
CONTINUOUS
 62
4
 10
842.4485
 20
699.1042
 11
842.4485
 21
627.3042
  0
LINE
  8
0_00
  6
CONTINUOUS
 62
4
 10
844.4485
 20
627.3042
 11
844.4485
 21
699.1042
  0
LINE
  8
0_00
  6
CONTINUOUS
 62
4
 10
829.7485
 20
699.1042
 11
829.7485
 21
627.3042
  0
LINE
  8
0_00
  6
CONTINUOUS
 62
4
 10
831.7484
 20
627.3042
 11
831.7484
 21
699.1042
  0
LINE
  8
0_00
  6
CONTINUOUS
 62
4
 10
817.0485
 20
699.1042
 11
817.0485
 21
627.3042
  0
LINE
  8
0_00
  6
CONTINUOUS
 62
4
 10
819.0485
 20
627.3042
 11
819.0485
 21
699.1042
  0
LINE
  8
0_00
  6
CONTINUOUS
 62
4
 10
804.3485
 20
699.1042
 11
804.3485
 21
627.3042
  0
LINE
  8
0_00
  6
CONTINUOUS
 62
4
 10
806.3485
 20
627.3042
 11
806.3485
 21
699.1042
  0
LINE
  8
0_00
  6
CONTINUOUS
 62
4
 10
793.6485
 20
699.1042
 11
793.6485
 21
627.3042
  0
LINE
  8
0_00
  6
CONTINUOUS
 62
4
 10
791.6485
 20
627.3042
 11
791.6485
 21
699.1042
  0
LINE
  8
0_00
  6
CONTINUOUS
 62
4
 10
768.2484
 20
699.1042
 11
768.2484
 21
627.3042
  0
LINE
  8
0_00
  6
CONTINUOUS
 62
4
 10
766.2484
 20
627.3042
 11
766.2484
 21
699.1042
  0
LINE
  8
0_00
  6
CONTINUOUS
 62
4
 10
780.9485
 20
699.1042
 11
780.9485
 21
627.3042
  0
LINE
  8
0_00
  6
CONTINUOUS
 62
4
 10
778.9485
 20
627.3042
 11
778.9485
 21
699.1042
  0
LINE
  8
0_00
  6
CENTER1
 62
6
 10
908.6818
 20
708.5404
 11
908.6818
 21
666.0172
  0
LINE
  8
0_00
  6
CENTER1
 62
6
 10
921.3819
 20
708.5404
 11
921.3819
 21
666.0172
  0
LINE
  8
0_00
  6
CONTINUOUS
 62
6
 10
728.6818
 20
722.0146
 11
728.6818
 21
766.1099
  0
LINE
  8
0_00
  6
CONTINUOUS
 62
6
 10
753.6818
 20
722.0146
 11
753.6818
 21
766.1099
  0
LINE
  8
0_00
  6
CONTINUOUS
 62
6
 10
728.6818
 20
760.1099
 11
753.6818
 21
760.1099
  0
LINE
  8
0_00
  6
CONTINUOUS
 62
6
 10
728.6818
 20
760.1099
 11
737.4851
 21
758.2387
  0
LINE
  8
0_00
  6
CONTINUOUS
 62
6
 10
728.6818
 20
760.1099
 11
737.4851
 21
761.9812
  0
LINE
  8
0_00
  6
CONTINUOUS
 62
6
 10
753.6818
 20
760.1099
 11
744.8785
 21
761.9812
  0
LINE
  8
0_00
  6
CONTINUOUS
 62
6
 10
753.6818
 20
760.1099
 11
744.8785
 21
758.2387
  0
LINE
  8
0_00
  6
CONTINUOUS
 62
6
 10
857.0151
 20
722.0146
 11
857.0151
 21
766.1099
  0
LINE
  8
0_00
  6
CONTINUOUS
 62
6
 10
753.6818
 20
760.1099
 11
857.0151
 21
760.1099
  0
LINE
  8
0_00
  6
CONTINUOUS
 62
6
 10
753.6818
 20
760.1099
 11
762.4851
 21
758.2387
  0
LINE
  8
0_00
  6
CONTINUOUS
 62
6
 10
753.6818
 20
760.1099
 11
762.4851
 21
761.9812
  0
LINE
  8
0_00
  6
CONTINUOUS
 62
6
 10
857.0151
 20
760.1099
 11
848.2118
 21
761.9812
  0
LINE
  8
0_00
  6
CONTINUOUS
 62
6
 10
857.0151
 20
760.1099
 11
848.2118
 21
758.2387
  0
LINE
  8
0_00
  6
CONTINUOUS
 62
6
 10
960.3485
 20
722.0146
 11
960.3485
 21
766.1099
  0
LINE
  8
0_00
  6
CONTINUOUS
 62
6
 10
857.0151
 20
760.1099
 11
960.3485
 21
760.1099
  0
LINE
  8
0_00
  6
CONTINUOUS
 62
6
 10
857.0151
 20
760.1099
 11
865.8185
 21
758.2387
  0
LINE
  8
0_00
  6
CONTINUOUS
 62
6
 10
857.0151
 20
760.1099
 11
865.8185
 21
761.9812
  0
LINE
  8
0_00
  6
CONTINUOUS
 62
6
 10
960.3485
 20
760.1099
 11
951.5452
 21
761.9812
  0
LINE
  8
0_00
  6
CONTINUOUS
 62
6
 10
960.3485
 20
760.1099
 11
951.5452
 21
758.2387
  0
LINE
  8
0_00
  6
CONTINUOUS
 62
6
 10
1063.6819
 20
721.7928
 11
1063.6819
 21
766.1099
  0
LINE
  8
0_00
  6
CONTINUOUS
 62
6
 10
960.3485
 20
760.1099
 11
1063.6819
 21
760.1099
  0
LINE
  8
0_00
  6
CONTINUOUS
 62
6
 10
960.3485
 20
760.1099
 11
969.1519
 21
758.2387
  0
LINE
  8
0_00
  6
CONTINUOUS
 62
6
 10
960.3485
 20
760.1099
 11
969.1519
 21
761.9812
  0
LINE
  8
0_00
  6
CONTINUOUS
 62
6
 10
1063.6819
 20
760.1099
 11
1054.8784
 21
761.9812
  0
LINE
  8
0_00
  6
CONTINUOUS
 62
6
 10
1063.6819
 20
760.1099
 11
1054.8784
 21
758.2387
  0
LINE
  8
0_00
  6
CONTINUOUS
 62
6
 10
1088.6819
 20
721.7928
 11
1088.6819
 21
766.1099
  0
LINE
  8
0_00
  6
CONTINUOUS
 62
6
 10
1063.6819
 20
760.1099
 11
1088.6819
 21
760.1099
  0
LINE
  8
0_00
  6
CONTINUOUS
 62
6
 10
1063.6819
 20
760.1099
 11
1072.4852
 21
758.2387
  0
LINE
  8
0_00
  6
CONTINUOUS
 62
6
 10
1063.6819
 20
760.1099
 11
1072.4852
 21
761.9812
  0
LINE
  8
0_00
  6
CONTINUOUS
 62
6
 10
1088.6819
 20
760.1099
 11
1079.8784
 21
761.9812
  0
LINE
  8
0_00
  6
CONTINUOUS
 62
6
 10
1088.6819
 20
760.1099
 11
1079.8784
 21
758.2387
  0
LINE
  8
0_00
  6
CONTINUOUS
 62
6
 10
1100.5819
 20
703.8042
 11
1166.0003
 21
703.8042
  0
LINE
  8
0_00
  6
CONTINUOUS
 62
6
 10
1100.5819
 20
615.8042
 11
1166.0003
 21
615.8042
  0
LINE
  8
0_00
  6
CONTINUOUS
 62
6
 10
1160.0003
 20
703.8042
 11
1160.0003
 21
615.8042
  0
LINE
  8
0_00
  6
CONTINUOUS
 62
6
 10
1160.0003
 20
703.8042
 11
1158.1291
 21
695.0008
  0
LINE
  8
0_00
  6
CONTINUOUS
 62
6
 10
1160.0003
 20
703.8042
 11
1161.8716
 21
695.0008
  0
LINE
  8
0_00
  6
CONTINUOUS
 62
6
 10
1160.0003
 20
615.8042
 11
1161.8716
 21
624.6075
  0
LINE
  8
0_00
  6
CONTINUOUS
 62
6
 10
1160.0003
 20
615.8042
 11
1158.1291
 21
624.6075
  0
LINE
  8
0_00
  6
CONTINUOUS
 62
6
 10
1100.5819
 20
623.8042
 11
1146.0003
 21
623.8042
  0
LINE
  8
0_00
  6
CONTINUOUS
 62
6
 10
1110.1319
 20
615.8042
 11
1146.0003
 21
615.8042
  0
LINE
  8
0_00
  6
CONTINUOUS
 62
6
 10
1140.0003
 20
615.8042
 11
1140.0003
 21
623.8042
  0
LINE
  8
0_00
  6
CONTINUOUS
 62
6
 10
1140.0003
 20
593.7017
 11
1140.0003
 21
615.8042
  0
LINE
  8
0_00
  6
CONTINUOUS
 62
6
 10
1140.0003
 20
615.8042
 11
1138.1291
 21
607.0008
  0
LINE
  8
0_00
  6
CONTINUOUS
 62
6
 10
1140.0003
 20
615.8042
 11
1141.8715
 21
607.0008
  0
LINE
  8
0_00
  6
CONTINUOUS
 62
6
 10
1100.5819
 20
703.8042
 11
1146.0003
 21
703.8042
  0
LINE
  8
0_00
  6
CONTINUOUS
 62
6
 10
1140.0003
 20
623.8042
 11
1140.0003
 21
703.8042
  0
LINE
  8
0_00
  6
CONTINUOUS
 62
6
 10
1140.0003
 20
623.8042
 11
1141.8715
 21
632.6075
  0
LINE
  8
0_00
  6
CONTINUOUS
 62
6
 10
1140.0003
 20
623.8042
 11
1138.1291
 21
632.6075
  0
LINE
  8
0_00
  6
CONTINUOUS
 62
6
 10
1140.0003
 20
703.8042
 11
1138.1291
 21
695.0008
  0
LINE
  8
0_00
  6
CONTINUOUS
 62
6
 10
1140.0003
 20
703.8042
 11
1141.8715
 21
695.0008
  0
LINE
  8
0_00
  6
CONTINUOUS
 62
6
 10
908.6818
 20
722.0146
 11
908.6818
 21
746.1100
  0
LINE
  8
0_00
  6
CONTINUOUS
 62
6
 10
921.3819
 20
722.0146
 11
921.3819
 21
746.1100
  0
LINE
  8
0_00
  6
CONTINUOUS
 62
6
 10
908.6818
 20
740.1099
 11
921.3819
 21
740.1099
  0
LINE
  8
0_00
  6
CONTINUOUS
 62
6
 10
939.3818
 20
740.1099
 11
921.3819
 21
740.1099
  0
LINE
  8
0_00
  6
CONTINUOUS
 62
6
 10
921.3819
 20
740.1099
 11
930.1852
 21
738.2387
  0
LINE
  8
0_00
  6
CONTINUOUS
 62
6
 10
921.3819
 20
740.1099
 11
930.1852
 21
741.9811
  0
LINE
  8
0_00
  6
CONTINUOUS
 62
6
 10
890.6818
 20
740.1099
 11
908.6818
 21
740.1099
  0
LINE
  8
0_00
  6
CONTINUOUS
 62
6
 10
908.6818
 20
740.1099
 11
899.8784
 21
741.9811
  0
LINE
  8
0_00
  6
CONTINUOUS
 62
6
 10
908.6818
 20
740.1099
 11
899.8784
 21
738.2387
  0
LINE
  8
0_00
  6
CONTINUOUS
 62
4
 10
1095.1819
 20
615.8042
 11
722.1818
 21
615.8042
  0
LINE
  8
0_00
  6
CONTINUOUS
 62
6
 10
1096.1819
 20
614.8042
 11
721.1818
 21
614.8042
  0
LINE
  8
0_00
  6
CONTINUOUS
 62
4
 10
1096.1819
 20
614.8042
 11
1095.1819
 21
615.8042
  0
LINE
  8
0_00
  6
CONTINUOUS
 62
4
 10
1084.7819
 20
615.8042
 11
1092.5818
 21
615.8042
  0
LINE
  8
0_00
  6
CONTINUOUS
 62
4
 10
1085.0637
 20
616.7542
 11
1092.3001
 21
616.7542
  0
LINE
  8
0_00
  6
CONTINUOUS
 62
4
 10
1085.7735
 20
619.3042
 11
1091.5903
 21
619.3042
  0
LINE
  8
0_00
  6
CONTINUOUS
 62
4
 10
1091.8827
 20
617.0278
 11
1091.6900
 21
619.2129
  0
LINE
  8
0_00
  6
CONTINUOUS
 62
4
 10
1084.6819
 20
615.9541
 11
1092.6819
 21
615.9541
  0
LINE
  8
0_00
  6
CONTINUOUS
 62
4
 10
1092.5818
 20
615.8042
 11
1092.6819
 21
615.9541
  0
LINE
  8
0_00
  6
CONTINUOUS
 62
4
 10
1092.6819
 20
615.9541
 11
1092.5965
 21
616.5005
  0
LINE
  8
0_00
  6
CONTINUOUS
 62
4
 10
1085.4810
 20
617.0278
 11
1085.6739
 21
619.2129
  0
LINE
  8
0_00
  6
CONTINUOUS
 62
4
 10
1084.7819
 20
615.8042
 11
1084.6819
 21
615.9541
  0
LINE
  8
0_00
  6
CONTINUOUS
 62
4
 10
1084.6819
 20
615.9541
 11
1084.7673
 21
616.5005
  0
LINE
  8
12_0C
  6
CONTINUOUS
 62
2
 10
1091.7218
 20
618.9541
 11
1091.7218
 21
618.8509
  0
LINE
  8
12_0C
  6
CONTINUOUS
 62
2
 10
1091.7127
 20
618.9541
 11
1091.7218
 21
618.9541
  0
LINE
  8
12_0C
  6
CONTINUOUS
 62
2
 10
1085.6419
 20
618.9541
 11
1085.6419
 21
618.8509
  0
LINE
  8
12_0C
  6
CONTINUOUS
 62
2
 10
1085.6510
 20
618.9541
 11
1085.6419
 21
618.9541
  0
LINE
  8
0_00
  6
CONTINUOUS
 62
2
 10
1085.0818
 20
616.8542
 11
1086.7819
 21
616.8542
  0
LINE
  8
0_00
  6
CONTINUOUS
 62
2
 10
1086.7819
 20
616.8542
 11
1086.7819
 21
616.7542
  0
LINE
  8
0_00
  6
CONTINUOUS
 62
2
 10
1085.0818
 20
616.8542
 11
1085.0818
 21
616.7542
  0
LINE
  8
0_00
  6
CONTINUOUS
 62
2
 10
1085.3419
 20
616.8890
 11
1085.3419
 21
616.8542
  0
LINE
  8
0_00
  6
CONTINUOUS
 62
2
 10
1086.5219
 20
616.8890
 11
1086.5219
 21
616.8542
  0
LINE
  8
0_00
  6
CONTINUOUS
 62
2
 10
1086.5219
 20
616.8890
 11
1085.3419
 21
616.8890
  0
LINE
  8
0_00
  6
CONTINUOUS
 62
2
 10
1092.2819
 20
616.8542
 11
1090.5818
 21
616.8542
  0
LINE
  8
0_00
  6
CONTINUOUS
 62
2
 10
1090.5818
 20
616.8542
 11
1090.5818
 21
616.7542
  0
LINE
  8
0_00
  6
CONTINUOUS
 62
2
 10
1092.2819
 20
616.8542
 11
1092.2819
 21
616.7542
  0
LINE
  8
0_00
  6
CONTINUOUS
 62
2
 10
1092.0219
 20
616.8890
 11
1092.0219
 21
616.8542
  0
LINE
  8
0_00
  6
CONTINUOUS
 62
2
 10
1090.8419
 20
616.8890
 11
1090.8419
 21
616.8542
  0
LINE
  8
0_00
  6
CONTINUOUS
 62
2
 10
1090.8419
 20
616.8890
 11
1092.0219
 21
616.8890
  0
LINE
  8
0_00
  6
CONTINUOUS
 62
4
 10
721.1818
 20
614.8042
 11
721.1818
 21
583.8042
  0
LINE
  8
0_00
  6
CONTINUOUS
 62
4
 10
721.1818
 20
614.8042
 11
722.1818
 21
615.8042
  0
LINE
  8
0_00
  6
CONTINUOUS
 62
4
 10
732.5817
 20
615.8042
 11
724.7817
 21
615.8042
  0
LINE
  8
0_00
  6
CONTINUOUS
 62
4
 10
732.3000
 20
616.7542
 11
725.0636
 21
616.7542
  0
LINE
  8
0_00
  6
CONTINUOUS
 62
4
 10
731.5902
 20
619.3042
 11
725.7733
 21
619.3042
  0
LINE
  8
0_00
  6
CONTINUOUS
 62
4
 10
725.4809
 20
617.0278
 11
725.6737
 21
619.2129
  0
LINE
  8
0_00
  6
CONTINUOUS
 62
4
 10
732.6818
 20
615.9541
 11
724.6818
 21
615.9541
  0
LINE
  8
0_00
  6
CONTINUOUS
 62
4
 10
724.7817
 20
615.8042
 11
724.6818
 21
615.9541
  0
LINE
  8
0_00
  6
CONTINUOUS
 62
4
 10
724.6818
 20
615.9541
 11
724.7672
 21
616.5005
  0
LINE
  8
0_00
  6
CONTINUOUS
 62
4
 10
731.8826
 20
617.0278
 11
731.6898
 21
619.2129
  0
LINE
  8
0_00
  6
CONTINUOUS
 62
4
 10
732.5817
 20
615.8042
 11
732.6818
 21
615.9541
  0
LINE
  8
0_00
  6
CONTINUOUS
 62
4
 10
732.6818
 20
615.9541
 11
732.5964
 21
616.5005
  0
LINE
  8
12_0C
  6
CONTINUOUS
 62
2
 10
725.6418
 20
618.9541
 11
725.6418
 21
618.8509
  0
LINE
  8
12_0C
  6
CONTINUOUS
 62
2
 10
725.6509
 20
618.9541
 11
725.6418
 21
618.9541
  0
LINE
  8
12_0C
  6
CONTINUOUS
 62
2
 10
731.7217
 20
618.9541
 11
731.7217
 21
618.8509
  0
LINE
  8
12_0C
  6
CONTINUOUS
 62
2
 10
731.7127
 20
618.9541
 11
731.7217
 21
618.9541
  0
LINE
  8
0_00
  6
CONTINUOUS
 62
2
 10
732.2817
 20
616.8542
 11
730.5818
 21
616.8542
  0
LINE
  8
0_00
  6
CONTINUOUS
 62
2
 10
730.5818
 20
616.8542
 11
730.5818
 21
616.7542
  0
LINE
  8
0_00
  6
CONTINUOUS
 62
2
 10
732.2817
 20
616.8542
 11
732.2817
 21
616.7542
  0
LINE
  8
0_00
  6
CONTINUOUS
 62
2
 10
732.0218
 20
616.8890
 11
732.0218
 21
616.8542
  0
LINE
  8
0_00
  6
CONTINUOUS
 62
2
 10
730.8417
 20
616.8890
 11
730.8417
 21
616.8542
  0
LINE
  8
0_00
  6
CONTINUOUS
 62
2
 10
730.8417
 20
616.8890
 11
732.0218
 21
616.8890
  0
LINE
  8
0_00
  6
CONTINUOUS
 62
2
 10
725.0817
 20
616.8542
 11
726.7817
 21
616.8542
  0
LINE
  8
0_00
  6
CONTINUOUS
 62
2
 10
726.7817
 20
616.8542
 11
726.7817
 21
616.7542
  0
LINE
  8
0_00
  6
CONTINUOUS
 62
2
 10
725.0817
 20
616.8542
 11
725.0817
 21
616.7542
  0
LINE
  8
0_00
  6
CONTINUOUS
 62
2
 10
725.3417
 20
616.8890
 11
725.3417
 21
616.8542
  0
LINE
  8
0_00
  6
CONTINUOUS
 62
2
 10
726.5218
 20
616.8890
 11
726.5218
 21
616.8542
  0
LINE
  8
0_00
  6
CONTINUOUS
 62
2
 10
726.5218
 20
616.8890
 11
725.3417
 21
616.8890
  0
LINE
  8
0_00
  6
CONTINUOUS
 62
4
 10
1058.8819
 20
615.8042
 11
1068.4819
 21
615.8042
  0
LINE
  8
0_00
  6
CONTINUOUS
 62
4
 10
1059.1137
 20
616.7542
 11
1068.2501
 21
616.7542
  0
LINE
  8
0_00
  6
CONTINUOUS
 62
4
 10
1061.2743
 20
619.3042
 11
1066.0894
 21
619.3042
  0
LINE
  8
0_00
  6
CONTINUOUS
 62
4
 10
1058.7818
 20
615.9541
 11
1068.5818
 21
615.9541
  0
LINE
  8
0_00
  6
CONTINUOUS
 62
4
 10
1068.4819
 20
615.8042
 11
1068.5818
 21
615.9541
  0
LINE
  8
0_00
  6
CONTINUOUS
 62
4
 10
1068.5818
 20
615.9541
 11
1068.5495
 21
616.4729
  0
LINE
  8
0_00
  6
CONTINUOUS
 62
4
 10
1066.3602
 20
617.0307
 11
1066.1892
 21
619.2120
  0
LINE
  8
0_00
  6
CONTINUOUS
 62
4
 10
1058.8819
 20
615.8042
 11
1058.7818
 21
615.9541
  0
LINE
  8
0_00
  6
CONTINUOUS
 62
4
 10
1058.7818
 20
615.9541
 11
1058.8143
 21
616.4729
  0
LINE
  8
0_00
  6
CONTINUOUS
 62
4
 10
1061.0036
 20
617.0307
 11
1061.1746
 21
619.2120
  0
LINE
  8
0_00
  6
CONTINUOUS
 62
2
 10
1059.0818
 20
616.7542
 11
1059.0818
 21
616.8542
  0
LINE
  8
0_00
  6
CONTINUOUS
 62
2
 10
1060.7818
 20
616.7542
 11
1060.7818
 21
616.8542
  0
LINE
  8
0_00
  6
CONTINUOUS
 62
2
 10
1060.7818
 20
616.8542
 11
1059.0818
 21
616.8542
  0
LINE
  8
0_00
  6
CONTINUOUS
 62
2
 10
1060.7818
 20
616.7542
 11
1059.0818
 21
616.7542
  0
LINE
  8
0_00
  6
CONTINUOUS
 62
2
 10
1060.6319
 20
616.8542
 11
1059.2318
 21
616.8542
  0
LINE
  8
0_00
  6
CONTINUOUS
 62
2
 10
1059.2318
 20
616.8957
 11
1059.2318
 21
616.8542
  0
LINE
  8
0_00
  6
CONTINUOUS
 62
2
 10
1060.6319
 20
616.8957
 11
1059.2318
 21
616.8957
  0
LINE
  8
0_00
  6
CONTINUOUS
 62
2
 10
1060.6319
 20
616.8957
 11
1060.6319
 21
616.8542
  0
LINE
  8
0_00
  6
CONTINUOUS
 62
2
 10
1068.2819
 20
616.7542
 11
1068.2819
 21
616.8542
  0
LINE
  8
0_00
  6
CONTINUOUS
 62
2
 10
1066.5819
 20
616.7542
 11
1066.5819
 21
616.8542
  0
LINE
  8
0_00
  6
CONTINUOUS
 62
2
 10
1066.5819
 20
616.8542
 11
1068.2819
 21
616.8542
  0
LINE
  8
0_00
  6
CONTINUOUS
 62
2
 10
1066.5819
 20
616.7542
 11
1068.2819
 21
616.7542
  0
LINE
  8
0_00
  6
CONTINUOUS
 62
2
 10
1066.7319
 20
616.8542
 11
1068.1320
 21
616.8542
  0
LINE
  8
0_00
  6
CONTINUOUS
 62
2
 10
1068.1320
 20
616.8957
 11
1068.1320
 21
616.8542
  0
LINE
  8
0_00
  6
CONTINUOUS
 62
2
 10
1066.7319
 20
616.8957
 11
1068.1320
 21
616.8957
  0
LINE
  8
0_00
  6
CONTINUOUS
 62
2
 10
1066.7319
 20
616.8957
 11
1066.7319
 21
616.8542
  0
LINE
  8
3_03
  6
CONTINUOUS
 62
2
 10
1063.6819
 20
618.6207
 11
1063.6488
 21
618.6335
  0
LINE
  8
3_03
  6
CONTINUOUS
 62
2
 10
1063.6819
 20
618.6207
 11
1063.7149
 21
618.6334
  0
LINE
  8
3_03
  6
CONTINUOUS
 62
2
 10
1063.6488
 20
618.6335
 11
1063.5637
 21
618.7155
  0
LINE
  8
3_03
  6
CONTINUOUS
 62
2
 10
1063.7150
 20
618.6335
 11
1063.7149
 21
618.6335
  0
LINE
  8
3_03
  6
CONTINUOUS
 62
2
 10
1063.7149
 20
618.6335
 11
1063.8000
 21
618.7156
  0
LINE
  8
3_03
  6
CONTINUOUS
 62
2
 10
1063.6153
 20
618.5542
 11
1063.6025
 21
618.5873
  0
LINE
  8
3_03
  6
CONTINUOUS
 62
2
 10
1063.6153
 20
618.5542
 11
1063.6025
 21
618.5211
  0
LINE
  8
3_03
  6
CONTINUOUS
 62
2
 10
1063.6025
 20
618.5873
 11
1063.5205
 21
618.6723
  0
LINE
  8
3_03
  6
CONTINUOUS
 62
2
 10
1063.6025
 20
618.5210
 11
1063.6025
 21
618.5212
  0
LINE
  8
3_03
  6
CONTINUOUS
 62
2
 10
1063.6025
 20
618.5212
 11
1063.5205
 21
618.4361
  0
LINE
  8
3_03
  6
CONTINUOUS
 62
2
 10
1063.7485
 20
618.5542
 11
1063.7612
 21
618.5210
  0
LINE
  8
3_03
  6
CONTINUOUS
 62
2
 10
1063.7485
 20
618.5542
 11
1063.7612
 21
618.5873
  0
LINE
  8
3_03
  6
CONTINUOUS
 62
2
 10
1063.7612
 20
618.5210
 11
1063.8433
 21
618.4360
  0
LINE
  8
3_03
  6
CONTINUOUS
 62
2
 10
1063.7612
 20
618.5873
 11
1063.7612
 21
618.5872
  0
LINE
  8
3_03
  6
CONTINUOUS
 62
2
 10
1063.7612
 20
618.5872
 11
1063.8433
 21
618.6722
  0
LINE
  8
3_03
  6
CONTINUOUS
 62
2
 10
1063.6819
 20
618.4876
 11
1063.7150
 21
618.4749
  0
LINE
  8
3_03
  6
CONTINUOUS
 62
2
 10
1063.6819
 20
618.4876
 11
1063.6488
 21
618.4749
  0
LINE
  8
3_03
  6
CONTINUOUS
 62
2
 10
1063.7150
 20
618.4749
 11
1063.8000
 21
618.3928
  0
LINE
  8
3_03
  6
CONTINUOUS
 62
2
 10
1063.6488
 20
618.4749
 11
1063.6488
 21
618.4748
  0
LINE
  8
3_03
  6
CONTINUOUS
 62
2
 10
1063.6488
 20
618.4748
 11
1063.5637
 21
618.3927
  0
LINE
  8
0_00
  6
CONTINUOUS
 62
4
 10
955.5484
 20
615.8042
 11
965.1486
 21
615.8042
  0
LINE
  8
0_00
  6
CONTINUOUS
 62
4
 10
955.7804
 20
616.7542
 11
964.9166
 21
616.7542
  0
LINE
  8
0_00
  6
CONTINUOUS
 62
4
 10
957.9409
 20
619.3042
 11
962.7561
 21
619.3042
  0
LINE
  8
0_00
  6
CONTINUOUS
 62
4
 10
955.4485
 20
615.9541
 11
965.2485
 21
615.9541
  0
LINE
  8
0_00
  6
CONTINUOUS
 62
4
 10
965.1486
 20
615.8042
 11
965.2485
 21
615.9541
  0
LINE
  8
0_00
  6
CONTINUOUS
 62
4
 10
965.2485
 20
615.9541
 11
965.2160
 21
616.4729
  0
LINE
  8
0_00
  6
CONTINUOUS
 62
4
 10
963.0268
 20
617.0307
 11
962.8558
 21
619.2120
  0
LINE
  8
0_00
  6
CONTINUOUS
 62
4
 10
955.5484
 20
615.8042
 11
955.4485
 21
615.9541
  0
LINE
  8
0_00
  6
CONTINUOUS
 62
4
 10
955.4485
 20
615.9541
 11
955.4809
 21
616.4729
  0
LINE
  8
0_00
  6
CONTINUOUS
 62
4
 10
957.6701
 20
617.0307
 11
957.8412
 21
619.2120
  0
LINE
  8
0_00
  6
CONTINUOUS
 62
2
 10
955.7485
 20
616.7542
 11
955.7485
 21
616.8542
  0
LINE
  8
0_00
  6
CONTINUOUS
 62
2
 10
957.4484
 20
616.7542
 11
957.4484
 21
616.8542
  0
LINE
  8
0_00
  6
CONTINUOUS
 62
2
 10
957.4484
 20
616.8542
 11
955.7485
 21
616.8542
  0
LINE
  8
0_00
  6
CONTINUOUS
 62
2
 10
957.4484
 20
616.7542
 11
955.7485
 21
616.7542
  0
LINE
  8
0_00
  6
CONTINUOUS
 62
2
 10
957.2984
 20
616.8542
 11
955.8985
 21
616.8542
  0
LINE
  8
0_00
  6
CONTINUOUS
 62
2
 10
955.8985
 20
616.8957
 11
955.8985
 21
616.8542
  0
LINE
  8
0_00
  6
CONTINUOUS
 62
2
 10
957.2984
 20
616.8957
 11
955.8985
 21
616.8957
  0
LINE
  8
0_00
  6
CONTINUOUS
 62
2
 10
957.2984
 20
616.8957
 11
957.2984
 21
616.8542
  0
LINE
  8
0_00
  6
CONTINUOUS
 62
2
 10
964.9485
 20
616.7542
 11
964.9485
 21
616.8542
  0
LINE
  8
0_00
  6
CONTINUOUS
 62
2
 10
963.2485
 20
616.7542
 11
963.2485
 21
616.8542
  0
LINE
  8
0_00
  6
CONTINUOUS
 62
2
 10
963.2485
 20
616.8542
 11
964.9485
 21
616.8542
  0
LINE
  8
0_00
  6
CONTINUOUS
 62
2
 10
963.2485
 20
616.7542
 11
964.9485
 21
616.7542
  0
LINE
  8
0_00
  6
CONTINUOUS
 62
2
 10
963.3985
 20
616.8542
 11
964.7985
 21
616.8542
  0
LINE
  8
0_00
  6
CONTINUOUS
 62
2
 10
964.7985
 20
616.8957
 11
964.7985
 21
616.8542
  0
LINE
  8
0_00
  6
CONTINUOUS
 62
2
 10
963.3985
 20
616.8957
 11
964.7985
 21
616.8957
  0
LINE
  8
0_00
  6
CONTINUOUS
 62
2
 10
963.3985
 20
616.8957
 11
963.3985
 21
616.8542
  0
LINE
  8
3_03
  6
CONTINUOUS
 62
2
 10
960.3485
 20
618.6207
 11
960.3154
 21
618.6335
  0
LINE
  8
3_03
  6
CONTINUOUS
 62
2
 10
960.3485
 20
618.6207
 11
960.3816
 21
618.6334
  0
LINE
  8
3_03
  6
CONTINUOUS
 62
2
 10
960.3154
 20
618.6335
 11
960.2304
 21
618.7155
  0
LINE
  8
3_03
  6
CONTINUOUS
 62
2
 10
960.3816
 20
618.6335
 11
960.4666
 21
618.7156
  0
LINE
  8
3_03
  6
CONTINUOUS
 62
2
 10
960.2820
 20
618.5542
 11
960.2692
 21
618.5873
  0
LINE
  8
3_03
  6
CONTINUOUS
 62
2
 10
960.2820
 20
618.5542
 11
960.2693
 21
618.5211
  0
LINE
  8
3_03
  6
CONTINUOUS
 62
2
 10
960.2692
 20
618.5873
 11
960.1871
 21
618.6723
  0
LINE
  8
3_03
  6
CONTINUOUS
 62
2
 10
960.2692
 20
618.5210
 11
960.2691
 21
618.5212
  0
LINE
  8
3_03
  6
CONTINUOUS
 62
2
 10
960.2691
 20
618.5212
 11
960.1870
 21
618.4361
  0
LINE
  8
3_03
  6
CONTINUOUS
 62
2
 10
960.4150
 20
618.5542
 11
960.4278
 21
618.5210
  0
LINE
  8
3_03
  6
CONTINUOUS
 62
2
 10
960.4150
 20
618.5542
 11
960.4278
 21
618.5873
  0
LINE
  8
3_03
  6
CONTINUOUS
 62
2
 10
960.4278
 20
618.5210
 11
960.5099
 21
618.4360
  0
LINE
  8
3_03
  6
CONTINUOUS
 62
2
 10
960.4278
 20
618.5873
 11
960.4278
 21
618.5872
  0
LINE
  8
3_03
  6
CONTINUOUS
 62
2
 10
960.4278
 20
618.5872
 11
960.5099
 21
618.6722
  0
LINE
  8
3_03
  6
CONTINUOUS
 62
2
 10
960.3485
 20
618.4876
 11
960.3816
 21
618.4749
  0
LINE
  8
3_03
  6
CONTINUOUS
 62
2
 10
960.3485
 20
618.4876
 11
960.3154
 21
618.4749
  0
LINE
  8
3_03
  6
CONTINUOUS
 62
2
 10
960.3816
 20
618.4749
 11
960.4667
 21
618.3928
  0
LINE
  8
3_03
  6
CONTINUOUS
 62
2
 10
960.3154
 20
618.4749
 11
960.3154
 21
618.4748
  0
LINE
  8
3_03
  6
CONTINUOUS
 62
2
 10
960.3154
 20
618.4748
 11
960.2304
 21
618.3927
  0
LINE
  8
0_00
  6
CONTINUOUS
 62
4
 10
852.2151
 20
615.8042
 11
861.8151
 21
615.8042
  0
LINE
  8
0_00
  6
CONTINUOUS
 62
4
 10
852.4470
 20
616.7542
 11
861.5833
 21
616.7542
  0
LINE
  8
0_00
  6
CONTINUOUS
 62
4
 10
854.6076
 20
619.3042
 11
859.4226
 21
619.3042
  0
LINE
  8
0_00
  6
CONTINUOUS
 62
4
 10
852.1152
 20
615.9541
 11
861.9151
 21
615.9541
  0
LINE
  8
0_00
  6
CONTINUOUS
 62
4
 10
861.8151
 20
615.8042
 11
861.9151
 21
615.9541
  0
LINE
  8
0_00
  6
CONTINUOUS
 62
4
 10
861.9151
 20
615.9541
 11
861.8827
 21
616.4729
  0
LINE
  8
0_00
  6
CONTINUOUS
 62
4
 10
859.6934
 20
617.0307
 11
859.5224
 21
619.2120
  0
LINE
  8
0_00
  6
CONTINUOUS
 62
4
 10
852.2151
 20
615.8042
 11
852.1152
 21
615.9541
  0
LINE
  8
0_00
  6
CONTINUOUS
 62
4
 10
852.1152
 20
615.9541
 11
852.1475
 21
616.4729
  0
LINE
  8
0_00
  6
CONTINUOUS
 62
4
 10
854.3368
 20
617.0307
 11
854.5079
 21
619.2120
  0
LINE
  8
0_00
  6
CONTINUOUS
 62
2
 10
852.4151
 20
616.7542
 11
852.4151
 21
616.8542
  0
LINE
  8
0_00
  6
CONTINUOUS
 62
2
 10
854.1152
 20
616.7542
 11
854.1152
 21
616.8542
  0
LINE
  8
0_00
  6
CONTINUOUS
 62
2
 10
854.1152
 20
616.8542
 11
852.4151
 21
616.8542
  0
LINE
  8
0_00
  6
CONTINUOUS
 62
2
 10
854.1152
 20
616.7542
 11
852.4151
 21
616.7542
  0
LINE
  8
0_00
  6
CONTINUOUS
 62
2
 10
853.9651
 20
616.8542
 11
852.5651
 21
616.8542
  0
LINE
  8
0_00
  6
CONTINUOUS
 62
2
 10
852.5651
 20
616.8957
 11
852.5651
 21
616.8542
  0
LINE
  8
0_00
  6
CONTINUOUS
 62
2
 10
853.9651
 20
616.8957
 11
852.5651
 21
616.8957
  0
LINE
  8
0_00
  6
CONTINUOUS
 62
2
 10
853.9651
 20
616.8957
 11
853.9651
 21
616.8542
  0
LINE
  8
0_00
  6
CONTINUOUS
 62
2
 10
861.6151
 20
616.7542
 11
861.6151
 21
616.8542
  0
LINE
  8
0_00
  6
CONTINUOUS
 62
2
 10
859.9151
 20
616.7542
 11
859.9151
 21
616.8542
  0
LINE
  8
0_00
  6
CONTINUOUS
 62
2
 10
859.9151
 20
616.8542
 11
861.6151
 21
616.8542
  0
LINE
  8
0_00
  6
CONTINUOUS
 62
2
 10
859.9151
 20
616.7542
 11
861.6151
 21
616.7542
  0
LINE
  8
0_00
  6
CONTINUOUS
 62
2
 10
860.0651
 20
616.8542
 11
861.4651
 21
616.8542
  0
LINE
  8
0_00
  6
CONTINUOUS
 62
2
 10
861.4651
 20
616.8957
 11
861.4651
 21
616.8542
  0
LINE
  8
0_00
  6
CONTINUOUS
 62
2
 10
860.0651
 20
616.8957
 11
861.4651
 21
616.8957
  0
LINE
  8
0_00
  6
CONTINUOUS
 62
2
 10
860.0651
 20
616.8957
 11
860.0651
 21
616.8542
  0
LINE
  8
3_03
  6
CONTINUOUS
 62
2
 10
857.0151
 20
618.6207
 11
856.9821
 21
618.6335
  0
LINE
  8
3_03
  6
CONTINUOUS
 62
2
 10
857.0151
 20
618.6207
 11
857.0482
 21
618.6334
  0
LINE
  8
3_03
  6
CONTINUOUS
 62
2
 10
856.9821
 20
618.6335
 11
856.8971
 21
618.7155
  0
LINE
  8
3_03
  6
CONTINUOUS
 62
2
 10
857.0482
 20
618.6335
 11
857.1333
 21
618.7156
  0
LINE
  8
3_03
  6
CONTINUOUS
 62
2
 10
856.9486
 20
618.5542
 11
856.9359
 21
618.5873
  0
LINE
  8
3_03
  6
CONTINUOUS
 62
2
 10
856.9486
 20
618.5542
 11
856.9359
 21
618.5211
  0
LINE
  8
3_03
  6
CONTINUOUS
 62
2
 10
856.9359
 20
618.5873
 11
856.8538
 21
618.6723
  0
LINE
  8
3_03
  6
CONTINUOUS
 62
2
 10
856.9359
 20
618.5210
 11
856.9358
 21
618.5212
  0
LINE
  8
3_03
  6
CONTINUOUS
 62
2
 10
856.9358
 20
618.5212
 11
856.8537
 21
618.4361
  0
LINE
  8
3_03
  6
CONTINUOUS
 62
2
 10
857.0817
 20
618.5542
 11
857.0944
 21
618.5210
  0
LINE
  8
3_03
  6
CONTINUOUS
 62
2
 10
857.0817
 20
618.5542
 11
857.0944
 21
618.5873
  0
LINE
  8
3_03
  6
CONTINUOUS
 62
2
 10
857.0944
 20
618.5210
 11
857.1766
 21
618.4360
  0
LINE
  8
3_03
  6
CONTINUOUS
 62
2
 10
857.0944
 20
618.5873
 11
857.0945
 21
618.5872
  0
LINE
  8
3_03
  6
CONTINUOUS
 62
2
 10
857.0945
 20
618.5872
 11
857.1766
 21
618.6722
  0
LINE
  8
3_03
  6
CONTINUOUS
 62
2
 10
857.0151
 20
618.4876
 11
857.0482
 21
618.4749
  0
LINE
  8
3_03
  6
CONTINUOUS
 62
2
 10
857.0151
 20
618.4876
 11
856.9821
 21
618.4749
  0
LINE
  8
3_03
  6
CONTINUOUS
 62
2
 10
857.0482
 20
618.4749
 11
857.1334
 21
618.3928
  0
LINE
  8
3_03
  6
CONTINUOUS
 62
2
 10
856.9821
 20
618.4749
 11
856.9821
 21
618.4748
  0
LINE
  8
3_03
  6
CONTINUOUS
 62
2
 10
856.9821
 20
618.4748
 11
856.8971
 21
618.3927
  0
LINE
  8
0_00
  6
CONTINUOUS
 62
4
 10
748.8818
 20
615.8042
 11
758.4817
 21
615.8042
  0
LINE
  8
0_00
  6
CONTINUOUS
 62
4
 10
749.1136
 20
616.7542
 11
758.2500
 21
616.7542
  0
LINE
  8
0_00
  6
CONTINUOUS
 62
4
 10
751.2743
 20
619.3042
 11
756.0893
 21
619.3042
  0
LINE
  8
0_00
  6
CONTINUOUS
 62
4
 10
748.7818
 20
615.9541
 11
758.5818
 21
615.9541
  0
LINE
  8
0_00
  6
CONTINUOUS
 62
4
 10
758.4817
 20
615.8042
 11
758.5818
 21
615.9541
  0
LINE
  8
0_00
  6
CONTINUOUS
 62
4
 10
758.5818
 20
615.9541
 11
758.5494
 21
616.4729
  0
LINE
  8
0_00
  6
CONTINUOUS
 62
4
 10
756.3601
 20
617.0307
 11
756.1890
 21
619.2120
  0
LINE
  8
0_00
  6
CONTINUOUS
 62
4
 10
748.8818
 20
615.8042
 11
748.7818
 21
615.9541
  0
LINE
  8
0_00
  6
CONTINUOUS
 62
4
 10
748.7818
 20
615.9541
 11
748.8141
 21
616.4729
  0
LINE
  8
0_00
  6
CONTINUOUS
 62
4
 10
751.0035
 20
617.0307
 11
751.1745
 21
619.2120
  0
LINE
  8
0_00
  6
CONTINUOUS
 62
2
 10
749.0818
 20
616.7542
 11
749.0818
 21
616.8542
  0
LINE
  8
0_00
  6
CONTINUOUS
 62
2
 10
750.7818
 20
616.7542
 11
750.7818
 21
616.8542
  0
LINE
  8
0_00
  6
CONTINUOUS
 62
2
 10
750.7818
 20
616.8542
 11
749.0818
 21
616.8542
  0
LINE
  8
0_00
  6
CONTINUOUS
 62
2
 10
750.7818
 20
616.7542
 11
749.0818
 21
616.7542
  0
LINE
  8
0_00
  6
CONTINUOUS
 62
2
 10
750.6318
 20
616.8542
 11
749.2318
 21
616.8542
  0
LINE
  8
0_00
  6
CONTINUOUS
 62
2
 10
749.2318
 20
616.8957
 11
749.2318
 21
616.8542
  0
LINE
  8
0_00
  6
CONTINUOUS
 62
2
 10
750.6318
 20
616.8957
 11
749.2318
 21
616.8957
  0
LINE
  8
0_00
  6
CONTINUOUS
 62
2
 10
750.6318
 20
616.8957
 11
750.6318
 21
616.8542
  0
LINE
  8
0_00
  6
CONTINUOUS
 62
2
 10
758.2817
 20
616.7542
 11
758.2817
 21
616.8542
  0
LINE
  8
0_00
  6
CONTINUOUS
 62
2
 10
756.5818
 20
616.7542
 11
756.5818
 21
616.8542
  0
LINE
  8
0_00
  6
CONTINUOUS
 62
2
 10
756.5818
 20
616.8542
 11
758.2817
 21
616.8542
  0
LINE
  8
0_00
  6
CONTINUOUS
 62
2
 10
756.5818
 20
616.7542
 11
758.2817
 21
616.7542
  0
LINE
  8
0_00
  6
CONTINUOUS
 62
2
 10
756.7317
 20
616.8542
 11
758.1318
 21
616.8542
  0
LINE
  8
0_00
  6
CONTINUOUS
 62
2
 10
758.1318
 20
616.8957
 11
758.1318
 21
616.8542
  0
LINE
  8
0_00
  6
CONTINUOUS
 62
2
 10
756.7317
 20
616.8957
 11
758.1318
 21
616.8957
  0
LINE
  8
0_00
  6
CONTINUOUS
 62
2
 10
756.7317
 20
616.8957
 11
756.7317
 21
616.8542
  0
LINE
  8
3_03
  6
CONTINUOUS
 62
2
 10
753.6818
 20
618.6207
 11
753.6487
 21
618.6335
  0
LINE
  8
3_03
  6
CONTINUOUS
 62
2
 10
753.6818
 20
618.6207
 11
753.7149
 21
618.6334
  0
LINE
  8
3_03
  6
CONTINUOUS
 62
2
 10
753.6487
 20
618.6335
 11
753.5636
 21
618.7155
  0
LINE
  8
3_03
  6
CONTINUOUS
 62
2
 10
753.7149
 20
618.6335
 11
753.7148
 21
618.6335
  0
LINE
  8
3_03
  6
CONTINUOUS
 62
2
 10
753.7148
 20
618.6335
 11
753.7998
 21
618.7156
  0
LINE
  8
3_03
  6
CONTINUOUS
 62
2
 10
753.6152
 20
618.5542
 11
753.6025
 21
618.5873
  0
LINE
  8
3_03
  6
CONTINUOUS
 62
2
 10
753.6152
 20
618.5542
 11
753.6026
 21
618.5211
  0
LINE
  8
3_03
  6
CONTINUOUS
 62
2
 10
753.6025
 20
618.5873
 11
753.5204
 21
618.6723
  0
LINE
  8
3_03
  6
CONTINUOUS
 62
2
 10
753.6025
 20
618.5210
 11
753.6025
 21
618.5212
  0
LINE
  8
3_03
  6
CONTINUOUS
 62
2
 10
753.6025
 20
618.5212
 11
753.5204
 21
618.4361
  0
LINE
  8
3_03
  6
CONTINUOUS
 62
2
 10
753.7483
 20
618.5542
 11
753.7611
 21
618.5210
  0
LINE
  8
3_03
  6
CONTINUOUS
 62
2
 10
753.7483
 20
618.5542
 11
753.7610
 21
618.5873
  0
LINE
  8
3_03
  6
CONTINUOUS
 62
2
 10
753.7611
 20
618.5210
 11
753.8432
 21
618.4360
  0
LINE
  8
3_03
  6
CONTINUOUS
 62
2
 10
753.7611
 20
618.5873
 11
753.7612
 21
618.5872
  0
LINE
  8
3_03
  6
CONTINUOUS
 62
2
 10
753.7612
 20
618.5872
 11
753.8432
 21
618.6722
  0
LINE
  8
3_03
  6
CONTINUOUS
 62
2
 10
753.6818
 20
618.4876
 11
753.7149
 21
618.4749
  0
LINE
  8
3_03
  6
CONTINUOUS
 62
2
 10
753.6818
 20
618.4876
 11
753.6487
 21
618.4749
  0
LINE
  8
3_03
  6
CONTINUOUS
 62
2
 10
753.7149
 20
618.4749
 11
753.7999
 21
618.3928
  0
LINE
  8
3_03
  6
CONTINUOUS
 62
2
 10
753.6487
 20
618.4749
 11
753.6487
 21
618.4748
  0
LINE
  8
3_03
  6
CONTINUOUS
 62
2
 10
753.6487
 20
618.4748
 11
753.5637
 21
618.3927
  0
LINE
  8
0_00
  6
CENTER1
 62
6
 10
321.2033
 20
748.4931
 11
321.2033
 21
187.6722
  0
LINE
  8
0_00
  6
CONTINUOUS
 62
4
 10
321.4033
 20
416.8365
 11
333.5033
 21
416.8365
  0
LINE
  8
0_00
  6
CONTINUOUS
 62
4
 10
333.5033
 20
416.8365
 11
333.9033
 21
418.3365
  0
LINE
  8
0_00
  6
CONTINUOUS
 62
4
 10
333.9033
 20
418.3365
 11
339.0032
 21
418.3365
  0
LINE
  8
0_00
  6
CONTINUOUS
 62
4
 10
339.4033
 20
418.3365
 11
341.7033
 21
418.3365
  0
LINE
  8
0_00
  6
CONTINUOUS
 62
4
 10
343.7033
 20
416.3365
 11
343.7033
 21
384.8365
  0
LINE
  8
0_00
  6
CONTINUOUS
 62
4
 10
342.2033
 20
383.3365
 11
341.5033
 21
383.3365
  0
LINE
  8
0_00
  6
CONTINUOUS
 62
4
 10
341.2033
 20
383.6365
 11
341.2033
 21
384.5365
  0
LINE
  8
0_00
  6
CONTINUOUS
 62
4
 10
341.5033
 20
384.8365
 11
342.2004
 21
384.8365
  0
LINE
  8
0_00
  6
CONTINUOUS
 62
4
 10
341.9061
 20
416.8365
 11
335.4398
 21
416.8365
  0
LINE
  8
0_00
  6
CONTINUOUS
 62
4
 10
334.9567
 20
416.4654
 11
334.6557
 21
415.3365
  0
LINE
  8
0_00
  6
CONTINUOUS
 62
4
 10
326.2033
 20
415.0365
 11
321.2033
 21
415.0365
  0
LINE
  8
0_00
  6
CONTINUOUS
 62
4
 10
334.6557
 20
415.3365
 11
326.2033
 21
415.0365
  0
LINE
  8
0_00
  6
CONTINUOUS
 62
4
 10
321.2033
 20
416.6365
 11
321.4033
 21
416.8365
  0
LINE
  8
0_00
  6
CONTINUOUS
 62
4
 10
339.0032
 20
418.3365
 11
339.2033
 21
418.1365
  0
LINE
  8
0_00
  6
CONTINUOUS
 62
4
 10
339.2033
 20
418.1365
 11
339.4033
 21
418.3365
  0
LINE
  8
0_00
  6
CONTINUOUS
 62
4
 10
321.0032
 20
416.8365
 11
308.9033
 21
416.8365
  0
LINE
  8
0_00
  6
CONTINUOUS
 62
4
 10
308.9033
 20
416.8365
 11
308.5033
 21
418.3365
  0
LINE
  8
0_00
  6
CONTINUOUS
 62
4
 10
308.5033
 20
418.3365
 11
303.4032
 21
418.3365
  0
LINE
  8
0_00
  6
CONTINUOUS
 62
4
 10
303.0032
 20
418.3365
 11
300.7033
 21
418.3365
  0
LINE
  8
0_00
  6
CONTINUOUS
 62
4
 10
300.5004
 20
416.8365
 11
306.9667
 21
416.8365
  0
LINE
  8
0_00
  6
CONTINUOUS
 62
4
 10
307.4498
 20
416.4654
 11
307.7509
 21
415.3365
  0
LINE
  8
0_00
  6
CONTINUOUS
 62
4
 10
316.2033
 20
415.0365
 11
321.2033
 21
415.0365
  0
LINE
  8
0_00
  6
CONTINUOUS
 62
4
 10
307.7509
 20
415.3365
 11
316.2033
 21
415.0365
  0
LINE
  8
0_00
  6
CONTINUOUS
 62
4
 10
321.2033
 20
416.6365
 11
321.0032
 21
416.8365
  0
LINE
  8
0_00
  6
CONTINUOUS
 62
4
 10
303.4032
 20
418.3365
 11
303.2033
 21
418.1365
  0
LINE
  8
0_00
  6
CONTINUOUS
 62
4
 10
342.5004
 20
385.1393
 11
342.2060
 21
416.5394
  0
LINE
  8
0_00
  6
CONTINUOUS
 62
4
 10
298.7033
 20
416.3365
 11
298.7033
 21
384.8365
  0
LINE
  8
0_00
  6
CONTINUOUS
 62
4
 10
300.2033
 20
383.3365
 11
300.9033
 21
383.3365
  0
LINE
  8
0_00
  6
CONTINUOUS
 62
4
 10
301.2033
 20
383.6365
 11
301.2033
 21
384.5365
  0
LINE
  8
0_00
  6
CONTINUOUS
 62
4
 10
300.9033
 20
384.8365
 11
300.2061
 21
384.8365
  0
LINE
  8
0_00
  6
CONTINUOUS
 62
4
 10
299.9061
 20
385.1393
 11
300.2004
 21
416.5394
  0
LINE
  8
0_00
  6
CONTINUOUS
 62
4
 10
303.2033
 20
418.1365
 11
303.0032
 21
418.3365
  0
LINE
  8
0_00
  6
CONTINUOUS
 62
4
 10
308.7033
 20
417.5865
 11
333.7033
 21
417.5865
  0
LINE
  8
12_0C
  6
CONTINUOUS
 62
2
 10
317.7033
 20
414.0665
 11
317.7033
 21
415.0365
  0
LINE
  8
12_0C
  6
CONTINUOUS
 62
2
 10
324.7033
 20
414.0665
 11
324.7033
 21
415.0365
  0
LINE
  8
12_0C
  6
DASHED
 62
2
 10
323.2033
 20
415.0365
 11
323.2033
 21
435.2165
  0
LINE
  8
12_0C
  6
DASHED
 62
2
 10
322.7033
 20
415.0365
 11
322.7033
 21
439.5983
  0
LINE
  8
12_0C
  6
DASHED
 62
2
 10
319.2033
 20
415.0365
 11
319.2033
 21
435.2165
  0
LINE
  8
12_0C
  6
DASHED
 62
2
 10
319.7033
 20
415.0365
 11
319.7033
 21
439.5983
  0
LINE
  8
12_0C
  6
DASHED
 62
2
 10
323.2033
 20
435.2165
 11
322.6533
 21
440.0365
  0
LINE
  8
12_0C
  6
DASHED
 62
2
 10
319.2033
 20
435.2165
 11
319.7533
 21
440.0365
  0
LINE
  8
12_0C
  6
DASHED
 62
2
 10
322.6533
 20
440.0365
 11
319.7533
 21
440.0365
  0
LINE
  8
0_00
  6
CONTINUOUS
 62
2
 10
324.7033
 20
415.0365
 11
317.7033
 21
415.0365
  0
LINE
  8
0_00
  6
CONTINUOUS
 62
4
 10
341.2033
 20
416.8365
 11
341.2033
 21
388.4365
  0
LINE
  8
0_00
  6
CONTINUOUS
 62
4
 10
335.7033
 20
416.8365
 11
335.7033
 21
388.4365
  0
LINE
  8
0_00
  6
CONTINUOUS
 62
4
 10
341.2033
 20
388.4365
 11
335.7033
 21
388.4365
  0
LINE
  8
0_00
  6
CONTINUOUS
 62
4
 10
307.7033
 20
414.6365
 11
317.7033
 21
414.6365
  0
LINE
  8
0_00
  6
CONTINUOUS
 62
4
 10
324.7033
 20
414.6365
 11
334.7033
 21
414.6365
  0
LINE
  8
0_00
  6
CONTINUOUS
 62
4
 10
334.7033
 20
390.6365
 11
307.7033
 21
390.6365
  0
LINE
  8
0_00
  6
CONTINUOUS
 62
4
 10
301.2033
 20
416.8365
 11
301.2033
 21
388.4365
  0
LINE
  8
0_00
  6
CONTINUOUS
 62
4
 10
306.7033
 20
416.8365
 11
306.7033
 21
388.4365
  0
LINE
  8
0_00
  6
CONTINUOUS
 62
4
 10
301.2033
 20
388.4365
 11
306.7033
 21
388.4365
  0
LINE
  8
0_00
  6
CENTER1
 62
6
 10
339.2033
 20
422.4091
 11
339.2033
 21
404.4636
  0
LINE
  8
0_00
  6
CENTER1
 62
6
 10
303.2033
 20
422.4091
 11
303.2033
 21
404.4636
  0
LINE
  8
12_0C
  6
CONTINUOUS
 62
2
 10
307.2033
 20
418.3365
 11
299.2033
 21
418.3365
  0
LINE
  8
12_0C
  6
CONTINUOUS
 62
2
 10
307.2033
 20
418.7365
 11
299.2033
 21
418.7365
  0
LINE
  8
12_0C
  6
CONTINUOUS
 62
2
 10
299.2033
 20
418.3365
 11
299.2033
 21
418.7365
  0
LINE
  8
12_0C
  6
CONTINUOUS
 62
2
 10
307.2033
 20
418.3365
 11
307.2033
 21
418.7365
  0
LINE
  8
0_00
  6
DASHED
 62
2
 10
305.2033
 20
418.3365
 11
305.2033
 21
411.1565
  0
LINE
  8
12_0C
  6
DASHED
 62
2
 10
304.6533
 20
418.3365
 11
304.6533
 21
406.3365
  0
LINE
  8
12_0C
  6
DASHED
 62
2
 10
304.6533
 20
406.3365
 11
301.7532
 21
406.3365
  0
LINE
  8
12_0C
  6
DASHED
 62
2
 10
305.2033
 20
411.1565
 11
304.6533
 21
406.3365
  0
LINE
  8
0_00
  6
DASHED
 62
2
 10
301.2033
 20
418.3365
 11
301.2033
 21
411.1565
  0
LINE
  8
12_0C
  6
DASHED
 62
2
 10
301.7532
 20
418.3365
 11
301.7532
 21
406.3365
  0
LINE
  8
12_0C
  6
DASHED
 62
2
 10
301.2033
 20
411.1565
 11
301.7532
 21
406.3365
  0
LINE
  8
0_00
  6
CENTER1
 62
6
 10
313.2871
 20
409.1365
 11
328.6364
 21
409.1365
  0
LINE
  8
0_00
  6
CENTER1
 62
6
 10
328.6364
 20
396.1365
 11
313.2871
 21
396.1365
  0
LINE
  8
0_00
  6
CENTER1
 62
6
 10
288.7687
 20
390.3365
 11
360.3064
 21
390.3365
  0
LINE
  8
0_00
  6
CONTINUOUS
 62
2
 10
261.2033
 20
553.7232
 11
381.2033
 21
553.7232
  0
LINE
  8
0_00
  6
CONTINUOUS
 62
2
 10
381.2033
 20
549.2232
 11
261.2033
 21
549.2232
  0
LINE
  8
0_00
  6
CONTINUOUS
 62
4
 10
346.2033
 20
684.1099
 11
346.2033
 21
553.7232
  0
LINE
  8
0_00
  6
CONTINUOUS
 62
4
 10
346.2033
 20
549.2232
 11
346.2033
 21
311.4365
  0
LINE
  8
0_00
  6
CONTINUOUS
 62
4
 10
333.7033
 20
417.5865
 11
333.7033
 21
549.2232
  0
LINE
  8
0_00
  6
CONTINUOUS
 62
4
 10
333.7033
 20
553.7232
 11
333.7033
 21
685.3599
  0
LINE
  8
0_00
  6
CONTINUOUS
 62
4
 10
308.7033
 20
685.3599
 11
308.7033
 21
553.7232
  0
LINE
  8
0_00
  6
CONTINUOUS
 62
4
 10
308.7033
 20
549.2232
 11
308.7033
 21
417.5865
  0
LINE
  8
0_00
  6
CONTINUOUS
 62
4
 10
296.2033
 20
684.1099
 11
296.2033
 21
553.7232
  0
LINE
  8
0_00
  6
CONTINUOUS
 62
4
 10
296.2033
 20
549.2232
 11
296.2033
 21
311.4365
  0
LINE
  8
0_00
  6
DASHED
 62
2
 10
343.8033
 20
390.3365
 11
298.6033
 21
390.3365
  0
LINE
  8
0_00
  6
DASHED
 62
2
 10
343.8033
 20
288.3365
 11
343.8033
 21
438.3365
  0
LINE
  8
0_00
  6
DASHED
 62
2
 10
298.6033
 20
288.3365
 11
298.6033
 21
438.3365
  0
LINE
  8
0_00
  6
DASHED
 62
2
 10
298.6033
 20
438.3365
 11
343.8033
 21
438.3365
  0
LINE
  8
0_00
  6
CONTINUOUS
 62
6
 10
333.7033
 20
571.7000
 11
366.1573
 21
604.1542
  0
LINE
  8
0_00
  6
CONTINUOUS
 62
6
 10
333.7033
 20
571.7000
 11
341.2513
 21
576.6018
  0
LINE
  8
0_00
  6
CONTINUOUS
 62
6
 10
333.7033
 20
571.7000
 11
338.6050
 21
579.2481
  0
LINE
  8
0_00
  6
CONTINUOUS
 62
6
 10
366.1573
 20
604.1542
 11
455.5098
 21
604.1542
  0
LINE
  8
0_00
  6
CONTINUOUS
 62
6
 10
346.2033
 20
469.7179
 11
366.1573
 21
489.6720
  0
LINE
  8
0_00
  6
CONTINUOUS
 62
6
 10
346.2033
 20
469.7179
 11
353.7513
 21
474.6196
  0
LINE
  8
0_00
  6
CONTINUOUS
 62
6
 10
346.2033
 20
469.7179
 11
351.1050
 21
477.2659
  0
LINE
  8
0_00
  6
CONTINUOUS
 62
6
 10
366.1573
 20
489.6720
 11
389.5574
 21
489.6720
  0
LINE
  8
0_00
  6
CONTINUOUS
 62
6
 10
289.4707
 20
255.7460
 11
199.6549
 21
165.9301
  0
LINE
  8
0_00
  6
CONTINUOUS
 62
6
 10
289.4707
 20
255.7460
 11
281.9227
 21
250.8442
  0
LINE
  8
0_00
  6
CONTINUOUS
 62
6
 10
289.4707
 20
255.7460
 11
284.5690
 21
248.1979
  0
LINE
  8
0_00
  6
CONTINUOUS
 62
6
 10
224.3658
 20
190.6410
 11
147.1358
 21
190.6410
  0
LINE
  8
0_00
  6
CONTINUOUS
 62
6
 10
250.0345
 20
216.3097
 11
143.3298
 21
216.3097
  0
LINE
  8
0_00
  6
CONTINUOUS
 62
6
 10
199.6549
 20
165.9301
 11
118.4811
 21
165.9301
  0
LINE
  8
0_00
  6
CONTINUOUS
 62
4
 10
220.0032
 20
770.4820
 11
251.2033
 21
770.4820
  0
LINE
  8
0_00
  6
CONTINUOUS
 62
4
 10
251.2033
 20
770.4820
 11
251.2033
 21
784.8820
  0
LINE
  8
0_00
  6
CONTINUOUS
 62
4
 10
220.0032
 20
784.8820
 11
251.2033
 21
784.8820
  0
LINE
  8
0_00
  6
CONTINUOUS
 62
4
 10
220.0032
 20
770.4820
 11
220.0032
 21
784.8820
  0
LINE
  8
0_00
  6
CONTINUOUS
 62
4
 10
391.2033
 20
770.4820
 11
422.4033
 21
770.4820
  0
LINE
  8
0_00
  6
CONTINUOUS
 62
4
 10
422.4033
 20
770.4820
 11
422.4033
 21
784.8820
  0
LINE
  8
0_00
  6
CONTINUOUS
 62
4
 10
391.2033
 20
784.8820
 11
422.4033
 21
784.8820
  0
LINE
  8
0_00
  6
CONTINUOUS
 62
4
 10
391.2033
 20
770.4820
 11
391.2033
 21
784.8820
  0
LINE
  8
12_0C
  6
CONTINUOUS
 62
2
 10
335.2033
 20
418.3365
 11
343.2033
 21
418.3365
  0
LINE
  8
12_0C
  6
CONTINUOUS
 62
2
 10
335.2033
 20
418.7365
 11
343.2033
 21
418.7365
  0
LINE
  8
12_0C
  6
CONTINUOUS
 62
2
 10
343.2033
 20
418.3365
 11
343.2033
 21
418.7365
  0
LINE
  8
12_0C
  6
CONTINUOUS
 62
2
 10
335.2033
 20
418.3365
 11
335.2033
 21
418.7365
  0
LINE
  8
0_00
  6
DASHED
 62
2
 10
337.2033
 20
418.3365
 11
337.2033
 21
411.1565
  0
LINE
  8
12_0C
  6
DASHED
 62
2
 10
337.7532
 20
418.3365
 11
337.7532
 21
406.3365
  0
LINE
  8
12_0C
  6
DASHED
 62
2
 10
337.7532
 20
406.3365
 11
340.6532
 21
406.3365
  0
LINE
  8
12_0C
  6
DASHED
 62
2
 10
337.2033
 20
411.1565
 11
337.7532
 21
406.3365
  0
LINE
  8
0_00
  6
DASHED
 62
2
 10
341.2033
 20
418.3365
 11
341.2033
 21
411.1565
  0
LINE
  8
12_0C
  6
DASHED
 62
2
 10
340.6532
 20
418.3365
 11
340.6532
 21
406.3365
  0
LINE
  8
12_0C
  6
DASHED
 62
2
 10
341.2033
 20
411.1565
 11
340.6532
 21
406.3365
  0
LINE
  8
3_03
  6
CONTINUOUS
 62
2
 10
321.2033
 20
409.8020
 11
320.8722
 21
409.9291
  0
LINE
  8
3_03
  6
CONTINUOUS
 62
2
 10
321.2033
 20
409.8020
 11
321.5339
 21
409.9290
  0
LINE
  8
3_03
  6
CONTINUOUS
 62
2
 10
320.8722
 20
409.9291
 11
320.0218
 21
410.7503
  0
LINE
  8
3_03
  6
CONTINUOUS
 62
2
 10
321.5343
 20
409.9291
 11
321.5336
 21
409.9297
  0
LINE
  8
3_03
  6
CONTINUOUS
 62
2
 10
321.5336
 20
409.9297
 11
322.3839
 21
410.7508
  0
LINE
  8
3_03
  6
CONTINUOUS
 62
2
 10
320.5377
 20
409.1365
 11
320.4107
 21
409.4675
  0
LINE
  8
3_03
  6
CONTINUOUS
 62
2
 10
320.5377
 20
409.1365
 11
320.4108
 21
408.8058
  0
LINE
  8
3_03
  6
CONTINUOUS
 62
2
 10
320.4107
 20
409.4675
 11
319.5890
 21
410.3184
  0
LINE
  8
3_03
  6
CONTINUOUS
 62
2
 10
320.4107
 20
408.8055
 11
320.4100
 21
408.8061
  0
LINE
  8
3_03
  6
CONTINUOUS
 62
2
 10
320.4100
 20
408.8061
 11
319.5889
 21
407.9559
  0
LINE
  8
3_03
  6
CONTINUOUS
 62
2
 10
321.8688
 20
409.1365
 11
321.9959
 21
408.8055
  0
LINE
  8
3_03
  6
CONTINUOUS
 62
2
 10
321.8688
 20
409.1365
 11
321.9957
 21
409.4672
  0
LINE
  8
3_03
  6
CONTINUOUS
 62
2
 10
321.9959
 20
408.8055
 11
322.8170
 21
407.9551
  0
LINE
  8
3_03
  6
CONTINUOUS
 62
2
 10
321.9959
 20
409.4675
 11
321.9965
 21
409.4669
  0
LINE
  8
3_03
  6
CONTINUOUS
 62
2
 10
321.9965
 20
409.4669
 11
322.8176
 21
410.3172
  0
LINE
  8
3_03
  6
CONTINUOUS
 62
2
 10
321.2033
 20
408.4710
 11
321.5343
 21
408.3439
  0
LINE
  8
3_03
  6
CONTINUOUS
 62
2
 10
321.2033
 20
408.4710
 11
320.8726
 21
408.3441
  0
LINE
  8
3_03
  6
CONTINUOUS
 62
2
 10
321.5343
 20
408.3439
 11
322.3847
 21
407.5227
  0
LINE
  8
3_03
  6
CONTINUOUS
 62
2
 10
320.8722
 20
408.3439
 11
320.8729
 21
408.3433
  0
LINE
  8
3_03
  6
CONTINUOUS
 62
2
 10
320.8729
 20
408.3433
 11
320.0221
 21
407.5217
  0
LINE
  8
3_03
  6
CONTINUOUS
 62
2
 10
321.2033
 20
396.8020
 11
320.8722
 21
396.9291
  0
LINE
  8
3_03
  6
CONTINUOUS
 62
2
 10
321.2033
 20
396.8020
 11
321.5339
 21
396.9290
  0
LINE
  8
3_03
  6
CONTINUOUS
 62
2
 10
320.8722
 20
396.9291
 11
320.0218
 21
397.7503
  0
LINE
  8
3_03
  6
CONTINUOUS
 62
2
 10
321.5343
 20
396.9291
 11
321.5336
 21
396.9297
  0
LINE
  8
3_03
  6
CONTINUOUS
 62
2
 10
321.5336
 20
396.9297
 11
322.3839
 21
397.7509
  0
LINE
  8
3_03
  6
CONTINUOUS
 62
2
 10
320.5377
 20
396.1365
 11
320.4107
 21
396.4675
  0
LINE
  8
3_03
  6
CONTINUOUS
 62
2
 10
320.5377
 20
396.1365
 11
320.4108
 21
395.8058
  0
LINE
  8
3_03
  6
CONTINUOUS
 62
2
 10
320.4107
 20
396.4675
 11
319.5890
 21
397.3184
  0
LINE
  8
3_03
  6
CONTINUOUS
 62
2
 10
320.4107
 20
395.8055
 11
320.4100
 21
395.8062
  0
LINE
  8
3_03
  6
CONTINUOUS
 62
2
 10
320.4100
 20
395.8062
 11
319.5889
 21
394.9559
  0
LINE
  8
3_03
  6
CONTINUOUS
 62
2
 10
321.8688
 20
396.1365
 11
321.9959
 21
395.8055
  0
LINE
  8
3_03
  6
CONTINUOUS
 62
2
 10
321.8688
 20
396.1365
 11
321.9957
 21
396.4671
  0
LINE
  8
3_03
  6
CONTINUOUS
 62
2
 10
321.9959
 20
395.8055
 11
322.8170
 21
394.9551
  0
LINE
  8
3_03
  6
CONTINUOUS
 62
2
 10
321.9959
 20
396.4675
 11
321.9965
 21
396.4669
  0
LINE
  8
3_03
  6
CONTINUOUS
 62
2
 10
321.9965
 20
396.4669
 11
322.8176
 21
397.3171
  0
LINE
  8
3_03
  6
CONTINUOUS
 62
2
 10
321.2033
 20
395.4710
 11
321.5343
 21
395.3439
  0
LINE
  8
3_03
  6
CONTINUOUS
 62
2
 10
321.2033
 20
395.4710
 11
320.8726
 21
395.3441
  0
LINE
  8
3_03
  6
CONTINUOUS
 62
2
 10
321.5343
 20
395.3439
 11
322.3847
 21
394.5227
  0
LINE
  8
3_03
  6
CONTINUOUS
 62
2
 10
320.8722
 20
395.3439
 11
320.8729
 21
395.3433
  0
LINE
  8
3_03
  6
CONTINUOUS
 62
2
 10
320.8729
 20
395.3433
 11
320.0221
 21
394.5217
  0
LINE
  8
0_00
  6
DASHED
 62
2
 10
351.2033
 20
392.8553
 11
351.2033
 21
387.8553
  0
LINE
  8
0_00
  6
DASHED
 62
2
 10
296.2033
 20
392.8365
 11
351.2033
 21
392.8537
  0
LINE
  8
0_00
  6
DASHED
 62
2
 10
297.8033
 20
392.8365
 11
297.8033
 21
387.8365
  0
LINE
  8
0_00
  6
DASHED
 62
2
 10
331.2033
 20
392.4365
 11
351.2033
 21
392.4516
  0
LINE
  8
0_00
  6
DASHED
 62
2
 10
331.2033
 20
388.2365
 11
351.2031
 21
388.2516
  0
LINE
  8
0_00
  6
CONTINUOUS
 62
2
 10
296.2033
 20
384.4365
 11
296.2033
 21
396.2365
  0
LINE
  8
0_00
  6
CONTINUOUS
 62
2
 10
295.8555
 20
396.2365
 11
296.2033
 21
396.2365
  0
LINE
  8
0_00
  6
CONTINUOUS
 62
2
 10
295.8555
 20
384.4365
 11
296.2033
 21
384.4365
  0
LINE
  8
0_00
  6
CONTINUOUS
 62
2
 10
295.8555
 20
384.4365
 11
295.8555
 21
396.2365
  0
LINE
  8
0_00
  6
CONTINUOUS
 62
2
 10
347.5033
 20
385.7553
 11
347.5033
 21
394.9553
  0
LINE
  8
0_00
  6
CONTINUOUS
 62
2
 10
347.5033
 20
394.9553
 11
346.2033
 21
394.9553
  0
LINE
  8
0_00
  6
CONTINUOUS
 62
2
 10
347.5033
 20
385.7553
 11
346.2033
 21
385.7553
  0
LINE
  8
0_00
  6
CONTINUOUS
 62
2
 10
346.2033
 20
385.7553
 11
346.2033
 21
394.9553
  0
LINE
  8
0_00
  6
CONTINUOUS
 62
2
 10
347.5033
 20
390.5295
 11
346.2033
 21
390.1811
  0
LINE
  8
0_00
  6
CONTINUOUS
 62
2
 10
347.5033
 20
385.7365
 11
347.5033
 21
394.9741
  0
LINE
  8
0_00
  6
CONTINUOUS
 62
2
 10
347.5033
 20
386.4553
 11
347.5033
 21
394.2553
  0
LINE
  8
0_00
  6
CONTINUOUS
 62
2
 10
347.9183
 20
394.9741
 11
347.5033
 21
394.2553
  0
LINE
  8
0_00
  6
CONTINUOUS
 62
2
 10
347.9183
 20
385.7365
 11
347.5033
 21
386.4553
  0
LINE
  8
0_00
  6
CONTINUOUS
 62
2
 10
347.9183
 20
394.9741
 11
350.2883
 21
394.9741
  0
LINE
  8
0_00
  6
CONTINUOUS
 62
2
 10
347.9183
 20
385.7365
 11
350.2883
 21
385.7365
  0
LINE
  8
0_00
  6
CONTINUOUS
 62
2
 10
350.2883
 20
394.9741
 11
350.7033
 21
394.2553
  0
LINE
  8
0_00
  6
CONTINUOUS
 62
2
 10
350.2883
 20
385.7365
 11
350.7033
 21
386.4553
  0
LINE
  8
0_00
  6
CONTINUOUS
 62
2
 10
350.7033
 20
386.4553
 11
350.7033
 21
394.2553
  0
LINE
  8
0_00
  6
CONTINUOUS
 62
2
 10
347.9183
 20
392.6647
 11
350.2883
 21
392.6647
  0
LINE
  8
0_00
  6
CONTINUOUS
 62
2
 10
347.9183
 20
388.0459
 11
350.2883
 21
388.0459
  0
LINE
  8
0_00
  6
CONTINUOUS
 62
2
 10
351.5033
 20
393.8553
 11
350.7033
 21
393.8553
  0
LINE
  8
0_00
  6
CONTINUOUS
 62
2
 10
351.5033
 20
386.8553
 11
350.7033
 21
386.8553
  0
LINE
  8
0_00
  6
DASHED
 62
2
 10
331.2033
 20
392.8365
 11
331.2033
 21
387.8365
  0
LINE
  8
0_00
  6
DASHED
 62
2
 10
330.5104
 20
392.8365
 11
331.2033
 21
392.4365
  0
LINE
  8
0_00
  6
DASHED
 62
2
 10
331.2033
 20
388.2365
 11
330.5104
 21
387.8365
  0
LINE
  8
14_0E
  6
DASHED
 62
2
 10
351.2034
 20
387.8538
 11
296.2033
 21
387.8365
  0
LINE
  8
15_0F
  6
CONTINUOUS
 62
6
 10
222.0414
 20
283.3365
 11
115.5000
 21
283.3365
  0
LINE
  8
15_0F
  6
CONTINUOUS
 62
6
 10
277.8229
 20
730.1099
 11
115.5000
 21
730.1099
  0
LINE
  8
15_0F
  6
CONTINUOUS
 62
6
 10
120.0000
 20
283.3365
 11
120.0000
 21
730.1099
  0
LINE
  8
15_0F
  6
CONTINUOUS
 62
6
 10
120.0000
 20
283.3365
 11
121.8713
 21
292.1398
  0
LINE
  8
15_0F
  6
CONTINUOUS
 62
6
 10
120.0000
 20
283.3365
 11
118.1288
 21
292.1398
  0
LINE
  8
15_0F
  6
CONTINUOUS
 62
6
 10
120.0000
 20
730.1099
 11
118.1288
 21
721.3066
  0
LINE
  8
15_0F
  6
CONTINUOUS
 62
6
 10
120.0000
 20
730.1099
 11
121.8713
 21
721.3066
  0
LINE
  8
15_0F
  6
CONTINUOUS
 62
6
 10
281.5255
 20
383.3365
 11
135.5000
 21
383.3365
  0
LINE
  8
15_0F
  6
CONTINUOUS
 62
6
 10
140.0000
 20
730.1099
 11
140.0000
 21
383.3365
  0
LINE
  8
15_0F
  6
CONTINUOUS
 62
6
 10
140.0000
 20
730.1099
 11
138.1288
 21
721.3066
  0
LINE
  8
15_0F
  6
CONTINUOUS
 62
6
 10
140.0000
 20
730.1099
 11
141.8713
 21
721.3066
  0
LINE
  8
15_0F
  6
CONTINUOUS
 62
6
 10
140.0000
 20
383.3365
 11
141.8713
 21
392.1398
  0
LINE
  8
15_0F
  6
CONTINUOUS
 62
6
 10
140.0000
 20
383.3365
 11
138.1288
 21
392.1398
  0
LINE
  8
15_0F
  6
CONTINUOUS
 62
6
 10
222.0414
 20
283.3365
 11
135.5000
 21
283.3365
  0
LINE
  8
15_0F
  6
CONTINUOUS
 62
6
 10
140.0000
 20
383.3365
 11
140.0000
 21
283.3365
  0
LINE
  8
15_0F
  6
CONTINUOUS
 62
6
 10
140.0000
 20
383.3365
 11
138.1288
 21
374.5332
  0
LINE
  8
15_0F
  6
CONTINUOUS
 62
6
 10
140.0000
 20
383.3365
 11
141.8713
 21
374.5332
  0
LINE
  8
15_0F
  6
CONTINUOUS
 62
6
 10
140.0000
 20
283.3365
 11
141.8713
 21
292.1398
  0
LINE
  8
15_0F
  6
CONTINUOUS
 62
6
 10
140.0000
 20
283.3365
 11
138.1288
 21
292.1398
  0
LINE
  8
15_0F
  6
CONTINUOUS
 62
6
 10
277.0255
 20
383.3365
 11
155.5000
 21
383.3365
  0
LINE
  8
15_0F
  6
CONTINUOUS
 62
6
 10
222.0414
 20
283.3365
 11
155.5000
 21
283.3365
  0
LINE
  8
0_00
  6
CONTINUOUS
 62
6
 10
480.0001
 20
684.6099
 11
480.0001
 21
684.1099
  0
LINE
  8
0_00
  6
CONTINUOUS
 62
6
 10
266.5255
 20
383.3365
 11
154.0000
 21
383.3365
  0
LINE
  8
0_00
  6
CONTINUOUS
 62
6
 10
281.5255
 20
418.3365
 11
154.0000
 21
418.3365
  0
LINE
  8
0_00
  6
CONTINUOUS
 62
6
 10
160.0000
 20
418.3365
 11
160.0000
 21
383.3365
  0
LINE
  8
0_00
  6
CONTINUOUS
 62
6
 10
160.0000
 20
418.3365
 11
158.1288
 21
409.5332
  0
LINE
  8
0_00
  6
CONTINUOUS
 62
6
 10
160.0000
 20
418.3365
 11
161.8713
 21
409.5332
  0
LINE
  8
0_00
  6
CONTINUOUS
 62
6
 10
160.0000
 20
383.3365
 11
161.8713
 21
392.1398
  0
LINE
  8
0_00
  6
CONTINUOUS
 62
6
 10
160.0000
 20
383.3365
 11
158.1288
 21
392.1398
  0
LINE
  8
0_00
  6
CONTINUOUS
 62
4
 10
246.2033
 20
283.3365
 11
396.2033
 21
283.3365
  0
LINE
  8
0_00
  6
CONTINUOUS
 62
4
 10
411.2033
 20
268.3365
 11
411.2033
 21
193.3365
  0
LINE
  8
0_00
  6
CONTINUOUS
 62
4
 10
231.2033
 20
268.3365
 11
231.2033
 21
193.3365
  0
LINE
  8
0_00
  6
CONTINUOUS
 62
4
 10
246.2033
 20
283.3365
 11
231.2033
 21
268.3365
  0
LINE
  8
0_00
  6
CONTINUOUS
 62
4
 10
396.2033
 20
283.3365
 11
411.2033
 21
268.3365
  0
LINE
  8
0_00
  6
CONTINUOUS
 62
2
 10
267.8021
 20
268.3365
 11
249.2033
 21
249.7376
  0
LINE
  8
0_00
  6
CONTINUOUS
 62
2
 10
272.0447
 20
268.3365
 11
249.2033
 21
245.4950
  0
LINE
  8
0_00
  6
CONTINUOUS
 62
2
 10
276.2873
 20
268.3365
 11
249.2033
 21
241.2524
  0
LINE
  8
0_00
  6
CONTINUOUS
 62
4
 10
282.2033
 20
283.3365
 11
360.2033
 21
283.3365
  0
LINE
  8
0_00
  6
CONTINUOUS
 62
4
 10
285.0209
 20
292.8365
 11
357.3856
 21
292.8365
  0
LINE
  8
0_00
  6
CONTINUOUS
 62
4
 10
281.2033
 20
284.8365
 11
361.2033
 21
284.8365
  0
LINE
  8
0_00
  6
CONTINUOUS
 62
4
 10
360.2033
 20
283.3365
 11
361.2033
 21
284.8365
  0
LINE
  8
0_00
  6
CONTINUOUS
 62
4
 10
361.2033
 20
284.8365
 11
360.3496
 21
290.2996
  0
LINE
  8
0_00
  6
CONTINUOUS
 62
4
 10
282.2033
 20
283.3365
 11
281.2033
 21
284.8365
  0
LINE
  8
0_00
  6
CONTINUOUS
 62
4
 10
281.2033
 20
284.8365
 11
282.0569
 21
290.2996
  0
LINE
  8
0_00
  6
DASHED
 62
2
 10
296.2033
 20
288.3365
 11
346.2033
 21
288.3365
  0
LINE
  8
12_0C
  6
DASHED
 62
2
 10
297.7033
 20
283.3365
 11
297.7033
 21
271.4035
  0
LINE
  8
12_0C
  6
DASHED
 62
2
 10
298.3351
 20
268.2678
 11
298.5135
 21
266.2283
  0
LINE
  8
12_0C
  6
DASHED
 62
2
 10
298.7708
 20
263.2868
 11
298.9493
 21
261.2474
  0
LINE
  8
12_0C
  6
DASHED
 62
2
 10
299.2066
 20
258.3058
 11
299.3850
 21
256.2664
  0
LINE
  8
12_0C
  6
DASHED
 62
2
 10
299.6424
 20
253.3249
 11
299.8208
 21
251.2854
  0
LINE
  8
12_0C
  6
DASHED
 62
2
 10
300.0782
 20
248.3439
 11
300.2385
 21
246.5116
  0
LINE
  8
12_0C
  6
DASHED
 62
2
 10
289.7033
 20
283.3365
 11
289.7033
 21
271.4035
  0
LINE
  8
12_0C
  6
DASHED
 62
2
 10
289.0715
 20
268.2678
 11
288.8930
 21
266.2283
  0
LINE
  8
12_0C
  6
DASHED
 62
2
 10
288.6357
 20
263.2868
 11
288.4572
 21
261.2474
  0
LINE
  8
12_0C
  6
DASHED
 62
2
 10
288.1999
 20
258.3058
 11
288.0215
 21
256.2664
  0
LINE
  8
12_0C
  6
DASHED
 62
2
 10
287.7641
 20
253.3249
 11
287.5857
 21
251.2854
  0
LINE
  8
12_0C
  6
DASHED
 62
2
 10
287.3283
 20
248.3439
 11
287.1680
 21
246.5116
  0
LINE
  8
12_0C
  6
DASHED
 62
2
 10
297.7033
 20
283.3365
 11
289.7033
 21
283.3365
  0
LINE
  8
12_0C
  6
DASHED
 62
2
 10
294.2033
 20
275.3365
 11
293.2033
 21
275.3365
  0
LINE
  8
12_0C
  6
DASHED
 62
2
 10
293.2033
 20
275.3365
 11
290.4143
 21
243.4583
  0
LINE
  8
12_0C
  6
DASHED
 62
2
 10
296.9922
 20
243.4583
 11
294.2033
 21
275.3365
  0
LINE
  8
12_0C
  6
DASHED
 62
2
 10
298.9846
 20
243.6326
 11
296.9922
 21
243.4583
  0
LINE
  8
12_0C
  6
DASHED
 62
2
 10
290.4143
 20
243.4583
 11
288.4219
 21
243.6326
  0
LINE
  8
12_0C
  6
DASHED
 62
2
 10
288.4219
 20
243.6326
 11
287.2220
 21
246.2058
  0
LINE
  8
12_0C
  6
DASHED
 62
2
 10
298.9846
 20
243.6326
 11
300.1845
 21
246.2058
  0
LINE
  8
12_0C
  6
DASHED
 62
2
 10
300.2525
 20
246.3515
 11
296.7658
 21
246.0464
  0
LINE
  8
12_0C
  6
DASHED
 62
2
 10
290.6407
 20
246.0464
 11
287.1540
 21
246.3515
  0
LINE
  8
12_0C
  6
DASHED
 62
2
 10
300.0782
 20
248.3439
 11
297.8866
 21
248.1521
  0
LINE
  8
12_0C
  6
DASHED
 62
2
 10
289.5200
 20
248.1521
 11
287.3283
 21
248.3439
  0
LINE
  8
12_0C
  6
DASHED
 62
2
 10
299.6424
 20
253.3249
 11
297.4508
 21
253.1331
  0
LINE
  8
12_0C
  6
DASHED
 62
2
 10
289.9557
 20
253.1331
 11
287.7641
 21
253.3249
  0
LINE
  8
12_0C
  6
DASHED
 62
2
 10
299.2066
 20
258.3058
 11
297.0150
 21
258.1141
  0
LINE
  8
12_0C
  6
DASHED
 62
2
 10
290.3915
 20
258.1141
 11
288.1999
 21
258.3058
  0
LINE
  8
12_0C
  6
DASHED
 62
2
 10
298.7708
 20
263.2868
 11
296.5792
 21
263.0950
  0
LINE
  8
12_0C
  6
DASHED
 62
2
 10
290.8273
 20
263.0950
 11
288.6357
 21
263.2868
  0
LINE
  8
12_0C
  6
DASHED
 62
2
 10
298.3351
 20
268.2678
 11
296.7411
 21
268.1283
  0
LINE
  8
12_0C
  6
DASHED
 62
2
 10
290.6654
 20
268.1283
 11
289.0715
 21
268.2678
  0
LINE
  8
12_0C
  6
DASHED
 62
2
 10
296.7772
 20
265.4209
 11
296.9777
 21
263.1299
  0
LINE
  8
12_0C
  6
DASHED
 62
2
 10
297.2130
 20
260.4400
 11
297.4135
 21
258.1489
  0
LINE
  8
12_0C
  6
DASHED
 62
2
 10
297.6488
 20
255.4590
 11
297.8492
 21
253.1680
  0
LINE
  8
12_0C
  6
DASHED
 62
2
 10
298.0846
 20
250.4780
 11
298.2850
 21
248.1870
  0
LINE
  8
12_0C
  6
DASHED
 62
2
 10
289.1215
 20
248.1870
 11
289.3219
 21
250.4780
  0
LINE
  8
12_0C
  6
DASHED
 62
2
 10
289.5573
 20
253.1680
 11
289.7577
 21
255.4590
  0
LINE
  8
12_0C
  6
DASHED
 62
2
 10
289.9930
 20
258.1489
 11
290.1935
 21
260.4400
  0
LINE
  8
12_0C
  6
DASHED
 62
2
 10
290.4288
 20
263.1299
 11
291.1667
 21
271.5645
  0
LINE
  8
12_0C
  6
DASHED
 62
2
 10
289.5862
 20
250.4072
 11
287.8806
 21
250.8642
  0
LINE
  8
12_0C
  6
DASHED
 62
2
 10
297.6582
 20
250.3637
 11
299.5259
 21
250.8642
  0
LINE
  8
12_0C
  6
DASHED
 62
2
 10
290.0220
 20
255.3881
 11
288.3164
 21
255.8452
  0
LINE
  8
12_0C
  6
DASHED
 62
2
 10
297.3845
 20
255.3881
 11
299.0901
 21
255.8452
  0
LINE
  8
12_0C
  6
DASHED
 62
2
 10
290.4578
 20
260.3691
 11
288.7522
 21
260.8261
  0
LINE
  8
12_0C
  6
DASHED
 62
2
 10
296.9487
 20
260.3691
 11
298.6543
 21
260.8261
  0
LINE
  8
12_0C
  6
DASHED
 62
2
 10
290.8935
 20
265.3501
 11
289.1880
 21
265.8071
  0
LINE
  8
12_0C
  6
DASHED
 62
2
 10
296.5130
 20
265.3501
 11
298.2185
 21
265.8071
  0
LINE
  8
12_0C
  6
DASHED
 62
2
 10
296.9404
 20
268.1458
 11
296.6713
 21
271.2215
  0
LINE
  8
12_0C
  6
DASHED
 62
2
 10
290.4661
 20
268.1458
 11
290.7352
 21
271.2215
  0
LINE
  8
12_0C
  6
DASHED
 62
2
 10
296.2180
 20
264.9288
 11
296.3625
 21
263.2769
  0
LINE
  8
12_0C
  6
DASHED
 62
2
 10
296.6538
 20
259.9479
 11
296.7983
 21
258.2959
  0
LINE
  8
12_0C
  6
DASHED
 62
2
 10
297.0896
 20
254.9669
 11
297.2341
 21
253.3149
  0
LINE
  8
12_0C
  6
DASHED
 62
2
 10
297.5107
 20
250.1531
 11
297.6699
 21
248.3339
  0
LINE
  8
12_0C
  6
DASHED
 62
2
 10
289.7366
 20
248.3339
 11
289.8811
 21
249.9859
  0
LINE
  8
12_0C
  6
DASHED
 62
2
 10
290.1724
 20
253.3149
 11
290.3170
 21
254.9669
  0
LINE
  8
12_0C
  6
DASHED
 62
2
 10
290.6082
 20
258.2959
 11
290.7527
 21
259.9479
  0
LINE
  8
12_0C
  6
DASHED
 62
2
 10
291.0440
 20
263.2769
 11
291.1885
 21
264.9288
  0
LINE
  8
12_0C
  6
DASHED
 62
2
 10
296.6368
 20
271.2154
 11
297.7033
 21
271.4035
  0
LINE
  8
12_0C
  6
DASHED
 62
2
 10
290.7697
 20
271.2154
 11
289.7033
 21
271.4035
  0
LINE
  8
12_0C
  6
DASHED
 62
2
 10
288.6357
 20
263.2868
 11
285.8464
 21
269.2685
  0
LINE
  8
12_0C
  6
DASHED
 62
2
 10
286.7527
 20
269.6911
 11
289.7860
 21
263.1862
  0
LINE
  8
12_0C
  6
DASHED
 62
2
 10
298.7708
 20
263.2868
 11
301.5601
 21
269.2685
  0
LINE
  8
12_0C
  6
DASHED
 62
2
 10
300.6538
 20
269.6911
 11
297.6205
 21
263.1862
  0
LINE
  8
12_0C
  6
DASHED
 62
2
 10
286.0399
 20
269.8000
 11
286.2211
 21
269.8845
  0
LINE
  8
12_0C
  6
DASHED
 62
2
 10
301.3666
 20
269.8000
 11
301.1854
 21
269.8845
  0
LINE
  8
12_0C
  6
DASHED
 62
2
 10
296.3078
 20
270.7866
 11
296.5245
 21
268.3101
  0
LINE
  8
12_0C
  6
DASHED
 62
2
 10
291.0987
 20
270.7866
 11
290.6293
 21
265.4209
  0
LINE
  8
0_00
  6
DASHED
 62
2
 10
286.2033
 20
288.8365
 11
285.7033
 21
292.8365
  0
LINE
  8
0_00
  6
DASHED
 62
2
 10
286.2033
 20
288.8365
 11
301.2033
 21
288.8365
  0
LINE
  8
0_00
  6
DASHED
 62
2
 10
301.2033
 20
288.8365
 11
301.7033
 21
292.8365
  0
LINE
  8
0_00
  6
DASHED
 62
2
 10
300.2033
 20
292.8365
 11
300.2033
 21
288.8365
  0
LINE
  8
0_00
  6
DASHED
 62
2
 10
287.2033
 20
292.8365
 11
287.2033
 21
288.8365
  0
LINE
  8
0_00
  6
DASHED
 62
2
 10
297.9533
 20
288.8365
 11
297.9533
 21
283.3365
  0
LINE
  8
0_00
  6
DASHED
 62
2
 10
289.4533
 20
283.3365
 11
289.4533
 21
288.8365
  0
LINE
  8
0_00
  6
DASHED
 62
2
 10
356.2033
 20
288.8365
 11
356.7033
 21
292.8365
  0
LINE
  8
0_00
  6
DASHED
 62
2
 10
356.2033
 20
288.8365
 11
341.2033
 21
288.8365
  0
LINE
  8
0_00
  6
DASHED
 62
2
 10
341.2033
 20
288.8365
 11
340.7033
 21
292.8365
  0
LINE
  8
0_00
  6
DASHED
 62
2
 10
342.2033
 20
292.8365
 11
342.2033
 21
288.8365
  0
LINE
  8
0_00
  6
DASHED
 62
2
 10
355.2033
 20
292.8365
 11
355.2033
 21
288.8365
  0
LINE
  8
12_0C
  6
DASHED
 62
2
 10
344.7033
 20
283.3365
 11
344.7033
 21
271.4035
  0
LINE
  8
12_0C
  6
DASHED
 62
2
 10
344.0715
 20
268.2678
 11
343.8930
 21
266.2283
  0
LINE
  8
12_0C
  6
DASHED
 62
2
 10
343.6357
 20
263.2868
 11
343.4572
 21
261.2474
  0
LINE
  8
12_0C
  6
DASHED
 62
2
 10
343.1999
 20
258.3058
 11
343.0215
 21
256.2664
  0
LINE
  8
12_0C
  6
DASHED
 62
2
 10
342.7641
 20
253.3249
 11
342.5857
 21
251.2854
  0
LINE
  8
12_0C
  6
DASHED
 62
2
 10
342.3283
 20
248.3439
 11
342.1681
 21
246.5116
  0
LINE
  8
12_0C
  6
DASHED
 62
2
 10
352.7033
 20
283.3365
 11
352.7033
 21
271.4035
  0
LINE
  8
12_0C
  6
DASHED
 62
2
 10
353.3351
 20
268.2678
 11
353.5135
 21
266.2283
  0
LINE
  8
12_0C
  6
DASHED
 62
2
 10
353.7708
 20
263.2868
 11
353.9493
 21
261.2474
  0
LINE
  8
12_0C
  6
DASHED
 62
2
 10
354.2066
 20
258.3058
 11
354.3850
 21
256.2664
  0
LINE
  8
12_0C
  6
DASHED
 62
2
 10
354.6424
 20
253.3249
 11
354.8208
 21
251.2854
  0
LINE
  8
12_0C
  6
DASHED
 62
2
 10
355.0782
 20
248.3439
 11
355.2385
 21
246.5116
  0
LINE
  8
12_0C
  6
DASHED
 62
2
 10
344.7033
 20
283.3365
 11
352.7033
 21
283.3365
  0
LINE
  8
12_0C
  6
DASHED
 62
2
 10
348.2033
 20
275.3365
 11
349.2033
 21
275.3365
  0
LINE
  8
12_0C
  6
DASHED
 62
2
 10
349.2033
 20
275.3365
 11
351.9923
 21
243.4583
  0
LINE
  8
12_0C
  6
DASHED
 62
2
 10
345.4143
 20
243.4583
 11
348.2033
 21
275.3365
  0
LINE
  8
12_0C
  6
DASHED
 62
2
 10
343.4219
 20
243.6326
 11
345.4143
 21
243.4583
  0
LINE
  8
12_0C
  6
DASHED
 62
2
 10
351.9923
 20
243.4583
 11
353.9846
 21
243.6326
  0
LINE
  8
12_0C
  6
DASHED
 62
2
 10
353.9846
 20
243.6326
 11
355.1845
 21
246.2058
  0
LINE
  8
12_0C
  6
DASHED
 62
2
 10
343.4219
 20
243.6326
 11
342.2220
 21
246.2058
  0
LINE
  8
12_0C
  6
DASHED
 62
2
 10
342.1540
 20
246.3515
 11
345.6407
 21
246.0464
  0
LINE
  8
12_0C
  6
DASHED
 62
2
 10
351.7658
 20
246.0464
 11
355.2525
 21
246.3515
  0
LINE
  8
12_0C
  6
DASHED
 62
2
 10
342.3283
 20
248.3439
 11
344.5200
 21
248.1521
  0
LINE
  8
12_0C
  6
DASHED
 62
2
 10
352.8866
 20
248.1521
 11
355.0782
 21
248.3439
  0
LINE
  8
12_0C
  6
DASHED
 62
2
 10
342.7641
 20
253.3249
 11
344.9558
 21
253.1331
  0
LINE
  8
12_0C
  6
DASHED
 62
2
 10
352.4508
 20
253.1331
 11
354.6424
 21
253.3249
  0
LINE
  8
12_0C
  6
DASHED
 62
2
 10
343.1999
 20
258.3058
 11
345.3916
 21
258.1141
  0
LINE
  8
12_0C
  6
DASHED
 62
2
 10
352.0150
 20
258.1141
 11
354.2066
 21
258.3058
  0
LINE
  8
12_0C
  6
DASHED
 62
2
 10
343.6357
 20
263.2868
 11
345.8273
 21
263.0950
  0
LINE
  8
12_0C
  6
DASHED
 62
2
 10
351.5792
 20
263.0950
 11
353.7708
 21
263.2868
  0
LINE
  8
12_0C
  6
DASHED
 62
2
 10
344.0715
 20
268.2678
 11
345.6654
 21
268.1283
  0
LINE
  8
12_0C
  6
DASHED
 62
2
 10
351.7411
 20
268.1283
 11
353.3351
 21
268.2678
  0
LINE
  8
12_0C
  6
DASHED
 62
2
 10
345.6293
 20
265.4209
 11
345.4288
 21
263.1299
  0
LINE
  8
12_0C
  6
DASHED
 62
2
 10
345.1935
 20
260.4400
 11
344.9930
 21
258.1489
  0
LINE
  8
12_0C
  6
DASHED
 62
2
 10
344.7577
 20
255.4590
 11
344.5573
 21
253.1680
  0
LINE
  8
12_0C
  6
DASHED
 62
2
 10
344.3219
 20
250.4780
 11
344.1215
 21
248.1870
  0
LINE
  8
12_0C
  6
DASHED
 62
2
 10
353.2850
 20
248.1870
 11
353.0846
 21
250.4780
  0
LINE
  8
12_0C
  6
DASHED
 62
2
 10
352.8493
 20
253.1680
 11
352.6488
 21
255.4590
  0
LINE
  8
12_0C
  6
DASHED
 62
2
 10
352.4135
 20
258.1489
 11
352.2130
 21
260.4400
  0
LINE
  8
12_0C
  6
DASHED
 62
2
 10
351.9777
 20
263.1299
 11
351.7773
 21
265.4209
  0
LINE
  8
12_0C
  6
DASHED
 62
2
 10
352.8203
 20
250.4072
 11
354.5259
 21
250.8642
  0
LINE
  8
12_0C
  6
DASHED
 62
2
 10
344.7483
 20
250.3637
 11
342.8806
 21
250.8642
  0
LINE
  8
12_0C
  6
DASHED
 62
2
 10
352.3845
 20
255.3881
 11
354.0901
 21
255.8452
  0
LINE
  8
12_0C
  6
DASHED
 62
2
 10
345.0220
 20
255.3881
 11
343.3164
 21
255.8452
  0
LINE
  8
12_0C
  6
DASHED
 62
2
 10
351.9487
 20
260.3691
 11
353.6543
 21
260.8261
  0
LINE
  8
12_0C
  6
DASHED
 62
2
 10
345.4578
 20
260.3691
 11
343.7522
 21
260.8261
  0
LINE
  8
12_0C
  6
DASHED
 62
2
 10
351.5130
 20
265.3501
 11
353.2185
 21
265.8071
  0
LINE
  8
12_0C
  6
DASHED
 62
2
 10
345.8936
 20
265.3501
 11
344.1880
 21
265.8071
  0
LINE
  8
12_0C
  6
DASHED
 62
2
 10
345.4662
 20
268.1458
 11
345.7352
 21
271.2215
  0
LINE
  8
12_0C
  6
DASHED
 62
2
 10
351.9404
 20
268.1458
 11
351.6713
 21
271.2215
  0
LINE
  8
12_0C
  6
DASHED
 62
2
 10
346.1885
 20
264.9288
 11
346.0440
 21
263.2769
  0
LINE
  8
12_0C
  6
DASHED
 62
2
 10
345.7528
 20
259.9479
 11
345.6082
 21
258.2959
  0
LINE
  8
12_0C
  6
DASHED
 62
2
 10
345.3170
 20
254.9669
 11
345.1724
 21
253.3149
  0
LINE
  8
12_0C
  6
DASHED
 62
2
 10
344.8958
 20
250.1531
 11
344.7366
 21
248.3339
  0
LINE
  8
12_0C
  6
DASHED
 62
2
 10
352.6699
 20
248.3339
 11
352.5254
 21
249.9859
  0
LINE
  8
12_0C
  6
DASHED
 62
2
 10
352.2341
 20
253.3149
 11
352.0896
 21
254.9669
  0
LINE
  8
12_0C
  6
DASHED
 62
2
 10
351.7983
 20
258.2959
 11
351.6538
 21
259.9479
  0
LINE
  8
12_0C
  6
DASHED
 62
2
 10
351.3625
 20
263.2769
 11
351.2180
 21
264.9288
  0
LINE
  8
12_0C
  6
DASHED
 62
2
 10
345.7697
 20
271.2154
 11
344.7033
 21
271.4035
  0
LINE
  8
12_0C
  6
DASHED
 62
2
 10
351.6369
 20
271.2154
 11
352.7033
 21
271.4035
  0
LINE
  8
12_0C
  6
DASHED
 62
2
 10
355.6538
 20
269.6911
 11
352.6206
 21
263.1862
  0
LINE
  8
12_0C
  6
DASHED
 62
2
 10
343.6357
 20
263.2868
 11
340.8464
 21
269.2685
  0
LINE
  8
12_0C
  6
DASHED
 62
2
 10
341.7527
 20
269.6911
 11
344.7860
 21
263.1862
  0
LINE
  8
12_0C
  6
DASHED
 62
2
 10
341.0399
 20
269.8000
 11
341.2212
 21
269.8845
  0
LINE
  8
12_0C
  6
DASHED
 62
2
 10
346.0987
 20
270.7866
 11
345.8821
 21
268.3101
  0
LINE
  8
12_0C
  6
DASHED
 62
2
 10
351.3078
 20
270.7866
 11
351.7773
 21
265.4209
  0
LINE
  8
0_00
  6
DASHED
 62
2
 10
344.4533
 20
288.8365
 11
344.4533
 21
283.3365
  0
LINE
  8
0_00
  6
DASHED
 62
2
 10
352.9533
 20
283.3365
 11
352.9533
 21
288.8365
  0
LINE
  8
12_0C
  6
DASHED
 62
2
 10
353.7708
 20
263.2868
 11
356.5601
 21
269.2685
  0
LINE
  8
12_0C
  6
DASHED
 62
2
 10
356.3666
 20
269.8000
 11
356.1854
 21
269.8845
  0
LINE
  8
0_00
  6
DASHED
 62
2
 10
295.7033
 20
292.8365
 11
291.7033
 21
288.8365
  0
LINE
  8
0_00
  6
DASHED
 62
2
 10
291.4606
 20
292.8365
 11
287.4606
 21
288.8365
  0
LINE
  8
0_00
  6
DASHED
 62
2
 10
287.2180
 20
292.8365
 11
287.2033
 21
292.8218
  0
LINE
  8
0_00
  6
DASHED
 62
2
 10
299.9459
 20
292.8365
 11
295.9459
 21
288.8365
  0
LINE
  8
0_00
  6
DASHED
 62
2
 10
300.2033
 20
288.8512
 11
300.1885
 21
288.8365
  0
LINE
  8
0_00
  6
DASHED
 62
2
 10
350.7033
 20
292.8365
 11
346.7033
 21
288.8365
  0
LINE
  8
0_00
  6
DASHED
 62
2
 10
346.4607
 20
292.8365
 11
342.4606
 21
288.8365
  0
LINE
  8
0_00
  6
DASHED
 62
2
 10
342.2180
 20
292.8365
 11
342.2033
 21
292.8218
  0
LINE
  8
0_00
  6
DASHED
 62
2
 10
354.9459
 20
292.8365
 11
350.9459
 21
288.8365
  0
LINE
  8
0_00
  6
DASHED
 62
2
 10
355.2033
 20
288.8512
 11
355.1885
 21
288.8365
  0
LINE
  8
0_00
  6
DASHED
 62
2
 10
346.2033
 20
318.3365
 11
346.2033
 21
288.3365
  0
LINE
  8
0_00
  6
DASHED
 62
2
 10
296.2033
 20
318.3365
 11
296.2033
 21
288.3365
  0
LINE
  8
0_00
  6
CONTINUOUS
 62
4
 10
292.1189
 20
318.3365
 11
350.2876
 21
318.3365
  0
LINE
  8
0_00
  6
CONTINUOUS
 62
4
 10
353.1405
 20
296.3814
 11
351.2838
 21
317.4244
  0
LINE
  8
0_00
  6
CONTINUOUS
 62
4
 10
289.2660
 20
296.3814
 11
291.1227
 21
317.4244
  0
LINE
  8
0_00
  6
CONTINUOUS
 62
2
 10
285.2032
 20
293.8365
 11
302.2033
 21
293.8365
  0
LINE
  8
0_00
  6
CONTINUOUS
 62
2
 10
302.2033
 20
293.8365
 11
302.2033
 21
292.8365
  0
LINE
  8
0_00
  6
CONTINUOUS
 62
2
 10
285.2032
 20
293.8365
 11
285.2032
 21
292.8365
  0
LINE
  8
0_00
  6
CONTINUOUS
 62
2
 10
357.2033
 20
293.8365
 11
340.2033
 21
293.8365
  0
LINE
  8
0_00
  6
CONTINUOUS
 62
2
 10
340.2033
 20
293.8365
 11
340.2033
 21
292.8365
  0
LINE
  8
0_00
  6
CONTINUOUS
 62
2
 10
357.2033
 20
293.8365
 11
357.2033
 21
292.8365
  0
LINE
  8
12_0C
  6
DASHED
 62
2
 10
351.2033
 20
314.8365
 11
351.2033
 21
306.8365
  0
LINE
  8
12_0C
  6
CONTINUOUS
 62
2
 10
351.6033
 20
314.8365
 11
351.6033
 21
313.8032
  0
LINE
  8
12_0C
  6
DASHED
 62
2
 10
351.6033
 20
313.8032
 11
351.6033
 21
306.8365
  0
LINE
  8
12_0C
  6
DASHED
 62
2
 10
351.2033
 20
306.8365
 11
351.6033
 21
306.8365
  0
LINE
  8
12_0C
  6
CONTINUOUS
 62
2
 10
351.5121
 20
314.8365
 11
351.6033
 21
314.8365
  0
LINE
  8
12_0C
  6
DASHED
 62
2
 10
351.2033
 20
314.8365
 11
351.5121
 21
314.8365
  0
LINE
  8
0_00
  6
DASHED
 62
2
 10
351.2033
 20
312.8365
 11
340.0233
 21
312.8365
  0
LINE
  8
12_0C
  6
DASHED
 62
2
 10
351.2033
 20
312.2865
 11
335.2033
 21
312.2865
  0
LINE
  8
12_0C
  6
DASHED
 62
2
 10
335.2033
 20
312.2865
 11
335.2033
 21
309.3865
  0
LINE
  8
12_0C
  6
DASHED
 62
2
 10
340.0233
 20
312.8365
 11
335.2033
 21
312.2865
  0
LINE
  8
0_00
  6
DASHED
 62
2
 10
351.2033
 20
308.8365
 11
340.0233
 21
308.8365
  0
LINE
  8
12_0C
  6
DASHED
 62
2
 10
351.2033
 20
309.3865
 11
335.2033
 21
309.3865
  0
LINE
  8
12_0C
  6
DASHED
 62
2
 10
340.0233
 20
308.8365
 11
335.2033
 21
309.3865
  0
LINE
  8
12_0C
  6
DASHED
 62
2
 10
291.2033
 20
314.8365
 11
291.2033
 21
306.8365
  0
LINE
  8
12_0C
  6
CONTINUOUS
 62
2
 10
290.8032
 20
314.8365
 11
290.8032
 21
313.8032
  0
LINE
  8
12_0C
  6
DASHED
 62
2
 10
290.8032
 20
313.8032
 11
290.8032
 21
306.8365
  0
LINE
  8
12_0C
  6
DASHED
 62
2
 10
291.2033
 20
306.8365
 11
290.8032
 21
306.8365
  0
LINE
  8
12_0C
  6
CONTINUOUS
 62
2
 10
290.8944
 20
314.8365
 11
290.8032
 21
314.8365
  0
LINE
  8
12_0C
  6
DASHED
 62
2
 10
291.2033
 20
314.8365
 11
290.8944
 21
314.8365
  0
LINE
  8
0_00
  6
DASHED
 62
2
 10
291.2033
 20
312.8365
 11
302.3833
 21
312.8365
  0
LINE
  8
12_0C
  6
DASHED
 62
2
 10
291.2033
 20
312.2865
 11
307.2033
 21
312.2865
  0
LINE
  8
12_0C
  6
DASHED
 62
2
 10
307.2033
 20
312.2865
 11
307.2033
 21
309.3865
  0
LINE
  8
12_0C
  6
DASHED
 62
2
 10
302.3833
 20
312.8365
 11
307.2033
 21
312.2865
  0
LINE
  8
0_00
  6
DASHED
 62
2
 10
291.2033
 20
308.8365
 11
302.3833
 21
308.8365
  0
LINE
  8
12_0C
  6
DASHED
 62
2
 10
291.2033
 20
309.3865
 11
307.2033
 21
309.3865
  0
LINE
  8
12_0C
  6
DASHED
 62
2
 10
302.3833
 20
308.8365
 11
307.2033
 21
309.3865
  0
LINE
  8
0_00
  6
CONTINUOUS
 62
2
 10
346.9980
 20
268.3365
 11
271.9980
 21
193.3365
  0
LINE
  8
0_00
  6
CONTINUOUS
 62
2
 10
351.2407
 20
268.3365
 11
276.2407
 21
193.3365
  0
LINE
  8
0_00
  6
CONTINUOUS
 62
2
 10
355.4833
 20
268.3365
 11
280.4833
 21
193.3365
  0
LINE
  8
0_00
  6
CONTINUOUS
 62
2
 10
393.2033
 20
235.3457
 11
351.1940
 21
193.3365
  0
LINE
  8
0_00
  6
CONTINUOUS
 62
2
 10
393.2033
 20
231.1031
 11
355.4366
 21
193.3365
  0
LINE
  8
0_00
  6
CONTINUOUS
 62
2
 10
393.2033
 20
226.8605
 11
359.6793
 21
193.3365
  0
LINE
  8
0_00
  6
CENTER1
 62
6
 10
348.7033
 20
303.2838
 11
348.7033
 21
237.1773
  0
LINE
  8
0_00
  6
CENTER1
 62
6
 10
293.7033
 20
237.1773
 11
293.7033
 21
301.5310
  0
LINE
  8
0_00
  6
CENTER1
 62
6
 10
284.9613
 20
310.8365
 11
357.5635
 21
310.8365
  0
LINE
  8
0_00
  6
CONTINUOUS
 62
6
 10
293.7033
 20
222.1773
 11
293.7033
 21
144.1098
  0
LINE
  8
0_00
  6
CONTINUOUS
 62
6
 10
348.7033
 20
222.1773
 11
348.7033
 21
144.1098
  0
LINE
  8
0_00
  6
CONTINUOUS
 62
6
 10
293.7033
 20
150.1098
 11
348.7033
 21
150.1098
  0
LINE
  8
0_00
  6
CONTINUOUS
 62
6
 10
293.7033
 20
150.1098
 11
302.5066
 21
148.2386
  0
LINE
  8
0_00
  6
CONTINUOUS
 62
6
 10
293.7033
 20
150.1098
 11
302.5066
 21
151.9810
  0
LINE
  8
0_00
  6
CONTINUOUS
 62
6
 10
348.7033
 20
150.1098
 11
339.8999
 21
151.9810
  0
LINE
  8
0_00
  6
CONTINUOUS
 62
6
 10
348.7033
 20
150.1098
 11
339.8999
 21
148.2386
  0
LINE
  8
0_00
  6
CONTINUOUS
 62
6
 10
348.7033
 20
150.1098
 11
411.2033
 21
150.1098
  0
LINE
  8
0_00
  6
CONTINUOUS
 62
6
 10
348.7033
 20
150.1098
 11
357.5066
 21
148.2386
  0
LINE
  8
0_00
  6
CONTINUOUS
 62
6
 10
348.7033
 20
150.1098
 11
357.5066
 21
151.9810
  0
LINE
  8
0_00
  6
CONTINUOUS
 62
6
 10
411.2033
 20
150.1098
 11
402.3999
 21
151.9810
  0
LINE
  8
0_00
  6
CONTINUOUS
 62
6
 10
411.2033
 20
150.1098
 11
402.3999
 21
148.2386
  0
LINE
  8
0_00
  6
CONTINUOUS
 62
6
 10
411.2033
 20
178.3364
 11
411.2033
 21
165.6783
  0
LINE
  8
0_00
  6
CONTINUOUS
 62
6
 10
411.2033
 20
150.1098
 11
411.2033
 21
144.1098
  0
LINE
  8
0_00
  6
CENTER1
 62
6
 10
594.7827
 20
330.1722
 11
1140.4971
 21
330.1722
  0
LINE
  8
0_00
  6
CENTER1
 62
6
 10
720.0551
 20
389.8300
 11
720.0551
 21
268.1310
  0
LINE
  8
0_00
  6
CONTINUOUS
 62
2
 10
929.7788
 20
445.1722
 11
900.1605
 21
334.6350
  0
LINE
  8
0_00
  6
CONTINUOUS
 62
2
 10
925.1201
 20
445.1722
 11
894.6491
 21
331.4530
  0
LINE
  8
0_00
  6
CONTINUOUS
 62
2
 10
918.5374
 20
325.0522
 11
889.0950
 21
215.1721
  0
LINE
  8
0_00
  6
CONTINUOUS
 62
2
 10
893.7538
 20
215.1721
 11
924.0486
 21
328.2342
  0
LINE
  8
0_00
  6
CONTINUOUS
 62
2
 10
900.1605
 20
334.6350
 11
924.0486
 21
328.2342
  0
LINE
  8
0_00
  6
CONTINUOUS
 62
2
 10
918.5374
 20
325.0522
 11
894.6491
 21
331.4530
  0
LINE
  8
0_00
  6
CONTINUOUS
 62
2
 10
702.0551
 20
332.1722
 11
703.2351
 21
332.1722
  0
LINE
  8
12_0C
  6
CONTINUOUS
 62
2
 10
702.0551
 20
331.6221
 11
708.0551
 21
331.6221
  0
LINE
  8
12_0C
  6
CONTINUOUS
 62
2
 10
708.0551
 20
331.6221
 11
708.0551
 21
328.7222
  0
LINE
  8
12_0C
  6
CONTINUOUS
 62
2
 10
703.2351
 20
332.1722
 11
708.0551
 21
331.6221
  0
LINE
  8
0_00
  6
CONTINUOUS
 62
2
 10
702.0551
 20
328.1722
 11
703.2351
 21
328.1722
  0
LINE
  8
12_0C
  6
CONTINUOUS
 62
2
 10
702.0551
 20
328.7222
 11
708.0551
 21
328.7222
  0
LINE
  8
12_0C
  6
CONTINUOUS
 62
2
 10
703.2351
 20
328.1722
 11
708.0551
 21
328.7222
  0
LINE
  8
0_00
  6
CONTINUOUS
 62
2
 10
738.0551
 20
332.1722
 11
736.8751
 21
332.1722
  0
LINE
  8
12_0C
  6
CONTINUOUS
 62
2
 10
738.0551
 20
331.6221
 11
732.0551
 21
331.6221
  0
LINE
  8
12_0C
  6
CONTINUOUS
 62
2
 10
732.0551
 20
331.6221
 11
732.0551
 21
328.7222
  0
LINE
  8
12_0C
  6
CONTINUOUS
 62
2
 10
736.8751
 20
332.1722
 11
732.0551
 21
331.6221
  0
LINE
  8
0_00
  6
CONTINUOUS
 62
2
 10
738.0551
 20
328.1722
 11
736.8751
 21
328.1722
  0
LINE
  8
12_0C
  6
CONTINUOUS
 62
2
 10
738.0551
 20
328.7222
 11
732.0551
 21
328.7222
  0
LINE
  8
12_0C
  6
CONTINUOUS
 62
2
 10
736.8751
 20
328.1722
 11
732.0551
 21
328.7222
  0
LINE
  8
14_0E
  6
CENTER1
 62
6
 10
662.2798
 20
312.1721
 11
677.2966
 21
312.1721
  0
LINE
  8
14_0E
  6
CENTER1
 62
6
 10
662.2798
 20
348.1722
 11
677.2966
 21
348.1722
  0
LINE
  8
14_0E
  6
CENTER1
 62
6
 10
670.0551
 20
304.9751
 11
670.0551
 21
317.8721
  0
LINE
  8
14_0E
  6
CENTER1
 62
6
 10
670.0551
 20
342.4722
 11
670.0551
 21
357.1690
  0
LINE
  8
14_0E
  6
CENTER1
 62
6
 10
777.8305
 20
312.1721
 11
762.8137
 21
312.1721
  0
LINE
  8
14_0E
  6
CENTER1
 62
6
 10
777.8305
 20
348.1722
 11
762.8137
 21
348.1722
  0
LINE
  8
14_0E
  6
CENTER1
 62
6
 10
770.0551
 20
304.9751
 11
770.0551
 21
317.8721
  0
LINE
  8
14_0E
  6
CENTER1
 62
6
 10
770.0551
 20
342.4722
 11
770.0551
 21
357.1690
  0
LINE
  8
0_00
  6
CENTER1
 62
6
 10
757.5551
 20
286.5507
 11
757.5551
 21
314.3750
  0
LINE
  8
0_00
  6
CENTER1
 62
6
 10
682.5551
 20
286.5507
 11
682.5551
 21
314.3750
  0
LINE
  8
0_00
  6
CENTER1
 62
6
 10
671.5551
 20
302.6721
 11
696.3051
 21
302.6721
  0
LINE
  8
0_00
  6
CENTER1
 62
6
 10
743.8051
 20
302.6721
 11
768.5551
 21
302.6721
  0
LINE
  8
0_00
  6
CENTER1
 62
6
 10
757.5551
 20
373.7936
 11
757.5551
 21
345.9693
  0
LINE
  8
0_00
  6
CENTER1
 62
6
 10
682.5551
 20
373.7936
 11
682.5551
 21
345.9693
  0
LINE
  8
0_00
  6
CENTER1
 62
6
 10
671.5551
 20
357.6721
 11
696.3051
 21
357.6721
  0
LINE
  8
0_00
  6
CENTER1
 62
6
 10
743.8051
 20
357.6721
 11
768.5551
 21
357.6721
  0
LINE
  8
0_00
  6
CONTINUOUS
 62
4
 10
670.0551
 20
302.6721
 11
670.0551
 21
307.6721
  0
LINE
  8
0_00
  6
CONTINUOUS
 62
4
 10
670.0551
 20
352.6722
 11
670.0551
 21
357.6721
  0
LINE
  8
0_00
  6
CONTINUOUS
 62
4
 10
770.0551
 20
302.6721
 11
770.0551
 21
307.6721
  0
LINE
  8
0_00
  6
CONTINUOUS
 62
4
 10
770.0551
 20
352.6722
 11
770.0551
 21
357.6721
  0
LINE
  8
0_00
  6
CONTINUOUS
 62
4
 10
682.5551
 20
290.1721
 11
757.5551
 21
290.1721
  0
LINE
  8
0_00
  6
CONTINUOUS
 62
4
 10
682.5551
 20
370.1722
 11
757.5551
 21
370.1722
  0
LINE
  8
0_00
  6
CONTINUOUS
 62
4
 10
768.5551
 20
302.6721
 11
768.5551
 21
307.6721
  0
LINE
  8
0_00
  6
CONTINUOUS
 62
4
 10
768.5551
 20
352.6722
 11
768.5551
 21
357.6721
  0
LINE
  8
0_00
  6
CONTINUOUS
 62
4
 10
671.5551
 20
302.6721
 11
671.5551
 21
307.6721
  0
LINE
  8
0_00
  6
CONTINUOUS
 62
4
 10
671.5551
 20
352.6722
 11
671.5551
 21
357.6721
  0
LINE
  8
0_00
  6
CONTINUOUS
 62
4
 10
682.5551
 20
291.6721
 11
757.5551
 21
291.6721
  0
LINE
  8
0_00
  6
CONTINUOUS
 62
4
 10
682.5551
 20
368.6722
 11
757.5551
 21
368.6722
  0
LINE
  8
0_00
  6
CONTINUOUS
 62
4
 10
702.5551
 20
298.1721
 11
716.9351
 21
298.1721
  0
LINE
  8
0_00
  6
CONTINUOUS
 62
4
 10
723.1751
 20
298.1721
 11
737.5551
 21
298.1721
  0
LINE
  8
0_00
  6
CONTINUOUS
 62
4
 10
702.5551
 20
362.1721
 11
716.9351
 21
362.1721
  0
LINE
  8
0_00
  6
CONTINUOUS
 62
4
 10
723.1751
 20
362.1721
 11
737.5551
 21
362.1721
  0
LINE
  8
0_00
  6
CONTINUOUS
 62
4
 10
702.5551
 20
360.1721
 11
716.5363
 21
360.1721
  0
LINE
  8
0_00
  6
CONTINUOUS
 62
4
 10
723.5363
 20
360.1721
 11
737.5551
 21
360.1721
  0
LINE
  8
0_00
  6
CONTINUOUS
 62
4
 10
702.5551
 20
300.1721
 11
737.5551
 21
300.1721
  0
LINE
  8
0_00
  6
CONTINUOUS
 62
4
 10
737.5551
 20
355.9221
 11
724.6363
 21
355.9221
  0
LINE
  8
0_00
  6
CONTINUOUS
 62
4
 10
715.4363
 20
355.9221
 11
702.5551
 21
355.9221
  0
LINE
  8
0_00
  6
CONTINUOUS
 62
4
 10
702.5551
 20
304.4221
 11
714.5173
 21
304.4221
  0
LINE
  8
0_00
  6
CONTINUOUS
 62
4
 10
725.5930
 20
304.4221
 11
737.5551
 21
304.4221
  0
LINE
  8
0_00
  6
CONTINUOUS
 62
4
 10
720.0551
 20
369.9847
 11
719.0551
 21
370.1722
  0
LINE
  8
0_00
  6
CONTINUOUS
 62
4
 10
721.0551
 20
370.1722
 11
720.0551
 21
369.9847
  0
LINE
  8
0_00
  6
CONTINUOUS
 62
4
 10
720.0551
 20
369.9847
 11
720.0551
 21
370.1722
  0
LINE
  8
0_00
  6
CONTINUOUS
 62
4
 10
720.0551
 20
290.3596
 11
719.0551
 21
290.1721
  0
LINE
  8
0_00
  6
CONTINUOUS
 62
4
 10
721.0551
 20
290.1721
 11
720.0551
 21
290.3596
  0
LINE
  8
0_00
  6
CONTINUOUS
 62
4
 10
720.0551
 20
290.3596
 11
720.0551
 21
290.1721
  0
LINE
  8
0_00
  6
CONTINUOUS
 62
4
 10
702.5551
 20
304.4221
 11
714.5173
 21
304.4221
  0
LINE
  8
0_00
  6
CONTINUOUS
 62
4
 10
725.5930
 20
304.4221
 11
737.5551
 21
304.4221
  0
LINE
  8
0_00
  6
CONTINUOUS
 62
4
 10
738.0551
 20
327.6722
 11
738.0551
 21
332.6722
  0
LINE
  8
0_00
  6
CONTINUOUS
 62
4
 10
720.3551
 20
305.1721
 11
737.5551
 21
305.1721
  0
LINE
  8
0_00
  6
CONTINUOUS
 62
4
 10
738.8551
 20
315.4620
 11
738.8551
 21
326.8722
  0
LINE
  8
0_00
  6
CONTINUOUS
 62
4
 10
738.8551
 20
326.8722
 11
738.0551
 21
327.6722
  0
LINE
  8
0_00
  6
CONTINUOUS
 62
4
 10
738.2552
 20
307.1721
 11
729.5551
 21
307.1721
  0
LINE
  8
0_00
  6
CONTINUOUS
 62
4
 10
710.5552
 20
307.1721
 11
701.8551
 21
307.1721
  0
LINE
  8
0_00
  6
CONTINUOUS
 62
4
 10
701.2551
 20
315.4620
 11
701.2551
 21
326.8722
  0
LINE
  8
0_00
  6
CONTINUOUS
 62
4
 10
701.2551
 20
326.8722
 11
702.0551
 21
327.6722
  0
LINE
  8
0_00
  6
CONTINUOUS
 62
4
 10
702.0551
 20
332.6722
 11
702.0551
 21
327.6722
  0
LINE
  8
0_00
  6
CONTINUOUS
 62
4
 10
740.0551
 20
307.6721
 11
740.0551
 21
329.8721
  0
LINE
  8
0_00
  6
CONTINUOUS
 62
4
 10
740.0551
 20
330.4722
 11
740.0551
 21
352.6722
  0
LINE
  8
0_00
  6
CONTINUOUS
 62
4
 10
700.0551
 20
307.6721
 11
700.0551
 21
329.8721
  0
LINE
  8
0_00
  6
CONTINUOUS
 62
4
 10
700.0551
 20
330.4722
 11
700.0551
 21
352.6722
  0
LINE
  8
0_00
  6
CONTINUOUS
 62
4
 10
734.7052
 20
310.9366
 11
734.7052
 21
309.8355
  0
LINE
  8
0_00
  6
CONTINUOUS
 62
4
 10
737.3551
 20
310.1765
 11
737.3551
 21
310.6721
  0
LINE
  8
0_00
  6
CONTINUOUS
 62
4
 10
735.7552
 20
310.1765
 11
735.7552
 21
310.6721
  0
LINE
  8
0_00
  6
CONTINUOUS
 62
4
 10
738.7051
 20
311.4505
 11
738.7051
 21
312.8939
  0
LINE
  8
0_00
  6
CONTINUOUS
 62
4
 10
738.0274
 20
311.3222
 11
738.2552
 21
311.1907
  0
LINE
  8
0_00
  6
CONTINUOUS
 62
4
 10
734.7052
 20
313.4077
 11
734.7052
 21
314.5088
  0
LINE
  8
0_00
  6
CONTINUOUS
 62
4
 10
737.3551
 20
314.1678
 11
737.3551
 21
313.6721
  0
LINE
  8
0_00
  6
CONTINUOUS
 62
4
 10
735.7552
 20
314.1678
 11
735.7552
 21
313.6721
  0
LINE
  8
0_00
  6
CONTINUOUS
 62
4
 10
738.0274
 20
313.0222
 11
738.2552
 21
313.1537
  0
LINE
  8
0_00
  6
CONTINUOUS
 62
4
 10
705.4051
 20
310.9366
 11
705.4051
 21
309.8355
  0
LINE
  8
0_00
  6
CONTINUOUS
 62
4
 10
702.7551
 20
310.1765
 11
702.7551
 21
310.6721
  0
LINE
  8
0_00
  6
CONTINUOUS
 62
4
 10
704.3551
 20
310.1765
 11
704.3551
 21
310.6721
  0
LINE
  8
0_00
  6
CONTINUOUS
 62
4
 10
701.4051
 20
311.4505
 11
701.4051
 21
312.8939
  0
LINE
  8
0_00
  6
CONTINUOUS
 62
4
 10
702.0829
 20
311.3222
 11
701.8551
 21
311.1907
  0
LINE
  8
0_00
  6
CONTINUOUS
 62
4
 10
705.4051
 20
313.4077
 11
705.4051
 21
314.5088
  0
LINE
  8
0_00
  6
CONTINUOUS
 62
4
 10
702.7551
 20
314.1678
 11
702.7551
 21
313.6721
  0
LINE
  8
0_00
  6
CONTINUOUS
 62
4
 10
704.3551
 20
314.1678
 11
704.3551
 21
313.6721
  0
LINE
  8
0_00
  6
CONTINUOUS
 62
4
 10
702.0829
 20
313.0222
 11
701.8551
 21
313.1537
  0
LINE
  8
0_00
  6
CONTINUOUS
 62
4
 10
738.7552
 20
308.8296
 11
738.7552
 21
307.6721
  0
LINE
  8
0_00
  6
CONTINUOUS
 62
4
 10
701.3551
 20
308.8296
 11
701.3551
 21
307.6721
  0
LINE
  8
0_00
  6
CONTINUOUS
 62
4
 10
723.3551
 20
306.4721
 11
728.7552
 21
306.4721
  0
LINE
  8
0_00
  6
CONTINUOUS
 62
4
 10
729.5551
 20
307.1721
 11
728.7552
 21
306.4721
  0
LINE
  8
0_00
  6
CONTINUOUS
 62
4
 10
723.3551
 20
306.4721
 11
722.5551
 21
307.1721
  0
LINE
  8
0_00
  6
CONTINUOUS
 62
4
 10
716.7551
 20
306.4721
 11
711.3551
 21
306.4721
  0
LINE
  8
0_00
  6
CONTINUOUS
 62
4
 10
710.5552
 20
307.1721
 11
711.3551
 21
306.4721
  0
LINE
  8
0_00
  6
CONTINUOUS
 62
4
 10
716.7551
 20
306.4721
 11
717.5552
 21
307.1721
  0
LINE
  8
0_00
  6
CONTINUOUS
 62
4
 10
717.5552
 20
307.1721
 11
722.5551
 21
307.1721
  0
LINE
  8
0_00
  6
CONTINUOUS
 62
4
 10
719.7551
 20
305.1721
 11
720.0551
 21
305.4721
  0
LINE
  8
0_00
  6
CONTINUOUS
 62
4
 10
720.3551
 20
305.1721
 11
720.0551
 21
305.4721
  0
LINE
  8
0_00
  6
CONTINUOUS
 62
4
 10
700.0551
 20
330.4722
 11
700.3551
 21
330.1722
  0
LINE
  8
0_00
  6
CONTINUOUS
 62
4
 10
700.0551
 20
329.8721
 11
700.3551
 21
330.1722
  0
LINE
  8
0_00
  6
CONTINUOUS
 62
4
 10
740.0551
 20
330.4722
 11
739.7552
 21
330.1722
  0
LINE
  8
0_00
  6
CONTINUOUS
 62
4
 10
740.0551
 20
329.8721
 11
739.7552
 21
330.1722
  0
LINE
  8
0_00
  6
CONTINUOUS
 62
4
 10
702.5551
 20
305.1721
 11
719.7551
 21
305.1721
  0
LINE
  8
0_00
  6
CONTINUOUS
 62
4
 10
720.3551
 20
355.1721
 11
737.5551
 21
355.1721
  0
LINE
  8
0_00
  6
CONTINUOUS
 62
4
 10
738.8551
 20
344.8824
 11
738.8551
 21
333.4722
  0
LINE
  8
0_00
  6
CONTINUOUS
 62
4
 10
738.8551
 20
333.4722
 11
738.0551
 21
332.6722
  0
LINE
  8
0_00
  6
CONTINUOUS
 62
4
 10
738.2552
 20
353.1722
 11
729.5551
 21
353.1722
  0
LINE
  8
0_00
  6
CONTINUOUS
 62
4
 10
710.5552
 20
353.1722
 11
701.8551
 21
353.1722
  0
LINE
  8
0_00
  6
CONTINUOUS
 62
4
 10
701.2551
 20
344.8824
 11
701.2551
 21
333.4722
  0
LINE
  8
0_00
  6
CONTINUOUS
 62
4
 10
701.2551
 20
333.4722
 11
702.0551
 21
332.6722
  0
LINE
  8
0_00
  6
CONTINUOUS
 62
4
 10
734.7052
 20
349.4077
 11
734.7052
 21
350.5088
  0
LINE
  8
0_00
  6
CONTINUOUS
 62
4
 10
737.3551
 20
350.1678
 11
737.3551
 21
349.6722
  0
LINE
  8
0_00
  6
CONTINUOUS
 62
4
 10
735.7552
 20
350.1678
 11
735.7552
 21
349.6722
  0
LINE
  8
0_00
  6
CONTINUOUS
 62
4
 10
738.7051
 20
348.8939
 11
738.7051
 21
347.4505
  0
LINE
  8
0_00
  6
CONTINUOUS
 62
4
 10
738.0274
 20
349.0222
 11
738.2552
 21
349.1537
  0
LINE
  8
0_00
  6
CONTINUOUS
 62
4
 10
734.7052
 20
346.9366
 11
734.7052
 21
345.8355
  0
LINE
  8
0_00
  6
CONTINUOUS
 62
4
 10
737.3551
 20
346.1765
 11
737.3551
 21
346.6722
  0
LINE
  8
0_00
  6
CONTINUOUS
 62
4
 10
735.7552
 20
346.1765
 11
735.7552
 21
346.6722
  0
LINE
  8
0_00
  6
CONTINUOUS
 62
4
 10
738.0274
 20
347.3222
 11
738.2552
 21
347.1907
  0
LINE
  8
0_00
  6
CONTINUOUS
 62
4
 10
705.4051
 20
349.4077
 11
705.4051
 21
350.5088
  0
LINE
  8
0_00
  6
CONTINUOUS
 62
4
 10
702.7551
 20
350.1678
 11
702.7551
 21
349.6722
  0
LINE
  8
0_00
  6
CONTINUOUS
 62
4
 10
704.3551
 20
350.1678
 11
704.3551
 21
349.6722
  0
LINE
  8
0_00
  6
CONTINUOUS
 62
4
 10
701.4051
 20
348.8939
 11
701.4051
 21
347.4505
  0
LINE
  8
0_00
  6
CONTINUOUS
 62
4
 10
702.0829
 20
349.0222
 11
701.8551
 21
349.1537
  0
LINE
  8
0_00
  6
CONTINUOUS
 62
4
 10
705.4051
 20
346.9366
 11
705.4051
 21
345.8355
  0
LINE
  8
0_00
  6
CONTINUOUS
 62
4
 10
702.7551
 20
346.1765
 11
702.7551
 21
346.6722
  0
LINE
  8
0_00
  6
CONTINUOUS
 62
4
 10
704.3551
 20
346.1765
 11
704.3551
 21
346.6722
  0
LINE
  8
0_00
  6
CONTINUOUS
 62
4
 10
702.0829
 20
347.3222
 11
701.8551
 21
347.1907
  0
LINE
  8
0_00
  6
CONTINUOUS
 62
4
 10
738.7552
 20
351.5147
 11
738.7552
 21
352.6722
  0
LINE
  8
0_00
  6
CONTINUOUS
 62
4
 10
701.3551
 20
351.5147
 11
701.3551
 21
352.6722
  0
LINE
  8
0_00
  6
CONTINUOUS
 62
4
 10
723.3551
 20
353.8722
 11
728.7552
 21
353.8722
  0
LINE
  8
0_00
  6
CONTINUOUS
 62
4
 10
729.5551
 20
353.1722
 11
728.7552
 21
353.8722
  0
LINE
  8
0_00
  6
CONTINUOUS
 62
4
 10
723.3551
 20
353.8722
 11
722.5551
 21
353.1722
  0
LINE
  8
0_00
  6
CONTINUOUS
 62
4
 10
716.7551
 20
353.8722
 11
711.3551
 21
353.8722
  0
LINE
  8
0_00
  6
CONTINUOUS
 62
4
 10
710.5552
 20
353.1722
 11
711.3551
 21
353.8722
  0
LINE
  8
0_00
  6
CONTINUOUS
 62
4
 10
716.7551
 20
353.8722
 11
717.5552
 21
353.1722
  0
LINE
  8
0_00
  6
CONTINUOUS
 62
4
 10
717.5552
 20
353.1722
 11
722.5551
 21
353.1722
  0
LINE
  8
0_00
  6
CONTINUOUS
 62
4
 10
719.7551
 20
355.1721
 11
720.0551
 21
354.8722
  0
LINE
  8
0_00
  6
CONTINUOUS
 62
4
 10
720.3551
 20
355.1721
 11
720.0551
 21
354.8722
  0
LINE
  8
0_00
  6
CONTINUOUS
 62
4
 10
702.5551
 20
355.1721
 11
719.7551
 21
355.1721
  0
LINE
  8
0_00
  6
CONTINUOUS
 62
4
 10
729.0551
 20
326.1721
 11
729.0551
 21
334.1722
  0
LINE
  8
0_00
  6
CONTINUOUS
 62
4
 10
708.4983
 20
307.5722
 11
719.7551
 21
307.5722
  0
LINE
  8
0_00
  6
CONTINUOUS
 62
4
 10
720.3551
 20
307.5722
 11
731.6119
 21
307.5722
  0
LINE
  8
0_00
  6
CONTINUOUS
 62
4
 10
723.8551
 20
308.8222
 11
725.7289
 21
308.8222
  0
LINE
  8
0_00
  6
CONTINUOUS
 62
4
 10
724.9551
 20
325.1721
 11
727.9990
 21
325.1721
  0
LINE
  8
0_00
  6
CONTINUOUS
 62
4
 10
719.7551
 20
307.5722
 11
720.0551
 21
307.8722
  0
LINE
  8
0_00
  6
CONTINUOUS
 62
4
 10
720.3551
 20
307.5722
 11
720.0551
 21
307.8722
  0
LINE
  8
0_00
  6
CONTINUOUS
 62
4
 10
729.0551
 20
326.1721
 11
734.2052
 21
318.1721
  0
LINE
  8
0_00
  6
CONTINUOUS
 62
4
 10
724.9551
 20
326.3722
 11
727.3551
 21
326.3722
  0
LINE
  8
0_00
  6
CONTINUOUS
 62
4
 10
727.8551
 20
326.8722
 11
727.8551
 21
333.4722
  0
LINE
  8
0_00
  6
CONTINUOUS
 62
4
 10
711.0552
 20
326.1721
 11
711.0552
 21
334.1722
  0
LINE
  8
0_00
  6
CONTINUOUS
 62
4
 10
714.3814
 20
308.8222
 11
716.2551
 21
308.8222
  0
LINE
  8
0_00
  6
CONTINUOUS
 62
4
 10
715.1551
 20
325.1721
 11
712.1113
 21
325.1721
  0
LINE
  8
0_00
  6
CONTINUOUS
 62
4
 10
705.9051
 20
312.4722
 11
705.9051
 21
318.1721
  0
LINE
  8
0_00
  6
CONTINUOUS
 62
4
 10
705.9051
 20
311.8722
 11
705.9051
 21
310.1653
  0
LINE
  8
0_00
  6
CONTINUOUS
 62
4
 10
707.9051
 20
316.1721
 11
707.9051
 21
314.8382
  0
LINE
  8
0_00
  6
CONTINUOUS
 62
4
 10
706.2051
 20
312.1721
 11
705.9051
 21
312.4722
  0
LINE
  8
0_00
  6
CONTINUOUS
 62
4
 10
706.2051
 20
312.1721
 11
705.9051
 21
311.8722
  0
LINE
  8
0_00
  6
CONTINUOUS
 62
4
 10
711.0552
 20
326.1721
 11
705.9051
 21
318.1721
  0
LINE
  8
0_00
  6
CONTINUOUS
 62
4
 10
715.1551
 20
326.3722
 11
712.7551
 21
326.3722
  0
LINE
  8
0_00
  6
CONTINUOUS
 62
4
 10
712.2551
 20
326.8722
 11
712.2551
 21
333.4722
  0
LINE
  8
0_00
  6
CONTINUOUS
 62
4
 10
707.1051
 20
317.8193
 11
707.1051
 21
316.9722
  0
LINE
  8
0_00
  6
CONTINUOUS
 62
4
 10
707.1051
 20
316.9722
 11
707.9051
 21
316.1721
  0
LINE
  8
0_00
  6
CONTINUOUS
 62
4
 10
733.0052
 20
317.8193
 11
728.4194
 21
324.9428
  0
LINE
  8
0_00
  6
CONTINUOUS
 62
4
 10
707.1051
 20
317.8193
 11
711.6909
 21
324.9428
  0
LINE
  8
0_00
  6
CONTINUOUS
 62
4
 10
713.0197
 20
311.8326
 11
713.6570
 21
312.0033
  0
LINE
  8
0_00
  6
CONTINUOUS
 62
4
 10
711.2155
 20
313.6367
 11
711.3862
 21
314.2741
  0
LINE
  8
0_00
  6
CONTINUOUS
 62
4
 10
709.3177
 20
308.8740
 11
708.2570
 21
309.9347
  0
LINE
  8
0_00
  6
CONTINUOUS
 62
4
 10
711.7925
 20
308.8740
 11
712.8532
 21
309.9347
  0
LINE
  8
0_00
  6
CONTINUOUS
 62
4
 10
708.2570
 20
312.4096
 11
709.3177
 21
313.4702
  0
LINE
  8
0_00
  6
CONTINUOUS
 62
4
 10
709.6985
 20
309.2548
 11
709.3177
 21
308.8740
  0
LINE
  8
0_00
  6
CONTINUOUS
 62
4
 10
708.6378
 20
310.3155
 11
708.2570
 21
309.9347
  0
LINE
  8
0_00
  6
CONTINUOUS
 62
4
 10
711.4117
 20
309.2548
 11
711.7925
 21
308.8740
  0
LINE
  8
0_00
  6
CONTINUOUS
 62
4
 10
712.4724
 20
310.3155
 11
712.8532
 21
309.9347
  0
LINE
  8
0_00
  6
CONTINUOUS
 62
4
 10
708.6378
 20
312.0288
 11
708.2570
 21
312.4096
  0
LINE
  8
0_00
  6
CONTINUOUS
 62
4
 10
709.6985
 20
313.0895
 11
709.3177
 21
313.4702
  0
LINE
  8
0_00
  6
CONTINUOUS
 62
4
 10
734.2052
 20
312.4722
 11
734.2052
 21
318.1721
  0
LINE
  8
0_00
  6
CONTINUOUS
 62
4
 10
734.2052
 20
311.8722
 11
734.2052
 21
310.1653
  0
LINE
  8
0_00
  6
CONTINUOUS
 62
4
 10
732.2052
 20
316.1721
 11
732.2052
 21
314.8382
  0
LINE
  8
0_00
  6
CONTINUOUS
 62
4
 10
733.9051
 20
312.1721
 11
734.2052
 21
312.4722
  0
LINE
  8
0_00
  6
CONTINUOUS
 62
4
 10
733.9051
 20
312.1721
 11
734.2052
 21
311.8722
  0
LINE
  8
0_00
  6
CONTINUOUS
 62
4
 10
733.0052
 20
317.8193
 11
733.0052
 21
316.9722
  0
LINE
  8
0_00
  6
CONTINUOUS
 62
4
 10
733.0052
 20
316.9722
 11
732.2052
 21
316.1721
  0
LINE
  8
0_00
  6
CONTINUOUS
 62
4
 10
726.4532
 20
312.0033
 11
727.0906
 21
311.8326
  0
LINE
  8
0_00
  6
CONTINUOUS
 62
4
 10
728.7240
 20
314.2741
 11
728.8947
 21
313.6367
  0
LINE
  8
0_00
  6
CONTINUOUS
 62
4
 10
730.7926
 20
308.8740
 11
731.8532
 21
309.9347
  0
LINE
  8
0_00
  6
CONTINUOUS
 62
4
 10
728.3177
 20
308.8740
 11
727.2570
 21
309.9347
  0
LINE
  8
0_00
  6
CONTINUOUS
 62
4
 10
731.8532
 20
312.4096
 11
730.7926
 21
313.4702
  0
LINE
  8
0_00
  6
CONTINUOUS
 62
4
 10
730.4117
 20
309.2548
 11
730.7926
 21
308.8740
  0
LINE
  8
0_00
  6
CONTINUOUS
 62
4
 10
731.4724
 20
310.3155
 11
731.8532
 21
309.9347
  0
LINE
  8
0_00
  6
CONTINUOUS
 62
4
 10
728.6984
 20
309.2548
 11
728.3177
 21
308.8740
  0
LINE
  8
0_00
  6
CONTINUOUS
 62
4
 10
727.6377
 20
310.3155
 11
727.2570
 21
309.9347
  0
LINE
  8
0_00
  6
CONTINUOUS
 62
4
 10
731.4724
 20
312.0288
 11
731.8532
 21
312.4096
  0
LINE
  8
0_00
  6
CONTINUOUS
 62
4
 10
730.4117
 20
313.0895
 11
730.7926
 21
313.4702
  0
LINE
  8
0_00
  6
CONTINUOUS
 62
4
 10
731.6119
 20
307.5722
 11
734.2052
 21
310.1653
  0
LINE
  8
0_00
  6
CONTINUOUS
 62
4
 10
708.4983
 20
307.5722
 11
705.9051
 21
310.1653
  0
LINE
  8
0_00
  6
CONTINUOUS
 62
4
 10
717.0552
 20
309.5722
 11
723.0551
 21
309.5722
  0
LINE
  8
0_00
  6
CONTINUOUS
 62
4
 10
723.0551
 20
309.5722
 11
723.8551
 21
308.8222
  0
LINE
  8
0_00
  6
CONTINUOUS
 62
4
 10
717.0552
 20
309.5722
 11
716.2551
 21
308.8222
  0
LINE
  8
0_00
  6
CONTINUOUS
 62
4
 10
708.4983
 20
352.7721
 11
719.7551
 21
352.7721
  0
LINE
  8
0_00
  6
CONTINUOUS
 62
4
 10
720.3551
 20
352.7721
 11
731.6119
 21
352.7721
  0
LINE
  8
0_00
  6
CONTINUOUS
 62
4
 10
723.8551
 20
351.5221
 11
725.7289
 21
351.5221
  0
LINE
  8
0_00
  6
CONTINUOUS
 62
4
 10
724.9551
 20
335.1722
 11
727.9990
 21
335.1722
  0
LINE
  8
0_00
  6
CONTINUOUS
 62
4
 10
719.7551
 20
352.7721
 11
720.0551
 21
352.4722
  0
LINE
  8
0_00
  6
CONTINUOUS
 62
4
 10
720.3551
 20
352.7721
 11
720.0551
 21
352.4722
  0
LINE
  8
0_00
  6
CONTINUOUS
 62
4
 10
729.0551
 20
334.1722
 11
734.2052
 21
342.1721
  0
LINE
  8
0_00
  6
CONTINUOUS
 62
4
 10
724.9551
 20
333.9722
 11
727.3551
 21
333.9722
  0
LINE
  8
0_00
  6
CONTINUOUS
 62
4
 10
714.3814
 20
351.5221
 11
716.2551
 21
351.5221
  0
LINE
  8
0_00
  6
CONTINUOUS
 62
4
 10
715.1551
 20
335.1722
 11
712.1113
 21
335.1722
  0
LINE
  8
0_00
  6
CONTINUOUS
 62
4
 10
705.9051
 20
347.8722
 11
705.9051
 21
342.1721
  0
LINE
  8
0_00
  6
CONTINUOUS
 62
4
 10
705.9051
 20
348.4722
 11
705.9051
 21
350.1790
  0
LINE
  8
0_00
  6
CONTINUOUS
 62
4
 10
707.9051
 20
344.1721
 11
707.9051
 21
345.5061
  0
LINE
  8
0_00
  6
CONTINUOUS
 62
4
 10
706.2051
 20
348.1722
 11
705.9051
 21
347.8722
  0
LINE
  8
0_00
  6
CONTINUOUS
 62
4
 10
706.2051
 20
348.1722
 11
705.9051
 21
348.4722
  0
LINE
  8
0_00
  6
CONTINUOUS
 62
4
 10
711.0552
 20
334.1722
 11
705.9051
 21
342.1721
  0
LINE
  8
0_00
  6
CONTINUOUS
 62
4
 10
715.1551
 20
333.9722
 11
712.7551
 21
333.9722
  0
LINE
  8
0_00
  6
CONTINUOUS
 62
4
 10
707.1051
 20
342.5250
 11
707.1051
 21
343.3722
  0
LINE
  8
0_00
  6
CONTINUOUS
 62
4
 10
707.1051
 20
343.3722
 11
707.9051
 21
344.1721
  0
LINE
  8
0_00
  6
CONTINUOUS
 62
4
 10
733.0052
 20
342.5250
 11
728.4194
 21
335.4015
  0
LINE
  8
0_00
  6
CONTINUOUS
 62
4
 10
707.1051
 20
342.5250
 11
711.6909
 21
335.4015
  0
LINE
  8
0_00
  6
CONTINUOUS
 62
4
 10
713.0197
 20
348.5118
 11
713.6570
 21
348.3410
  0
LINE
  8
0_00
  6
CONTINUOUS
 62
4
 10
711.2155
 20
346.7076
 11
711.3862
 21
346.0703
  0
LINE
  8
0_00
  6
CONTINUOUS
 62
4
 10
709.3177
 20
351.4702
 11
708.2570
 21
350.4096
  0
LINE
  8
0_00
  6
CONTINUOUS
 62
4
 10
711.7925
 20
351.4702
 11
712.8532
 21
350.4096
  0
LINE
  8
0_00
  6
CONTINUOUS
 62
4
 10
708.2570
 20
347.9347
 11
709.3177
 21
346.8740
  0
LINE
  8
0_00
  6
CONTINUOUS
 62
4
 10
709.6985
 20
351.0895
 11
709.3177
 21
351.4702
  0
LINE
  8
0_00
  6
CONTINUOUS
 62
4
 10
708.6378
 20
350.0289
 11
708.2570
 21
350.4096
  0
LINE
  8
0_00
  6
CONTINUOUS
 62
4
 10
711.4117
 20
351.0895
 11
711.7925
 21
351.4702
  0
LINE
  8
0_00
  6
CONTINUOUS
 62
4
 10
712.4724
 20
350.0289
 11
712.8532
 21
350.4096
  0
LINE
  8
0_00
  6
CONTINUOUS
 62
4
 10
708.6378
 20
348.3155
 11
708.2570
 21
347.9347
  0
LINE
  8
0_00
  6
CONTINUOUS
 62
4
 10
709.6985
 20
347.2549
 11
709.3177
 21
346.8740
  0
LINE
  8
0_00
  6
CONTINUOUS
 62
4
 10
734.2052
 20
347.8722
 11
734.2052
 21
342.1721
  0
LINE
  8
0_00
  6
CONTINUOUS
 62
4
 10
734.2052
 20
348.4722
 11
734.2052
 21
350.1790
  0
LINE
  8
0_00
  6
CONTINUOUS
 62
4
 10
732.2052
 20
344.1721
 11
732.2052
 21
345.5061
  0
LINE
  8
0_00
  6
CONTINUOUS
 62
4
 10
733.9051
 20
348.1722
 11
734.2052
 21
347.8722
  0
LINE
  8
0_00
  6
CONTINUOUS
 62
4
 10
733.9051
 20
348.1722
 11
734.2052
 21
348.4722
  0
LINE
  8
0_00
  6
CONTINUOUS
 62
4
 10
733.0052
 20
342.5250
 11
733.0052
 21
343.3722
  0
LINE
  8
0_00
  6
CONTINUOUS
 62
4
 10
733.0052
 20
343.3722
 11
732.2052
 21
344.1721
  0
LINE
  8
0_00
  6
CONTINUOUS
 62
4
 10
726.4532
 20
348.3410
 11
727.0906
 21
348.5118
  0
LINE
  8
0_00
  6
CONTINUOUS
 62
4
 10
728.7240
 20
346.0703
 11
728.8947
 21
346.7076
  0
LINE
  8
0_00
  6
CONTINUOUS
 62
4
 10
730.7926
 20
351.4702
 11
731.8532
 21
350.4096
  0
LINE
  8
0_00
  6
CONTINUOUS
 62
4
 10
728.3177
 20
351.4702
 11
727.2570
 21
350.4096
  0
LINE
  8
0_00
  6
CONTINUOUS
 62
4
 10
731.8532
 20
347.9347
 11
730.7926
 21
346.8740
  0
LINE
  8
0_00
  6
CONTINUOUS
 62
4
 10
730.4117
 20
351.0895
 11
730.7926
 21
351.4702
  0
LINE
  8
0_00
  6
CONTINUOUS
 62
4
 10
731.4724
 20
350.0289
 11
731.8532
 21
350.4096
  0
LINE
  8
0_00
  6
CONTINUOUS
 62
4
 10
728.6984
 20
351.0895
 11
728.3177
 21
351.4702
  0
LINE
  8
0_00
  6
CONTINUOUS
 62
4
 10
727.6377
 20
350.0289
 11
727.2570
 21
350.4096
  0
LINE
  8
0_00
  6
CONTINUOUS
 62
4
 10
731.4724
 20
348.3155
 11
731.8532
 21
347.9347
  0
LINE
  8
0_00
  6
CONTINUOUS
 62
4
 10
730.4117
 20
347.2549
 11
730.7926
 21
346.8740
  0
LINE
  8
0_00
  6
CONTINUOUS
 62
4
 10
731.6119
 20
352.7721
 11
734.2052
 21
350.1790
  0
LINE
  8
0_00
  6
CONTINUOUS
 62
4
 10
708.4983
 20
352.7721
 11
705.9051
 21
350.1790
  0
LINE
  8
0_00
  6
CONTINUOUS
 62
4
 10
717.0552
 20
350.7721
 11
723.0551
 21
350.7721
  0
LINE
  8
0_00
  6
CONTINUOUS
 62
4
 10
723.0551
 20
350.7721
 11
723.8551
 21
351.5221
  0
LINE
  8
0_00
  6
CONTINUOUS
 62
4
 10
717.0552
 20
350.7721
 11
716.2551
 21
351.5221
  0
LINE
  8
14_0E
  6
CONTINUOUS
 62
2
 10
722.5409
 20
350.7730
 11
722.5537
 21
309.7730
  0
LINE
  8
14_0E
  6
DASHED
 62
2
 10
722.5537
 20
309.7730
 11
722.5551
 21
305.1721
  0
LINE
  8
12_0C
  6
CONTINUOUS
 62
2
 10
716.0552
 20
361.3222
 11
716.6412
 21
361.3222
  0
LINE
  8
12_0C
  6
CONTINUOUS
 62
2
 10
723.4316
 20
361.3222
 11
724.0551
 21
361.3222
  0
LINE
  8
12_0C
  6
CONTINUOUS
 62
2
 10
724.0551
 20
361.2310
 11
724.0551
 21
361.3222
  0
LINE
  8
12_0C
  6
CONTINUOUS
 62
2
 10
716.0552
 20
361.2310
 11
716.0552
 21
361.3222
  0
LINE
  8
12_0C
  6
CONTINUOUS
 62
2
 10
716.0552
 20
299.0222
 11
724.0551
 21
299.0222
  0
LINE
  8
12_0C
  6
CONTINUOUS
 62
2
 10
724.0551
 20
299.1133
 11
724.0551
 21
299.0222
  0
LINE
  8
12_0C
  6
CONTINUOUS
 62
2
 10
716.0552
 20
299.1133
 11
716.0552
 21
299.0222
  0
LINE
  8
0_00
  6
CONTINUOUS
 62
4
 10
716.0552
 20
299.1133
 11
724.0551
 21
299.1133
  0
LINE
  8
3_03
  6
CONTINUOUS
 62
2
 10
670.0551
 20
347.5067
 11
669.7241
 21
347.3796
  0
LINE
  8
3_03
  6
CONTINUOUS
 62
2
 10
670.0551
 20
347.5067
 11
670.3858
 21
347.3797
  0
LINE
  8
3_03
  6
CONTINUOUS
 62
2
 10
669.7241
 20
347.3796
 11
668.8737
 21
346.5584
  0
LINE
  8
3_03
  6
CONTINUOUS
 62
2
 10
670.3862
 20
347.3796
 11
670.3855
 21
347.3789
  0
LINE
  8
3_03
  6
CONTINUOUS
 62
2
 10
670.3855
 20
347.3789
 11
671.2358
 21
346.5578
  0
LINE
  8
3_03
  6
CONTINUOUS
 62
2
 10
669.3896
 20
348.1722
 11
669.2625
 21
347.8411
  0
LINE
  8
3_03
  6
CONTINUOUS
 62
2
 10
669.3896
 20
348.1722
 11
669.2627
 21
348.5028
  0
LINE
  8
3_03
  6
CONTINUOUS
 62
2
 10
669.2625
 20
347.8411
 11
668.4409
 21
346.9903
  0
LINE
  8
3_03
  6
CONTINUOUS
 62
2
 10
669.2625
 20
348.5032
 11
669.2619
 21
348.5025
  0
LINE
  8
3_03
  6
CONTINUOUS
 62
2
 10
669.2619
 20
348.5025
 11
668.4408
 21
349.3528
  0
LINE
  8
3_03
  6
CONTINUOUS
 62
2
 10
670.7206
 20
348.1722
 11
670.8477
 21
348.5032
  0
LINE
  8
3_03
  6
CONTINUOUS
 62
2
 10
670.7206
 20
348.1722
 11
670.8475
 21
347.8415
  0
LINE
  8
3_03
  6
CONTINUOUS
 62
2
 10
670.8477
 20
348.5032
 11
671.6689
 21
349.3536
  0
LINE
  8
3_03
  6
CONTINUOUS
 62
2
 10
670.8477
 20
347.8411
 11
670.8483
 21
347.8418
  0
LINE
  8
3_03
  6
CONTINUOUS
 62
2
 10
670.8483
 20
347.8418
 11
671.6695
 21
346.9915
  0
LINE
  8
3_03
  6
CONTINUOUS
 62
2
 10
670.0551
 20
348.8377
 11
670.3862
 21
348.9647
  0
LINE
  8
3_03
  6
CONTINUOUS
 62
2
 10
670.0551
 20
348.8377
 11
669.7244
 21
348.9646
  0
LINE
  8
3_03
  6
CONTINUOUS
 62
2
 10
670.3862
 20
348.9647
 11
671.2365
 21
349.7859
  0
LINE
  8
3_03
  6
CONTINUOUS
 62
2
 10
669.7241
 20
348.9647
 11
669.7247
 21
348.9654
  0
LINE
  8
3_03
  6
CONTINUOUS
 62
2
 10
669.7247
 20
348.9654
 11
668.8740
 21
349.7869
  0
LINE
  8
3_03
  6
CONTINUOUS
 62
2
 10
670.0551
 20
311.5066
 11
669.7241
 21
311.3796
  0
LINE
  8
3_03
  6
CONTINUOUS
 62
2
 10
670.0551
 20
311.5066
 11
670.3858
 21
311.3797
  0
LINE
  8
3_03
  6
CONTINUOUS
 62
2
 10
669.7241
 20
311.3796
 11
668.8737
 21
310.5584
  0
LINE
  8
3_03
  6
CONTINUOUS
 62
2
 10
670.3862
 20
311.3796
 11
670.3855
 21
311.3789
  0
LINE
  8
3_03
  6
CONTINUOUS
 62
2
 10
670.3855
 20
311.3789
 11
671.2358
 21
310.5578
  0
LINE
  8
3_03
  6
CONTINUOUS
 62
2
 10
669.3896
 20
312.1721
 11
669.2625
 21
311.8411
  0
LINE
  8
3_03
  6
CONTINUOUS
 62
2
 10
669.3896
 20
312.1721
 11
669.2627
 21
312.5028
  0
LINE
  8
3_03
  6
CONTINUOUS
 62
2
 10
669.2625
 20
311.8411
 11
668.4409
 21
310.9903
  0
LINE
  8
3_03
  6
CONTINUOUS
 62
2
 10
669.2625
 20
312.5032
 11
669.2619
 21
312.5025
  0
LINE
  8
3_03
  6
CONTINUOUS
 62
2
 10
669.2619
 20
312.5025
 11
668.4408
 21
313.3528
  0
LINE
  8
3_03
  6
CONTINUOUS
 62
2
 10
670.7206
 20
312.1721
 11
670.8477
 21
312.5032
  0
LINE
  8
3_03
  6
CONTINUOUS
 62
2
 10
670.7206
 20
312.1721
 11
670.8475
 21
311.8415
  0
LINE
  8
3_03
  6
CONTINUOUS
 62
2
 10
670.8477
 20
312.5032
 11
671.6689
 21
313.3536
  0
LINE
  8
3_03
  6
CONTINUOUS
 62
2
 10
670.8477
 20
311.8411
 11
670.8483
 21
311.8418
  0
LINE
  8
3_03
  6
CONTINUOUS
 62
2
 10
670.8483
 20
311.8418
 11
671.6695
 21
310.9915
  0
LINE
  8
3_03
  6
CONTINUOUS
 62
2
 10
670.0551
 20
312.8377
 11
670.3862
 21
312.9648
  0
LINE
  8
3_03
  6
CONTINUOUS
 62
2
 10
670.0551
 20
312.8377
 11
669.7244
 21
312.9646
  0
LINE
  8
3_03
  6
CONTINUOUS
 62
2
 10
670.3862
 20
312.9648
 11
671.2365
 21
313.7859
  0
LINE
  8
3_03
  6
CONTINUOUS
 62
2
 10
669.7241
 20
312.9648
 11
669.7247
 21
312.9654
  0
LINE
  8
3_03
  6
CONTINUOUS
 62
2
 10
669.7247
 20
312.9654
 11
668.8740
 21
313.7869
  0
LINE
  8
3_03
  6
CONTINUOUS
 62
2
 10
770.0551
 20
347.5067
 11
770.3863
 21
347.3796
  0
LINE
  8
3_03
  6
CONTINUOUS
 62
2
 10
770.0551
 20
347.5067
 11
769.7244
 21
347.3797
  0
LINE
  8
3_03
  6
CONTINUOUS
 62
2
 10
770.3863
 20
347.3796
 11
771.2365
 21
346.5584
  0
LINE
  8
3_03
  6
CONTINUOUS
 62
2
 10
769.7241
 20
347.3796
 11
769.7247
 21
347.3789
  0
LINE
  8
3_03
  6
CONTINUOUS
 62
2
 10
769.7247
 20
347.3789
 11
768.8745
 21
346.5578
  0
LINE
  8
3_03
  6
CONTINUOUS
 62
2
 10
770.7207
 20
348.1722
 11
770.8478
 21
347.8411
  0
LINE
  8
3_03
  6
CONTINUOUS
 62
2
 10
770.7207
 20
348.1722
 11
770.8475
 21
348.5028
  0
LINE
  8
3_03
  6
CONTINUOUS
 62
2
 10
770.8478
 20
347.8411
 11
771.6694
 21
346.9903
  0
LINE
  8
3_03
  6
CONTINUOUS
 62
2
 10
770.8478
 20
348.5032
 11
770.8483
 21
348.5025
  0
LINE
  8
3_03
  6
CONTINUOUS
 62
2
 10
770.8483
 20
348.5025
 11
771.6695
 21
349.3528
  0
LINE
  8
3_03
  6
CONTINUOUS
 62
2
 10
769.3896
 20
348.1722
 11
769.2625
 21
348.5032
  0
LINE
  8
3_03
  6
CONTINUOUS
 62
2
 10
769.3896
 20
348.1722
 11
769.2627
 21
347.8415
  0
LINE
  8
3_03
  6
CONTINUOUS
 62
2
 10
769.2625
 20
348.5032
 11
768.4414
 21
349.3536
  0
LINE
  8
3_03
  6
CONTINUOUS
 62
2
 10
769.2625
 20
347.8411
 11
769.2619
 21
347.8418
  0
LINE
  8
3_03
  6
CONTINUOUS
 62
2
 10
769.2619
 20
347.8418
 11
768.4408
 21
346.9915
  0
LINE
  8
3_03
  6
CONTINUOUS
 62
2
 10
770.0551
 20
348.8377
 11
769.7241
 21
348.9647
  0
LINE
  8
3_03
  6
CONTINUOUS
 62
2
 10
770.0551
 20
348.8377
 11
770.3859
 21
348.9646
  0
LINE
  8
3_03
  6
CONTINUOUS
 62
2
 10
769.7241
 20
348.9647
 11
768.8737
 21
349.7859
  0
LINE
  8
3_03
  6
CONTINUOUS
 62
2
 10
770.3863
 20
348.9647
 11
770.3855
 21
348.9654
  0
LINE
  8
3_03
  6
CONTINUOUS
 62
2
 10
770.3855
 20
348.9654
 11
771.2363
 21
349.7869
  0
LINE
  8
3_03
  6
CONTINUOUS
 62
2
 10
770.0551
 20
311.5066
 11
770.3863
 21
311.3796
  0
LINE
  8
3_03
  6
CONTINUOUS
 62
2
 10
770.0551
 20
311.5066
 11
769.7244
 21
311.3797
  0
LINE
  8
3_03
  6
CONTINUOUS
 62
2
 10
770.3863
 20
311.3796
 11
771.2365
 21
310.5584
  0
LINE
  8
3_03
  6
CONTINUOUS
 62
2
 10
769.7241
 20
311.3796
 11
769.7247
 21
311.3789
  0
LINE
  8
3_03
  6
CONTINUOUS
 62
2
 10
769.7247
 20
311.3789
 11
768.8745
 21
310.5578
  0
LINE
  8
3_03
  6
CONTINUOUS
 62
2
 10
770.7207
 20
312.1721
 11
770.8478
 21
311.8411
  0
LINE
  8
3_03
  6
CONTINUOUS
 62
2
 10
770.7207
 20
312.1721
 11
770.8475
 21
312.5028
  0
LINE
  8
3_03
  6
CONTINUOUS
 62
2
 10
770.8478
 20
311.8411
 11
771.6694
 21
310.9903
  0
LINE
  8
3_03
  6
CONTINUOUS
 62
2
 10
770.8478
 20
312.5032
 11
770.8483
 21
312.5025
  0
LINE
  8
3_03
  6
CONTINUOUS
 62
2
 10
770.8483
 20
312.5025
 11
771.6695
 21
313.3528
  0
LINE
  8
3_03
  6
CONTINUOUS
 62
2
 10
769.3896
 20
312.1721
 11
769.2625
 21
312.5032
  0
LINE
  8
3_03
  6
CONTINUOUS
 62
2
 10
769.3896
 20
312.1721
 11
769.2627
 21
311.8415
  0
LINE
  8
3_03
  6
CONTINUOUS
 62
2
 10
769.2625
 20
312.5032
 11
768.4414
 21
313.3536
  0
LINE
  8
3_03
  6
CONTINUOUS
 62
2
 10
769.2625
 20
311.8411
 11
769.2619
 21
311.8418
  0
LINE
  8
3_03
  6
CONTINUOUS
 62
2
 10
769.2619
 20
311.8418
 11
768.4408
 21
310.9915
  0
LINE
  8
3_03
  6
CONTINUOUS
 62
2
 10
770.0551
 20
312.8377
 11
769.7241
 21
312.9648
  0
LINE
  8
3_03
  6
CONTINUOUS
 62
2
 10
770.0551
 20
312.8377
 11
770.3859
 21
312.9646
  0
LINE
  8
3_03
  6
CONTINUOUS
 62
2
 10
769.7241
 20
312.9648
 11
768.8737
 21
313.7859
  0
LINE
  8
3_03
  6
CONTINUOUS
 62
2
 10
770.3863
 20
312.9648
 11
770.3855
 21
312.9654
  0
LINE
  8
3_03
  6
CONTINUOUS
 62
2
 10
770.3855
 20
312.9654
 11
771.2363
 21
313.7869
  0
LINE
  8
0_00
  6
DASHED
 62
2
 10
717.5363
 20
360.1721
 11
722.5363
 21
360.1721
  0
LINE
  8
0_00
  6
DASHED
 62
2
 10
717.5552
 20
305.1721
 11
717.5537
 21
309.7714
  0
LINE
  8
0_00
  6
CONTINUOUS
 62
2
 10
717.5537
 20
309.7714
 11
717.5408
 21
350.7714
  0
LINE
  8
0_00
  6
DASHED
 62
2
 10
717.5408
 20
350.7714
 11
717.5380
 21
360.1721
  0
LINE
  8
0_00
  6
DASHED
 62
2
 10
717.5552
 20
306.7722
 11
722.5551
 21
306.7722
  0
LINE
  8
0_00
  6
DASHED
 62
2
 10
717.9471
 20
350.7684
 11
717.9401
 21
360.1721
  0
LINE
  8
0_00
  6
CONTINUOUS
 62
2
 10
717.9551
 20
340.1721
 11
717.9471
 21
350.7684
  0
LINE
  8
0_00
  6
DASHED
 62
2
 10
722.1472
 20
350.7719
 11
722.1401
 21
360.1720
  0
LINE
  8
0_00
  6
CONTINUOUS
 62
2
 10
722.1551
 20
340.1721
 11
722.1472
 21
350.7719
  0
LINE
  8
0_00
  6
CONTINUOUS
 62
2
 10
725.9551
 20
305.1721
 11
714.1551
 21
305.1721
  0
LINE
  8
0_00
  6
CONTINUOUS
 62
2
 10
714.1551
 20
304.8244
 11
714.1551
 21
305.1721
  0
LINE
  8
0_00
  6
CONTINUOUS
 62
2
 10
725.9551
 20
304.8244
 11
725.9551
 21
305.1721
  0
LINE
  8
0_00
  6
CONTINUOUS
 62
2
 10
725.9551
 20
304.8244
 11
714.1551
 21
304.8244
  0
LINE
  8
0_00
  6
CONTINUOUS
 62
2
 10
724.6363
 20
356.4722
 11
715.4363
 21
356.4722
  0
LINE
  8
0_00
  6
CONTINUOUS
 62
2
 10
715.4363
 20
356.4722
 11
715.4363
 21
355.1721
  0
LINE
  8
0_00
  6
CONTINUOUS
 62
2
 10
724.6363
 20
356.4722
 11
724.6363
 21
355.1721
  0
LINE
  8
0_00
  6
CONTINUOUS
 62
2
 10
724.6363
 20
355.1721
 11
715.4363
 21
355.1721
  0
LINE
  8
0_00
  6
CONTINUOUS
 62
2
 10
719.8621
 20
356.4722
 11
720.2104
 21
355.1721
  0
LINE
  8
0_00
  6
CONTINUOUS
 62
2
 10
724.6551
 20
356.4722
 11
715.4175
 21
356.4722
  0
LINE
  8
0_00
  6
CONTINUOUS
 62
2
 10
723.9364
 20
356.4722
 11
716.1363
 21
356.4722
  0
LINE
  8
0_00
  6
CONTINUOUS
 62
2
 10
715.4175
 20
356.8872
 11
716.1363
 21
356.4722
  0
LINE
  8
0_00
  6
CONTINUOUS
 62
2
 10
724.6551
 20
356.8872
 11
723.9364
 21
356.4722
  0
LINE
  8
0_00
  6
CONTINUOUS
 62
2
 10
715.4175
 20
356.8872
 11
715.4175
 21
359.2572
  0
LINE
  8
0_00
  6
CONTINUOUS
 62
2
 10
724.6551
 20
356.8872
 11
724.6551
 21
359.2572
  0
LINE
  8
0_00
  6
CONTINUOUS
 62
2
 10
715.4175
 20
359.2572
 11
716.1363
 21
359.6721
  0
LINE
  8
0_00
  6
CONTINUOUS
 62
2
 10
724.6551
 20
359.2572
 11
723.9364
 21
359.6721
  0
LINE
  8
0_00
  6
CONTINUOUS
 62
2
 10
723.9364
 20
359.6721
 11
716.1363
 21
359.6721
  0
LINE
  8
0_00
  6
CONTINUOUS
 62
2
 10
717.7269
 20
356.8872
 11
717.7269
 21
359.2572
  0
LINE
  8
0_00
  6
CONTINUOUS
 62
2
 10
722.3457
 20
356.8872
 11
722.3457
 21
359.2572
  0
LINE
  8
0_00
  6
CONTINUOUS
 62
2
 10
716.5363
 20
360.4722
 11
716.5363
 21
359.6721
  0
LINE
  8
0_00
  6
CONTINUOUS
 62
2
 10
723.5363
 20
360.4722
 11
723.5363
 21
359.6721
  0
LINE
  8
0_00
  6
CONTINUOUS
 62
2
 10
717.5552
 20
340.1721
 11
722.5551
 21
340.1721
  0
LINE
  8
0_00
  6
CONTINUOUS
 62
2
 10
717.5552
 20
339.4793
 11
717.9551
 21
340.1721
  0
LINE
  8
0_00
  6
CONTINUOUS
 62
2
 10
722.1551
 20
340.1721
 11
722.5551
 21
339.4793
  0
LINE
  8
14_0E
  6
DASHED
 62
2
 10
722.5380
 20
360.1723
 11
722.5409
 21
350.7730
  0
LINE
  8
0_00
  6
CENTER1
 62
6
 10
812.0551
 20
356.8679
 11
812.0551
 21
303.2516
  0
LINE
  8
0_00
  6
CONTINUOUS
 62
4
 10
802.0551
 20
333.3822
 11
802.0551
 21
331.3596
  0
LINE
  8
0_00
  6
CONTINUOUS
 62
4
 10
802.2596
 20
334.9351
 11
803.7369
 21
340.4486
  0
LINE
  8
0_00
  6
CONTINUOUS
 62
4
 10
806.6347
 20
342.6721
 11
817.4756
 21
342.6721
  0
LINE
  8
0_00
  6
CONTINUOUS
 62
4
 10
820.3734
 20
340.4486
 11
821.8507
 21
334.9351
  0
LINE
  8
0_00
  6
CONTINUOUS
 62
4
 10
806.6347
 20
341.9722
 11
817.4756
 21
341.9722
  0
LINE
  8
0_00
  6
CONTINUOUS
 62
4
 10
819.6973
 20
340.2675
 11
821.1745
 21
334.7540
  0
LINE
  8
0_00
  6
CONTINUOUS
 62
4
 10
804.4131
 20
340.2675
 11
802.9358
 21
334.7540
  0
LINE
  8
0_00
  6
CONTINUOUS
 62
4
 10
802.7552
 20
331.2812
 11
802.7552
 21
333.3822
  0
LINE
  8
0_00
  6
CONTINUOUS
 62
4
 10
802.0551
 20
326.9621
 11
802.0551
 21
328.9847
  0
LINE
  8
0_00
  6
CONTINUOUS
 62
4
 10
802.2596
 20
325.4091
 11
803.7369
 21
319.8957
  0
LINE
  8
0_00
  6
CONTINUOUS
 62
4
 10
806.6347
 20
317.6721
 11
817.4756
 21
317.6721
  0
LINE
  8
0_00
  6
CONTINUOUS
 62
4
 10
820.3734
 20
319.8957
 11
821.8507
 21
325.4091
  0
LINE
  8
0_00
  6
CONTINUOUS
 62
4
 10
806.6347
 20
318.3722
 11
817.4756
 21
318.3722
  0
LINE
  8
0_00
  6
CONTINUOUS
 62
4
 10
819.6973
 20
320.0769
 11
821.1745
 21
325.5903
  0
LINE
  8
0_00
  6
CONTINUOUS
 62
4
 10
804.4131
 20
320.0769
 11
802.9358
 21
325.5903
  0
LINE
  8
0_00
  6
CONTINUOUS
 62
4
 10
802.7552
 20
329.0631
 11
802.7552
 21
326.9621
  0
LINE
  8
0_00
  6
CONTINUOUS
 62
4
 10
822.0552
 20
331.3596
 11
822.0552
 21
333.3822
  0
LINE
  8
0_00
  6
CONTINUOUS
 62
4
 10
817.7551
 20
331.6722
 11
817.7551
 21
332.1678
  0
LINE
  8
0_00
  6
CONTINUOUS
 62
4
 10
819.3551
 20
331.6722
 11
819.3551
 21
332.1678
  0
LINE
  8
0_00
  6
CONTINUOUS
 62
4
 10
816.7551
 20
331.3558
 11
816.7551
 21
331.5722
  0
LINE
  8
0_00
  6
CONTINUOUS
 62
4
 10
820.2676
 20
331.1609
 11
820.6258
 21
331.3677
  0
LINE
  8
0_00
  6
CONTINUOUS
 62
4
 10
822.0552
 20
328.9847
 11
822.0552
 21
326.9621
  0
LINE
  8
0_00
  6
CONTINUOUS
 62
4
 10
821.3552
 20
333.0704
 11
821.3552
 21
333.3822
  0
LINE
  8
0_00
  6
CONTINUOUS
 62
4
 10
821.3552
 20
327.2739
 11
821.3552
 21
326.9621
  0
LINE
  8
0_00
  6
CONTINUOUS
 62
4
 10
817.7551
 20
328.6722
 11
817.7551
 21
328.1765
  0
LINE
  8
0_00
  6
CONTINUOUS
 62
4
 10
819.3551
 20
328.6722
 11
819.3551
 21
328.1765
  0
LINE
  8
0_00
  6
CONTINUOUS
 62
4
 10
816.7551
 20
328.9885
 11
816.7551
 21
328.7722
  0
LINE
  8
0_00
  6
CONTINUOUS
 62
4
 10
820.2676
 20
329.1835
 11
820.6258
 21
328.9766
  0
LINE
  8
0_00
  6
CENTER1
 62
6
 10
628.0551
 20
356.8679
 11
628.0551
 21
303.2516
  0
LINE
  8
0_00
  6
CONTINUOUS
 62
4
 10
618.0551
 20
333.3822
 11
618.0551
 21
331.3596
  0
LINE
  8
0_00
  6
CONTINUOUS
 62
4
 10
618.2595
 20
334.9351
 11
619.7369
 21
340.4486
  0
LINE
  8
0_00
  6
CONTINUOUS
 62
4
 10
622.6347
 20
342.6721
 11
633.4756
 21
342.6721
  0
LINE
  8
0_00
  6
CONTINUOUS
 62
4
 10
636.3733
 20
340.4486
 11
637.8506
 21
334.9351
  0
LINE
  8
0_00
  6
CONTINUOUS
 62
4
 10
622.6347
 20
341.9722
 11
633.4756
 21
341.9722
  0
LINE
  8
0_00
  6
CONTINUOUS
 62
4
 10
635.6972
 20
340.2675
 11
637.1745
 21
334.7540
  0
LINE
  8
0_00
  6
CONTINUOUS
 62
4
 10
620.4130
 20
340.2675
 11
618.9357
 21
334.7540
  0
LINE
  8
0_00
  6
CONTINUOUS
 62
4
 10
618.7551
 20
331.2812
 11
618.7551
 21
333.3822
  0
LINE
  8
0_00
  6
CONTINUOUS
 62
4
 10
618.0551
 20
326.9621
 11
618.0551
 21
328.9847
  0
LINE
  8
0_00
  6
CONTINUOUS
 62
4
 10
618.2595
 20
325.4091
 11
619.7369
 21
319.8957
  0
LINE
  8
0_00
  6
CONTINUOUS
 62
4
 10
622.6347
 20
317.6721
 11
633.4756
 21
317.6721
  0
LINE
  8
0_00
  6
CONTINUOUS
 62
4
 10
636.3733
 20
319.8957
 11
637.8506
 21
325.4091
  0
LINE
  8
0_00
  6
CONTINUOUS
 62
4
 10
622.6347
 20
318.3722
 11
633.4756
 21
318.3722
  0
LINE
  8
0_00
  6
CONTINUOUS
 62
4
 10
635.6972
 20
320.0769
 11
637.1745
 21
325.5903
  0
LINE
  8
0_00
  6
CONTINUOUS
 62
4
 10
620.4130
 20
320.0769
 11
618.9357
 21
325.5903
  0
LINE
  8
0_00
  6
CONTINUOUS
 62
4
 10
618.7551
 20
329.0631
 11
618.7551
 21
326.9621
  0
LINE
  8
0_00
  6
CONTINUOUS
 62
4
 10
638.0551
 20
331.3596
 11
638.0551
 21
333.3822
  0
LINE
  8
0_00
  6
CONTINUOUS
 62
4
 10
633.7551
 20
331.6722
 11
633.7551
 21
332.1678
  0
LINE
  8
0_00
  6
CONTINUOUS
 62
4
 10
635.3551
 20
331.6722
 11
635.3551
 21
332.1678
  0
LINE
  8
0_00
  6
CONTINUOUS
 62
4
 10
632.7551
 20
331.3558
 11
632.7551
 21
331.5722
  0
LINE
  8
0_00
  6
CONTINUOUS
 62
4
 10
636.2676
 20
331.1609
 11
636.6258
 21
331.3677
  0
LINE
  8
0_00
  6
CONTINUOUS
 62
4
 10
638.0551
 20
328.9847
 11
638.0551
 21
326.9621
  0
LINE
  8
0_00
  6
CONTINUOUS
 62
4
 10
637.3551
 20
333.0704
 11
637.3551
 21
333.3822
  0
LINE
  8
0_00
  6
CONTINUOUS
 62
4
 10
637.3551
 20
327.2739
 11
637.3551
 21
326.9621
  0
LINE
  8
0_00
  6
CONTINUOUS
 62
4
 10
633.7551
 20
328.6722
 11
633.7551
 21
328.1765
  0
LINE
  8
0_00
  6
CONTINUOUS
 62
4
 10
635.3551
 20
328.6722
 11
635.3551
 21
328.1765
  0
LINE
  8
0_00
  6
CONTINUOUS
 62
4
 10
632.7551
 20
328.9885
 11
632.7551
 21
328.7722
  0
LINE
  8
0_00
  6
CONTINUOUS
 62
4
 10
636.2676
 20
329.1835
 11
636.6258
 21
328.9766
  0
LINE
  8
0_00
  6
CONTINUOUS
 62
4
 10
700.0551
 20
307.6721
 11
594.7827
 21
307.6721
  0
LINE
  8
0_00
  6
CONTINUOUS
 62
4
 10
700.0551
 20
317.4722
 11
594.7827
 21
317.4722
  0
LINE
  8
0_00
  6
CONTINUOUS
 62
4
 10
700.0551
 20
317.8721
 11
634.5526
 21
317.8721
  0
LINE
  8
0_00
  6
CONTINUOUS
 62
4
 10
700.0551
 20
342.4722
 11
634.5526
 21
342.4722
  0
LINE
  8
0_00
  6
CONTINUOUS
 62
4
 10
700.0551
 20
342.8722
 11
594.7827
 21
342.8722
  0
LINE
  8
0_00
  6
CONTINUOUS
 62
4
 10
621.5576
 20
342.4722
 11
594.7827
 21
342.4722
  0
LINE
  8
0_00
  6
CONTINUOUS
 62
4
 10
621.5576
 20
317.8721
 11
594.7827
 21
317.8721
  0
LINE
  8
0_00
  6
CONTINUOUS
 62
4
 10
913.8804
 20
307.6721
 11
740.0551
 21
307.6721
  0
LINE
  8
0_00
  6
CONTINUOUS
 62
4
 10
900.3348
 20
352.6722
 11
740.0551
 21
352.6722
  0
LINE
  8
0_00
  6
CONTINUOUS
 62
4
 10
897.7088
 20
342.8722
 11
740.0551
 21
342.8722
  0
LINE
  8
0_00
  6
CONTINUOUS
 62
4
 10
897.6017
 20
342.4722
 11
818.5527
 21
342.4722
  0
LINE
  8
0_00
  6
CONTINUOUS
 62
4
 10
805.5577
 20
342.4722
 11
740.0551
 21
342.4722
  0
LINE
  8
0_00
  6
CONTINUOUS
 62
4
 10
805.5577
 20
317.8721
 11
740.0551
 21
317.8721
  0
LINE
  8
0_00
  6
CONTINUOUS
 62
4
 10
916.5062
 20
317.4722
 11
740.0551
 21
317.4722
  0
LINE
  8
0_00
  6
CONTINUOUS
 62
4
 10
916.6134
 20
317.8721
 11
818.5527
 21
317.8721
  0
LINE
  8
0_00
  6
CONTINUOUS
 62
4
 10
700.0551
 20
352.6722
 11
594.7827
 21
352.6722
  0
LINE
  8
15_0F
  6
CONTINUOUS
 62
4
 10
1123.7271
 20
360.1726
 11
907.0033
 21
360.1726
  0
LINE
  8
15_0F
  6
CONTINUOUS
 62
4
 10
1123.7271
 20
358.7721
 11
906.6280
 21
358.7721
  0
LINE
  8
15_0F
  6
CONTINUOUS
 62
4
 10
1123.7271
 20
355.2727
 11
905.6903
 21
355.2727
  0
LINE
  8
15_0F
  6
CONTINUOUS
 62
6
 10
902.5283
 20
343.4721
 11
1123.7271
 21
343.4721
  0
LINE
  8
15_0F
  6
CONTINUOUS
 62
6
 10
1123.7271
 20
343.8722
 11
902.6356
 21
343.8722
  0
LINE
  8
15_0F
  6
CONTINUOUS
 62
4
 10
1123.7271
 20
334.0347
 11
902.4008
 21
334.0347
  0
LINE
  8
15_0F
  6
CONTINUOUS
 62
6
 10
921.0041
 20
316.8721
 11
1123.7271
 21
316.8721
  0
LINE
  8
15_0F
  6
CONTINUOUS
 62
6
 10
1123.7271
 20
316.4722
 11
920.8970
 21
316.4722
  0
LINE
  8
15_0F
  6
CONTINUOUS
 62
4
 10
1123.7271
 20
326.3096
 11
923.5330
 21
326.3096
  0
LINE
  8
15_0F
  6
CONTINUOUS
 62
4
 10
1123.7271
 20
300.1716
 11
916.5293
 21
300.1716
  0
LINE
  8
15_0F
  6
CONTINUOUS
 62
4
 10
1123.7271
 20
301.5722
 11
916.9046
 21
301.5722
  0
LINE
  8
15_0F
  6
CONTINUOUS
 62
4
 10
1123.7271
 20
305.0716
 11
917.8423
 21
305.0716
  0
LINE
  8
0_00
  6
CENTER1
 62
6
 10
1076.5552
 20
365.3284
 11
1076.5552
 21
295.0625
  0
LINE
  8
0_00
  6
CENTER1
 62
6
 10
1043.5552
 20
365.3284
 11
1043.5552
 21
295.0625
  0
LINE
  8
0_00
  6
CENTER1
 62
6
 10
1088.6167
 20
348.1722
 11
1031.8357
 21
348.1722
  0
LINE
  8
0_00
  6
CENTER1
 62
6
 10
1031.8357
 20
312.1721
 11
1088.6167
 21
312.1721
  0
LINE
  8
15_0F
  6
CONTINUOUS
 62
4
 10
1079.0047
 20
345.6721
 11
1123.7271
 21
345.6721
  0
LINE
  8
15_0F
  6
CONTINUOUS
 62
4
 10
1079.0047
 20
350.6722
 11
1123.7271
 21
350.6722
  0
LINE
  8
15_0F
  6
CONTINUOUS
 62
4
 10
904.4576
 20
350.6722
 11
1041.1058
 21
350.6722
  0
LINE
  8
15_0F
  6
CONTINUOUS
 62
4
 10
1046.0047
 20
350.6722
 11
1074.1058
 21
350.6722
  0
LINE
  8
15_0F
  6
CONTINUOUS
 62
4
 10
903.1178
 20
345.6721
 11
1041.1058
 21
345.6721
  0
LINE
  8
15_0F
  6
CONTINUOUS
 62
4
 10
1046.0047
 20
345.6721
 11
1074.1058
 21
345.6721
  0
LINE
  8
15_0F
  6
CONTINUOUS
 62
4
 10
920.4146
 20
314.6721
 11
1041.1058
 21
314.6721
  0
LINE
  8
15_0F
  6
CONTINUOUS
 62
4
 10
919.0750
 20
309.6721
 11
1041.1058
 21
309.6721
  0
LINE
  8
15_0F
  6
CONTINUOUS
 62
4
 10
1046.0047
 20
309.6721
 11
1074.1058
 21
309.6721
  0
LINE
  8
15_0F
  6
CONTINUOUS
 62
4
 10
1079.0047
 20
309.6721
 11
1123.7271
 21
309.6721
  0
LINE
  8
15_0F
  6
CONTINUOUS
 62
4
 10
1046.0047
 20
314.6721
 11
1074.1058
 21
314.6721
  0
LINE
  8
15_0F
  6
CONTINUOUS
 62
4
 10
1079.0047
 20
314.6721
 11
1123.7271
 21
314.6721
  0
LINE
  8
0_00
  6
CONTINUOUS
 62
4
 10
1060.0552
 20
360.1726
 11
1060.0552
 21
300.1716
  0
LINE
  8
0_00
  6
CENTER1
 62
6
 10
974.5552
 20
340.6250
 11
974.5552
 21
321.3625
  0
LINE
  8
0_00
  6
CENTER1
 62
6
 10
1060.0552
 20
383.8164
 11
1060.0552
 21
360.1726
  0
LINE
  8
0_00
  6
CENTER1
 62
6
 10
1060.0552
 20
300.1716
 11
1060.0552
 21
278.2948
  0
LINE
  8
0_00
  6
CONTINUOUS
 62
6
 10
670.0551
 20
287.6721
 11
670.0551
 21
174.1098
  0
LINE
  8
0_00
  6
CONTINUOUS
 62
6
 10
770.0551
 20
287.6721
 11
770.0551
 21
174.1098
  0
LINE
  8
0_00
  6
CONTINUOUS
 62
6
 10
670.0551
 20
180.1098
 11
770.0551
 21
180.1098
  0
LINE
  8
0_00
  6
CONTINUOUS
 62
6
 10
670.0551
 20
180.1098
 11
678.8585
 21
178.2386
  0
LINE
  8
0_00
  6
CONTINUOUS
 62
6
 10
670.0551
 20
180.1098
 11
678.8585
 21
181.9810
  0
LINE
  8
0_00
  6
CONTINUOUS
 62
6
 10
770.0551
 20
180.1098
 11
761.2518
 21
181.9810
  0
LINE
  8
0_00
  6
CONTINUOUS
 62
6
 10
770.0551
 20
180.1098
 11
761.2518
 21
178.2386
  0
LINE
  8
0_00
  6
CONTINUOUS
 62
6
 10
682.5551
 20
271.5507
 11
682.5551
 21
194.1098
  0
LINE
  8
0_00
  6
CONTINUOUS
 62
6
 10
757.5551
 20
271.5507
 11
757.5551
 21
194.1098
  0
LINE
  8
0_00
  6
CONTINUOUS
 62
6
 10
682.5551
 20
200.1098
 11
757.5551
 21
200.1098
  0
LINE
  8
0_00
  6
CONTINUOUS
 62
6
 10
682.5551
 20
200.1098
 11
691.3585
 21
198.2386
  0
LINE
  8
0_00
  6
CONTINUOUS
 62
6
 10
682.5551
 20
200.1098
 11
691.3585
 21
201.9810
  0
LINE
  8
0_00
  6
CONTINUOUS
 62
6
 10
757.5551
 20
200.1098
 11
748.7518
 21
201.9810
  0
LINE
  8
0_00
  6
CONTINUOUS
 62
6
 10
757.5551
 20
200.1098
 11
748.7518
 21
198.2386
  0
LINE
  8
0_00
  6
CONTINUOUS
 62
4
 10
716.0552
 20
361.2310
 11
716.6196
 21
361.2310
  0
LINE
  8
0_00
  6
CONTINUOUS
 62
4
 10
723.4531
 20
361.2310
 11
724.0551
 21
361.2310
  0
LINE
  8
0_00
  6
CONTINUOUS
 62
6
 10
667.5551
 20
290.1721
 11
534.0001
 21
290.1721
  0
LINE
  8
0_00
  6
CONTINUOUS
 62
6
 10
667.5551
 20
370.1722
 11
534.0001
 21
370.1722
  0
LINE
  8
0_00
  6
CONTINUOUS
 62
6
 10
540.0002
 20
370.1722
 11
540.0002
 21
290.1721
  0
LINE
  8
0_00
  6
CONTINUOUS
 62
6
 10
540.0002
 20
370.1722
 11
538.1289
 21
361.3688
  0
LINE
  8
0_00
  6
CONTINUOUS
 62
6
 10
540.0002
 20
370.1722
 11
541.8714
 21
361.3688
  0
LINE
  8
0_00
  6
CONTINUOUS
 62
6
 10
540.0002
 20
290.1721
 11
541.8714
 21
298.9755
  0
LINE
  8
0_00
  6
CONTINUOUS
 62
6
 10
540.0002
 20
290.1721
 11
538.1289
 21
298.9755
  0
LINE
  8
0_00
  6
CONTINUOUS
 62
6
 10
655.0551
 20
357.6721
 11
554.0001
 21
357.6721
  0
LINE
  8
0_00
  6
CONTINUOUS
 62
6
 10
656.5551
 20
302.6721
 11
554.0001
 21
302.6721
  0
LINE
  8
0_00
  6
CONTINUOUS
 62
6
 10
560.0002
 20
357.6721
 11
560.0002
 21
302.6721
  0
LINE
  8
0_00
  6
CONTINUOUS
 62
6
 10
560.0002
 20
357.6721
 11
558.1289
 21
348.8688
  0
LINE
  8
0_00
  6
CONTINUOUS
 62
6
 10
560.0002
 20
357.6721
 11
561.8714
 21
348.8688
  0
LINE
  8
0_00
  6
CONTINUOUS
 62
6
 10
560.0002
 20
302.6721
 11
561.8714
 21
311.4755
  0
LINE
  8
0_00
  6
CONTINUOUS
 62
6
 10
560.0002
 20
302.6721
 11
558.1289
 21
311.4755
  0
LINE
  8
0_00
  6
CONTINUOUS
 62
6
 10
687.5551
 20
355.1721
 11
574.0001
 21
355.1721
  0
LINE
  8
0_00
  6
CONTINUOUS
 62
6
 10
687.5551
 20
305.1721
 11
574.0001
 21
305.1721
  0
LINE
  8
0_00
  6
CONTINUOUS
 62
6
 10
580.0002
 20
355.1721
 11
580.0002
 21
305.1721
  0
LINE
  8
0_00
  6
CONTINUOUS
 62
6
 10
580.0002
 20
355.1721
 11
578.1290
 21
346.3688
  0
LINE
  8
0_00
  6
CONTINUOUS
 62
6
 10
580.0002
 20
355.1721
 11
581.8714
 21
346.3688
  0
LINE
  8
0_00
  6
CONTINUOUS
 62
6
 10
580.0002
 20
305.1721
 11
581.8714
 21
313.9755
  0
LINE
  8
0_00
  6
CONTINUOUS
 62
6
 10
580.0002
 20
305.1721
 11
578.1290
 21
313.9755
  0
LINE
  8
0_00
  6
CONTINUOUS
 62
6
 10
860.0002
 20
342.6721
 11
860.0002
 21
317.6721
  0
LINE
  8
0_00
  6
CONTINUOUS
 62
6
 10
860.0002
 20
380.1801
 11
860.0002
 21
342.6721
  0
LINE
  8
0_00
  6
CONTINUOUS
 62
6
 10
860.0002
 20
342.6721
 11
861.8715
 21
351.4755
  0
LINE
  8
0_00
  6
CONTINUOUS
 62
6
 10
860.0002
 20
342.6721
 11
858.1291
 21
351.4755
  0
LINE
  8
0_00
  6
CONTINUOUS
 62
6
 10
860.0002
 20
299.6721
 11
860.0002
 21
317.6721
  0
LINE
  8
0_00
  6
CONTINUOUS
 62
6
 10
860.0002
 20
317.6721
 11
858.1291
 21
308.8688
  0
LINE
  8
0_00
  6
CONTINUOUS
 62
6
 10
860.0002
 20
317.6721
 11
861.8715
 21
308.8688
  0
LINE
  8
0_00
  6
CONTINUOUS
 62
6
 10
880.0003
 20
352.6722
 11
880.0003
 21
307.6721
  0
LINE
  8
0_00
  6
CONTINUOUS
 62
6
 10
880.0003
 20
382.0722
 11
880.0003
 21
352.6722
  0
LINE
  8
0_00
  6
CONTINUOUS
 62
6
 10
880.0003
 20
352.6722
 11
881.8714
 21
361.4755
  0
LINE
  8
0_00
  6
CONTINUOUS
 62
6
 10
880.0003
 20
352.6722
 11
878.1290
 21
361.4755
  0
LINE
  8
0_00
  6
CONTINUOUS
 62
6
 10
880.0003
 20
289.6721
 11
880.0003
 21
307.6721
  0
LINE
  8
0_00
  6
CONTINUOUS
 62
6
 10
880.0003
 20
307.6721
 11
878.1290
 21
298.8688
  0
LINE
  8
0_00
  6
CONTINUOUS
 62
6
 10
880.0003
 20
307.6721
 11
881.8714
 21
298.8688
  0
LINE
  8
0_00
  6
CONTINUOUS
 62
6
 10
802.0551
 20
368.1540
 11
802.0551
 21
466.1099
  0
LINE
  8
0_00
  6
CONTINUOUS
 62
6
 10
822.0552
 20
368.1540
 11
822.0552
 21
466.1099
  0
LINE
  8
0_00
  6
CONTINUOUS
 62
6
 10
802.0551
 20
460.1099
 11
822.0552
 21
460.1099
  0
LINE
  8
0_00
  6
CONTINUOUS
 62
6
 10
851.4551
 20
460.1099
 11
822.0552
 21
460.1099
  0
LINE
  8
0_00
  6
CONTINUOUS
 62
6
 10
822.0552
 20
460.1099
 11
830.8586
 21
458.2386
  0
LINE
  8
0_00
  6
CONTINUOUS
 62
6
 10
822.0552
 20
460.1099
 11
830.8586
 21
461.9811
  0
LINE
  8
0_00
  6
CONTINUOUS
 62
6
 10
784.0552
 20
460.1099
 11
802.0551
 21
460.1099
  0
LINE
  8
0_00
  6
CONTINUOUS
 62
6
 10
802.0551
 20
460.1099
 11
793.2518
 21
461.9811
  0
LINE
  8
0_00
  6
CONTINUOUS
 62
6
 10
802.0551
 20
460.1099
 11
793.2518
 21
458.2386
  0
LINE
  8
0_00
  6
CONTINUOUS
 62
6
 10
1043.5552
 20
380.3285
 11
1043.5552
 21
486.1099
  0
LINE
  8
0_00
  6
CONTINUOUS
 62
6
 10
1076.5552
 20
380.3285
 11
1076.5552
 21
486.1099
  0
LINE
  8
0_00
  6
CONTINUOUS
 62
6
 10
1043.5552
 20
480.1098
 11
1076.5552
 21
480.1098
  0
LINE
  8
0_00
  6
CONTINUOUS
 62
6
 10
1105.9553
 20
480.1098
 11
1076.5552
 21
480.1098
  0
LINE
  8
0_00
  6
CONTINUOUS
 62
6
 10
1076.5552
 20
480.1098
 11
1085.3586
 21
478.2387
  0
LINE
  8
0_00
  6
CONTINUOUS
 62
6
 10
1076.5552
 20
480.1098
 11
1085.3586
 21
481.9811
  0
LINE
  8
0_00
  6
CONTINUOUS
 62
6
 10
1025.5552
 20
480.1098
 11
1043.5552
 21
480.1098
  0
LINE
  8
0_00
  6
CONTINUOUS
 62
6
 10
1043.5552
 20
480.1098
 11
1034.7519
 21
481.9811
  0
LINE
  8
0_00
  6
CONTINUOUS
 62
6
 10
1043.5552
 20
480.1098
 11
1034.7519
 21
478.2387
  0
LINE
  8
0_00
  6
CONTINUOUS
 62
6
 10
1103.6168
 20
348.1722
 11
1166.0003
 21
348.1722
  0
LINE
  8
0_00
  6
CONTINUOUS
 62
6
 10
1103.6168
 20
312.1721
 11
1166.0003
 21
312.1721
  0
LINE
  8
0_00
  6
CONTINUOUS
 62
6
 10
1160.0003
 20
348.1722
 11
1160.0003
 21
312.1721
  0
LINE
  8
0_00
  6
CONTINUOUS
 62
6
 10
1160.0003
 20
348.1722
 11
1158.1291
 21
339.3688
  0
LINE
  8
0_00
  6
CONTINUOUS
 62
6
 10
1160.0003
 20
348.1722
 11
1161.8716
 21
339.3688
  0
LINE
  8
0_00
  6
CONTINUOUS
 62
6
 10
1160.0003
 20
312.1721
 11
1161.8716
 21
320.9755
  0
LINE
  8
0_00
  6
CONTINUOUS
 62
6
 10
1160.0003
 20
312.1721
 11
1158.1291
 21
320.9755
  0
LINE
  8
0_00
  6
CONTINUOUS
 62
6
 10
329.1349
 20
318.5868
 11
362.9589
 21
352.4108
  0
LINE
  8
0_00
  6
CONTINUOUS
 62
6
 10
329.1349
 20
318.5868
 11
336.6830
 21
323.4886
  0
LINE
  8
0_00
  6
CONTINUOUS
 62
6
 10
329.1349
 20
318.5868
 11
334.0367
 21
326.1348
  0
LINE
  8
0_00
  6
CONTINUOUS
 62
6
 10
362.9589
 20
352.4108
 11
415.1590
 21
352.4108
  0
LINE
  8
0_00
  6
CONTINUOUS
 62
6
 10
285.9248
 20
293.1149
 11
267.5306
 21
311.5091
  0
LINE
  8
0_00
  6
CONTINUOUS
 62
6
 10
285.9248
 20
293.1149
 11
281.0231
 21
300.6629
  0
LINE
  8
0_00
  6
CONTINUOUS
 62
6
 10
285.9248
 20
293.1149
 11
278.3768
 21
298.0167
  0
LINE
  8
0_00
  6
CONTINUOUS
 62
6
 10
267.5306
 20
311.5091
 11
186.5306
 21
311.5091
  0
LINE
  8
0_00
  6
CONTINUOUS
 62
6
 10
677.5611
 20
369.1312
 11
656.6956
 21
389.9968
  0
LINE
  8
0_00
  6
CONTINUOUS
 62
6
 10
677.5611
 20
369.1312
 11
672.6594
 21
376.6793
  0
LINE
  8
0_00
  6
CONTINUOUS
 62
6
 10
677.5611
 20
369.1312
 11
670.0131
 21
374.0330
  0
LINE
  8
0_00
  6
CONTINUOUS
 62
6
 10
656.6956
 20
389.9968
 11
604.4955
 21
389.9968
  0
LINE
  8
0_00
  6
CONTINUOUS
 62
4
 10
1123.7271
 20
405.1722
 11
919.0609
 21
405.1722
  0
LINE
  8
0_00
  6
CONTINUOUS
 62
4
 10
914.4021
 20
405.1722
 11
594.7827
 21
405.1722
  0
LINE
  8
0_00
  6
CONTINUOUS
 62
4
 10
594.7827
 20
420.1722
 11
918.4213
 21
420.1722
  0
LINE
  8
0_00
  6
CONTINUOUS
 62
4
 10
923.0801
 20
420.1722
 11
1123.7271
 21
420.1722
  0
LINE
  8
0_00
  6
CONTINUOUS
 62
4
 10
594.7827
 20
255.1722
 11
899.8129
 21
255.1722
  0
LINE
  8
0_00
  6
CONTINUOUS
 62
4
 10
904.4717
 20
255.1722
 11
1123.7271
 21
255.1722
  0
LINE
  8
0_00
  6
CONTINUOUS
 62
4
 10
1123.7271
 20
240.1721
 11
900.4525
 21
240.1721
  0
LINE
  8
0_00
  6
CONTINUOUS
 62
4
 10
895.7937
 20
240.1721
 11
594.7827
 21
240.1721
  0
LINE
  8
0_00
  6
CONTINUOUS
 62
4
 10
249.2033
 20
268.3365
 11
393.2033
 21
268.3365
  0
LINE
  8
0_00
  6
CONTINUOUS
 62
4
 10
393.2033
 20
268.3365
 11
393.2033
 21
193.3365
  0
LINE
  8
0_00
  6
CONTINUOUS
 62
4
 10
249.2033
 20
268.3365
 11
393.2033
 21
268.3365
  0
LINE
  8
0_00
  6
CONTINUOUS
 62
4
 10
249.2033
 20
268.3365
 11
249.2033
 21
193.3365
  0
LINE
  8
0_00
  6
CONTINUOUS
 62
4
 10
351.2033
 20
722.6319
 11
351.2032
 21
683.8099
  0
LINE
  8
0_00
  6
CONTINUOUS
 62
4
 10
349.8033
 20
722.6072
 11
349.8032
 21
696.2337
  0
LINE
  8
0_00
  6
CONTINUOUS
 62
4
 10
349.8032
 20
683.8099
 11
349.8032
 21
686.9837
  0
LINE
  8
0_00
  6
CONTINUOUS
 62
4
 10
291.2032
 20
722.6319
 11
291.2033
 21
683.8048
  0
LINE
  8
0_00
  6
CONTINUOUS
 62
4
 10
292.6032
 20
722.6072
 11
292.6033
 21
696.2124
  0
LINE
  8
0_00
  6
CONTINUOUS
 62
4
 10
292.6028
 20
686.9837
 11
292.6028
 21
683.8099
  0
LINE
  8
0_00
  6
CONTINUOUS
 62
4
 10
321.2033
 20
686.4099
 11
320.9033
 21
686.1099
  0
LINE
  8
0_00
  6
CONTINUOUS
 62
4
 10
333.5033
 20
686.1099
 11
321.5032
 21
686.1099
  0
LINE
  8
0_00
  6
CONTINUOUS
 62
4
 10
321.2033
 20
686.4099
 11
321.5032
 21
686.1099
  0
LINE
  8
14_0E
  6
CONTINUOUS
 62
4
 10
334.2794
 20
687.7196
 11
325.2033
 21
688.1100
  0
LINE
  8
0_00
  6
CONTINUOUS
 62
4
 10
333.5033
 20
686.1099
 11
333.9033
 21
684.6099
  0
LINE
  8
0_00
  6
CONTINUOUS
 62
4
 10
336.7033
 20
686.3099
 11
341.7033
 21
686.3099
  0
LINE
  8
0_00
  6
CONTINUOUS
 62
4
 10
333.9033
 20
684.6099
 11
348.6033
 21
684.6099
  0
LINE
  8
0_00
  6
CONTINUOUS
 62
4
 10
339.2033
 20
684.9099
 11
338.9033
 21
684.6099
  0
LINE
  8
0_00
  6
CONTINUOUS
 62
4
 10
339.2033
 20
684.9099
 11
339.5032
 21
684.6099
  0
LINE
  8
0_00
  6
CONTINUOUS
 62
4
 10
346.5310
 20
686.1099
 11
342.0033
 21
686.1099
  0
LINE
  8
0_00
  6
CONTINUOUS
 62
4
 10
341.7033
 20
686.3099
 11
342.0033
 21
686.1099
  0
LINE
  8
0_00
  6
CONTINUOUS
 62
4
 10
336.4033
 20
686.1099
 11
335.2156
 21
686.1099
  0
LINE
  8
0_00
  6
CONTINUOUS
 62
4
 10
336.7033
 20
686.3099
 11
336.4033
 21
686.1099
  0
LINE
  8
0_00
  6
CONTINUOUS
 62
4
 10
334.5576
 20
687.4926
 11
334.8275
 21
686.4129
  0
LINE
  8
0_00
  6
CONTINUOUS
 62
4
 10
321.2033
 20
686.4099
 11
321.5032
 21
686.1099
  0
LINE
  8
0_00
  6
CONTINUOUS
 62
4
 10
308.9033
 20
686.1099
 11
320.9033
 21
686.1099
  0
LINE
  8
0_00
  6
CONTINUOUS
 62
4
 10
321.2033
 20
686.4099
 11
320.9033
 21
686.1099
  0
LINE
  8
14_0E
  6
CONTINUOUS
 62
4
 10
308.1271
 20
687.7196
 11
317.2033
 21
688.1100
  0
LINE
  8
0_00
  6
CONTINUOUS
 62
4
 10
308.9033
 20
686.1099
 11
308.5033
 21
684.6099
  0
LINE
  8
0_00
  6
CONTINUOUS
 62
4
 10
305.7033
 20
686.3099
 11
300.7033
 21
686.3099
  0
LINE
  8
0_00
  6
CONTINUOUS
 62
4
 10
296.2034
 20
684.6099
 11
293.8032
 21
684.6099
  0
LINE
  8
0_00
  6
CONTINUOUS
 62
4
 10
303.2033
 20
684.9099
 11
303.5032
 21
684.6099
  0
LINE
  8
0_00
  6
CONTINUOUS
 62
4
 10
303.2033
 20
684.9099
 11
302.9032
 21
684.6099
  0
LINE
  8
0_00
  6
CONTINUOUS
 62
4
 10
295.8755
 20
686.1099
 11
300.4033
 21
686.1099
  0
LINE
  8
0_00
  6
CONTINUOUS
 62
4
 10
300.7033
 20
686.3099
 11
300.4033
 21
686.1099
  0
LINE
  8
0_00
  6
CONTINUOUS
 62
4
 10
306.0033
 20
686.1099
 11
307.1909
 21
686.1099
  0
LINE
  8
0_00
  6
CONTINUOUS
 62
4
 10
305.7033
 20
686.3099
 11
306.0033
 21
686.1099
  0
LINE
  8
0_00
  6
CONTINUOUS
 62
4
 10
307.8489
 20
687.4926
 11
307.5790
 21
686.4129
  0
LINE
  8
0_00
  6
CONTINUOUS
 62
4
 10
325.2033
 20
688.1100
 11
317.2033
 21
688.1100
  0
LINE
  8
0_00
  6
CONTINUOUS
 62
4
 10
348.6033
 20
684.6099
 11
349.6032
 21
685.6099
  0
LINE
  8
0_00
  6
CONTINUOUS
 62
4
 10
349.6032
 20
685.6099
 11
349.6032
 21
686.9099
  0
LINE
  8
0_00
  6
CONTINUOUS
 62
4
 10
349.6032
 20
686.1099
 11
349.6032
 21
685.6099
  0
LINE
  8
0_00
  6
CONTINUOUS
 62
4
 10
348.6228
 20
688.9878
 11
349.4794
 21
689.0628
  0
LINE
  8
0_00
  6
CONTINUOUS
 62
4
 10
347.5161
 20
689.9953
 11
348.3542
 21
690.0686
  0
LINE
  8
0_00
  6
CONTINUOUS
 62
4
 10
346.6033
 20
688.9991
 11
346.6033
 21
688.5661
  0
LINE
  8
14_0E
  6
CONTINUOUS
 62
4
 10
349.7471
 20
689.4220
 11
348.6617
 21
694.7099
  0
LINE
  8
0_00
  6
CONTINUOUS
 62
4
 10
347.9155
 20
693.8692
 11
348.6219
 21
690.4278
  0
LINE
  8
0_00
  6
CONTINUOUS
 62
4
 10
348.6012
 20
694.7099
 11
348.6617
 21
694.7099
  0
LINE
  8
0_00
  6
CONTINUOUS
 62
4
 10
293.8032
 20
684.6099
 11
292.8032
 21
685.6099
  0
LINE
  8
0_00
  6
CONTINUOUS
 62
4
 10
292.8032
 20
685.6099
 11
292.8032
 21
686.9099
  0
LINE
  8
0_00
  6
CONTINUOUS
 62
4
 10
292.8032
 20
686.1099
 11
292.8032
 21
685.6099
  0
LINE
  8
0_00
  6
CONTINUOUS
 62
4
 10
293.7838
 20
688.9878
 11
292.9271
 21
689.0628
  0
LINE
  8
0_00
  6
CONTINUOUS
 62
4
 10
294.8904
 20
689.9953
 11
294.0523
 21
690.0686
  0
LINE
  8
0_00
  6
CONTINUOUS
 62
4
 10
295.8033
 20
688.9991
 11
295.8033
 21
688.5661
  0
LINE
  8
0_00
  6
CONTINUOUS
 62
4
 10
292.6594
 20
689.4220
 11
293.7448
 21
694.7099
  0
LINE
  8
0_00
  6
CONTINUOUS
 62
4
 10
294.4910
 20
693.8692
 11
293.7846
 21
690.4278
  0
LINE
  8
0_00
  6
CONTINUOUS
 62
4
 10
293.8053
 20
694.7099
 11
293.7448
 21
694.7099
  0
LINE
  8
0_00
  6
CONTINUOUS
 62
4
 10
349.8032
 20
692.0338
 11
349.8032
 21
694.4338
  0
LINE
  8
0_00
  6
CONTINUOUS
 62
4
 10
347.1032
 20
694.8338
 11
349.4032
 21
694.8338
  0
LINE
  8
0_00
  6
CONTINUOUS
 62
4
 10
346.8032
 20
695.8338
 11
349.4032
 21
695.8338
  0
LINE
  8
0_00
  6
CONTINUOUS
 62
4
 10
346.3032
 20
695.3338
 11
346.3032
 21
694.2337
  0
LINE
  8
0_00
  6
CONTINUOUS
 62
4
 10
347.1032
 20
694.8338
 11
347.1032
 21
694.6337
  0
LINE
  8
0_00
  6
CONTINUOUS
 62
4
 10
348.7227
 20
688.9392
 11
349.4381
 21
689.0018
  0
LINE
  8
0_00
  6
CONTINUOUS
 62
4
 10
349.7953
 20
689.4794
 11
349.3286
 21
691.7943
  0
LINE
  8
0_00
  6
CONTINUOUS
 62
4
 10
349.5246
 20
692.0338
 11
349.8032
 21
692.0338
  0
LINE
  8
0_00
  6
CONTINUOUS
 62
4
 10
292.6027
 20
692.0338
 11
292.6027
 21
694.4338
  0
LINE
  8
0_00
  6
CONTINUOUS
 62
4
 10
295.3028
 20
694.8338
 11
293.0027
 21
694.8338
  0
LINE
  8
0_00
  6
CONTINUOUS
 62
4
 10
295.6027
 20
695.8338
 11
293.0027
 21
695.8338
  0
LINE
  8
0_00
  6
CONTINUOUS
 62
4
 10
296.1027
 20
695.3338
 11
296.1027
 21
694.2337
  0
LINE
  8
0_00
  6
CONTINUOUS
 62
4
 10
295.3028
 20
694.8338
 11
295.3028
 21
694.6337
  0
LINE
  8
0_00
  6
CONTINUOUS
 62
4
 10
293.6833
 20
688.9392
 11
292.9679
 21
689.0018
  0
LINE
  8
0_00
  6
CONTINUOUS
 62
4
 10
292.6107
 20
689.4794
 11
293.0774
 21
691.7943
  0
LINE
  8
0_00
  6
CONTINUOUS
 62
4
 10
292.8813
 20
692.0338
 11
292.6027
 21
692.0338
  0
LINE
  8
12_0C
  6
CONTINUOUS
 62
2
 10
342.7033
 20
687.2799
 11
342.7033
 21
686.3099
  0
LINE
  8
12_0C
  6
CONTINUOUS
 62
2
 10
335.7033
 20
687.2799
 11
335.7033
 21
686.3099
  0
LINE
  8
12_0C
  6
DASHED
 62
2
 10
337.2033
 20
686.3099
 11
337.2033
 21
666.1300
  0
LINE
  8
12_0C
  6
DASHED
 62
2
 10
337.7033
 20
686.3099
 11
337.7033
 21
656.3099
  0
LINE
  8
12_0C
  6
DASHED
 62
2
 10
341.2033
 20
686.3099
 11
341.2033
 21
666.1300
  0
LINE
  8
12_0C
  6
DASHED
 62
2
 10
340.7033
 20
686.3099
 11
340.7033
 21
656.3099
  0
LINE
  8
12_0C
  6
DASHED
 62
2
 10
337.2033
 20
666.1300
 11
337.7033
 21
661.7481
  0
LINE
  8
12_0C
  6
DASHED
 62
2
 10
341.2033
 20
666.1300
 11
340.7033
 21
661.7481
  0
LINE
  8
12_0C
  6
DASHED
 62
2
 10
337.7033
 20
656.3099
 11
340.7033
 21
656.3099
  0
LINE
  8
12_0C
  6
CONTINUOUS
 62
2
 10
335.7033
 20
686.3099
 11
342.7033
 21
686.3099
  0
LINE
  8
12_0C
  6
DASHED
 62
2
 10
341.2033
 20
666.1300
 11
337.7033
 21
661.7481
  0
LINE
  8
12_0C
  6
CONTINUOUS
 62
2
 10
306.7033
 20
687.2799
 11
306.7033
 21
686.3099
  0
LINE
  8
12_0C
  6
CONTINUOUS
 62
2
 10
299.7033
 20
687.2799
 11
299.7033
 21
686.3099
  0
LINE
  8
12_0C
  6
DASHED
 62
2
 10
301.2033
 20
686.3099
 11
301.2033
 21
666.1300
  0
LINE
  8
12_0C
  6
DASHED
 62
2
 10
301.7033
 20
686.3099
 11
301.7033
 21
656.3099
  0
LINE
  8
12_0C
  6
DASHED
 62
2
 10
305.2033
 20
686.3099
 11
305.2033
 21
666.1300
  0
LINE
  8
12_0C
  6
DASHED
 62
2
 10
304.7033
 20
686.3099
 11
304.7033
 21
656.3099
  0
LINE
  8
12_0C
  6
DASHED
 62
2
 10
301.2033
 20
666.1300
 11
301.7033
 21
661.7481
  0
LINE
  8
12_0C
  6
DASHED
 62
2
 10
305.2033
 20
666.1300
 11
304.7033
 21
661.7481
  0
LINE
  8
12_0C
  6
DASHED
 62
2
 10
301.7033
 20
656.3099
 11
304.7033
 21
656.3099
  0
LINE
  8
12_0C
  6
CONTINUOUS
 62
2
 10
299.7033
 20
686.3099
 11
306.7033
 21
686.3099
  0
LINE
  8
12_0C
  6
DASHED
 62
2
 10
305.2033
 20
666.1300
 11
301.7033
 21
661.7481
  0
LINE
  8
0_00
  6
CENTER1
 62
6
 10
303.2033
 20
691.1745
 11
303.2033
 21
653.4816
  0
LINE
  8
0_00
  6
CENTER1
 62
6
 10
339.2033
 20
691.1745
 11
339.2033
 21
653.4816
  0
LINE
  8
0_00
  6
CONTINUOUS
 62
4
 10
333.7033
 20
685.3599
 11
308.7033
 21
685.3599
  0
LINE
  8
0_00
  6
CONTINUOUS
 62
4
 10
308.5033
 20
684.6099
 11
296.2033
 21
684.6099
  0
LINE
  8
12_0C
  6
CONTINUOUS
 62
2
 10
324.7033
 20
689.0799
 11
324.7033
 21
688.1100
  0
LINE
  8
12_0C
  6
CONTINUOUS
 62
2
 10
317.7033
 20
689.0799
 11
317.7033
 21
688.1100
  0
LINE
  8
12_0C
  6
DASHED
 62
2
 10
319.2033
 20
688.1100
 11
319.2033
 21
667.9299
  0
LINE
  8
12_0C
  6
DASHED
 62
2
 10
319.7033
 20
688.1100
 11
319.7033
 21
663.5481
  0
LINE
  8
12_0C
  6
DASHED
 62
2
 10
323.2033
 20
688.1100
 11
323.2033
 21
667.9299
  0
LINE
  8
12_0C
  6
DASHED
 62
2
 10
322.7033
 20
688.1100
 11
322.7033
 21
663.5481
  0
LINE
  8
12_0C
  6
DASHED
 62
2
 10
319.2033
 20
667.9299
 11
319.7533
 21
663.1099
  0
LINE
  8
12_0C
  6
DASHED
 62
2
 10
323.2033
 20
667.9299
 11
322.6533
 21
663.1099
  0
LINE
  8
12_0C
  6
DASHED
 62
2
 10
319.7533
 20
663.1099
 11
322.6533
 21
663.1099
  0
LINE
  8
0_00
  6
CONTINUOUS
 62
2
 10
317.7033
 20
688.1100
 11
324.7033
 21
688.1100
  0
LINE
  8
0_00
  6
CONTINUOUS
 62
4
 10
295.2033
 20
684.1099
 11
308.7033
 21
684.1099
  0
LINE
  8
0_00
  6
CONTINUOUS
 62
4
 10
333.7033
 20
684.1099
 11
347.2033
 21
684.1099
  0
LINE
  8
0_00
  6
CONTINUOUS
 62
4
 10
347.2033
 20
684.6099
 11
347.2033
 21
684.1099
  0
LINE
  8
0_00
  6
CONTINUOUS
 62
4
 10
295.2033
 20
684.6099
 11
295.2033
 21
684.1099
  0
LINE
  8
0_00
  6
CONTINUOUS
 62
6
 10
266.5255
 20
730.1099
 11
154.0000
 21
730.1099
  0
LINE
  8
0_00
  6
CONTINUOUS
 62
6
 10
276.9027
 20
683.1099
 11
154.0000
 21
683.1099
  0
LINE
  8
0_00
  6
CONTINUOUS
 62
6
 10
160.0000
 20
730.1099
 11
160.0000
 21
683.1099
  0
LINE
  8
0_00
  6
CONTINUOUS
 62
6
 10
160.0000
 20
730.1099
 11
158.1288
 21
721.3066
  0
LINE
  8
0_00
  6
CONTINUOUS
 62
6
 10
160.0000
 20
730.1099
 11
161.8713
 21
721.3066
  0
LINE
  8
0_00
  6
CONTINUOUS
 62
6
 10
160.0000
 20
683.1099
 11
161.8713
 21
691.9133
  0
LINE
  8
0_00
  6
CONTINUOUS
 62
6
 10
160.0000
 20
683.1099
 11
158.1288
 21
691.9133
  0
LINE
  8
15_0F
  6
CONTINUOUS
 62
6
 10
291.2032
 20
737.8728
 11
291.2032
 21
779.9821
  0
LINE
  8
15_0F
  6
CONTINUOUS
 62
6
 10
351.2033
 20
737.8728
 11
351.2033
 21
779.9821
  0
LINE
  8
15_0F
  6
CONTINUOUS
 62
6
 10
291.2032
 20
775.4821
 11
351.2033
 21
775.4821
  0
LINE
  8
15_0F
  6
CONTINUOUS
 62
6
 10
291.2032
 20
775.4821
 11
300.0066
 21
773.6108
  0
LINE
  8
15_0F
  6
CONTINUOUS
 62
6
 10
291.2032
 20
775.4821
 11
300.0066
 21
777.3532
  0
LINE
  8
15_0F
  6
CONTINUOUS
 62
6
 10
351.2033
 20
775.4821
 11
342.3999
 21
777.3532
  0
LINE
  8
15_0F
  6
CONTINUOUS
 62
6
 10
351.2033
 20
775.4821
 11
342.3999
 21
773.6108
  0
LINE
  8
0_00
  6
CONTINUOUS
 62
6
 10
349.6987
 20
726.6058
 11
366.1573
 21
743.0645
  0
LINE
  8
0_00
  6
CONTINUOUS
 62
6
 10
349.6987
 20
726.6058
 11
357.2467
 21
731.5075
  0
LINE
  8
0_00
  6
CONTINUOUS
 62
6
 10
349.6987
 20
726.6058
 11
354.6004
 21
734.1538
  0
LINE
  8
0_00
  6
CONTINUOUS
 62
6
 10
366.1573
 20
743.0645
 11
425.5574
 21
743.0645
  0
LINE
  8
2_02
  6
CONTINUOUS
 62
4
 10
324.7033
 20
283.8365
 11
324.7033
 21
283.3365
  0
LINE
  8
2_02
  6
CONTINUOUS
 62
4
 10
317.7033
 20
284.8365
 11
323.7033
 21
284.8365
  0
LINE
  8
2_02
  6
CONTINUOUS
 62
4
 10
323.7033
 20
284.8365
 11
318.7033
 21
284.8365
  0
LINE
  8
2_02
  6
CONTINUOUS
 62
4
 10
317.7033
 20
283.8365
 11
317.7033
 21
283.3365
  0
LINE
  8
2_02
  6
CONTINUOUS
 62
4
 10
321.2033
 20
285.8365
 11
322.2033
 21
284.8365
  0
LINE
  8
2_02
  6
CONTINUOUS
 62
4
 10
321.2033
 20
284.8365
 11
321.2033
 21
285.8365
  0
LINE
  8
2_02
  6
CONTINUOUS
 62
4
 10
321.2033
 20
285.8365
 11
320.2033
 21
284.8365
  0
LINE
  8
0_00
  6
CONTINUOUS
 62
6
 10
500.0001
 20
704.6099
 11
500.0001
 21
704.1099
  0
LINE
  8
0_00
  6
CENTER1
 62
6
 10
561.6737
 20
738.2451
 11
561.6737
 21
615.6180
  0
LINE
  8
0_00
  6
CONTINUOUS
 62
4
 10
561.6737
 20
696.1539
 11
561.3737
 21
695.8539
  0
LINE
  8
0_00
  6
CONTINUOUS
 62
4
 10
561.6737
 20
696.1539
 11
561.9737
 21
695.8539
  0
LINE
  8
14_0E
  6
CONTINUOUS
 62
4
 10
574.7499
 20
697.4635
 11
565.6737
 21
697.8539
  0
LINE
  8
0_00
  6
CONTINUOUS
 62
4
 10
561.6737
 20
696.1539
 11
561.9737
 21
695.8539
  0
LINE
  8
0_00
  6
CONTINUOUS
 62
4
 10
561.6737
 20
696.1539
 11
561.3737
 21
695.8539
  0
LINE
  8
14_0E
  6
CONTINUOUS
 62
4
 10
548.5976
 20
697.4635
 11
557.6737
 21
697.8539
  0
LINE
  8
0_00
  6
CONTINUOUS
 62
4
 10
565.6737
 20
697.8539
 11
557.6737
 21
697.8539
  0
LINE
  8
0_00
  6
CONTINUOUS
 62
4
 10
577.1737
 20
696.0539
 11
582.1737
 21
696.0539
  0
LINE
  8
0_00
  6
CONTINUOUS
 62
4
 10
576.8738
 20
695.8539
 11
575.6861
 21
695.8539
  0
LINE
  8
0_00
  6
CONTINUOUS
 62
4
 10
577.1737
 20
696.0539
 11
576.8738
 21
695.8539
  0
LINE
  8
0_00
  6
CONTINUOUS
 62
4
 10
575.0281
 20
697.2365
 11
575.2980
 21
696.1568
  0
LINE
  8
0_00
  6
CONTINUOUS
 62
4
 10
546.1737
 20
696.0539
 11
541.1737
 21
696.0539
  0
LINE
  8
0_00
  6
CONTINUOUS
 62
4
 10
541.1737
 20
696.0539
 11
540.8737
 21
695.8539
  0
LINE
  8
0_00
  6
CONTINUOUS
 62
4
 10
546.4737
 20
695.8539
 11
547.6614
 21
695.8539
  0
LINE
  8
0_00
  6
CONTINUOUS
 62
4
 10
546.1737
 20
696.0539
 11
546.4737
 21
695.8539
  0
LINE
  8
0_00
  6
CONTINUOUS
 62
4
 10
548.3194
 20
697.2365
 11
548.0495
 21
696.1568
  0
LINE
  8
15_0F
  6
CONTINUOUS
 62
6
 10
584.7751
 20
725.6946
 11
599.1524
 21
741.2749
  0
LINE
  8
15_0F
  6
CONTINUOUS
 62
6
 10
584.7751
 20
725.6946
 11
592.1204
 21
730.8952
  0
LINE
  8
15_0F
  6
CONTINUOUS
 62
6
 10
584.7751
 20
725.6946
 11
589.3701
 21
733.4332
  0
LINE
  8
15_0F
  6
CONTINUOUS
 62
6
 10
599.1524
 20
741.2749
 11
663.5525
 21
741.2749
  0
LINE
  8
0_00
  6
CONTINUOUS
 62
4
 10
561.6737
 20
696.1539
 11
561.3737
 21
695.8539
  0
LINE
  8
0_00
  6
CONTINUOUS
 62
4
 10
573.9737
 20
695.8539
 11
561.9737
 21
695.8539
  0
LINE
  8
0_00
  6
CONTINUOUS
 62
4
 10
561.6737
 20
696.1539
 11
561.9737
 21
695.8539
  0
LINE
  8
14_0E
  6
CONTINUOUS
 62
4
 10
574.7499
 20
697.4635
 11
565.6737
 21
697.8539
  0
LINE
  8
0_00
  6
CONTINUOUS
 62
4
 10
561.6737
 20
696.1539
 11
561.9737
 21
695.8539
  0
LINE
  8
0_00
  6
CONTINUOUS
 62
4
 10
549.3738
 20
695.8539
 11
561.3737
 21
695.8539
  0
LINE
  8
0_00
  6
CONTINUOUS
 62
4
 10
561.6737
 20
696.1539
 11
561.3737
 21
695.8539
  0
LINE
  8
14_0E
  6
CONTINUOUS
 62
4
 10
548.5976
 20
697.4635
 11
557.6737
 21
697.8539
  0
LINE
  8
0_00
  6
CONTINUOUS
 62
4
 10
565.6737
 20
697.8539
 11
557.6737
 21
697.8539
  0
LINE
  8
0_00
  6
CONTINUOUS
 62
4
 10
574.3738
 20
694.3539
 11
579.3738
 21
694.3539
  0
LINE
  8
0_00
  6
CONTINUOUS
 62
4
 10
573.9737
 20
695.8539
 11
574.3738
 21
694.3539
  0
LINE
  8
0_00
  6
CONTINUOUS
 62
4
 10
577.1737
 20
696.0539
 11
582.1737
 21
696.0539
  0
LINE
  8
0_00
  6
CONTINUOUS
 62
4
 10
579.9737
 20
694.3539
 11
589.0738
 21
694.3539
  0
LINE
  8
0_00
  6
CONTINUOUS
 62
4
 10
579.6737
 20
694.6539
 11
579.3738
 21
694.3539
  0
LINE
  8
0_00
  6
CONTINUOUS
 62
4
 10
579.6737
 20
694.6539
 11
579.9737
 21
694.3539
  0
LINE
  8
0_00
  6
CONTINUOUS
 62
4
 10
587.0015
 20
695.8539
 11
582.4737
 21
695.8539
  0
LINE
  8
0_00
  6
CONTINUOUS
 62
4
 10
582.1737
 20
696.0539
 11
582.4737
 21
695.8539
  0
LINE
  8
0_00
  6
CONTINUOUS
 62
4
 10
576.8738
 20
695.8539
 11
575.6861
 21
695.8539
  0
LINE
  8
0_00
  6
CONTINUOUS
 62
4
 10
577.1737
 20
696.0539
 11
576.8738
 21
695.8539
  0
LINE
  8
0_00
  6
CONTINUOUS
 62
4
 10
575.0281
 20
697.2365
 11
575.2980
 21
696.1568
  0
LINE
  8
0_00
  6
CONTINUOUS
 62
4
 10
589.0738
 20
694.3539
 11
590.0738
 21
695.3539
  0
LINE
  8
0_00
  6
CONTINUOUS
 62
4
 10
590.0738
 20
695.3539
 11
590.0738
 21
696.6539
  0
LINE
  8
0_00
  6
CONTINUOUS
 62
4
 10
590.0738
 20
695.8539
 11
590.0738
 21
695.3539
  0
LINE
  8
0_00
  6
CONTINUOUS
 62
4
 10
589.0932
 20
698.7319
 11
589.9499
 21
698.8068
  0
LINE
  8
0_00
  6
CONTINUOUS
 62
4
 10
587.9866
 20
699.7392
 11
588.8247
 21
699.8125
  0
LINE
  8
0_00
  6
CONTINUOUS
 62
4
 10
587.0738
 20
698.7430
 11
587.0738
 21
698.3101
  0
LINE
  8
0_00
  6
CONTINUOUS
 62
4
 10
590.2176
 20
699.1660
 11
589.1322
 21
704.4539
  0
LINE
  8
0_00
  6
CONTINUOUS
 62
4
 10
588.3859
 20
703.6131
 11
589.0924
 21
700.1717
  0
LINE
  8
0_00
  6
CONTINUOUS
 62
4
 10
589.0717
 20
704.4539
 11
589.1322
 21
704.4539
  0
LINE
  8
0_00
  6
CONTINUOUS
 62
4
 10
591.6744
 20
704.6004
 11
591.6742
 21
695.3926
  0
LINE
  8
0_00
  6
CONTINUOUS
 62
4
 10
590.2743
 20
696.7504
 11
590.2743
 21
694.4100
  0
LINE
  8
0_00
  6
CONTINUOUS
 62
4
 10
590.2743
 20
701.8005
 11
590.2743
 21
704.1965
  0
LINE
  8
0_00
  6
CONTINUOUS
 62
4
 10
587.5744
 20
704.6004
 11
589.8744
 21
704.6004
  0
LINE
  8
0_00
  6
CONTINUOUS
 62
4
 10
586.7743
 20
704.9005
 11
586.7743
 21
704.0004
  0
LINE
  8
0_00
  6
CONTINUOUS
 62
4
 10
587.5744
 20
704.6004
 11
587.5744
 21
704.4005
  0
LINE
  8
0_00
  6
CONTINUOUS
 62
4
 10
589.1939
 20
698.7059
 11
589.9092
 21
698.7685
  0
LINE
  8
0_00
  6
CONTINUOUS
 62
4
 10
590.2664
 20
699.2460
 11
589.7996
 21
701.5609
  0
LINE
  8
0_00
  6
CONTINUOUS
 62
4
 10
589.9958
 20
701.8005
 11
590.2743
 21
701.8005
  0
LINE
  8
0_00
  6
CONTINUOUS
 62
4
 10
587.7744
 20
705.9005
 11
590.3744
 21
705.9005
  0
LINE
  8
0_00
  6
CONTINUOUS
 62
4
 10
548.9738
 20
694.3539
 11
543.9737
 21
694.3539
  0
LINE
  8
0_00
  6
CONTINUOUS
 62
4
 10
549.3738
 20
695.8539
 11
548.9738
 21
694.3539
  0
LINE
  8
0_00
  6
CONTINUOUS
 62
4
 10
546.1737
 20
696.0539
 11
541.1737
 21
696.0539
  0
LINE
  8
0_00
  6
CONTINUOUS
 62
4
 10
543.3737
 20
694.3539
 11
534.2738
 21
694.3539
  0
LINE
  8
0_00
  6
CONTINUOUS
 62
4
 10
543.6737
 20
694.6539
 11
543.9737
 21
694.3539
  0
LINE
  8
0_00
  6
CONTINUOUS
 62
4
 10
543.6737
 20
694.6539
 11
543.3737
 21
694.3539
  0
LINE
  8
0_00
  6
CONTINUOUS
 62
4
 10
536.3460
 20
695.8539
 11
540.8737
 21
695.8539
  0
LINE
  8
0_00
  6
CONTINUOUS
 62
4
 10
541.1737
 20
696.0539
 11
540.8737
 21
695.8539
  0
LINE
  8
0_00
  6
CONTINUOUS
 62
4
 10
546.4737
 20
695.8539
 11
547.6614
 21
695.8539
  0
LINE
  8
0_00
  6
CONTINUOUS
 62
4
 10
546.1737
 20
696.0539
 11
546.4737
 21
695.8539
  0
LINE
  8
0_00
  6
CONTINUOUS
 62
4
 10
548.3194
 20
697.2365
 11
548.0495
 21
696.1568
  0
LINE
  8
0_00
  6
CONTINUOUS
 62
4
 10
534.2738
 20
694.3539
 11
533.2738
 21
695.3539
  0
LINE
  8
0_00
  6
CONTINUOUS
 62
4
 10
533.2738
 20
695.3539
 11
533.2738
 21
696.6539
  0
LINE
  8
0_00
  6
CONTINUOUS
 62
4
 10
533.2738
 20
695.8539
 11
533.2738
 21
695.3539
  0
LINE
  8
0_00
  6
CONTINUOUS
 62
4
 10
534.2542
 20
698.7319
 11
533.3976
 21
698.8068
  0
LINE
  8
0_00
  6
CONTINUOUS
 62
4
 10
535.3609
 20
699.7392
 11
534.5228
 21
699.8125
  0
LINE
  8
0_00
  6
CONTINUOUS
 62
4
 10
536.2738
 20
698.7430
 11
536.2738
 21
698.3101
  0
LINE
  8
0_00
  6
CONTINUOUS
 62
4
 10
533.1298
 20
699.1660
 11
534.2153
 21
704.4539
  0
LINE
  8
0_00
  6
CONTINUOUS
 62
4
 10
534.9615
 20
703.6131
 11
534.2551
 21
700.1717
  0
LINE
  8
0_00
  6
CONTINUOUS
 62
4
 10
534.2758
 20
704.4539
 11
534.2153
 21
704.4539
  0
LINE
  8
0_00
  6
CONTINUOUS
 62
4
 10
531.6732
 20
704.6004
 11
531.6733
 21
695.3926
  0
LINE
  8
0_00
  6
CONTINUOUS
 62
4
 10
533.0732
 20
696.7504
 11
533.0733
 21
694.4100
  0
LINE
  8
0_00
  6
CONTINUOUS
 62
4
 10
533.0732
 20
701.8005
 11
533.0732
 21
704.1965
  0
LINE
  8
0_00
  6
CONTINUOUS
 62
4
 10
535.7732
 20
704.6004
 11
533.4732
 21
704.6004
  0
LINE
  8
0_00
  6
CONTINUOUS
 62
4
 10
536.5731
 20
704.9005
 11
536.5731
 21
704.0004
  0
LINE
  8
0_00
  6
CONTINUOUS
 62
4
 10
535.7732
 20
704.6004
 11
535.7732
 21
704.4005
  0
LINE
  8
0_00
  6
CONTINUOUS
 62
4
 10
534.1537
 20
698.7059
 11
533.4383
 21
698.7685
  0
LINE
  8
0_00
  6
CONTINUOUS
 62
4
 10
533.0811
 20
699.2460
 11
533.5478
 21
701.5609
  0
LINE
  8
0_00
  6
CONTINUOUS
 62
4
 10
533.3518
 20
701.8005
 11
533.0732
 21
701.8005
  0
LINE
  8
0_00
  6
CONTINUOUS
 62
4
 10
535.5731
 20
705.9005
 11
532.9732
 21
705.9005
  0
LINE
  8
0_00
  6
CONTINUOUS
 62
4
 10
538.1737
 20
695.8539
 11
539.6737
 21
695.8539
  0
LINE
  8
0_00
  6
CONTINUOUS
 62
4
 10
536.6737
 20
693.8539
 11
536.6737
 21
621.7224
  0
LINE
  8
0_00
  6
CONTINUOUS
 62
4
 10
549.1737
 20
695.1039
 11
549.1737
 21
621.7224
  0
LINE
  8
0_00
  6
CONTINUOUS
 62
4
 10
574.1738
 20
695.1039
 11
549.1737
 21
695.1039
  0
LINE
  8
0_00
  6
CONTINUOUS
 62
4
 10
574.1738
 20
621.7224
 11
574.1738
 21
695.1039
  0
LINE
  8
0_00
  6
CONTINUOUS
 62
4
 10
586.6738
 20
693.8539
 11
586.6738
 21
621.7224
  0
LINE
  8
0_00
  6
CONTINUOUS
 62
4
 10
574.1738
 20
693.8539
 11
587.6738
 21
693.8539
  0
LINE
  8
0_00
  6
CONTINUOUS
 62
4
 10
587.6738
 20
694.3539
 11
587.6738
 21
693.8539
  0
LINE
  8
0_00
  6
CONTINUOUS
 62
4
 10
535.6737
 20
693.8539
 11
549.1737
 21
693.8539
  0
LINE
  8
0_00
  6
CONTINUOUS
 62
4
 10
535.6737
 20
694.3539
 11
535.6737
 21
693.8539
  0
LINE
  8
12_0C
  6
DASHED
 62
2
 10
563.6737
 20
697.8539
 11
563.6737
 21
677.6738
  0
LINE
  8
12_0C
  6
CONTINUOUS
 62
2
 10
565.1737
 20
698.8239
 11
565.1737
 21
697.8539
  0
LINE
  8
12_0C
  6
CONTINUOUS
 62
2
 10
558.1737
 20
698.8239
 11
558.1737
 21
697.8539
  0
LINE
  8
12_0C
  6
DASHED
 62
2
 10
559.6737
 20
697.8539
 11
559.6737
 21
677.6738
  0
LINE
  8
12_0C
  6
DASHED
 62
2
 10
560.1737
 20
697.8539
 11
560.1737
 21
673.2921
  0
LINE
  8
12_0C
  6
DASHED
 62
2
 10
563.1737
 20
697.8539
 11
563.1737
 21
673.2921
  0
LINE
  8
12_0C
  6
DASHED
 62
2
 10
559.6737
 20
677.6738
 11
560.2237
 21
672.8539
  0
LINE
  8
12_0C
  6
DASHED
 62
2
 10
563.6737
 20
677.6738
 11
563.1237
 21
672.8539
  0
LINE
  8
12_0C
  6
DASHED
 62
2
 10
560.2237
 20
672.8539
 11
563.1237
 21
672.8539
  0
LINE
  8
0_00
  6
CONTINUOUS
 62
2
 10
558.1737
 20
697.8539
 11
565.1737
 21
697.8539
  0
LINE
  8
12_0C
  6
CONTINUOUS
 62
2
 10
547.1737
 20
697.0238
 11
547.1737
 21
696.0539
  0
LINE
  8
12_0C
  6
CONTINUOUS
 62
2
 10
540.1737
 20
697.0238
 11
540.1737
 21
696.0539
  0
LINE
  8
12_0C
  6
DASHED
 62
2
 10
541.6737
 20
696.0539
 11
541.6737
 21
675.8739
  0
LINE
  8
12_0C
  6
DASHED
 62
2
 10
542.1737
 20
696.0539
 11
542.1737
 21
666.0539
  0
LINE
  8
12_0C
  6
DASHED
 62
2
 10
545.6737
 20
696.0539
 11
545.6737
 21
675.8739
  0
LINE
  8
12_0C
  6
DASHED
 62
2
 10
545.1737
 20
696.0539
 11
545.1737
 21
666.0539
  0
LINE
  8
12_0C
  6
DASHED
 62
2
 10
541.6737
 20
675.8739
 11
542.1737
 21
671.4921
  0
LINE
  8
12_0C
  6
DASHED
 62
2
 10
545.6737
 20
675.8739
 11
545.1737
 21
671.4921
  0
LINE
  8
12_0C
  6
DASHED
 62
2
 10
542.1737
 20
666.0539
 11
545.1737
 21
666.0539
  0
LINE
  8
12_0C
  6
CONTINUOUS
 62
2
 10
540.1737
 20
696.0539
 11
547.1737
 21
696.0539
  0
LINE
  8
12_0C
  6
DASHED
 62
2
 10
545.6737
 20
675.8739
 11
542.1737
 21
671.4921
  0
LINE
  8
0_00
  6
CENTER1
 62
6
 10
543.6737
 20
700.9185
 11
543.6737
 21
663.2255
  0
LINE
  8
12_0C
  6
CONTINUOUS
 62
2
 10
583.1737
 20
697.0238
 11
583.1737
 21
696.0539
  0
LINE
  8
12_0C
  6
CONTINUOUS
 62
2
 10
576.1737
 20
697.0238
 11
576.1737
 21
696.0539
  0
LINE
  8
12_0C
  6
DASHED
 62
2
 10
577.6737
 20
696.0539
 11
577.6737
 21
675.8739
  0
LINE
  8
12_0C
  6
DASHED
 62
2
 10
578.1737
 20
696.0539
 11
578.1737
 21
666.0539
  0
LINE
  8
12_0C
  6
DASHED
 62
2
 10
581.6737
 20
696.0539
 11
581.6737
 21
675.8739
  0
LINE
  8
12_0C
  6
DASHED
 62
2
 10
581.1737
 20
696.0539
 11
581.1737
 21
666.0539
  0
LINE
  8
12_0C
  6
DASHED
 62
2
 10
577.6737
 20
675.8739
 11
578.1737
 21
671.4921
  0
LINE
  8
12_0C
  6
DASHED
 62
2
 10
581.6737
 20
675.8739
 11
581.1737
 21
671.4921
  0
LINE
  8
12_0C
  6
DASHED
 62
2
 10
578.1737
 20
666.0539
 11
581.1737
 21
666.0539
  0
LINE
  8
12_0C
  6
CONTINUOUS
 62
2
 10
576.1737
 20
696.0539
 11
583.1737
 21
696.0539
  0
LINE
  8
12_0C
  6
DASHED
 62
2
 10
581.6737
 20
675.8739
 11
578.1737
 21
671.4921
  0
LINE
  8
0_00
  6
CENTER1
 62
6
 10
579.6737
 20
700.9185
 11
579.6737
 21
663.2255
  0
LINE
  8
15_0F
  6
CONTINUOUS
 62
6
 10
601.6737
 20
722.3121
 11
601.6737
 21
777.5842
  0
LINE
  8
15_0F
  6
CONTINUOUS
 62
6
 10
521.6737
 20
722.3121
 11
521.6737
 21
777.5842
  0
LINE
  8
15_0F
  6
CONTINUOUS
 62
6
 10
521.6737
 20
771.5842
 11
601.6737
 21
771.5842
  0
LINE
  8
15_0F
  6
CONTINUOUS
 62
6
 10
521.6737
 20
771.5842
 11
530.4770
 21
769.7130
  0
LINE
  8
15_0F
  6
CONTINUOUS
 62
6
 10
521.6737
 20
771.5842
 11
530.4770
 21
773.4554
  0
LINE
  8
15_0F
  6
CONTINUOUS
 62
6
 10
601.6737
 20
771.5842
 11
592.8704
 21
773.4554
  0
LINE
  8
15_0F
  6
CONTINUOUS
 62
6
 10
601.6737
 20
771.5842
 11
592.8704
 21
769.7130
  0
LINE
  8
0_00
  6
CONTINUOUS
 62
6
 10
516.6637
 20
693.0004
 11
474.0001
 21
693.0004
  0
LINE
  8
0_00
  6
CONTINUOUS
 62
6
 10
546.6737
 20
730.1099
 11
474.0001
 21
730.1099
  0
LINE
  8
0_00
  6
CONTINUOUS
 62
6
 10
480.0001
 20
730.1099
 11
480.0001
 21
693.0004
  0
LINE
  8
0_00
  6
CONTINUOUS
 62
6
 10
480.0001
 20
730.1099
 11
478.1289
 21
721.3066
  0
LINE
  8
0_00
  6
CONTINUOUS
 62
6
 10
480.0001
 20
730.1099
 11
481.8713
 21
721.3066
  0
LINE
  8
0_00
  6
CONTINUOUS
 62
6
 10
480.0001
 20
693.0004
 11
481.8713
 21
701.8038
  0
LINE
  8
0_00
  6
CONTINUOUS
 62
6
 10
480.0001
 20
693.0004
 11
478.1289
 21
701.8038
  0
LINE
  8
0_00
  6
CONTINUOUS
 62
2
 10
876.7984
 20
717.5791
 11
860.0856
 21
717.5791
  0
LINE
  8
0_00
  6
CONTINUOUS
 62
2
 10
860.0856
 20
717.5791
 11
868.8890
 21
715.7078
  0
LINE
  8
0_00
  6
CONTINUOUS
 62
2
 10
860.0856
 20
717.5791
 11
868.8890
 21
719.4502
  0
LINE
  8
0_00
  6
CONTINUOUS
 62
2
 10
876.7984
 20
717.5791
 11
876.7984
 21
598.7638
  0
LINE
  8
0_00
  6
CONTINUOUS
 62
2
 10
876.7984
 20
598.7638
 11
860.0856
 21
598.7638
  0
LINE
  8
0_00
  6
CONTINUOUS
 62
2
 10
860.0856
 20
598.7638
 11
868.8890
 21
596.8926
  0
LINE
  8
0_00
  6
CONTINUOUS
 62
2
 10
860.0856
 20
598.7638
 11
868.8890
 21
600.6349
  0
LINE
  8
0_00
  6
CONTINUOUS
 62
2
 10
837.0985
 20
643.1905
 11
837.0985
 21
612.3956
  0
LINE
  8
0_00
  6
CONTINUOUS
 62
2
 10
837.0985
 20
612.3956
 11
838.9697
 21
621.1989
  0
LINE
  8
0_00
  6
CONTINUOUS
 62
2
 10
837.0985
 20
612.3956
 11
835.2273
 21
621.1989
  0
LINE
  8
0_00
  6
CONTINUOUS
 62
2
 10
981.1066
 20
701.7327
 11
981.1066
 21
676.8757
  0
LINE
  8
0_00
  6
CONTINUOUS
 62
2
 10
981.1066
 20
676.8757
 11
982.9777
 21
685.6789
  0
LINE
  8
0_00
  6
CONTINUOUS
 62
2
 10
981.1066
 20
676.8757
 11
979.2353
 21
685.6789
  0
LINE
  8
0_00
  6
CONTINUOUS
 62
2
 10
902.3317
 20
701.7327
 11
981.1066
 21
701.7327
  0
LINE
  8
0_00
  6
CONTINUOUS
 62
2
 10
902.3317
 20
701.7327
 11
902.3317
 21
643.1905
  0
LINE
  8
0_00
  6
CONTINUOUS
 62
2
 10
837.0985
 20
643.1905
 11
902.3317
 21
643.1905
  0
LINE
  8
0_00
  6
CONTINUOUS
 62
4
 10
1128.9797
 20
175.7721
 11
1160.1796
 21
175.7721
  0
LINE
  8
0_00
  6
CONTINUOUS
 62
4
 10
1160.1796
 20
175.7721
 11
1160.1796
 21
190.1721
  0
LINE
  8
0_00
  6
CONTINUOUS
 62
4
 10
1128.9797
 20
190.1721
 11
1160.1796
 21
190.1721
  0
LINE
  8
0_00
  6
CONTINUOUS
 62
4
 10
1128.9797
 20
175.7721
 11
1128.9797
 21
190.1721
  0
LINE
  8
0_00
  6
CONTINUOUS
 62
4
 10
1128.9797
 20
470.1722
 11
1160.1796
 21
470.1722
  0
LINE
  8
0_00
  6
CONTINUOUS
 62
4
 10
1160.1796
 20
470.1722
 11
1160.1796
 21
484.5722
  0
LINE
  8
0_00
  6
CONTINUOUS
 62
4
 10
1128.9797
 20
484.5722
 11
1160.1796
 21
484.5722
  0
LINE
  8
0_00
  6
CONTINUOUS
 62
4
 10
1128.9797
 20
470.1722
 11
1128.9797
 21
484.5722
  0
LINE
  8
0_00
  6
CONTINUOUS
 62
3
 10
547.4112
 20
97.3098
 11
547.4112
 21
37.3098
  0
LINE
  8
0_00
  6
CONTINUOUS
 62
7
 10
54.6905
 20
112.3098
 11
1218.5114
 21
112.3098
  0
LINE
  8
0_00
  6
CONTINUOUS
 62
3
 10
1218.5114
 20
851.8100
 11
1218.5114
 21
865.3100
  0
LINE
  8
0_00
  6
CONTINUOUS
 62
7
 10
1218.5114
 20
37.3098
 11
1218.5114
 21
851.8100
  0
LINE
  8
0_00
  6
CONTINUOUS
 62
3
 10
54.6905
 20
851.8100
 11
54.6905
 21
865.3100
  0
LINE
  8
0_00
  6
CONTINUOUS
 62
7
 10
54.6905
 20
37.3098
 11
54.6905
 21
851.8100
  0
LINE
  8
0_00
  6
CONTINUOUS
 62
7
 10
54.6905
 20
851.8100
 11
1218.5114
 21
851.8100
  0
LINE
  8
0_00
  6
CONTINUOUS
 62
7
 10
54.6905
 20
37.3098
 11
1218.5114
 21
37.3098
  0
LINE
  8
0_00
  6
CONTINUOUS
 62
3
 10
39.6905
 20
22.3098
 11
39.6905
 21
865.3100
  0
LINE
  8
0_00
  6
CONTINUOUS
 62
3
 10
1233.5113
 20
22.3098
 11
1233.5113
 21
865.3100
  0
LINE
  8
0_00
  6
CONTINUOUS
 62
3
 10
39.6905
 20
865.3100
 11
1233.5113
 21
865.3100
  0
LINE
  8
0_00
  6
CONTINUOUS
 62
3
 10
1070.6114
 20
37.3098
 11
1070.6114
 21
112.3098
  0
LINE
  8
0_00
  6
CONTINUOUS
 62
3
 10
54.6905
 20
97.3098
 11
812.7613
 21
97.3098
  0
LINE
  8
0_00
  6
CONTINUOUS
 62
7
 10
812.7613
 20
97.3098
 11
1218.5114
 21
97.3098
  0
LINE
  8
0_00
  6
CONTINUOUS
 62
3
 10
1070.6114
 20
67.3098
 11
1218.5114
 21
67.3098
  0
LINE
  8
0_00
  6
CONTINUOUS
 62
3
 10
1100.6113
 20
112.3098
 11
1100.6113
 21
97.3098
  0
LINE
  8
0_00
  6
CONTINUOUS
 62
3
 10
812.7613
 20
37.3098
 11
812.7613
 21
97.3098
  0
LINE
  8
0_00
  6
CONTINUOUS
 62
7
 10
812.7613
 20
97.3098
 11
812.7613
 21
112.3098
  0
LINE
  8
0_00
  6
CONTINUOUS
 62
3
 10
836.7612
 20
97.3098
 11
836.7612
 21
112.3098
  0
LINE
  8
0_00
  6
CONTINUOUS
 62
3
 10
912.5113
 20
37.3098
 11
912.5113
 21
112.3098
  0
LINE
  8
0_00
  6
CONTINUOUS
 62
3
 10
1004.6114
 20
97.3098
 11
1004.6114
 21
112.3098
  0
LINE
  8
0_00
  6
CONTINUOUS
 62
3
 10
1032.2114
 20
37.3098
 11
1032.2114
 21
97.3098
  0
LINE
  8
0_00
  6
CONTINUOUS
 62
3
 10
995.9113
 20
37.3098
 11
995.9113
 21
97.3098
  0
LINE
  8
0_00
  6
CONTINUOUS
 62
3
 10
959.6113
 20
37.3098
 11
959.6113
 21
97.3098
  0
LINE
  8
0_00
  6
CONTINUOUS
 62
3
 10
468.6611
 20
37.3098
 11
468.6611
 21
112.3098
  0
LINE
  8
0_00
  6
CONTINUOUS
 62
3
 10
626.1612
 20
37.3098
 11
626.1612
 21
97.3098
  0
LINE
  8
0_00
  6
CONTINUOUS
 62
3
 10
54.6905
 20
82.3098
 11
468.6611
 21
82.3098
  0
LINE
  8
0_00
  6
CONTINUOUS
 62
3
 10
54.6905
 20
67.3098
 11
912.5113
 21
67.3098
  0
LINE
  8
0_00
  6
CONTINUOUS
 62
3
 10
174.6905
 20
52.3098
 11
468.6611
 21
52.3098
  0
LINE
  8
0_00
  6
CONTINUOUS
 62
7
 10
54.6905
 20
52.3098
 11
174.6905
 21
52.3098
  0
LINE
  8
0_00
  6
CONTINUOUS
 62
3
 10
818.0112
 20
851.8100
 11
818.0112
 21
865.3100
  0
LINE
  8
0_00
  6
CONTINUOUS
 62
3
 10
788.0112
 20
851.8100
 11
788.0112
 21
865.3100
  0
LINE
  8
0_00
  6
CONTINUOUS
 62
3
 10
204.6905
 20
851.8100
 11
204.6905
 21
865.3100
  0
LINE
  8
0_00
  6
CONTINUOUS
 62
3
 10
854.0113
 20
851.8100
 11
854.0113
 21
865.3100
  0
LINE
  8
0_00
  6
CONTINUOUS
 62
3
 10
915.5113
 20
851.8100
 11
915.5113
 21
865.3100
  0
LINE
  8
0_00
  6
CONTINUOUS
 62
3
 10
1146.5113
 20
851.8100
 11
1146.5113
 21
865.3100
  0
LINE
  8
0_00
  6
CONTINUOUS
 62
3
 10
114.6905
 20
112.3098
 11
114.6905
 21
37.3098
  0
LINE
  8
0_00
  6
CONTINUOUS
 62
7
 10
174.6905
 20
112.3098
 11
174.6905
 21
37.3098
  0
LINE
  8
0_00
  6
CONTINUOUS
 62
3
 10
869.7613
 20
67.3098
 11
869.7613
 21
97.3098
  0
LINE
  8
0_00
  6
CONTINUOUS
 62
3
 10
893.7613
 20
112.3098
 11
893.7613
 21
97.3098
  0
LINE
  8
0_00
  6
CONTINUOUS
 62
3
 10
912.5113
 20
82.3098
 11
1070.6114
 21
82.3098
  0
LINE
  8
0_00
  6
CONTINUOUS
 62
3
 10
1076.6114
 20
71.8098
 11
1078.5612
 21
71.8098
  0
LINE
  8
0_00
  6
CONTINUOUS
 62
3
 10
1078.5612
 20
71.8098
 11
1078.5612
 21
91.3098
  0
LINE
  8
0_00
  6
CONTINUOUS
 62
3
 10
1078.5612
 20
91.3098
 11
1076.6114
 21
91.3098
  0
LINE
  8
0_00
  6
CONTINUOUS
 62
3
 10
1076.6114
 20
71.8098
 11
1076.6114
 21
91.3098
  0
LINE
  8
0_00
  6
CONTINUOUS
 62
3
 10
1079.3412
 20
71.8098
 11
1081.2913
 21
71.8098
  0
LINE
  8
0_00
  6
CONTINUOUS
 62
3
 10
1081.2913
 20
71.8098
 11
1081.2913
 21
91.3098
  0
LINE
  8
0_00
  6
CONTINUOUS
 62
3
 10
1081.2913
 20
91.3098
 11
1079.3412
 21
91.3098
  0
LINE
  8
0_00
  6
CONTINUOUS
 62
3
 10
1079.3412
 20
71.8098
 11
1079.3412
 21
91.3098
  0
LINE
  8
0_00
  6
CONTINUOUS
 62
3
 10
1082.0714
 20
71.8098
 11
1084.0213
 21
71.8098
  0
LINE
  8
0_00
  6
CONTINUOUS
 62
3
 10
1084.0213
 20
71.8098
 11
1084.0213
 21
91.3098
  0
LINE
  8
0_00
  6
CONTINUOUS
 62
3
 10
1084.0213
 20
91.3098
 11
1082.0714
 21
91.3098
  0
LINE
  8
0_00
  6
CONTINUOUS
 62
3
 10
1082.0714
 20
71.8098
 11
1082.0714
 21
91.3098
  0
LINE
  8
0_00
  6
CONTINUOUS
 62
3
 10
1084.8013
 20
71.8098
 11
1086.7514
 21
71.8098
  0
LINE
  8
0_00
  6
CONTINUOUS
 62
3
 10
1086.7514
 20
91.3098
 11
1084.8013
 21
91.3098
  0
LINE
  8
0_00
  6
CONTINUOUS
 62
3
 10
1084.8013
 20
71.8098
 11
1084.8013
 21
91.3098
  0
LINE
  8
0_00
  6
CONTINUOUS
 62
3
 10
1092.4064
 20
71.8098
 11
1100.0112
 21
71.8098
  0
LINE
  8
0_00
  6
CONTINUOUS
 62
3
 10
1100.0112
 20
71.8098
 11
1100.0112
 21
73.5648
  0
LINE
  8
0_00
  6
CONTINUOUS
 62
3
 10
1100.0112
 20
73.5648
 11
1092.4064
 21
73.5648
  0
LINE
  8
0_00
  6
CONTINUOUS
 62
3
 10
1092.4064
 20
73.5648
 11
1092.4064
 21
71.8098
  0
LINE
  8
0_00
  6
CONTINUOUS
 62
3
 10
1092.4064
 20
74.3448
 11
1100.0112
 21
74.3448
  0
LINE
  8
0_00
  6
CONTINUOUS
 62
3
 10
1100.0112
 20
74.3448
 11
1100.0112
 21
76.0998
  0
LINE
  8
0_00
  6
CONTINUOUS
 62
3
 10
1100.0112
 20
76.0998
 11
1092.4064
 21
76.0998
  0
LINE
  8
0_00
  6
CONTINUOUS
 62
3
 10
1092.4064
 20
76.0998
 11
1092.4064
 21
74.3448
  0
LINE
  8
0_00
  6
CONTINUOUS
 62
3
 10
1092.4064
 20
76.8798
 11
1100.0112
 21
76.8798
  0
LINE
  8
0_00
  6
CONTINUOUS
 62
3
 10
1100.0112
 20
76.8798
 11
1100.0112
 21
78.6348
  0
LINE
  8
0_00
  6
CONTINUOUS
 62
3
 10
1100.0112
 20
78.6348
 11
1092.4064
 21
78.6348
  0
LINE
  8
0_00
  6
CONTINUOUS
 62
3
 10
1092.4064
 20
78.6348
 11
1092.4064
 21
76.8798
  0
LINE
  8
0_00
  6
CONTINUOUS
 62
3
 10
1092.4064
 20
79.4148
 11
1100.0112
 21
79.4148
  0
LINE
  8
0_00
  6
CONTINUOUS
 62
3
 10
1100.0112
 20
79.4148
 11
1100.0112
 21
81.1698
  0
LINE
  8
0_00
  6
CONTINUOUS
 62
3
 10
1100.0112
 20
81.1698
 11
1092.4064
 21
81.1698
  0
LINE
  8
0_00
  6
CONTINUOUS
 62
3
 10
1092.4064
 20
81.1698
 11
1092.4064
 21
79.4148
  0
LINE
  8
0_00
  6
CONTINUOUS
 62
3
 10
1092.4064
 20
81.9498
 11
1100.0112
 21
81.9498
  0
LINE
  8
0_00
  6
CONTINUOUS
 62
3
 10
1100.0112
 20
81.9498
 11
1100.0112
 21
83.7048
  0
LINE
  8
0_00
  6
CONTINUOUS
 62
3
 10
1100.0112
 20
83.7048
 11
1092.4064
 21
83.7048
  0
LINE
  8
0_00
  6
CONTINUOUS
 62
3
 10
1092.4064
 20
83.7048
 11
1092.4064
 21
81.9498
  0
LINE
  8
0_00
  6
CONTINUOUS
 62
3
 10
1092.4064
 20
84.4848
 11
1100.0112
 21
84.4848
  0
LINE
  8
0_00
  6
CONTINUOUS
 62
3
 10
1100.0112
 20
84.4848
 11
1100.0112
 21
86.2398
  0
LINE
  8
0_00
  6
CONTINUOUS
 62
3
 10
1100.0112
 20
86.2398
 11
1092.4064
 21
86.2398
  0
LINE
  8
0_00
  6
CONTINUOUS
 62
3
 10
1092.4064
 20
86.2398
 11
1092.4064
 21
84.4848
  0
LINE
  8
0_00
  6
CONTINUOUS
 62
3
 10
1092.4064
 20
87.0198
 11
1100.0112
 21
87.0198
  0
LINE
  8
0_00
  6
CONTINUOUS
 62
3
 10
1100.0112
 20
87.0198
 11
1100.0112
 21
88.7748
  0
LINE
  8
0_00
  6
CONTINUOUS
 62
3
 10
1100.0112
 20
88.7748
 11
1092.4064
 21
88.7748
  0
LINE
  8
0_00
  6
CONTINUOUS
 62
3
 10
1092.4064
 20
88.7748
 11
1092.4064
 21
87.0198
  0
LINE
  8
0_00
  6
CONTINUOUS
 62
3
 10
1092.4064
 20
89.5548
 11
1100.0112
 21
89.5548
  0
LINE
  8
0_00
  6
CONTINUOUS
 62
3
 10
1100.0112
 20
89.5548
 11
1100.0112
 21
91.3098
  0
LINE
  8
0_00
  6
CONTINUOUS
 62
3
 10
1100.0112
 20
91.3098
 11
1092.4064
 21
91.3098
  0
LINE
  8
0_00
  6
CONTINUOUS
 62
3
 10
1092.4064
 20
91.3098
 11
1092.4064
 21
89.5548
  0
LINE
  8
0_00
  6
CONTINUOUS
 62
3
 10
1087.5315
 20
71.8098
 11
1087.5315
 21
77.1723
  0
LINE
  8
0_00
  6
CONTINUOUS
 62
3
 10
1088.8378
 20
72.8823
 11
1088.8378
 21
77.1723
  0
LINE
  8
0_00
  6
CONTINUOUS
 62
3
 10
1087.5315
 20
71.8098
 11
1089.6763
 21
71.8098
  0
LINE
  8
0_00
  6
CONTINUOUS
 62
3
 10
1088.8378
 20
72.8823
 11
1089.6763
 21
72.8823
  0
LINE
  8
0_00
  6
CONTINUOUS
 62
3
 10
1089.6053
 20
79.9153
 11
1090.4564
 21
78.2448
  0
LINE
  8
0_00
  6
CONTINUOUS
 62
3
 10
1090.9414
 20
82.6550
 11
1089.6050
 21
79.9152
  0
LINE
  8
0_00
  6
CONTINUOUS
 62
3
 10
1086.7514
 20
85.4599
 11
1086.7514
 21
91.3098
  0
LINE
  8
0_00
  6
CONTINUOUS
 62
3
 10
1086.7514
 20
85.4599
 11
1089.1889
 21
85.4599
  0
LINE
  8
0_00
  6
CONTINUOUS
 62
3
 10
1086.7514
 20
84.2898
 11
1087.8336
 21
84.2898
  0
LINE
  8
0_00
  6
CONTINUOUS
 62
3
 10
1086.7514
 20
78.2448
 11
1090.4564
 21
78.2448
  0
LINE
  8
0_00
  6
CONTINUOUS
 62
3
 10
1086.7514
 20
82.0709
 11
1087.8337
 21
84.2899
  0
LINE
  8
0_00
  6
CONTINUOUS
 62
3
 10
1086.7514
 20
82.0710
 11
1086.7514
 21
84.2898
  0
LINE
  8
0_00
  6
CONTINUOUS
 62
3
 10
1086.7514
 20
78.2448
 11
1086.7514
 21
71.8098
  0
LINE
  8
0_00
  6
CONTINUOUS
 62
3
 10
1076.9114
 20
91.3098
 11
1076.9114
 21
71.8098
  0
LINE
  8
0_00
  6
CONTINUOUS
 62
3
 10
1077.2114
 20
91.3098
 11
1077.2114
 21
71.8098
  0
LINE
  8
0_00
  6
CONTINUOUS
 62
3
 10
1077.5113
 20
91.3098
 11
1077.5113
 21
71.8098
  0
LINE
  8
0_00
  6
CONTINUOUS
 62
3
 10
1077.8112
 20
91.3098
 11
1077.8112
 21
71.8098
  0
LINE
  8
0_00
  6
CONTINUOUS
 62
3
 10
1078.1114
 20
91.3098
 11
1078.1114
 21
71.8098
  0
LINE
  8
0_00
  6
CONTINUOUS
 62
3
 10
1079.6414
 20
91.3098
 11
1079.6414
 21
71.8098
  0
LINE
  8
0_00
  6
CONTINUOUS
 62
3
 10
1079.9413
 20
91.3098
 11
1079.9413
 21
71.8098
  0
LINE
  8
0_00
  6
CONTINUOUS
 62
3
 10
1080.2412
 20
91.3098
 11
1080.2412
 21
71.8098
  0
LINE
  8
0_00
  6
CONTINUOUS
 62
3
 10
1080.5413
 20
91.3098
 11
1080.5413
 21
71.8098
  0
LINE
  8
0_00
  6
CONTINUOUS
 62
3
 10
1080.8412
 20
91.3098
 11
1080.8412
 21
71.8098
  0
LINE
  8
0_00
  6
CONTINUOUS
 62
3
 10
1081.1414
 20
91.3098
 11
1081.1414
 21
71.8098
  0
LINE
  8
0_00
  6
CONTINUOUS
 62
3
 10
1082.3713
 20
91.3098
 11
1082.3713
 21
71.8098
  0
LINE
  8
0_00
  6
CONTINUOUS
 62
3
 10
1082.6715
 20
91.3098
 11
1082.6715
 21
71.8098
  0
LINE
  8
0_00
  6
CONTINUOUS
 62
3
 10
1082.9714
 20
91.3098
 11
1082.9714
 21
71.8098
  0
LINE
  8
0_00
  6
CONTINUOUS
 62
3
 10
1083.2713
 20
91.3098
 11
1083.2713
 21
71.8098
  0
LINE
  8
0_00
  6
CONTINUOUS
 62
3
 10
1083.5714
 20
91.3098
 11
1083.5714
 21
71.8098
  0
LINE
  8
0_00
  6
CONTINUOUS
 62
3
 10
1083.8713
 20
91.3098
 11
1083.8713
 21
71.8098
  0
LINE
  8
0_00
  6
CONTINUOUS
 62
3
 10
1092.4064
 20
72.1098
 11
1100.0112
 21
72.1098
  0
LINE
  8
0_00
  6
CONTINUOUS
 62
3
 10
1092.4064
 20
72.4098
 11
1100.0112
 21
72.4098
  0
LINE
  8
0_00
  6
CONTINUOUS
 62
3
 10
1092.4064
 20
72.7098
 11
1100.0112
 21
72.7098
  0
LINE
  8
0_00
  6
CONTINUOUS
 62
3
 10
1092.4064
 20
73.0098
 11
1100.0112
 21
73.0098
  0
LINE
  8
0_00
  6
CONTINUOUS
 62
3
 10
1092.4064
 20
73.3098
 11
1100.0112
 21
73.3098
  0
LINE
  8
0_00
  6
CONTINUOUS
 62
3
 10
1092.4064
 20
74.6448
 11
1100.0112
 21
74.6448
  0
LINE
  8
0_00
  6
CONTINUOUS
 62
3
 10
1092.4064
 20
74.9448
 11
1100.0112
 21
74.9448
  0
LINE
  8
0_00
  6
CONTINUOUS
 62
3
 10
1092.4064
 20
75.2448
 11
1100.0112
 21
75.2448
  0
LINE
  8
0_00
  6
CONTINUOUS
 62
3
 10
1092.4064
 20
75.5448
 11
1100.0112
 21
75.5448
  0
LINE
  8
0_00
  6
CONTINUOUS
 62
3
 10
1092.4064
 20
75.8448
 11
1100.0112
 21
75.8448
  0
LINE
  8
0_00
  6
CONTINUOUS
 62
3
 10
1092.4064
 20
77.1798
 11
1100.0112
 21
77.1798
  0
LINE
  8
0_00
  6
CONTINUOUS
 62
3
 10
1092.4064
 20
77.4798
 11
1100.0112
 21
77.4798
  0
LINE
  8
0_00
  6
CONTINUOUS
 62
3
 10
1092.4064
 20
77.7798
 11
1100.0112
 21
77.7798
  0
LINE
  8
0_00
  6
CONTINUOUS
 62
3
 10
1092.4064
 20
78.0798
 11
1100.0112
 21
78.0798
  0
LINE
  8
0_00
  6
CONTINUOUS
 62
3
 10
1092.4064
 20
78.3798
 11
1100.0112
 21
78.3798
  0
LINE
  8
0_00
  6
CONTINUOUS
 62
3
 10
1092.4064
 20
79.7148
 11
1100.0112
 21
79.7148
  0
LINE
  8
0_00
  6
CONTINUOUS
 62
3
 10
1092.4064
 20
80.0149
 11
1100.0112
 21
80.0149
  0
LINE
  8
0_00
  6
CONTINUOUS
 62
3
 10
1092.4064
 20
80.3148
 11
1100.0112
 21
80.3148
  0
LINE
  8
0_00
  6
CONTINUOUS
 62
3
 10
1092.4064
 20
80.6148
 11
1100.0112
 21
80.6148
  0
LINE
  8
0_00
  6
CONTINUOUS
 62
3
 10
1092.4064
 20
80.9148
 11
1100.0112
 21
80.9148
  0
LINE
  8
0_00
  6
CONTINUOUS
 62
3
 10
1092.4064
 20
82.2498
 11
1100.0112
 21
82.2498
  0
LINE
  8
0_00
  6
CONTINUOUS
 62
3
 10
1092.4064
 20
82.5499
 11
1100.0112
 21
82.5499
  0
LINE
  8
0_00
  6
CONTINUOUS
 62
3
 10
1092.4064
 20
82.8498
 11
1100.0112
 21
82.8498
  0
LINE
  8
0_00
  6
CONTINUOUS
 62
3
 10
1092.4064
 20
83.1498
 11
1100.0112
 21
83.1498
  0
LINE
  8
0_00
  6
CONTINUOUS
 62
3
 10
1092.4064
 20
83.4498
 11
1100.0112
 21
83.4498
  0
LINE
  8
0_00
  6
CONTINUOUS
 62
3
 10
1100.0112
 20
84.7848
 11
1092.4064
 21
84.7848
  0
LINE
  8
0_00
  6
CONTINUOUS
 62
3
 10
1100.0112
 20
85.0849
 11
1092.4064
 21
85.0849
  0
LINE
  8
0_00
  6
CONTINUOUS
 62
3
 10
1100.0112
 20
85.3848
 11
1092.4064
 21
85.3848
  0
LINE
  8
0_00
  6
CONTINUOUS
 62
3
 10
1100.0112
 20
85.6848
 11
1092.4064
 21
85.6848
  0
LINE
  8
0_00
  6
CONTINUOUS
 62
3
 10
1100.0112
 20
85.9848
 11
1092.4064
 21
85.9848
  0
LINE
  8
0_00
  6
CONTINUOUS
 62
3
 10
1092.4064
 20
87.3198
 11
1100.0112
 21
87.3198
  0
LINE
  8
0_00
  6
CONTINUOUS
 62
3
 10
1092.4064
 20
87.6199
 11
1100.0112
 21
87.6199
  0
LINE
  8
0_00
  6
CONTINUOUS
 62
3
 10
1092.4064
 20
87.9198
 11
1100.0112
 21
87.9198
  0
LINE
  8
0_00
  6
CONTINUOUS
 62
3
 10
1092.4064
 20
88.2198
 11
1100.0112
 21
88.2198
  0
LINE
  8
0_00
  6
CONTINUOUS
 62
3
 10
1092.4064
 20
88.5198
 11
1100.0112
 21
88.5198
  0
LINE
  8
0_00
  6
CONTINUOUS
 62
3
 10
1092.4064
 20
89.8548
 11
1100.0112
 21
89.8548
  0
LINE
  8
0_00
  6
CONTINUOUS
 62
3
 10
1092.4064
 20
90.1549
 11
1100.0112
 21
90.1549
  0
LINE
  8
0_00
  6
CONTINUOUS
 62
3
 10
1092.4064
 20
90.4548
 11
1100.0112
 21
90.4548
  0
LINE
  8
0_00
  6
CONTINUOUS
 62
3
 10
1092.4064
 20
90.7548
 11
1100.0112
 21
90.7548
  0
LINE
  8
0_00
  6
CONTINUOUS
 62
3
 10
1092.4064
 20
91.0548
 11
1100.0112
 21
91.0548
  0
LINE
  8
0_00
  6
CONTINUOUS
 62
3
 10
1085.1012
 20
91.3098
 11
1085.1012
 21
71.8098
  0
LINE
  8
0_00
  6
CONTINUOUS
 62
3
 10
1085.4012
 20
91.3098
 11
1085.4012
 21
71.8098
  0
LINE
  8
0_00
  6
CONTINUOUS
 62
3
 10
1085.7012
 20
91.3098
 11
1085.7012
 21
71.8098
  0
LINE
  8
0_00
  6
CONTINUOUS
 62
3
 10
1086.0011
 20
91.3098
 11
1086.0011
 21
71.8098
  0
LINE
  8
0_00
  6
CONTINUOUS
 62
3
 10
1086.3013
 20
91.3098
 11
1086.3013
 21
71.8098
  0
LINE
  8
0_00
  6
CONTINUOUS
 62
3
 10
1086.6012
 20
91.3098
 11
1086.6012
 21
71.8098
  0
LINE
  8
0_00
  6
CONTINUOUS
 62
3
 10
1087.8314
 20
71.8098
 11
1087.8314
 21
77.1723
  0
LINE
  8
0_00
  6
CONTINUOUS
 62
3
 10
1088.1314
 20
71.8098
 11
1088.1314
 21
77.1723
  0
LINE
  8
0_00
  6
CONTINUOUS
 62
3
 10
1088.4314
 20
71.8098
 11
1088.4314
 21
77.1723
  0
LINE
  8
0_00
  6
CONTINUOUS
 62
3
 10
1088.7313
 20
71.8098
 11
1088.7313
 21
77.1723
  0
LINE
  8
0_00
  6
CONTINUOUS
 62
3
 10
1088.8378
 20
72.5822
 11
1089.6763
 21
72.5822
  0
LINE
  8
0_00
  6
CONTINUOUS
 62
3
 10
1088.8378
 20
72.2822
 11
1089.6763
 21
72.2822
  0
LINE
  8
0_00
  6
CONTINUOUS
 62
3
 10
1088.8378
 20
71.9823
 11
1089.6763
 21
71.9823
  0
LINE
  8
0_00
  6
CONTINUOUS
 62
3
 10
1090.2827
 20
78.5855
 11
1086.7856
 21
78.5855
  0
LINE
  8
0_00
  6
CONTINUOUS
 62
3
 10
1090.1034
 20
78.9375
 11
1086.7856
 21
78.9375
  0
LINE
  8
0_00
  6
CONTINUOUS
 62
3
 10
1089.8942
 20
79.3482
 11
1086.7782
 21
79.3482
  0
LINE
  8
0_00
  6
CONTINUOUS
 62
3
 10
1089.7207
 20
79.6884
 11
1086.7746
 21
79.6884
  0
LINE
  8
0_00
  6
CONTINUOUS
 62
3
 10
1091.0862
 20
83.6359
 11
1089.1505
 21
79.6677
  0
LINE
  8
0_00
  6
CONTINUOUS
 62
3
 10
1090.9899
 20
84.1231
 11
1088.8109
 21
79.6556
  0
LINE
  8
0_00
  6
CONTINUOUS
 62
3
 10
1090.8086
 20
84.4355
 11
1088.4918
 21
79.6856
  0
LINE
  8
0_00
  6
CONTINUOUS
 62
3
 10
1090.6033
 20
84.6991
 11
1088.1457
 21
79.6605
  0
LINE
  8
0_00
  6
CONTINUOUS
 62
3
 10
1090.4012
 20
84.9694
 11
1087.8793
 21
79.7985
  0
LINE
  8
0_00
  6
CONTINUOUS
 62
3
 10
1090.1374
 20
85.1123
 11
1087.4911
 21
79.6872
  0
LINE
  8
0_00
  6
CONTINUOUS
 62
3
 10
1089.8764
 20
85.2618
 11
1087.1536
 21
79.6795
  0
LINE
  8
0_00
  6
CONTINUOUS
 62
3
 10
1089.5668
 20
85.3115
 11
1086.8389
 21
79.7185
  0
LINE
  8
0_00
  6
CONTINUOUS
 62
3
 10
1089.2501
 20
85.3465
 11
1086.7056
 21
80.1295
  0
LINE
  8
0_00
  6
CONTINUOUS
 62
3
 10
1088.9377
 20
85.3900
 11
1086.7332
 21
80.8705
  0
LINE
  8
0_00
  6
CONTINUOUS
 62
3
 10
1088.5960
 20
85.3741
 11
1086.6391
 21
81.3619
  0
LINE
  8
0_00
  6
CONTINUOUS
 62
3
 10
1087.9928
 20
84.5898
 11
1086.7514
 21
84.5898
  0
LINE
  8
0_00
  6
CONTINUOUS
 62
3
 10
1088.2358
 20
84.8899
 11
1086.7514
 21
84.8899
  0
LINE
  8
0_00
  6
CONTINUOUS
 62
3
 10
1088.3499
 20
85.1898
 11
1086.7514
 21
85.1898
  0
LINE
  8
0_00
  6
CONTINUOUS
 62
3
 10
796.2612
 20
852.5992
 11
809.7613
 21
852.5992
  0
LINE
  8
0_00
  6
CONTINUOUS
 62
3
 10
797.1687
 20
854.1708
 11
796.2612
 21
852.5992
  0
LINE
  8
0_00
  6
CONTINUOUS
 62
3
 10
800.8931
 20
860.6220
 11
803.0112
 21
864.2907
  0
LINE
  8
0_00
  6
CONTINUOUS
 62
3
 10
808.8539
 20
854.1708
 11
809.7613
 21
852.5992
  0
LINE
  8
0_00
  6
CONTINUOUS
 62
3
 10
805.1294
 20
860.6220
 11
803.0112
 21
864.2907
  0
LINE
  8
0_00
  6
CONTINUOUS
 62
3
 10
1218.5114
 20
154.3099
 11
1221.5114
 21
154.3099
  0
LINE
  8
0_00
  6
CONTINUOUS
 62
3
 10
1218.5114
 20
175.3099
 11
1221.5114
 21
175.3099
  0
LINE
  8
0_00
  6
CONTINUOUS
 62
3
 10
1218.5114
 20
196.3099
 11
1221.5114
 21
196.3099
  0
LINE
  8
0_00
  6
CONTINUOUS
 62
3
 10
1218.5114
 20
217.3099
 11
1221.5114
 21
217.3099
  0
LINE
  8
0_00
  6
CONTINUOUS
 62
3
 10
1218.5114
 20
238.3099
 11
1221.5114
 21
238.3099
  0
LINE
  8
0_00
  6
CONTINUOUS
 62
3
 10
1218.5114
 20
259.3099
 11
1221.5114
 21
259.3099
  0
LINE
  8
0_00
  6
CONTINUOUS
 62
3
 10
1218.5114
 20
280.3099
 11
1221.5114
 21
280.3099
  0
LINE
  8
0_00
  6
CONTINUOUS
 62
3
 10
1218.5114
 20
301.3099
 11
1221.5114
 21
301.3099
  0
LINE
  8
0_00
  6
CONTINUOUS
 62
3
 10
1218.5114
 20
322.3099
 11
1221.5114
 21
322.3099
  0
LINE
  8
0_00
  6
CONTINUOUS
 62
3
 10
1218.5114
 20
343.3099
 11
1221.5114
 21
343.3099
  0
LINE
  8
0_00
  6
CONTINUOUS
 62
3
 10
1218.5114
 20
364.3099
 11
1221.5114
 21
364.3099
  0
LINE
  8
0_00
  6
CONTINUOUS
 62
3
 10
1218.5114
 20
385.3099
 11
1221.5114
 21
385.3099
  0
LINE
  8
0_00
  6
CONTINUOUS
 62
3
 10
1218.5114
 20
406.3099
 11
1221.5114
 21
406.3099
  0
LINE
  8
0_00
  6
CONTINUOUS
 62
3
 10
1218.5114
 20
427.3099
 11
1221.5114
 21
427.3099
  0
LINE
  8
0_00
  6
CONTINUOUS
 62
3
 10
1218.5114
 20
448.3100
 11
1221.5114
 21
448.3100
  0
LINE
  8
0_00
  6
CONTINUOUS
 62
3
 10
1218.5114
 20
469.3099
 11
1221.5114
 21
469.3099
  0
LINE
  8
0_00
  6
CONTINUOUS
 62
3
 10
1218.5114
 20
490.3100
 11
1221.5114
 21
490.3100
  0
LINE
  8
0_00
  6
CONTINUOUS
 62
3
 10
1218.5114
 20
833.8100
 11
1221.5114
 21
833.8100
  0
LINE
  8
0_00
  6
CONTINUOUS
 62
3
 10
1218.5114
 20
815.8100
 11
1221.5114
 21
815.8100
  0
LINE
  8
0_00
  6
CONTINUOUS
 62
3
 10
1218.5114
 20
797.8100
 11
1221.5114
 21
797.8100
  0
LINE
  8
0_00
  6
CONTINUOUS
 62
3
 10
1218.5114
 20
779.8100
 11
1221.5114
 21
779.8100
  0
LINE
  8
0_00
  6
CONTINUOUS
 62
3
 10
1218.5114
 20
761.8100
 11
1221.5114
 21
761.8100
  0
LINE
  8
0_00
  6
CONTINUOUS
 62
3
 10
1218.5114
 20
743.8100
 11
1221.5114
 21
743.8100
  0
LINE
  8
0_00
  6
CONTINUOUS
 62
3
 10
1218.5114
 20
511.3100
 11
1221.5114
 21
511.3100
  0
LINE
  8
0_00
  6
CONTINUOUS
 62
3
 10
1218.5114
 20
532.3100
 11
1221.5114
 21
532.3100
  0
LINE
  8
0_00
  6
CONTINUOUS
 62
3
 10
1218.5114
 20
553.3099
 11
1221.5114
 21
553.3099
  0
LINE
  8
0_00
  6
CONTINUOUS
 62
3
 10
1218.5114
 20
574.3100
 11
1221.5114
 21
574.3100
  0
LINE
  8
0_00
  6
CONTINUOUS
 62
3
 10
1218.5114
 20
595.3100
 11
1221.5114
 21
595.3100
  0
LINE
  8
0_00
  6
CONTINUOUS
 62
3
 10
1218.5114
 20
616.3100
 11
1221.5114
 21
616.3100
  0
LINE
  8
0_00
  6
CONTINUOUS
 62
3
 10
1218.5114
 20
637.3100
 11
1221.5114
 21
637.3100
  0
LINE
  8
0_00
  6
CONTINUOUS
 62
3
 10
1218.5114
 20
658.3100
 11
1221.5114
 21
658.3100
  0
LINE
  8
0_00
  6
CONTINUOUS
 62
3
 10
1218.5114
 20
679.3100
 11
1221.5114
 21
679.3100
  0
LINE
  8
0_00
  6
CONTINUOUS
 62
3
 10
1218.5114
 20
700.3100
 11
1221.5114
 21
700.3100
  0
LINE
  8
0_00
  6
CONTINUOUS
 62
3
 10
1218.5114
 20
721.3100
 11
1221.5114
 21
721.3100
  0
LINE
  8
0_00
  6
CENTER1
 62
3
 10
881.0412
 20
73.3098
 11
881.0412
 21
91.3098
  0
LINE
  8
0_00
  6
CONTINUOUS
 62
4
 10
891.5412
 20
78.5598
 11
891.5412
 21
86.0598
  0
LINE
  8
0_00
  6
CONTINUOUS
 62
4
 10
905.0413
 20
76.3098
 11
905.0413
 21
88.3098
  0
LINE
  8
0_00
  6
CONTINUOUS
 62
4
 10
891.5412
 20
86.0598
 11
905.0413
 21
88.3098
  0
LINE
  8
0_00
  6
CONTINUOUS
 62
4
 10
891.5412
 20
78.5598
 11
905.0413
 21
76.3098
  0
LINE
  8
0_00
  6
CENTER1
 62
3
 10
872.0413
 20
82.3098
 11
907.3558
 21
82.3098
  0
LINE
  8
0_00
  6
CONTINUOUS
 62
3
 10
1191.5114
 20
37.3098
 11
1191.5114
 21
67.3098
  0
LINE
  8
0_00
  6
CONTINUOUS
 62
3
 10
39.6905
 20
22.3098
 11
1233.5113
 21
22.3098
  0
LINE
  8
0_00
  6
CONTINUOUS
 62
3
 10
1182.5114
 20
865.3100
 11
1182.5114
 21
851.8100
  0
LINE
  8
0_00
  6
CONTINUOUS
 62
3
 10
0.0000
 20
443.8099
 11
39.6905
 21
443.8099
  0
LINE
  8
0_00
  6
CONTINUOUS
 62
3
 10
626.1612
 20
22.3098
 11
626.1612
 21
0.1097
  0
LINE
  8
0_00
  6
CONTINUOUS
 62
3
 10
626.1612
 20
865.3100
 11
626.1612
 21
891.1100
  0
LINE
  8
0_00
  6
CONTINUOUS
 62
3
 10
1233.5113
 20
443.8099
 11
1260.0003
 21
443.8099
  0
LINE
  8
0_00
  6
CONTINUOUS
 62
4
 10
1076.8896
 20
534.5987
 11
1142.4899
 21
534.5987
  0
LINE
  8
0_00
  6
CONTINUOUS
 62
4
 10
120.5709
 20
126.3631
 11
165.5709
 21
126.3631
  0
LINE
  8
0_00
  6
CONTINUOUS
 62
4
 10
556.7548
 20
169.6508
 11
601.7548
 21
169.6508
  0
LINE
  8
0_00
  6
CONTINUOUS
 62
2
 10
1075.4876
 20
349.9209
 11
1076.2147
 21
349.2191
  0
LINE
  8
0_00
  6
CONTINUOUS
 62
2
 10
1076.2147
 20
349.2191
 11
1076.5552
 21
349.0948
  0
LINE
  8
0_00
  6
CONTINUOUS
 62
2
 10
1076.5552
 20
349.0948
 11
1076.8773
 21
349.2122
  0
LINE
  8
0_00
  6
CONTINUOUS
 62
2
 10
1076.8773
 20
349.2122
 11
1077.6275
 21
349.9186
  0
LINE
  8
0_00
  6
CONTINUOUS
 62
2
 10
1074.8066
 20
349.2398
 11
1075.5083
 21
348.5127
  0
LINE
  8
0_00
  6
CONTINUOUS
 62
2
 10
1075.5083
 20
348.5127
 11
1075.6326
 21
348.1722
  0
LINE
  8
0_00
  6
CONTINUOUS
 62
2
 10
1075.6326
 20
348.1722
 11
1075.5152
 21
347.8500
  0
LINE
  8
0_00
  6
CONTINUOUS
 62
2
 10
1075.5152
 20
347.8500
 11
1074.8089
 21
347.0999
  0
LINE
  8
0_00
  6
CONTINUOUS
 62
2
 10
1078.3039
 20
347.1045
 11
1077.6021
 21
347.8317
  0
LINE
  8
0_00
  6
CONTINUOUS
 62
2
 10
1077.6021
 20
347.8317
 11
1077.4779
 21
348.1722
  0
LINE
  8
0_00
  6
CONTINUOUS
 62
2
 10
1077.4779
 20
348.1722
 11
1077.5953
 21
348.4943
  0
LINE
  8
0_00
  6
CONTINUOUS
 62
2
 10
1077.5953
 20
348.4943
 11
1078.3015
 21
349.2444
  0
LINE
  8
0_00
  6
CONTINUOUS
 62
2
 10
1077.6229
 20
346.4235
 11
1076.8958
 21
347.1253
  0
LINE
  8
0_00
  6
CONTINUOUS
 62
2
 10
1076.8958
 20
347.1253
 11
1076.5552
 21
347.2495
  0
LINE
  8
0_00
  6
CONTINUOUS
 62
2
 10
1076.5552
 20
347.2495
 11
1076.2331
 21
347.1322
  0
LINE
  8
0_00
  6
CONTINUOUS
 62
2
 10
1076.2331
 20
347.1322
 11
1075.4830
 21
346.4258
  0
LINE
  8
0_00
  6
CONTINUOUS
 62
2
 10
1075.4876
 20
313.9209
 11
1076.2147
 21
313.2191
  0
LINE
  8
0_00
  6
CONTINUOUS
 62
2
 10
1076.2147
 20
313.2191
 11
1076.5552
 21
313.0948
  0
LINE
  8
0_00
  6
CONTINUOUS
 62
2
 10
1076.5552
 20
313.0948
 11
1076.8773
 21
313.2122
  0
LINE
  8
0_00
  6
CONTINUOUS
 62
2
 10
1076.8773
 20
313.2122
 11
1077.6275
 21
313.9185
  0
LINE
  8
0_00
  6
CONTINUOUS
 62
2
 10
1074.8066
 20
313.2398
 11
1075.5083
 21
312.5127
  0
LINE
  8
0_00
  6
CONTINUOUS
 62
2
 10
1075.5083
 20
312.5127
 11
1075.6326
 21
312.1721
  0
LINE
  8
0_00
  6
CONTINUOUS
 62
2
 10
1075.6326
 20
312.1721
 11
1075.5152
 21
311.8500
  0
LINE
  8
0_00
  6
CONTINUOUS
 62
2
 10
1075.5152
 20
311.8500
 11
1074.8089
 21
311.0999
  0
LINE
  8
0_00
  6
CONTINUOUS
 62
2
 10
1078.3039
 20
311.1045
 11
1077.6021
 21
311.8316
  0
LINE
  8
0_00
  6
CONTINUOUS
 62
2
 10
1077.6021
 20
311.8316
 11
1077.4779
 21
312.1721
  0
LINE
  8
0_00
  6
CONTINUOUS
 62
2
 10
1077.4779
 20
312.1721
 11
1077.5953
 21
312.4943
  0
LINE
  8
0_00
  6
CONTINUOUS
 62
2
 10
1077.5953
 20
312.4943
 11
1078.3015
 21
313.2444
  0
LINE
  8
0_00
  6
CONTINUOUS
 62
2
 10
1077.6229
 20
310.4235
 11
1076.8958
 21
311.1253
  0
LINE
  8
0_00
  6
CONTINUOUS
 62
2
 10
1076.8958
 20
311.1253
 11
1076.5552
 21
311.2495
  0
LINE
  8
0_00
  6
CONTINUOUS
 62
2
 10
1076.5552
 20
311.2495
 11
1076.2331
 21
311.1322
  0
LINE
  8
0_00
  6
CONTINUOUS
 62
2
 10
1076.2331
 20
311.1322
 11
1075.4830
 21
310.4258
  0
LINE
  8
0_00
  6
CONTINUOUS
 62
2
 10
1042.4876
 20
349.9209
 11
1043.2147
 21
349.2191
  0
LINE
  8
0_00
  6
CONTINUOUS
 62
2
 10
1043.2147
 20
349.2191
 11
1043.5552
 21
349.0948
  0
LINE
  8
0_00
  6
CONTINUOUS
 62
2
 10
1043.5552
 20
349.0948
 11
1043.8773
 21
349.2122
  0
LINE
  8
0_00
  6
CONTINUOUS
 62
2
 10
1043.8773
 20
349.2122
 11
1044.6275
 21
349.9186
  0
LINE
  8
0_00
  6
CONTINUOUS
 62
2
 10
1041.8065
 20
349.2398
 11
1042.5084
 21
348.5127
  0
LINE
  8
0_00
  6
CONTINUOUS
 62
2
 10
1042.5084
 20
348.5127
 11
1042.6326
 21
348.1722
  0
LINE
  8
0_00
  6
CONTINUOUS
 62
2
 10
1042.6326
 20
348.1722
 11
1042.5152
 21
347.8500
  0
LINE
  8
0_00
  6
CONTINUOUS
 62
2
 10
1042.5152
 20
347.8500
 11
1041.8089
 21
347.0999
  0
LINE
  8
0_00
  6
CONTINUOUS
 62
2
 10
1045.3039
 20
347.1045
 11
1044.6020
 21
347.8317
  0
LINE
  8
0_00
  6
CONTINUOUS
 62
2
 10
1044.6020
 20
347.8317
 11
1044.4778
 21
348.1722
  0
LINE
  8
0_00
  6
CONTINUOUS
 62
2
 10
1044.4778
 20
348.1722
 11
1044.5953
 21
348.4943
  0
LINE
  8
0_00
  6
CONTINUOUS
 62
2
 10
1044.5953
 20
348.4943
 11
1045.3015
 21
349.2444
  0
LINE
  8
0_00
  6
CONTINUOUS
 62
2
 10
1044.6228
 20
346.4235
 11
1043.8958
 21
347.1253
  0
LINE
  8
0_00
  6
CONTINUOUS
 62
2
 10
1043.8958
 20
347.1253
 11
1043.5552
 21
347.2495
  0
LINE
  8
0_00
  6
CONTINUOUS
 62
2
 10
1043.5552
 20
347.2495
 11
1043.2331
 21
347.1322
  0
LINE
  8
0_00
  6
CONTINUOUS
 62
2
 10
1043.2331
 20
347.1322
 11
1042.4830
 21
346.4258
  0
LINE
  8
0_00
  6
CONTINUOUS
 62
2
 10
1042.4876
 20
313.9209
 11
1043.2147
 21
313.2191
  0
LINE
  8
0_00
  6
CONTINUOUS
 62
2
 10
1043.2147
 20
313.2191
 11
1043.5552
 21
313.0948
  0
LINE
  8
0_00
  6
CONTINUOUS
 62
2
 10
1043.5552
 20
313.0948
 11
1043.8773
 21
313.2122
  0
LINE
  8
0_00
  6
CONTINUOUS
 62
2
 10
1043.8773
 20
313.2122
 11
1044.6275
 21
313.9185
  0
LINE
  8
0_00
  6
CONTINUOUS
 62
2
 10
1041.8065
 20
313.2398
 11
1042.5084
 21
312.5127
  0
LINE
  8
0_00
  6
CONTINUOUS
 62
2
 10
1042.5084
 20
312.5127
 11
1042.6326
 21
312.1721
  0
LINE
  8
0_00
  6
CONTINUOUS
 62
2
 10
1042.6326
 20
312.1721
 11
1042.5152
 21
311.8500
  0
LINE
  8
0_00
  6
CONTINUOUS
 62
2
 10
1042.5152
 20
311.8500
 11
1041.8089
 21
311.0999
  0
LINE
  8
0_00
  6
CONTINUOUS
 62
2
 10
1045.3039
 20
311.1045
 11
1044.6020
 21
311.8316
  0
LINE
  8
0_00
  6
CONTINUOUS
 62
2
 10
1044.6020
 20
311.8316
 11
1044.4778
 21
312.1721
  0
LINE
  8
0_00
  6
CONTINUOUS
 62
2
 10
1044.4778
 20
312.1721
 11
1044.5953
 21
312.4943
  0
LINE
  8
0_00
  6
CONTINUOUS
 62
2
 10
1044.5953
 20
312.4943
 11
1045.3015
 21
313.2444
  0
LINE
  8
0_00
  6
CONTINUOUS
 62
2
 10
1044.6228
 20
310.4235
 11
1043.8958
 21
311.1253
  0
LINE
  8
0_00
  6
CONTINUOUS
 62
2
 10
1043.8958
 20
311.1253
 11
1043.5552
 21
311.2495
  0
LINE
  8
0_00
  6
CONTINUOUS
 62
2
 10
1043.5552
 20
311.2495
 11
1043.2331
 21
311.1322
  0
LINE
  8
0_00
  6
CONTINUOUS
 62
2
 10
1043.2331
 20
311.1322
 11
1042.4830
 21
310.4258
  0
LINE
  8
0_00
  6
CONTINUOUS
 62
2
 10
973.4876
 20
331.9209
 11
974.2146
 21
331.2191
  0
LINE
  8
0_00
  6
CONTINUOUS
 62
2
 10
974.2146
 20
331.2191
 11
974.5552
 21
331.0948
  0
LINE
  8
0_00
  6
CONTINUOUS
 62
2
 10
974.5552
 20
331.0948
 11
974.8774
 21
331.2122
  0
LINE
  8
0_00
  6
CONTINUOUS
 62
2
 10
974.8774
 20
331.2122
 11
975.6274
 21
331.9185
  0
LINE
  8
0_00
  6
CONTINUOUS
 62
2
 10
972.8065
 20
331.2398
 11
973.5084
 21
330.5127
  0
LINE
  8
0_00
  6
CONTINUOUS
 62
2
 10
973.5084
 20
330.5127
 11
973.6325
 21
330.1722
  0
LINE
  8
0_00
  6
CONTINUOUS
 62
2
 10
973.6325
 20
330.1722
 11
973.5151
 21
329.8500
  0
LINE
  8
0_00
  6
CONTINUOUS
 62
2
 10
973.5151
 20
329.8500
 11
972.8087
 21
329.0999
  0
LINE
  8
0_00
  6
CONTINUOUS
 62
2
 10
976.3039
 20
329.1045
 11
975.6021
 21
329.8316
  0
LINE
  8
0_00
  6
CONTINUOUS
 62
2
 10
975.6021
 20
329.8316
 11
975.4779
 21
330.1722
  0
LINE
  8
0_00
  6
CONTINUOUS
 62
2
 10
975.4779
 20
330.1722
 11
975.5952
 21
330.4943
  0
LINE
  8
0_00
  6
CONTINUOUS
 62
2
 10
975.5952
 20
330.4943
 11
976.3016
 21
331.2444
  0
LINE
  8
0_00
  6
CONTINUOUS
 62
2
 10
975.6228
 20
328.4235
 11
974.8957
 21
329.1253
  0
LINE
  8
0_00
  6
CONTINUOUS
 62
2
 10
974.8957
 20
329.1253
 11
974.5552
 21
329.2495
  0
LINE
  8
0_00
  6
CONTINUOUS
 62
2
 10
974.5552
 20
329.2495
 11
974.2330
 21
329.1322
  0
LINE
  8
0_00
  6
CONTINUOUS
 62
2
 10
974.2330
 20
329.1322
 11
973.4829
 21
328.4258
  0
LINE
  8
0_00
  6
CONTINUOUS
 62
6
 10
1060.0552
 20
398.8164
 11
1060.0552
 21
506.1099
  0
LINE
  8
0_00
  6
CONTINUOUS
 62
6
 10
720.0551
 20
500.1098
 11
1060.0552
 21
500.1098
  0
LINE
  8
0_00
  6
CONTINUOUS
 62
6
 10
720.0551
 20
500.1098
 11
728.8585
 21
498.2386
  0
LINE
  8
0_00
  6
CONTINUOUS
 62
6
 10
720.0551
 20
500.1098
 11
728.8585
 21
501.9811
  0
LINE
  8
0_00
  6
CONTINUOUS
 62
6
 10
1060.0552
 20
500.1098
 11
1051.2519
 21
501.9811
  0
LINE
  8
0_00
  6
CONTINUOUS
 62
6
 10
1060.0552
 20
500.1098
 11
1051.2519
 21
498.2386
  0
LINE
  8
0_00
  6
CONTINUOUS
 62
6
 10
720.0551
 20
398.8164
 11
720.0551
 21
474.9335
  0
LINE
  8
0_00
  6
CONTINUOUS
 62
6
 10
720.0551
 20
495.2299
 11
720.0551
 21
506.1099
  0
LINE
  8
0_00
  6
CONTINUOUS
 62
6
 10
700.0551
 20
367.6722
 11
700.0551
 21
486.1099
  0
LINE
  8
0_00
  6
CONTINUOUS
 62
6
 10
628.0551
 20
480.1098
 11
700.0551
 21
480.1098
  0
LINE
  8
0_00
  6
CONTINUOUS
 62
6
 10
628.0551
 20
480.1098
 11
636.8584
 21
478.2387
  0
LINE
  8
0_00
  6
CONTINUOUS
 62
6
 10
628.0551
 20
480.1098
 11
636.8584
 21
481.9811
  0
LINE
  8
0_00
  6
CONTINUOUS
 62
6
 10
700.0551
 20
480.1098
 11
691.2518
 21
481.9811
  0
LINE
  8
0_00
  6
CONTINUOUS
 62
6
 10
700.0551
 20
480.1098
 11
691.2518
 21
478.2387
  0
LINE
  8
0_00
  6
CONTINUOUS
 62
6
 10
740.0551
 20
367.6722
 11
740.0551
 21
486.1099
  0
LINE
  8
0_00
  6
CONTINUOUS
 62
6
 10
700.0551
 20
480.1098
 11
740.0551
 21
480.1098
  0
LINE
  8
0_00
  6
CONTINUOUS
 62
6
 10
700.0551
 20
480.1098
 11
708.8584
 21
478.2387
  0
LINE
  8
0_00
  6
CONTINUOUS
 62
6
 10
700.0551
 20
480.1098
 11
708.8584
 21
481.9811
  0
LINE
  8
0_00
  6
CONTINUOUS
 62
6
 10
740.0551
 20
480.1098
 11
731.2518
 21
481.9811
  0
LINE
  8
0_00
  6
CONTINUOUS
 62
6
 10
740.0551
 20
480.1098
 11
731.2518
 21
478.2387
  0
LINE
  8
0_00
  6
CONTINUOUS
 62
6
 10
812.0551
 20
371.8679
 11
812.0551
 21
486.1099
  0
LINE
  8
0_00
  6
CONTINUOUS
 62
6
 10
740.0551
 20
480.1098
 11
812.0551
 21
480.1098
  0
LINE
  8
0_00
  6
CONTINUOUS
 62
6
 10
740.0551
 20
480.1098
 11
748.8585
 21
478.2387
  0
LINE
  8
0_00
  6
CONTINUOUS
 62
6
 10
740.0551
 20
480.1098
 11
748.8585
 21
481.9811
  0
LINE
  8
0_00
  6
CONTINUOUS
 62
6
 10
812.0551
 20
480.1098
 11
803.2518
 21
481.9811
  0
LINE
  8
0_00
  6
CONTINUOUS
 62
6
 10
812.0551
 20
480.1098
 11
803.2518
 21
478.2387
  0
LINE
  8
0_00
  6
CONTINUOUS
 62
6
 10
628.0551
 20
371.8679
 11
628.0551
 21
386.3019
  0
LINE
  8
0_00
  6
CONTINUOUS
 62
6
 10
628.0551
 20
415.1722
 11
628.0551
 21
486.1099
  0
LINE
  8
0_00
  6
CONTINUOUS
 62
2
 10
339.8283
 20
684.6099
 11
339.3283
 21
684.1099
  0
LINE
  8
0_00
  6
CONTINUOUS
 62
2
 10
335.5856
 20
684.6099
 11
335.0856
 21
684.1099
  0
LINE
  8
0_00
  6
CONTINUOUS
 62
2
 10
344.0709
 20
684.6099
 11
343.5709
 21
684.1099
  0
LINE
  8
0_00
  6
CONTINUOUS
 62
2
 10
302.3283
 20
684.6099
 11
301.8283
 21
684.1099
  0
LINE
  8
0_00
  6
CONTINUOUS
 62
2
 10
298.0856
 20
684.6099
 11
297.5856
 21
684.1099
  0
LINE
  8
0_00
  6
CONTINUOUS
 62
2
 10
306.5709
 20
684.6099
 11
306.0709
 21
684.1099
  0
LINE
  8
0_00
  6
CONTINUOUS
 62
6
 10
231.2033
 20
283.3365
 11
154.0000
 21
283.3365
  0
LINE
  8
0_00
  6
CONTINUOUS
 62
6
 10
160.0000
 20
318.3365
 11
160.0000
 21
283.3365
  0
LINE
  8
0_00
  6
CONTINUOUS
 62
6
 10
160.0000
 20
318.3365
 11
158.1288
 21
309.5332
  0
LINE
  8
0_00
  6
CONTINUOUS
 62
6
 10
160.0000
 20
318.3365
 11
161.8713
 21
309.5332
  0
LINE
  8
0_00
  6
CONTINUOUS
 62
6
 10
160.0000
 20
283.3365
 11
161.8713
 21
292.1398
  0
LINE
  8
0_00
  6
CONTINUOUS
 62
6
 10
160.0000
 20
283.3365
 11
158.1288
 21
292.1398
  0
LINE
  8
0_00
  6
CONTINUOUS
 62
6
 10
277.1189
 20
318.3365
 11
268.4150
 21
318.3365
  0
LINE
  8
0_00
  6
CONTINUOUS
 62
6
 10
185.4062
 20
318.3365
 11
154.0000
 21
318.3365
  0
LINE
  8
0_00
  6
CONTINUOUS
 62
2
 10
755.9616
 20
360.2840
 11
757.0611
 21
359.2228
  0
LINE
  8
0_00
  6
CONTINUOUS
 62
2
 10
757.0611
 20
359.2228
 11
757.5761
 21
359.0349
  0
LINE
  8
0_00
  6
CONTINUOUS
 62
2
 10
757.5761
 20
359.0349
 11
758.0632
 21
359.2123
  0
LINE
  8
0_00
  6
CONTINUOUS
 62
2
 10
758.0632
 20
359.2123
 11
759.1974
 21
360.2805
  0
LINE
  8
0_00
  6
CONTINUOUS
 62
2
 10
754.9317
 20
359.2541
 11
755.9929
 21
358.1546
  0
LINE
  8
0_00
  6
CONTINUOUS
 62
2
 10
755.9929
 20
358.1546
 11
756.1808
 21
357.6396
  0
LINE
  8
0_00
  6
CONTINUOUS
 62
2
 10
756.1808
 20
357.6396
 11
756.0033
 21
357.1525
  0
LINE
  8
0_00
  6
CONTINUOUS
 62
2
 10
756.0033
 20
357.1525
 11
754.9352
 21
356.0182
  0
LINE
  8
0_00
  6
CONTINUOUS
 62
2
 10
760.2204
 20
356.0252
 11
759.1592
 21
357.1247
  0
LINE
  8
0_00
  6
CONTINUOUS
 62
2
 10
759.1592
 20
357.1247
 11
758.9713
 21
357.6396
  0
LINE
  8
0_00
  6
CONTINUOUS
 62
2
 10
758.9713
 20
357.6396
 11
759.1487
 21
358.1267
  0
LINE
  8
0_00
  6
CONTINUOUS
 62
2
 10
759.1487
 20
358.1267
 11
760.2169
 21
359.2610
  0
LINE
  8
0_00
  6
CONTINUOUS
 62
2
 10
759.1905
 20
354.9952
 11
758.0910
 21
356.0565
  0
LINE
  8
0_00
  6
CONTINUOUS
 62
2
 10
758.0910
 20
356.0565
 11
757.5761
 21
356.2443
  0
LINE
  8
0_00
  6
CONTINUOUS
 62
2
 10
757.5761
 20
356.2443
 11
757.0890
 21
356.0669
  0
LINE
  8
0_00
  6
CONTINUOUS
 62
2
 10
757.0890
 20
356.0669
 11
755.9547
 21
354.9987
  0
LINE
  8
0_00
  6
CONTINUOUS
 62
2
 10
759.1696
 20
300.0278
 11
758.0701
 21
301.0890
  0
LINE
  8
0_00
  6
CONTINUOUS
 62
2
 10
758.0701
 20
301.0890
 11
757.5551
 21
301.2769
  0
LINE
  8
0_00
  6
CONTINUOUS
 62
2
 10
757.5551
 20
301.2769
 11
757.0680
 21
301.0994
  0
LINE
  8
0_00
  6
CONTINUOUS
 62
2
 10
757.0680
 20
301.0994
 11
755.9337
 21
300.0313
  0
LINE
  8
0_00
  6
CONTINUOUS
 62
2
 10
760.1995
 20
301.0577
 11
759.1383
 21
302.1572
  0
LINE
  8
0_00
  6
CONTINUOUS
 62
2
 10
759.1383
 20
302.1572
 11
758.9504
 21
302.6721
  0
LINE
  8
0_00
  6
CONTINUOUS
 62
2
 10
758.9504
 20
302.6721
 11
759.1278
 21
303.1592
  0
LINE
  8
0_00
  6
CONTINUOUS
 62
2
 10
759.1278
 20
303.1592
 11
760.1960
 21
304.2935
  0
LINE
  8
0_00
  6
CONTINUOUS
 62
2
 10
754.9108
 20
304.2866
 11
755.9720
 21
303.1871
  0
LINE
  8
0_00
  6
CONTINUOUS
 62
2
 10
755.9720
 20
303.1871
 11
756.1599
 21
302.6721
  0
LINE
  8
0_00
  6
CONTINUOUS
 62
2
 10
756.1599
 20
302.6721
 11
755.9824
 21
302.1850
  0
LINE
  8
0_00
  6
CONTINUOUS
 62
2
 10
755.9824
 20
302.1850
 11
754.9142
 21
301.0507
  0
LINE
  8
0_00
  6
CONTINUOUS
 62
2
 10
755.9407
 20
305.3165
 11
757.0402
 21
304.2553
  0
LINE
  8
0_00
  6
CONTINUOUS
 62
2
 10
757.0402
 20
304.2553
 11
757.5551
 21
304.0674
  0
LINE
  8
0_00
  6
CONTINUOUS
 62
2
 10
757.5551
 20
304.0674
 11
758.0423
 21
304.2448
  0
LINE
  8
0_00
  6
CONTINUOUS
 62
2
 10
758.0423
 20
304.2448
 11
759.1765
 21
305.3130
  0
LINE
  8
0_00
  6
CONTINUOUS
 62
2
 10
684.1696
 20
300.0278
 11
683.0701
 21
301.0890
  0
LINE
  8
0_00
  6
CONTINUOUS
 62
2
 10
683.0701
 20
301.0890
 11
682.5551
 21
301.2769
  0
LINE
  8
0_00
  6
CONTINUOUS
 62
2
 10
682.5551
 20
301.2769
 11
682.0680
 21
301.0994
  0
LINE
  8
0_00
  6
CONTINUOUS
 62
2
 10
682.0680
 20
301.0994
 11
680.9337
 21
300.0313
  0
LINE
  8
0_00
  6
CONTINUOUS
 62
2
 10
685.1995
 20
301.0577
 11
684.1382
 21
302.1572
  0
LINE
  8
0_00
  6
CONTINUOUS
 62
2
 10
684.1382
 20
302.1572
 11
683.9504
 21
302.6721
  0
LINE
  8
0_00
  6
CONTINUOUS
 62
2
 10
683.9504
 20
302.6721
 11
684.1278
 21
303.1592
  0
LINE
  8
0_00
  6
CONTINUOUS
 62
2
 10
684.1278
 20
303.1592
 11
685.1960
 21
304.2935
  0
LINE
  8
0_00
  6
CONTINUOUS
 62
2
 10
679.9108
 20
304.2866
 11
680.9720
 21
303.1871
  0
LINE
  8
0_00
  6
CONTINUOUS
 62
2
 10
680.9720
 20
303.1871
 11
681.1598
 21
302.6721
  0
LINE
  8
0_00
  6
CONTINUOUS
 62
2
 10
681.1598
 20
302.6721
 11
680.9825
 21
302.1850
  0
LINE
  8
0_00
  6
CONTINUOUS
 62
2
 10
680.9825
 20
302.1850
 11
679.9142
 21
301.0507
  0
LINE
  8
0_00
  6
CONTINUOUS
 62
2
 10
680.9407
 20
305.3165
 11
682.0402
 21
304.2553
  0
LINE
  8
0_00
  6
CONTINUOUS
 62
2
 10
682.0402
 20
304.2553
 11
682.5551
 21
304.0674
  0
LINE
  8
0_00
  6
CONTINUOUS
 62
2
 10
682.5551
 20
304.0674
 11
683.0422
 21
304.2448
  0
LINE
  8
0_00
  6
CONTINUOUS
 62
2
 10
683.0422
 20
304.2448
 11
684.1766
 21
305.3130
  0
LINE
  8
0_00
  6
CONTINUOUS
 62
2
 10
680.9826
 20
360.2514
 11
682.0820
 21
359.1902
  0
LINE
  8
0_00
  6
CONTINUOUS
 62
2
 10
682.0820
 20
359.1902
 11
682.5969
 21
359.0023
  0
LINE
  8
0_00
  6
CONTINUOUS
 62
2
 10
682.5969
 20
359.0023
 11
683.0841
 21
359.1797
  0
LINE
  8
0_00
  6
CONTINUOUS
 62
2
 10
683.0841
 20
359.1797
 11
684.2184
 21
360.2479
  0
LINE
  8
0_00
  6
CONTINUOUS
 62
2
 10
679.9526
 20
359.2215
 11
681.0139
 21
358.1220
  0
LINE
  8
0_00
  6
CONTINUOUS
 62
2
 10
681.0139
 20
358.1220
 11
681.2017
 21
357.6070
  0
LINE
  8
0_00
  6
CONTINUOUS
 62
2
 10
681.2017
 20
357.6070
 11
681.0243
 21
357.1199
  0
LINE
  8
0_00
  6
CONTINUOUS
 62
2
 10
681.0243
 20
357.1199
 11
679.9561
 21
355.9856
  0
LINE
  8
0_00
  6
CONTINUOUS
 62
2
 10
685.2413
 20
355.9926
 11
684.1801
 21
357.0921
  0
LINE
  8
0_00
  6
CONTINUOUS
 62
2
 10
684.1801
 20
357.0921
 11
683.9923
 21
357.6070
  0
LINE
  8
0_00
  6
CONTINUOUS
 62
2
 10
683.9923
 20
357.6070
 11
684.1696
 21
358.0941
  0
LINE
  8
0_00
  6
CONTINUOUS
 62
2
 10
684.1696
 20
358.0941
 11
685.2379
 21
359.2284
  0
LINE
  8
0_00
  6
CONTINUOUS
 62
2
 10
684.2115
 20
354.9627
 11
683.1120
 21
356.0239
  0
LINE
  8
0_00
  6
CONTINUOUS
 62
2
 10
683.1120
 20
356.0239
 11
682.5969
 21
356.2118
  0
LINE
  8
0_00
  6
CONTINUOUS
 62
2
 10
682.5969
 20
356.2118
 11
682.1099
 21
356.0343
  0
LINE
  8
0_00
  6
CONTINUOUS
 62
2
 10
682.1099
 20
356.0343
 11
680.9756
 21
354.9662
  0
LINE
  8
0_00
  6
CONTINUOUS
 62
2
 10
286.7033
 20
293.8365
 11
300.7033
 21
293.8365
  0
LINE
  8
0_00
  6
CONTINUOUS
 62
2
 10
300.7033
 20
294.2511
 11
300.7033
 21
293.8365
  0
LINE
  8
0_00
  6
CONTINUOUS
 62
2
 10
286.7033
 20
294.2511
 11
300.7033
 21
294.2511
  0
LINE
  8
0_00
  6
CONTINUOUS
 62
2
 10
286.7033
 20
294.2511
 11
286.7033
 21
293.8365
  0
LINE
  8
0_00
  6
DASHED
 62
2
 10
291.5532
 20
293.8365
 11
291.5532
 21
247.5604
  0
LINE
  8
0_00
  6
DASHED
 62
2
 10
290.7033
 20
293.8365
 11
290.7033
 21
249.0326
  0
LINE
  8
0_00
  6
DASHED
 62
2
 10
296.7033
 20
293.8365
 11
296.7033
 21
249.0326
  0
LINE
  8
0_00
  6
DASHED
 62
2
 10
295.8533
 20
293.8365
 11
295.8533
 21
247.5604
  0
LINE
  8
0_00
  6
DASHED
 62
2
 10
293.7033
 20
243.8365
 11
296.7033
 21
249.0326
  0
LINE
  8
0_00
  6
DASHED
 62
2
 10
293.7033
 20
243.8365
 11
290.7033
 21
249.0326
  0
LINE
  8
0_00
  6
CONTINUOUS
 62
2
 10
341.7033
 20
293.8365
 11
355.7033
 21
293.8365
  0
LINE
  8
0_00
  6
CONTINUOUS
 62
2
 10
355.7033
 20
294.2511
 11
355.7033
 21
293.8365
  0
LINE
  8
0_00
  6
CONTINUOUS
 62
2
 10
341.7033
 20
294.2511
 11
355.7033
 21
294.2511
  0
LINE
  8
0_00
  6
CONTINUOUS
 62
2
 10
341.7033
 20
294.2511
 11
341.7033
 21
293.8365
  0
LINE
  8
0_00
  6
DASHED
 62
2
 10
346.5532
 20
293.8365
 11
346.5532
 21
247.5604
  0
LINE
  8
0_00
  6
DASHED
 62
2
 10
345.7033
 20
293.8365
 11
345.7033
 21
249.0326
  0
LINE
  8
0_00
  6
DASHED
 62
2
 10
351.7033
 20
293.8365
 11
351.7033
 21
249.0326
  0
LINE
  8
0_00
  6
DASHED
 62
2
 10
350.8533
 20
293.8365
 11
350.8533
 21
247.5604
  0
LINE
  8
0_00
  6
DASHED
 62
2
 10
348.7033
 20
243.8365
 11
351.7033
 21
249.0326
  0
LINE
  8
0_00
  6
DASHED
 62
2
 10
348.7033
 20
243.8365
 11
345.7033
 21
249.0326
  0
LINE
  8
0_00
  6
CONTINUOUS
 62
2
 10
580.2987
 20
694.3539
 11
579.7987
 21
693.8539
  0
LINE
  8
0_00
  6
CONTINUOUS
 62
2
 10
576.0561
 20
694.3539
 11
575.5561
 21
693.8539
  0
LINE
  8
0_00
  6
CONTINUOUS
 62
2
 10
584.5414
 20
694.3539
 11
584.0414
 21
693.8539
  0
LINE
  8
0_00
  6
CONTINUOUS
 62
2
 10
542.7987
 20
694.3539
 11
542.2987
 21
693.8539
  0
LINE
  8
0_00
  6
CONTINUOUS
 62
2
 10
538.5561
 20
694.3539
 11
538.0561
 21
693.8539
  0
LINE
  8
0_00
  6
CONTINUOUS
 62
2
 10
547.0414
 20
694.3539
 11
546.5414
 21
693.8539
  0
ARC
  8
3_03
  6
CONTINUOUS
 62
4
 10
728.6818
 20
683.6442
 40
20.2300
 50
89.8197
 51
97.0407
  0
ARC
  8
3_03
  6
CONTINUOUS
 62
4
 10
726.2817
 20
703.0765
 40
0.6500
 50
97.0407
 51
180.0000
  0
ARC
  8
3_03
  6
CONTINUOUS
 62
4
 10
731.7318
 20
703.8241
 40
0.0500
 50
0.0000
 51
90.0000
  0
ARC
  8
3_03
  6
CONTINUOUS
 62
4
 10
731.7318
 20
699.1243
 40
0.0500
 50
270.0000
 51
360.0000
  0
ARC
  8
3_03
  6
CONTINUOUS
 62
4
 10
725.6818
 20
699.1243
 40
0.0500
 50
180.0000
 51
270.0000
  0
ARC
  8
0_00
  6
CONTINUOUS
 62
2
 10
857.0151
 20
624.3042
 40
0.2450
 50
45.0000
 51
58.5444
  0
ARC
  8
0_00
  6
CONTINUOUS
 62
2
 10
857.0151
 20
624.3042
 40
0.2450
 50
121.3667
 51
135.0000
  0
ARC
  8
0_00
  6
CONTINUOUS
 62
2
 10
857.0151
 20
624.3042
 40
0.2450
 50
211.4556
 51
225.0000
  0
ARC
  8
0_00
  6
CONTINUOUS
 62
2
 10
857.0151
 20
624.3042
 40
0.2450
 50
135.0000
 51
148.6333
  0
ARC
  8
0_00
  6
CONTINUOUS
 62
2
 10
857.0151
 20
624.3042
 40
0.2450
 50
31.4556
 51
45.0000
  0
ARC
  8
0_00
  6
CONTINUOUS
 62
2
 10
857.0151
 20
624.3042
 40
0.2450
 50
315.0000
 51
328.6334
  0
ARC
  8
0_00
  6
CONTINUOUS
 62
2
 10
857.0151
 20
624.3042
 40
0.2450
 50
225.0000
 51
238.5444
  0
ARC
  8
0_00
  6
CONTINUOUS
 62
2
 10
857.0151
 20
624.3042
 40
0.2450
 50
301.3667
 51
315.0000
  0
CIRCLE
  8
0_00
  6
CONTINUOUS
 62
2
 10
857.0151
 20
624.3042
 40
0.5900
  0
ARC
  8
0_00
  6
CONTINUOUS
 62
2
 10
960.3485
 20
624.3042
 40
0.2450
 50
45.0000
 51
58.5444
  0
ARC
  8
0_00
  6
CONTINUOUS
 62
2
 10
960.3485
 20
624.3042
 40
0.2450
 50
121.3667
 51
135.0000
  0
ARC
  8
0_00
  6
CONTINUOUS
 62
2
 10
960.3485
 20
624.3042
 40
0.2450
 50
211.4556
 51
225.0000
  0
ARC
  8
0_00
  6
CONTINUOUS
 62
2
 10
960.3485
 20
624.3042
 40
0.2450
 50
135.0000
 51
148.6333
  0
ARC
  8
0_00
  6
CONTINUOUS
 62
2
 10
960.3485
 20
624.3042
 40
0.2450
 50
31.4556
 51
45.0000
  0
ARC
  8
0_00
  6
CONTINUOUS
 62
2
 10
960.3485
 20
624.3042
 40
0.2450
 50
315.0000
 51
328.6334
  0
ARC
  8
0_00
  6
CONTINUOUS
 62
2
 10
960.3485
 20
624.3042
 40
0.2450
 50
225.0000
 51
238.5444
  0
ARC
  8
0_00
  6
CONTINUOUS
 62
2
 10
960.3485
 20
624.3042
 40
0.2450
 50
301.3667
 51
315.0000
  0
CIRCLE
  8
0_00
  6
CONTINUOUS
 62
2
 10
960.3485
 20
624.3042
 40
0.5900
  0
ARC
  8
0_00
  6
CONTINUOUS
 62
2
 10
753.6818
 20
624.3042
 40
0.2450
 50
45.0000
 51
58.5444
  0
ARC
  8
0_00
  6
CONTINUOUS
 62
2
 10
753.6818
 20
624.3042
 40
0.2450
 50
121.3667
 51
135.0000
  0
ARC
  8
0_00
  6
CONTINUOUS
 62
2
 10
753.6818
 20
624.3042
 40
0.2450
 50
211.4556
 51
225.0000
  0
ARC
  8
0_00
  6
CONTINUOUS
 62
2
 10
753.6818
 20
624.3042
 40
0.2450
 50
135.0000
 51
148.6333
  0
ARC
  8
0_00
  6
CONTINUOUS
 62
2
 10
753.6818
 20
624.3042
 40
0.2450
 50
31.4556
 51
45.0000
  0
ARC
  8
0_00
  6
CONTINUOUS
 62
2
 10
753.6818
 20
624.3042
 40
0.2450
 50
315.0000
 51
328.6334
  0
ARC
  8
0_00
  6
CONTINUOUS
 62
2
 10
753.6818
 20
624.3042
 40
0.2450
 50
225.0000
 51
238.5444
  0
ARC
  8
0_00
  6
CONTINUOUS
 62
2
 10
753.6818
 20
624.3042
 40
0.2450
 50
301.3667
 51
315.0000
  0
CIRCLE
  8
0_00
  6
CONTINUOUS
 62
2
 10
753.6818
 20
624.3042
 40
0.5900
  0
ARC
  8
0_00
  6
CONTINUOUS
 62
2
 10
726.6418
 20
626.1977
 40
0.7700
 50
129.9831
 51
230.0169
  0
ARC
  8
2_02
  6
CONTINUOUS
 62
4
 10
731.5817
 20
623.9542
 40
0.2000
 50
270.0000
 51
360.0000
  0
ARC
  8
2_02
  6
CONTINUOUS
 62
4
 10
726.6318
 20
627.1042
 40
0.2500
 50
90.0000
 51
180.0000
  0
ARC
  8
2_02
  6
CONTINUOUS
 62
4
 10
726.5817
 20
623.9542
 40
0.2000
 50
180.0000
 51
270.0000
  0
ARC
  8
0_00
  6
CONTINUOUS
 62
4
 10
1088.6819
 20
683.6442
 40
20.2300
 50
82.9593
 51
90.1802
  0
ARC
  8
0_00
  6
CONTINUOUS
 62
4
 10
1091.0818
 20
703.0765
 40
0.6500
 50
0.0000
 51
82.9593
  0
ARC
  8
0_00
  6
CONTINUOUS
 62
4
 10
1085.6319
 20
703.8241
 40
0.0500
 50
90.0000
 51
180.0000
  0
ARC
  8
0_00
  6
CONTINUOUS
 62
4
 10
1085.6319
 20
699.1243
 40
0.0500
 50
180.0000
 51
270.0000
  0
ARC
  8
0_00
  6
CONTINUOUS
 62
4
 10
1091.6819
 20
699.1243
 40
0.0500
 50
270.0000
 51
360.0000
  0
ARC
  8
0_00
  6
CONTINUOUS
 62
2
 10
1063.6819
 20
624.3042
 40
0.2450
 50
121.4556
 51
135.0000
  0
ARC
  8
0_00
  6
CONTINUOUS
 62
2
 10
1063.6819
 20
624.3042
 40
0.2450
 50
45.0000
 51
58.6333
  0
ARC
  8
0_00
  6
CONTINUOUS
 62
2
 10
1063.6819
 20
624.3042
 40
0.2450
 50
315.0000
 51
328.5444
  0
ARC
  8
0_00
  6
CONTINUOUS
 62
2
 10
1063.6819
 20
624.3042
 40
0.2450
 50
31.3667
 51
45.0000
  0
ARC
  8
0_00
  6
CONTINUOUS
 62
2
 10
1063.6819
 20
624.3042
 40
0.2450
 50
135.0000
 51
148.5444
  0
ARC
  8
0_00
  6
CONTINUOUS
 62
2
 10
1063.6819
 20
624.3042
 40
0.2450
 50
211.3667
 51
225.0000
  0
ARC
  8
0_00
  6
CONTINUOUS
 62
2
 10
1063.6819
 20
624.3042
 40
0.2450
 50
301.4556
 51
315.0000
  0
ARC
  8
0_00
  6
CONTINUOUS
 62
2
 10
1063.6819
 20
624.3042
 40
0.2450
 50
225.0000
 51
238.6333
  0
CIRCLE
  8
0_00
  6
CONTINUOUS
 62
2
 10
1063.6819
 20
624.3042
 40
0.5900
  0
ARC
  8
0_00
  6
CONTINUOUS
 62
2
 10
1090.7218
 20
626.1977
 40
0.7700
 50
309.9831
 51
410.0169
  0
ARC
  8
0_00
  6
CONTINUOUS
 62
4
 10
1085.7819
 20
623.9542
 40
0.2000
 50
180.0000
 51
270.0000
  0
ARC
  8
0_00
  6
CONTINUOUS
 62
4
 10
1090.7318
 20
627.1042
 40
0.2500
 50
0.0000
 51
90.0000
  0
ARC
  8
0_00
  6
CONTINUOUS
 62
4
 10
1090.7819
 20
623.9542
 40
0.2000
 50
270.0000
 51
360.0000
  0
ARC
  8
0_00
  6
CONTINUOUS
 62
4
 10
1091.5903
 20
619.2041
 40
0.1000
 50
5.0424
 51
90.0000
  0
ARC
  8
0_00
  6
CONTINUOUS
 62
4
 10
1092.3001
 20
616.4541
 40
0.3000
 50
8.8806
 51
90.0000
  0
ARC
  8
0_00
  6
CONTINUOUS
 62
4
 10
1085.7735
 20
619.2041
 40
0.1000
 50
90.0000
 51
174.9576
  0
ARC
  8
0_00
  6
CONTINUOUS
 62
4
 10
1085.0637
 20
616.4541
 40
0.3000
 50
90.0000
 51
171.1193
  0
ARC
  8
0_00
  6
CONTINUOUS
 62
4
 10
1092.1816
 20
617.0542
 40
0.3000
 50
185.0424
 51
187.0031
  0
ARC
  8
12_0C
  6
CONTINUOUS
 62
2
 10
1091.3958
 20
618.5542
 40
0.5161
 50
317.8785
 51
410.8154
  0
ARC
  8
12_0C
  6
CONTINUOUS
 62
2
 10
1085.9679
 20
618.5542
 40
0.5161
 50
129.1846
 51
222.1215
  0
ARC
  8
0_00
  6
CONTINUOUS
 62
2
 10
1085.1822
 20
617.0542
 40
0.3000
 50
352.9969
 51
354.9576
  0
ARC
  8
0_00
  6
CONTINUOUS
 62
2
 10
1085.9319
 20
616.3942
 40
0.7700
 50
58.9973
 51
121.0027
  0
ARC
  8
0_00
  6
CONTINUOUS
 62
2
 10
1085.7988
 20
616.3142
 40
0.9100
 50
39.7151
 51
54.4085
  0
ARC
  8
0_00
  6
CONTINUOUS
 62
2
 10
1085.9319
 20
616.3942
 40
0.7700
 50
121.0027
 51
140.0169
  0
ARC
  8
0_00
  6
CONTINUOUS
 62
2
 10
1091.4319
 20
616.3942
 40
0.7700
 50
58.9973
 51
121.0027
  0
ARC
  8
0_00
  6
CONTINUOUS
 62
2
 10
1092.1816
 20
617.0542
 40
0.3000
 50
185.0424
 51
187.0031
  0
ARC
  8
0_00
  6
CONTINUOUS
 62
2
 10
1091.5649
 20
616.3142
 40
0.9100
 50
125.5915
 51
140.2849
  0
ARC
  8
0_00
  6
CONTINUOUS
 62
2
 10
1091.4319
 20
616.3942
 40
0.7700
 50
39.9831
 51
58.9973
  0
ARC
  8
0_00
  6
CONTINUOUS
 62
4
 10
725.7733
 20
619.2041
 40
0.1000
 50
90.0000
 51
174.9576
  0
ARC
  8
0_00
  6
CONTINUOUS
 62
4
 10
725.0636
 20
616.4541
 40
0.3000
 50
90.0000
 51
171.1193
  0
ARC
  8
0_00
  6
CONTINUOUS
 62
4
 10
731.5902
 20
619.2041
 40
0.1000
 50
5.0424
 51
90.0000
  0
ARC
  8
0_00
  6
CONTINUOUS
 62
4
 10
732.3000
 20
616.4541
 40
0.3000
 50
8.8806
 51
90.0000
  0
ARC
  8
0_00
  6
CONTINUOUS
 62
4
 10
725.1821
 20
617.0542
 40
0.3000
 50
352.9969
 51
354.9576
  0
ARC
  8
12_0C
  6
CONTINUOUS
 62
2
 10
725.9679
 20
618.5542
 40
0.5161
 50
129.1846
 51
222.1215
  0
ARC
  8
12_0C
  6
CONTINUOUS
 62
2
 10
731.3957
 20
618.5542
 40
0.5161
 50
317.8785
 51
410.8154
  0
ARC
  8
0_00
  6
CONTINUOUS
 62
2
 10
732.1815
 20
617.0542
 40
0.3000
 50
185.0424
 51
187.0031
  0
ARC
  8
0_00
  6
CONTINUOUS
 62
2
 10
731.4318
 20
616.3942
 40
0.7700
 50
58.9973
 51
121.0027
  0
ARC
  8
0_00
  6
CONTINUOUS
 62
2
 10
731.5648
 20
616.3142
 40
0.9100
 50
125.5915
 51
140.2849
  0
ARC
  8
0_00
  6
CONTINUOUS
 62
2
 10
731.4318
 20
616.3942
 40
0.7700
 50
39.9831
 51
58.9973
  0
ARC
  8
0_00
  6
CONTINUOUS
 62
2
 10
725.9318
 20
616.3942
 40
0.7700
 50
58.9973
 51
121.0027
  0
ARC
  8
0_00
  6
CONTINUOUS
 62
2
 10
725.1821
 20
617.0542
 40
0.3000
 50
352.9969
 51
354.9576
  0
ARC
  8
0_00
  6
CONTINUOUS
 62
2
 10
725.7988
 20
616.3142
 40
0.9100
 50
39.7151
 51
54.4085
  0
ARC
  8
0_00
  6
CONTINUOUS
 62
2
 10
725.9318
 20
616.3942
 40
0.7700
 50
121.0027
 51
140.0169
  0
ARC
  8
0_00
  6
CONTINUOUS
 62
4
 10
1068.2501
 20
616.4541
 40
0.3000
 50
3.5763
 51
90.0000
  0
ARC
  8
0_00
  6
CONTINUOUS
 62
4
 10
1066.6592
 20
617.0542
 40
0.3000
 50
184.4846
 51
270.0000
  0
ARC
  8
0_00
  6
CONTINUOUS
 62
4
 10
1066.0894
 20
619.2041
 40
0.1000
 50
4.4846
 51
90.0000
  0
ARC
  8
0_00
  6
CONTINUOUS
 62
4
 10
1059.1137
 20
616.4541
 40
0.3000
 50
90.0000
 51
176.4237
  0
ARC
  8
0_00
  6
CONTINUOUS
 62
4
 10
1060.7046
 20
617.0542
 40
0.3000
 50
270.0000
 51
355.5154
  0
ARC
  8
0_00
  6
CONTINUOUS
 62
4
 10
1061.2743
 20
619.2041
 40
0.1000
 50
90.0000
 51
175.5154
  0
ARC
  8
0_00
  6
CONTINUOUS
 62
2
 10
1059.9319
 20
616.3142
 40
0.9100
 50
39.7151
 51
140.2849
  0
ARC
  8
0_00
  6
CONTINUOUS
 62
2
 10
1067.4320
 20
616.3142
 40
0.9100
 50
39.7151
 51
140.2849
  0
CIRCLE
  8
3_03
  6
CONTINUOUS
 62
2
 10
1063.6819
 20
618.5542
 40
0.4000
  0
ARC
  8
3_03
  6
CONTINUOUS
 62
2
 10
1063.6819
 20
618.5542
 40
0.2000
 50
36.1800
 51
53.8200
  0
ARC
  8
3_03
  6
CONTINUOUS
 62
2
 10
1063.6819
 20
618.5542
 40
0.2000
 50
126.2068
 51
143.6799
  0
ARC
  8
3_03
  6
CONTINUOUS
 62
2
 10
1063.6819
 20
618.5542
 40
0.2000
 50
216.1800
 51
233.7058
  0
ARC
  8
3_03
  6
CONTINUOUS
 62
2
 10
1063.6819
 20
618.5542
 40
0.2000
 50
306.2068
 51
323.7932
  0
ARC
  8
0_00
  6
CONTINUOUS
 62
4
 10
964.9166
 20
616.4541
 40
0.3000
 50
3.5763
 51
90.0000
  0
ARC
  8
0_00
  6
CONTINUOUS
 62
4
 10
963.3259
 20
617.0542
 40
0.3000
 50
184.4846
 51
270.0000
  0
ARC
  8
0_00
  6
CONTINUOUS
 62
4
 10
962.7561
 20
619.2041
 40
0.1000
 50
4.4846
 51
90.0000
  0
ARC
  8
0_00
  6
CONTINUOUS
 62
4
 10
955.7804
 20
616.4541
 40
0.3000
 50
90.0000
 51
176.4237
  0
ARC
  8
0_00
  6
CONTINUOUS
 62
4
 10
957.3711
 20
617.0542
 40
0.3000
 50
270.0000
 51
355.5154
  0
ARC
  8
0_00
  6
CONTINUOUS
 62
4
 10
957.9409
 20
619.2041
 40
0.1000
 50
90.0000
 51
175.5154
  0
ARC
  8
0_00
  6
CONTINUOUS
 62
2
 10
956.5985
 20
616.3142
 40
0.9100
 50
39.7151
 51
140.2849
  0
ARC
  8
0_00
  6
CONTINUOUS
 62
2
 10
964.0985
 20
616.3142
 40
0.9100
 50
39.7151
 51
140.2849
  0
CIRCLE
  8
3_03
  6
CONTINUOUS
 62
2
 10
960.3485
 20
618.5542
 40
0.4000
  0
ARC
  8
3_03
  6
CONTINUOUS
 62
2
 10
960.3485
 20
618.5542
 40
0.2000
 50
36.1800
 51
53.8200
  0
ARC
  8
3_03
  6
CONTINUOUS
 62
2
 10
960.3485
 20
618.5542
 40
0.2000
 50
126.2068
 51
143.6799
  0
ARC
  8
3_03
  6
CONTINUOUS
 62
2
 10
960.3485
 20
618.5542
 40
0.2000
 50
216.1800
 51
233.7058
  0
ARC
  8
3_03
  6
CONTINUOUS
 62
2
 10
960.3485
 20
618.5542
 40
0.2000
 50
306.2068
 51
323.7932
  0
ARC
  8
0_00
  6
CONTINUOUS
 62
4
 10
861.5833
 20
616.4541
 40
0.3000
 50
3.5763
 51
90.0000
  0
ARC
  8
0_00
  6
CONTINUOUS
 62
4
 10
859.9925
 20
617.0542
 40
0.3000
 50
184.4846
 51
270.0000
  0
ARC
  8
0_00
  6
CONTINUOUS
 62
4
 10
859.4226
 20
619.2041
 40
0.1000
 50
4.4846
 51
90.0000
  0
ARC
  8
0_00
  6
CONTINUOUS
 62
4
 10
852.4470
 20
616.4541
 40
0.3000
 50
90.0000
 51
176.4237
  0
ARC
  8
0_00
  6
CONTINUOUS
 62
4
 10
854.0377
 20
617.0542
 40
0.3000
 50
270.0000
 51
355.5154
  0
ARC
  8
0_00
  6
CONTINUOUS
 62
4
 10
854.6076
 20
619.2041
 40
0.1000
 50
90.0000
 51
175.5154
  0
ARC
  8
0_00
  6
CONTINUOUS
 62
2
 10
853.2651
 20
616.3142
 40
0.9100
 50
39.7151
 51
140.2849
  0
ARC
  8
0_00
  6
CONTINUOUS
 62
2
 10
860.7651
 20
616.3142
 40
0.9100
 50
39.7151
 51
140.2849
  0
CIRCLE
  8
3_03
  6
CONTINUOUS
 62
2
 10
857.0151
 20
618.5542
 40
0.4000
  0
ARC
  8
3_03
  6
CONTINUOUS
 62
2
 10
857.0151
 20
618.5542
 40
0.2000
 50
36.1800
 51
53.8200
  0
ARC
  8
3_03
  6
CONTINUOUS
 62
2
 10
857.0151
 20
618.5542
 40
0.2000
 50
126.2068
 51
143.6799
  0
ARC
  8
3_03
  6
CONTINUOUS
 62
2
 10
857.0151
 20
618.5542
 40
0.2000
 50
216.1800
 51
233.7058
  0
ARC
  8
3_03
  6
CONTINUOUS
 62
2
 10
857.0151
 20
618.5542
 40
0.2000
 50
306.2068
 51
323.7932
  0
ARC
  8
0_00
  6
CONTINUOUS
 62
4
 10
758.2500
 20
616.4541
 40
0.3000
 50
3.5763
 51
90.0000
  0
ARC
  8
0_00
  6
CONTINUOUS
 62
4
 10
756.6591
 20
617.0542
 40
0.3000
 50
184.4846
 51
270.0000
  0
ARC
  8
0_00
  6
CONTINUOUS
 62
4
 10
756.0893
 20
619.2041
 40
0.1000
 50
4.4846
 51
90.0000
  0
ARC
  8
0_00
  6
CONTINUOUS
 62
4
 10
749.1136
 20
616.4541
 40
0.3000
 50
90.0000
 51
176.4237
  0
ARC
  8
0_00
  6
CONTINUOUS
 62
4
 10
750.7043
 20
617.0542
 40
0.3000
 50
270.0000
 51
355.5154
  0
ARC
  8
0_00
  6
CONTINUOUS
 62
4
 10
751.2743
 20
619.2041
 40
0.1000
 50
90.0000
 51
175.5154
  0
ARC
  8
0_00
  6
CONTINUOUS
 62
2
 10
749.9318
 20
616.3142
 40
0.9100
 50
39.7151
 51
140.2849
  0
ARC
  8
0_00
  6
CONTINUOUS
 62
2
 10
757.4318
 20
616.3142
 40
0.9100
 50
39.7151
 51
140.2849
  0
CIRCLE
  8
3_03
  6
CONTINUOUS
 62
2
 10
753.6818
 20
618.5542
 40
0.4000
  0
ARC
  8
3_03
  6
CONTINUOUS
 62
2
 10
753.6818
 20
618.5542
 40
0.2000
 50
36.1800
 51
53.8200
  0
ARC
  8
3_03
  6
CONTINUOUS
 62
2
 10
753.6818
 20
618.5542
 40
0.2000
 50
126.2068
 51
143.6799
  0
ARC
  8
3_03
  6
CONTINUOUS
 62
2
 10
753.6818
 20
618.5542
 40
0.2000
 50
216.1800
 51
233.7058
  0
ARC
  8
3_03
  6
CONTINUOUS
 62
2
 10
753.6818
 20
618.5542
 40
0.2000
 50
306.2068
 51
323.7932
  0
ARC
  8
0_00
  6
CONTINUOUS
 62
4
 10
341.7033
 20
416.3365
 40
2.0000
 50
0.0000
 51
90.0000
  0
ARC
  8
0_00
  6
CONTINUOUS
 62
4
 10
342.2033
 20
384.8365
 40
1.5000
 50
270.0000
 51
360.0000
  0
ARC
  8
0_00
  6
CONTINUOUS
 62
4
 10
341.5033
 20
383.6365
 40
0.3000
 50
180.0000
 51
270.0000
  0
ARC
  8
0_00
  6
CONTINUOUS
 62
4
 10
341.5033
 20
384.5365
 40
0.3000
 50
90.0000
 51
180.0000
  0
ARC
  8
0_00
  6
CONTINUOUS
 62
4
 10
335.4398
 20
416.3365
 40
0.5000
 50
90.0000
 51
165.0686
  0
ARC
  8
0_00
  6
CONTINUOUS
 62
4
 10
306.9667
 20
416.3365
 40
0.5000
 50
14.9314
 51
90.0000
  0
ARC
  8
0_00
  6
CONTINUOUS
 62
4
 10
341.9061
 20
416.5365
 40
0.3000
 50
0.5371
 51
90.0000
  0
ARC
  8
0_00
  6
CONTINUOUS
 62
4
 10
342.2004
 20
385.1365
 40
0.3000
 50
270.0000
 51
360.5371
  0
ARC
  8
0_00
  6
CONTINUOUS
 62
4
 10
300.7033
 20
416.3365
 40
2.0000
 50
90.0000
 51
180.0000
  0
ARC
  8
0_00
  6
CONTINUOUS
 62
4
 10
300.2033
 20
384.8365
 40
1.5000
 50
180.0000
 51
270.0000
  0
ARC
  8
0_00
  6
CONTINUOUS
 62
4
 10
300.9033
 20
383.6365
 40
0.3000
 50
270.0000
 51
360.0000
  0
ARC
  8
0_00
  6
CONTINUOUS
 62
4
 10
300.9033
 20
384.5365
 40
0.3000
 50
0.0000
 51
90.0000
  0
ARC
  8
0_00
  6
CONTINUOUS
 62
4
 10
300.5004
 20
416.5365
 40
0.3000
 50
90.0000
 51
179.4629
  0
ARC
  8
0_00
  6
CONTINUOUS
 62
4
 10
300.2061
 20
385.1365
 40
0.3000
 50
179.4629
 51
270.0000
  0
ARC
  8
12_0C
  6
CONTINUOUS
 62
2
 10
319.0033
 20
414.0665
 40
1.3000
 50
180.0000
 51
253.3778
  0
ARC
  8
12_0C
  6
CONTINUOUS
 62
2
 10
321.2033
 20
421.4365
 40
9.0000
 50
253.3790
 51
286.6667
  0
ARC
  8
12_0C
  6
CONTINUOUS
 62
2
 10
323.4033
 20
414.0665
 40
1.3000
 50
286.6222
 51
360.0000
  0
ARC
  8
12_0C
  6
CONTINUOUS
 62
2
 10
303.2033
 20
415.4760
 40
5.1605
 50
39.1846
 51
140.8154
  0
ARC
  8
12_0C
  6
CONTINUOUS
 62
2
 10
339.2033
 20
415.4760
 40
5.1605
 50
39.1846
 51
140.8154
  0
ARC
  8
3_03
  6
CONTINUOUS
 62
2
 10
321.2033
 20
409.1365
 40
4.0000
 50
118.7257
 51
421.2743
  0
ARC
  8
3_03
  6
CONTINUOUS
 62
2
 10
321.2033
 20
409.1365
 40
2.0000
 50
36.1800
 51
53.8200
  0
ARC
  8
3_03
  6
CONTINUOUS
 62
2
 10
321.2033
 20
409.1365
 40
2.0000
 50
126.2068
 51
143.6799
  0
ARC
  8
3_03
  6
CONTINUOUS
 62
2
 10
321.2033
 20
409.1365
 40
2.0000
 50
216.1800
 51
233.7058
  0
ARC
  8
3_03
  6
CONTINUOUS
 62
2
 10
321.2033
 20
409.1365
 40
2.0000
 50
306.2068
 51
323.7932
  0
CIRCLE
  8
3_03
  6
CONTINUOUS
 62
2
 10
321.2033
 20
396.1365
 40
4.0000
  0
ARC
  8
3_03
  6
CONTINUOUS
 62
2
 10
321.2033
 20
396.1365
 40
2.0000
 50
36.1800
 51
53.8200
  0
ARC
  8
3_03
  6
CONTINUOUS
 62
2
 10
321.2033
 20
396.1365
 40
2.0000
 50
126.2068
 51
143.6799
  0
ARC
  8
3_03
  6
CONTINUOUS
 62
2
 10
321.2033
 20
396.1365
 40
2.0000
 50
216.1800
 51
233.7058
  0
ARC
  8
3_03
  6
CONTINUOUS
 62
2
 10
321.2033
 20
396.1365
 40
2.0000
 50
306.2068
 51
323.7932
  0
ARC
  8
0_00
  6
CONTINUOUS
 62
2
 10
300.8032
 20
390.3365
 40
7.7000
 50
129.9831
 51
230.0169
  0
ARC
  8
0_00
  6
CONTINUOUS
 62
2
 10
343.0028
 20
390.3553
 40
7.6428
 50
342.4111
 51
377.5889
  0
ARC
  8
0_00
  6
CONTINUOUS
 62
2
 10
355.2038
 20
390.3553
 40
7.6428
 50
162.4111
 51
197.5889
  0
ARC
  8
0_00
  6
CONTINUOUS
 62
2
 10
348.6009
 20
393.8194
 40
2.0447
 50
325.6111
 51
394.3889
  0
ARC
  8
0_00
  6
CONTINUOUS
 62
2
 10
348.6009
 20
386.8912
 40
2.0447
 50
325.6111
 51
394.3889
  0
ARC
  8
0_00
  6
CONTINUOUS
 62
2
 10
349.6057
 20
393.8194
 40
2.0447
 50
145.6111
 51
214.3889
  0
ARC
  8
0_00
  6
CONTINUOUS
 62
2
 10
349.6057
 20
386.8912
 40
2.0447
 50
145.6111
 51
214.3889
  0
ARC
  8
0_00
  6
CONTINUOUS
 62
2
 10
351.5033
 20
390.3553
 40
3.5000
 50
270.0000
 51
450.0000
  0
ARC
  8
0_00
  6
CONTINUOUS
 62
4
 10
307.7033
 20
415.6365
 40
1.0000
 50
180.0000
 51
270.0000
  0
ARC
  8
0_00
  6
CONTINUOUS
 62
4
 10
307.7033
 20
389.6365
 40
1.0000
 50
90.0000
 51
180.0000
  0
ARC
  8
0_00
  6
CONTINUOUS
 62
4
 10
334.7033
 20
415.6365
 40
1.0000
 50
270.0000
 51
360.0000
  0
ARC
  8
0_00
  6
CONTINUOUS
 62
4
 10
334.7033
 20
389.6365
 40
1.0000
 50
0.0000
 51
90.0000
  0
ARC
  8
0_00
  6
CONTINUOUS
 62
4
 10
357.3856
 20
289.8365
 40
3.0000
 50
8.8806
 51
90.0000
  0
ARC
  8
0_00
  6
CONTINUOUS
 62
4
 10
285.0209
 20
289.8365
 40
3.0000
 50
90.0000
 51
171.1193
  0
ARC
  8
12_0C
  6
DASHED
 62
2
 10
298.1150
 20
266.1935
 40
0.4000
 50
285.0000
 51
365.0000
  0
ARC
  8
12_0C
  6
DASHED
 62
2
 10
298.5508
 20
261.2125
 40
0.4000
 50
285.0000
 51
365.0000
  0
ARC
  8
12_0C
  6
DASHED
 62
2
 10
298.9865
 20
256.2315
 40
0.4000
 50
285.0000
 51
365.0000
  0
ARC
  8
12_0C
  6
DASHED
 62
2
 10
299.4224
 20
251.2506
 40
0.4000
 50
285.0000
 51
365.0000
  0
ARC
  8
12_0C
  6
DASHED
 62
2
 10
299.6408
 20
246.4593
 40
0.6000
 50
335.0000
 51
365.0000
  0
ARC
  8
12_0C
  6
DASHED
 62
2
 10
289.2915
 20
266.1935
 40
0.4000
 50
175.0000
 51
255.0000
  0
ARC
  8
12_0C
  6
DASHED
 62
2
 10
288.8557
 20
261.2125
 40
0.4000
 50
175.0000
 51
255.0000
  0
ARC
  8
12_0C
  6
DASHED
 62
2
 10
288.4199
 20
256.2315
 40
0.4000
 50
175.0000
 51
255.0000
  0
ARC
  8
12_0C
  6
DASHED
 62
2
 10
287.9842
 20
251.2506
 40
0.4000
 50
175.0000
 51
255.0000
  0
ARC
  8
12_0C
  6
DASHED
 62
2
 10
287.7658
 20
246.4593
 40
0.6000
 50
175.0000
 51
205.0000
  0
ARC
  8
12_0C
  6
DASHED
 62
2
 10
297.8691
 20
248.3513
 40
0.2000
 50
185.0000
 51
275.0000
  0
ARC
  8
12_0C
  6
DASHED
 62
2
 10
289.5374
 20
248.3513
 40
0.2000
 50
265.0000
 51
355.0000
  0
ARC
  8
12_0C
  6
DASHED
 62
2
 10
297.4333
 20
253.3323
 40
0.2000
 50
185.0000
 51
275.0000
  0
ARC
  8
12_0C
  6
DASHED
 62
2
 10
289.9732
 20
253.3323
 40
0.2000
 50
265.0000
 51
355.0000
  0
ARC
  8
12_0C
  6
DASHED
 62
2
 10
296.9975
 20
258.3133
 40
0.2000
 50
185.0000
 51
275.0000
  0
ARC
  8
12_0C
  6
DASHED
 62
2
 10
290.4089
 20
258.3133
 40
0.2000
 50
265.0000
 51
355.0000
  0
ARC
  8
12_0C
  6
DASHED
 62
2
 10
296.5618
 20
263.2943
 40
0.2000
 50
185.0000
 51
275.0000
  0
ARC
  8
12_0C
  6
DASHED
 62
2
 10
290.8447
 20
263.2943
 40
0.2000
 50
265.0000
 51
355.0000
  0
ARC
  8
12_0C
  6
DASHED
 62
2
 10
296.7237
 20
268.3275
 40
0.2000
 50
185.0000
 51
275.0000
  0
ARC
  8
12_0C
  6
DASHED
 62
2
 10
290.6828
 20
268.3275
 40
0.2000
 50
265.0000
 51
355.0000
  0
ARC
  8
12_0C
  6
DASHED
 62
2
 10
289.4827
 20
250.0208
 40
0.4000
 50
355.0000
 51
435.0000
  0
ARC
  8
12_0C
  6
DASHED
 62
2
 10
297.7100
 20
250.1706
 40
0.2000
 50
105.0000
 51
185.0000
  0
ARC
  8
12_0C
  6
DASHED
 62
2
 10
289.9185
 20
255.0018
 40
0.4000
 50
355.0000
 51
435.0000
  0
ARC
  8
12_0C
  6
DASHED
 62
2
 10
297.4880
 20
255.0018
 40
0.4000
 50
105.0000
 51
185.0000
  0
ARC
  8
12_0C
  6
DASHED
 62
2
 10
290.3542
 20
259.9827
 40
0.4000
 50
355.0000
 51
435.0000
  0
ARC
  8
12_0C
  6
DASHED
 62
2
 10
297.0523
 20
259.9827
 40
0.4000
 50
105.0000
 51
185.0000
  0
ARC
  8
12_0C
  6
DASHED
 62
2
 10
290.7900
 20
264.9637
 40
0.4000
 50
355.0000
 51
435.0000
  0
ARC
  8
12_0C
  6
DASHED
 62
2
 10
296.6165
 20
264.9637
 40
0.4000
 50
105.0000
 51
185.0000
  0
ARC
  8
12_0C
  6
DASHED
 62
2
 10
296.7063
 20
270.8215
 40
0.4000
 50
100.0000
 51
185.0000
  0
ARC
  8
12_0C
  6
DASHED
 62
2
 10
290.7002
 20
270.8215
 40
0.4000
 50
355.0000
 51
440.0000
  0
ARC
  8
12_0C
  6
DASHED
 62
2
 10
286.2089
 20
269.4374
 40
0.4000
 50
115.0000
 51
205.0000
  0
ARC
  8
12_0C
  6
DASHED
 62
2
 10
286.3902
 20
269.5220
 40
0.4000
 50
25.0000
 51
115.0000
  0
ARC
  8
12_0C
  6
DASHED
 62
2
 10
301.1976
 20
269.4374
 40
0.4000
 50
335.0000
 51
425.0000
  0
ARC
  8
12_0C
  6
DASHED
 62
2
 10
301.0163
 20
269.5220
 40
0.4000
 50
65.0000
 51
155.0000
  0
ARC
  8
12_0C
  6
DASHED
 62
2
 10
344.2915
 20
266.1935
 40
0.4000
 50
175.0000
 51
255.0000
  0
ARC
  8
12_0C
  6
DASHED
 62
2
 10
343.8557
 20
261.2125
 40
0.4000
 50
175.0000
 51
255.0000
  0
ARC
  8
12_0C
  6
DASHED
 62
2
 10
343.4199
 20
256.2315
 40
0.4000
 50
175.0000
 51
255.0000
  0
ARC
  8
12_0C
  6
DASHED
 62
2
 10
342.9842
 20
251.2506
 40
0.4000
 50
175.0000
 51
255.0000
  0
ARC
  8
12_0C
  6
DASHED
 62
2
 10
342.7658
 20
246.4593
 40
0.6000
 50
175.0000
 51
205.0000
  0
ARC
  8
12_0C
  6
DASHED
 62
2
 10
353.1150
 20
266.1935
 40
0.4000
 50
285.0000
 51
365.0000
  0
ARC
  8
12_0C
  6
DASHED
 62
2
 10
353.5508
 20
261.2125
 40
0.4000
 50
285.0000
 51
365.0000
  0
ARC
  8
12_0C
  6
DASHED
 62
2
 10
353.9866
 20
256.2315
 40
0.4000
 50
285.0000
 51
365.0000
  0
ARC
  8
12_0C
  6
DASHED
 62
2
 10
354.4224
 20
251.2506
 40
0.4000
 50
285.0000
 51
365.0000
  0
ARC
  8
12_0C
  6
DASHED
 62
2
 10
354.6408
 20
246.4593
 40
0.6000
 50
335.0000
 51
365.0000
  0
ARC
  8
12_0C
  6
DASHED
 62
2
 10
344.5374
 20
248.3513
 40
0.2000
 50
265.0000
 51
355.0000
  0
ARC
  8
12_0C
  6
DASHED
 62
2
 10
352.8691
 20
248.3513
 40
0.2000
 50
185.0000
 51
275.0000
  0
ARC
  8
12_0C
  6
DASHED
 62
2
 10
344.9732
 20
253.3323
 40
0.2000
 50
265.0000
 51
355.0000
  0
ARC
  8
12_0C
  6
DASHED
 62
2
 10
352.4333
 20
253.3323
 40
0.2000
 50
185.0000
 51
275.0000
  0
ARC
  8
12_0C
  6
DASHED
 62
2
 10
345.4090
 20
258.3133
 40
0.2000
 50
265.0000
 51
355.0000
  0
ARC
  8
12_0C
  6
DASHED
 62
2
 10
351.9976
 20
258.3133
 40
0.2000
 50
185.0000
 51
275.0000
  0
ARC
  8
12_0C
  6
DASHED
 62
2
 10
345.8447
 20
263.2943
 40
0.2000
 50
265.0000
 51
355.0000
  0
ARC
  8
12_0C
  6
DASHED
 62
2
 10
351.5618
 20
263.2943
 40
0.2000
 50
185.0000
 51
275.0000
  0
ARC
  8
12_0C
  6
DASHED
 62
2
 10
345.6828
 20
268.3275
 40
0.2000
 50
265.0000
 51
355.0000
  0
ARC
  8
12_0C
  6
DASHED
 62
2
 10
351.7237
 20
268.3275
 40
0.2000
 50
185.0000
 51
275.0000
  0
ARC
  8
12_0C
  6
DASHED
 62
2
 10
352.9238
 20
250.0208
 40
0.4000
 50
105.0000
 51
185.0000
  0
ARC
  8
12_0C
  6
DASHED
 62
2
 10
344.6966
 20
250.1706
 40
0.2000
 50
355.0000
 51
435.0000
  0
ARC
  8
12_0C
  6
DASHED
 62
2
 10
352.4880
 20
255.0018
 40
0.4000
 50
105.0000
 51
185.0000
  0
ARC
  8
12_0C
  6
DASHED
 62
2
 10
344.9185
 20
255.0018
 40
0.4000
 50
355.0000
 51
435.0000
  0
ARC
  8
12_0C
  6
DASHED
 62
2
 10
352.0523
 20
259.9827
 40
0.4000
 50
105.0000
 51
185.0000
  0
ARC
  8
12_0C
  6
DASHED
 62
2
 10
345.3542
 20
259.9827
 40
0.4000
 50
355.0000
 51
435.0000
  0
ARC
  8
12_0C
  6
DASHED
 62
2
 10
351.6165
 20
264.9637
 40
0.4000
 50
105.0000
 51
185.0000
  0
ARC
  8
12_0C
  6
DASHED
 62
2
 10
345.7900
 20
264.9637
 40
0.4000
 50
355.0000
 51
435.0000
  0
ARC
  8
12_0C
  6
DASHED
 62
2
 10
345.7002
 20
270.8215
 40
0.4000
 50
355.0000
 51
440.0000
  0
ARC
  8
12_0C
  6
DASHED
 62
2
 10
351.7063
 20
270.8215
 40
0.4000
 50
100.0000
 51
185.0000
  0
ARC
  8
12_0C
  6
DASHED
 62
2
 10
356.0163
 20
269.5220
 40
0.4000
 50
65.0000
 51
155.0000
  0
ARC
  8
12_0C
  6
DASHED
 62
2
 10
341.2089
 20
269.4374
 40
0.4000
 50
115.0000
 51
205.0000
  0
ARC
  8
12_0C
  6
DASHED
 62
2
 10
341.3902
 20
269.5220
 40
0.4000
 50
25.0000
 51
115.0000
  0
ARC
  8
12_0C
  6
DASHED
 62
2
 10
356.1976
 20
269.4374
 40
0.4000
 50
335.0000
 51
425.0000
  0
ARC
  8
0_00
  6
CONTINUOUS
 62
4
 10
350.2876
 20
317.3365
 40
1.0000
 50
5.0424
 51
90.0000
  0
ARC
  8
0_00
  6
CONTINUOUS
 62
4
 10
292.1189
 20
317.3365
 40
1.0000
 50
90.0000
 51
174.9576
  0
ARC
  8
12_0C
  6
DASHED
 62
2
 10
348.3427
 20
310.8365
 40
5.1605
 50
309.1846
 51
317.8785
  0
ARC
  8
12_0C
  6
DASHED
 62
2
 10
294.0638
 20
310.8365
 40
5.1605
 50
222.1215
 51
230.8154
  0
ARC
  8
12_0C
  6
CONTINUOUS
 62
2
 10
348.3427
 20
310.8365
 40
5.1605
 50
317.8785
 51
410.8154
  0
ARC
  8
12_0C
  6
CONTINUOUS
 62
2
 10
294.0638
 20
310.8365
 40
5.1605
 50
129.1846
 51
222.1215
  0
ARC
  8
0_00
  6
CONTINUOUS
 62
4
 10
682.5551
 20
302.6721
 40
12.5000
 50
180.0000
 51
270.0000
  0
ARC
  8
0_00
  6
CONTINUOUS
 62
4
 10
757.5551
 20
302.6721
 40
12.5000
 50
270.0000
 51
360.0000
  0
ARC
  8
0_00
  6
CONTINUOUS
 62
4
 10
682.5551
 20
357.6721
 40
12.5000
 50
90.0000
 51
180.0000
  0
ARC
  8
0_00
  6
CONTINUOUS
 62
4
 10
757.5551
 20
357.6721
 40
12.5000
 50
0.0000
 51
90.0000
  0
ARC
  8
0_00
  6
CONTINUOUS
 62
4
 10
757.5551
 20
302.6721
 40
11.0000
 50
270.0000
 51
360.0000
  0
ARC
  8
0_00
  6
CONTINUOUS
 62
4
 10
682.5551
 20
302.6721
 40
11.0000
 50
180.0000
 51
270.0000
  0
ARC
  8
0_00
  6
CONTINUOUS
 62
4
 10
682.5551
 20
357.6721
 40
11.0000
 50
90.0000
 51
180.0000
  0
ARC
  8
0_00
  6
CONTINUOUS
 62
4
 10
757.5551
 20
357.6721
 40
11.0000
 50
0.0000
 51
90.0000
  0
ARC
  8
0_00
  6
CONTINUOUS
 62
4
 10
702.5551
 20
307.6721
 40
9.5000
 50
180.0000
 51
270.0000
  0
ARC
  8
0_00
  6
CONTINUOUS
 62
4
 10
737.5551
 20
307.6721
 40
9.5000
 50
270.0000
 51
360.0000
  0
ARC
  8
0_00
  6
CONTINUOUS
 62
4
 10
702.5551
 20
352.6722
 40
9.5000
 50
90.0000
 51
180.0000
  0
ARC
  8
0_00
  6
CONTINUOUS
 62
4
 10
737.5551
 20
352.6722
 40
9.5000
 50
0.0000
 51
90.0000
  0
ARC
  8
0_00
  6
CONTINUOUS
 62
4
 10
702.5551
 20
352.6722
 40
7.5000
 50
90.0000
 51
180.0000
  0
ARC
  8
0_00
  6
CONTINUOUS
 62
4
 10
737.5551
 20
352.6722
 40
7.5000
 50
0.0000
 51
90.0000
  0
ARC
  8
0_00
  6
CONTINUOUS
 62
4
 10
702.5551
 20
307.6721
 40
7.5000
 50
180.0000
 51
270.0000
  0
ARC
  8
0_00
  6
CONTINUOUS
 62
4
 10
737.5551
 20
307.6721
 40
7.5000
 50
270.0000
 51
360.0000
  0
ARC
  8
0_00
  6
CONTINUOUS
 62
4
 10
737.5551
 20
352.6722
 40
3.2500
 50
0.0000
 51
90.0000
  0
ARC
  8
0_00
  6
CONTINUOUS
 62
4
 10
702.5551
 20
352.6722
 40
3.2500
 50
90.0000
 51
180.0000
  0
ARC
  8
0_00
  6
CONTINUOUS
 62
4
 10
702.5551
 20
307.6721
 40
3.2500
 50
180.0000
 51
270.0000
  0
ARC
  8
0_00
  6
CONTINUOUS
 62
4
 10
702.5551
 20
307.6721
 40
3.2500
 50
180.0000
 51
270.0000
  0
ARC
  8
0_00
  6
CONTINUOUS
 62
4
 10
737.5551
 20
307.6721
 40
3.2500
 50
270.0000
 51
360.0000
  0
ARC
  8
0_00
  6
CONTINUOUS
 62
4
 10
737.5551
 20
307.6721
 40
2.5000
 50
270.0000
 51
360.0000
  0
ARC
  8
0_00
  6
CONTINUOUS
 62
4
 10
736.5551
 20
312.1721
 40
1.7000
 50
218.3796
 51
241.9275
  0
ARC
  8
0_00
  6
CONTINUOUS
 62
4
 10
736.5551
 20
312.1721
 40
3.2500
 50
241.8554
 51
296.9578
  0
ARC
  8
0_00
  6
CONTINUOUS
 62
4
 10
738.2552
 20
308.8296
 40
0.5000
 50
0.0000
 51
116.9577
  0
ARC
  8
0_00
  6
CONTINUOUS
 62
4
 10
735.3051
 20
309.8355
 40
0.6000
 50
180.0000
 51
241.8554
  0
ARC
  8
0_00
  6
CONTINUOUS
 62
4
 10
736.5551
 20
312.1721
 40
1.7000
 50
298.0725
 51
330.0000
  0
ARC
  8
0_00
  6
CONTINUOUS
 62
4
 10
702.5551
 20
307.6721
 40
2.5000
 50
180.0000
 51
270.0000
  0
ARC
  8
0_00
  6
CONTINUOUS
 62
4
 10
734.9951
 20
310.9366
 40
0.2900
 50
38.3796
 51
180.0000
  0
ARC
  8
0_00
  6
CONTINUOUS
 62
4
 10
738.4051
 20
311.4505
 40
0.3000
 50
240.0000
 51
360.0000
  0
ARC
  8
0_00
  6
CONTINUOUS
 62
4
 10
736.5551
 20
312.1721
 40
2.1500
 50
248.1552
 51
291.8448
  0
ARC
  8
0_00
  6
CONTINUOUS
 62
4
 10
736.5551
 20
312.1721
 40
1.7000
 50
118.0725
 51
141.6204
  0
ARC
  8
0_00
  6
CONTINUOUS
 62
4
 10
736.5551
 20
312.1721
 40
3.2500
 50
61.3146
 51
118.1446
  0
ARC
  8
0_00
  6
CONTINUOUS
 62
4
 10
735.3051
 20
314.5088
 40
0.6000
 50
118.1446
 51
180.0000
  0
ARC
  8
0_00
  6
CONTINUOUS
 62
4
 10
738.3551
 20
315.4620
 40
0.5000
 50
241.3146
 51
360.0000
  0
ARC
  8
0_00
  6
CONTINUOUS
 62
4
 10
736.5551
 20
312.1721
 40
1.7000
 50
30.0000
 51
61.9275
  0
ARC
  8
0_00
  6
CONTINUOUS
 62
4
 10
734.9951
 20
313.4077
 40
0.2900
 50
180.0000
 51
321.6204
  0
ARC
  8
0_00
  6
CONTINUOUS
 62
4
 10
738.4051
 20
312.8939
 40
0.3000
 50
0.0000
 51
120.0000
  0
ARC
  8
0_00
  6
CONTINUOUS
 62
4
 10
736.5551
 20
312.1721
 40
2.1500
 50
68.1552
 51
111.8448
  0
ARC
  8
0_00
  6
CONTINUOUS
 62
4
 10
703.5551
 20
312.1721
 40
1.7000
 50
298.0725
 51
321.6204
  0
ARC
  8
0_00
  6
CONTINUOUS
 62
4
 10
703.5551
 20
312.1721
 40
3.2500
 50
243.0423
 51
298.1446
  0
ARC
  8
0_00
  6
CONTINUOUS
 62
4
 10
704.8051
 20
309.8355
 40
0.6000
 50
298.1446
 51
360.0000
  0
ARC
  8
0_00
  6
CONTINUOUS
 62
4
 10
703.5551
 20
312.1721
 40
1.7000
 50
210.0000
 51
241.9275
  0
ARC
  8
0_00
  6
CONTINUOUS
 62
4
 10
705.1151
 20
310.9366
 40
0.2900
 50
0.0000
 51
141.6204
  0
ARC
  8
0_00
  6
CONTINUOUS
 62
4
 10
701.7052
 20
311.4505
 40
0.3000
 50
180.0000
 51
300.0000
  0
ARC
  8
0_00
  6
CONTINUOUS
 62
4
 10
703.5551
 20
312.1721
 40
2.1500
 50
248.1552
 51
291.8448
  0
ARC
  8
0_00
  6
CONTINUOUS
 62
4
 10
703.5551
 20
312.1721
 40
1.7000
 50
38.3796
 51
61.9275
  0
ARC
  8
0_00
  6
CONTINUOUS
 62
4
 10
703.5551
 20
312.1721
 40
3.2500
 50
61.8554
 51
118.6854
  0
ARC
  8
0_00
  6
CONTINUOUS
 62
4
 10
704.8051
 20
314.5088
 40
0.6000
 50
0.0000
 51
61.8554
  0
ARC
  8
0_00
  6
CONTINUOUS
 62
4
 10
701.7551
 20
315.4620
 40
0.5000
 50
180.0000
 51
298.6854
  0
ARC
  8
0_00
  6
CONTINUOUS
 62
4
 10
703.5551
 20
312.1721
 40
1.7000
 50
118.0725
 51
150.0000
  0
ARC
  8
0_00
  6
CONTINUOUS
 62
4
 10
705.1151
 20
313.4077
 40
0.2900
 50
218.3796
 51
360.0000
  0
ARC
  8
0_00
  6
CONTINUOUS
 62
4
 10
701.7052
 20
312.8939
 40
0.3000
 50
60.0000
 51
180.0000
  0
ARC
  8
0_00
  6
CONTINUOUS
 62
4
 10
703.5551
 20
312.1721
 40
2.1500
 50
68.1552
 51
111.8448
  0
ARC
  8
0_00
  6
CONTINUOUS
 62
4
 10
738.2552
 20
307.6721
 40
0.5000
 50
270.0000
 51
360.0000
  0
ARC
  8
0_00
  6
CONTINUOUS
 62
4
 10
701.8551
 20
308.8296
 40
0.5000
 50
63.0423
 51
180.0000
  0
ARC
  8
0_00
  6
CONTINUOUS
 62
4
 10
701.8551
 20
307.6721
 40
0.5000
 50
180.0000
 51
270.0000
  0
ARC
  8
0_00
  6
CONTINUOUS
 62
4
 10
737.5551
 20
352.6722
 40
2.5000
 50
0.0000
 51
90.0000
  0
ARC
  8
0_00
  6
CONTINUOUS
 62
4
 10
736.5551
 20
348.1722
 40
1.7000
 50
118.0725
 51
141.6204
  0
ARC
  8
0_00
  6
CONTINUOUS
 62
4
 10
736.5551
 20
348.1722
 40
3.2500
 50
63.0423
 51
118.1446
  0
ARC
  8
0_00
  6
CONTINUOUS
 62
4
 10
738.2552
 20
351.5147
 40
0.5000
 50
243.0423
 51
360.0000
  0
ARC
  8
0_00
  6
CONTINUOUS
 62
4
 10
735.3051
 20
350.5088
 40
0.6000
 50
118.1446
 51
180.0000
  0
ARC
  8
0_00
  6
CONTINUOUS
 62
4
 10
736.5551
 20
348.1722
 40
1.7000
 50
30.0000
 51
61.9275
  0
ARC
  8
0_00
  6
CONTINUOUS
 62
4
 10
702.5551
 20
352.6722
 40
2.5000
 50
90.0000
 51
180.0000
  0
ARC
  8
0_00
  6
CONTINUOUS
 62
4
 10
734.9951
 20
349.4077
 40
0.2900
 50
180.0000
 51
321.6204
  0
ARC
  8
0_00
  6
CONTINUOUS
 62
4
 10
738.4051
 20
348.8939
 40
0.3000
 50
0.0000
 51
120.0000
  0
ARC
  8
0_00
  6
CONTINUOUS
 62
4
 10
736.5551
 20
348.1722
 40
2.1500
 50
68.1552
 51
111.8448
  0
ARC
  8
0_00
  6
CONTINUOUS
 62
4
 10
736.5551
 20
348.1722
 40
1.7000
 50
218.3796
 51
241.9275
  0
ARC
  8
0_00
  6
CONTINUOUS
 62
4
 10
736.5551
 20
348.1722
 40
3.2500
 50
241.8554
 51
298.6854
  0
ARC
  8
0_00
  6
CONTINUOUS
 62
4
 10
735.3051
 20
345.8355
 40
0.6000
 50
180.0000
 51
241.8554
  0
ARC
  8
0_00
  6
CONTINUOUS
 62
4
 10
738.3551
 20
344.8824
 40
0.5000
 50
0.0000
 51
118.6854
  0
ARC
  8
0_00
  6
CONTINUOUS
 62
4
 10
736.5551
 20
348.1722
 40
1.7000
 50
298.0725
 51
330.0000
  0
ARC
  8
0_00
  6
CONTINUOUS
 62
4
 10
734.9951
 20
346.9366
 40
0.2900
 50
38.3796
 51
180.0000
  0
ARC
  8
0_00
  6
CONTINUOUS
 62
4
 10
738.4051
 20
347.4505
 40
0.3000
 50
240.0000
 51
360.0000
  0
ARC
  8
0_00
  6
CONTINUOUS
 62
4
 10
736.5551
 20
348.1722
 40
2.1500
 50
248.1552
 51
291.8448
  0
ARC
  8
0_00
  6
CONTINUOUS
 62
4
 10
703.5551
 20
348.1722
 40
1.7000
 50
38.3796
 51
61.9275
  0
ARC
  8
0_00
  6
CONTINUOUS
 62
4
 10
703.5551
 20
348.1722
 40
3.2500
 50
61.8554
 51
116.9577
  0
ARC
  8
0_00
  6
CONTINUOUS
 62
4
 10
704.8051
 20
350.5088
 40
0.6000
 50
0.0000
 51
61.8554
  0
ARC
  8
0_00
  6
CONTINUOUS
 62
4
 10
703.5551
 20
348.1722
 40
1.7000
 50
118.0725
 51
150.0000
  0
ARC
  8
0_00
  6
CONTINUOUS
 62
4
 10
705.1151
 20
349.4077
 40
0.2900
 50
218.3796
 51
360.0000
  0
ARC
  8
0_00
  6
CONTINUOUS
 62
4
 10
701.7052
 20
348.8939
 40
0.3000
 50
60.0000
 51
180.0000
  0
ARC
  8
0_00
  6
CONTINUOUS
 62
4
 10
703.5551
 20
348.1722
 40
2.1500
 50
68.1552
 51
111.8448
  0
ARC
  8
0_00
  6
CONTINUOUS
 62
4
 10
703.5551
 20
348.1722
 40
1.7000
 50
298.0725
 51
321.6204
  0
ARC
  8
0_00
  6
CONTINUOUS
 62
4
 10
703.5551
 20
348.1722
 40
3.2500
 50
241.3146
 51
298.1446
  0
ARC
  8
0_00
  6
CONTINUOUS
 62
4
 10
704.8051
 20
345.8355
 40
0.6000
 50
298.1446
 51
360.0000
  0
ARC
  8
0_00
  6
CONTINUOUS
 62
4
 10
701.7551
 20
344.8824
 40
0.5000
 50
61.3146
 51
180.0000
  0
ARC
  8
0_00
  6
CONTINUOUS
 62
4
 10
703.5551
 20
348.1722
 40
1.7000
 50
210.0000
 51
241.9275
  0
ARC
  8
0_00
  6
CONTINUOUS
 62
4
 10
705.1151
 20
346.9366
 40
0.2900
 50
0.0000
 51
141.6204
  0
ARC
  8
0_00
  6
CONTINUOUS
 62
4
 10
701.7052
 20
347.4505
 40
0.3000
 50
180.0000
 51
300.0000
  0
ARC
  8
0_00
  6
CONTINUOUS
 62
4
 10
703.5551
 20
348.1722
 40
2.1500
 50
248.1552
 51
291.8448
  0
ARC
  8
0_00
  6
CONTINUOUS
 62
4
 10
738.2552
 20
352.6722
 40
0.5000
 50
0.0000
 51
90.0000
  0
ARC
  8
0_00
  6
CONTINUOUS
 62
4
 10
701.8551
 20
351.5147
 40
0.5000
 50
180.0000
 51
296.9578
  0
ARC
  8
0_00
  6
CONTINUOUS
 62
4
 10
701.8551
 20
352.6722
 40
0.5000
 50
90.0000
 51
180.0000
  0
ARC
  8
0_00
  6
CONTINUOUS
 62
4
 10
727.3551
 20
326.8722
 40
0.5000
 50
270.0000
 51
360.0000
  0
ARC
  8
0_00
  6
CONTINUOUS
 62
4
 10
724.9551
 20
325.7721
 40
0.6000
 50
90.0000
 51
270.0000
  0
ARC
  8
0_00
  6
CONTINUOUS
 62
4
 10
714.3814
 20
309.3222
 40
0.5000
 50
154.1960
 51
270.0000
  0
ARC
  8
0_00
  6
CONTINUOUS
 62
4
 10
708.4051
 20
314.8382
 40
0.5000
 50
180.0000
 51
300.3900
  0
ARC
  8
0_00
  6
CONTINUOUS
 62
4
 10
712.7551
 20
326.8722
 40
0.5000
 50
180.0000
 51
270.0000
  0
ARC
  8
0_00
  6
CONTINUOUS
 62
4
 10
715.1551
 20
325.7721
 40
0.6000
 50
270.0000
 51
450.0000
  0
ARC
  8
0_00
  6
CONTINUOUS
 62
4
 10
727.9990
 20
324.6721
 40
0.5000
 50
32.7714
 51
90.0000
  0
ARC
  8
0_00
  6
CONTINUOUS
 62
4
 10
712.1113
 20
324.6721
 40
0.5000
 50
90.0000
 51
147.2286
  0
ARC
  8
0_00
  6
CONTINUOUS
 62
4
 10
713.1491
 20
311.3496
 40
0.5000
 50
105.0000
 51
183.9125
  0
ARC
  8
0_00
  6
CONTINUOUS
 62
4
 10
713.7864
 20
311.5203
 40
0.5000
 50
6.1501
 51
105.0000
  0
ARC
  8
0_00
  6
CONTINUOUS
 62
4
 10
710.7325
 20
313.7661
 40
0.5000
 50
266.0875
 51
345.0000
  0
ARC
  8
0_00
  6
CONTINUOUS
 62
4
 10
710.9033
 20
314.4035
 40
0.5000
 50
345.0000
 51
443.8499
  0
ARC
  8
0_00
  6
CONTINUOUS
 62
4
 10
710.5552
 20
311.1721
 40
3.7500
 50
83.8499
 51
120.3899
  0
ARC
  8
0_00
  6
CONTINUOUS
 62
4
 10
710.5552
 20
311.1721
 40
3.7500
 50
334.1960
 51
366.1501
  0
ARC
  8
0_00
  6
CONTINUOUS
 62
4
 10
725.7289
 20
309.3222
 40
0.5000
 50
270.0000
 51
385.8040
  0
ARC
  8
0_00
  6
CONTINUOUS
 62
4
 10
731.7052
 20
314.8382
 40
0.5000
 50
239.6101
 51
360.0000
  0
ARC
  8
0_00
  6
CONTINUOUS
 62
4
 10
726.9612
 20
311.3496
 40
0.5000
 50
356.0875
 51
435.0000
  0
ARC
  8
0_00
  6
CONTINUOUS
 62
4
 10
726.3238
 20
311.5203
 40
0.5000
 50
75.0000
 51
173.8499
  0
ARC
  8
0_00
  6
CONTINUOUS
 62
4
 10
729.3777
 20
313.7661
 40
0.5000
 50
195.0000
 51
273.9125
  0
ARC
  8
0_00
  6
CONTINUOUS
 62
4
 10
729.2069
 20
314.4035
 40
0.5000
 50
96.1501
 51
195.0000
  0
ARC
  8
0_00
  6
CONTINUOUS
 62
4
 10
729.5551
 20
311.1721
 40
3.7500
 50
59.6100
 51
96.1501
  0
ARC
  8
0_00
  6
CONTINUOUS
 62
4
 10
729.5551
 20
311.1721
 40
3.7500
 50
173.8499
 51
205.8040
  0
ARC
  8
0_00
  6
CONTINUOUS
 62
4
 10
729.5551
 20
311.1721
 40
2.1000
 50
245.9248
 51
294.0752
  0
ARC
  8
0_00
  6
CONTINUOUS
 62
4
 10
729.5551
 20
311.1721
 40
2.1000
 50
176.0875
 51
204.0752
  0
ARC
  8
0_00
  6
CONTINUOUS
 62
4
 10
729.5551
 20
311.1721
 40
2.1000
 50
65.9248
 51
93.9125
  0
ARC
  8
0_00
  6
CONTINUOUS
 62
4
 10
729.5551
 20
311.1721
 40
2.1000
 50
335.9248
 51
384.0752
  0
ARC
  8
0_00
  6
CONTINUOUS
 62
4
 10
710.5552
 20
311.1721
 40
2.1000
 50
335.9248
 51
363.9125
  0
ARC
  8
0_00
  6
CONTINUOUS
 62
4
 10
710.5552
 20
311.1721
 40
2.1000
 50
245.9248
 51
294.0752
  0
ARC
  8
0_00
  6
CONTINUOUS
 62
4
 10
710.5552
 20
311.1721
 40
2.1000
 50
155.9248
 51
204.0752
  0
ARC
  8
0_00
  6
CONTINUOUS
 62
4
 10
710.5552
 20
311.1721
 40
2.1000
 50
86.0875
 51
114.0752
  0
ARC
  8
0_00
  6
CONTINUOUS
 62
4
 10
727.3551
 20
333.4722
 40
0.5000
 50
0.0000
 51
90.0000
  0
ARC
  8
0_00
  6
CONTINUOUS
 62
4
 10
724.9551
 20
334.5722
 40
0.6000
 50
90.0000
 51
270.0000
  0
ARC
  8
0_00
  6
CONTINUOUS
 62
4
 10
714.3814
 20
351.0221
 40
0.5000
 50
90.0000
 51
205.8040
  0
ARC
  8
0_00
  6
CONTINUOUS
 62
4
 10
708.4051
 20
345.5061
 40
0.5000
 50
59.6100
 51
180.0000
  0
ARC
  8
0_00
  6
CONTINUOUS
 62
4
 10
712.7551
 20
333.4722
 40
0.5000
 50
90.0000
 51
180.0000
  0
ARC
  8
0_00
  6
CONTINUOUS
 62
4
 10
715.1551
 20
334.5722
 40
0.6000
 50
270.0000
 51
450.0000
  0
ARC
  8
0_00
  6
CONTINUOUS
 62
4
 10
727.9990
 20
335.6722
 40
0.5000
 50
270.0000
 51
327.2286
  0
ARC
  8
0_00
  6
CONTINUOUS
 62
4
 10
712.1113
 20
335.6722
 40
0.5000
 50
212.7714
 51
270.0000
  0
ARC
  8
0_00
  6
CONTINUOUS
 62
4
 10
713.1491
 20
348.9947
 40
0.5000
 50
176.0875
 51
255.0000
  0
ARC
  8
0_00
  6
CONTINUOUS
 62
4
 10
713.7864
 20
348.8240
 40
0.5000
 50
255.0000
 51
353.8499
  0
ARC
  8
0_00
  6
CONTINUOUS
 62
4
 10
710.7325
 20
346.5782
 40
0.5000
 50
15.0000
 51
93.9125
  0
ARC
  8
0_00
  6
CONTINUOUS
 62
4
 10
710.9033
 20
345.9409
 40
0.5000
 50
276.1501
 51
375.0000
  0
ARC
  8
0_00
  6
CONTINUOUS
 62
4
 10
710.5552
 20
349.1722
 40
3.7500
 50
239.6101
 51
276.1501
  0
ARC
  8
0_00
  6
CONTINUOUS
 62
4
 10
710.5552
 20
349.1722
 40
3.7500
 50
353.8499
 51
385.8040
  0
ARC
  8
0_00
  6
CONTINUOUS
 62
4
 10
725.7289
 20
351.0221
 40
0.5000
 50
334.1960
 51
450.0000
  0
ARC
  8
0_00
  6
CONTINUOUS
 62
4
 10
731.7052
 20
345.5061
 40
0.5000
 50
0.0000
 51
120.3899
  0
ARC
  8
0_00
  6
CONTINUOUS
 62
4
 10
726.9612
 20
348.9947
 40
0.5000
 50
285.0000
 51
363.9125
  0
ARC
  8
0_00
  6
CONTINUOUS
 62
4
 10
726.3238
 20
348.8240
 40
0.5000
 50
186.1501
 51
285.0000
  0
ARC
  8
0_00
  6
CONTINUOUS
 62
4
 10
729.3777
 20
346.5782
 40
0.5000
 50
86.0875
 51
165.0000
  0
ARC
  8
0_00
  6
CONTINUOUS
 62
4
 10
729.2069
 20
345.9409
 40
0.5000
 50
165.0000
 51
263.8499
  0
ARC
  8
0_00
  6
CONTINUOUS
 62
4
 10
729.5551
 20
349.1722
 40
3.7500
 50
263.8499
 51
300.3900
  0
ARC
  8
0_00
  6
CONTINUOUS
 62
4
 10
729.5551
 20
349.1722
 40
3.7500
 50
154.1960
 51
186.1501
  0
ARC
  8
0_00
  6
CONTINUOUS
 62
4
 10
729.5551
 20
349.1722
 40
2.1000
 50
65.9248
 51
114.0752
  0
ARC
  8
0_00
  6
CONTINUOUS
 62
4
 10
729.5551
 20
349.1722
 40
2.1000
 50
155.9248
 51
183.9125
  0
ARC
  8
0_00
  6
CONTINUOUS
 62
4
 10
729.5551
 20
349.1722
 40
2.1000
 50
266.0875
 51
294.0752
  0
ARC
  8
0_00
  6
CONTINUOUS
 62
4
 10
729.5551
 20
349.1722
 40
2.1000
 50
335.9248
 51
384.0752
  0
ARC
  8
0_00
  6
CONTINUOUS
 62
4
 10
710.5552
 20
349.1722
 40
2.1000
 50
356.0875
 51
384.0752
  0
ARC
  8
0_00
  6
CONTINUOUS
 62
4
 10
710.5552
 20
349.1722
 40
2.1000
 50
65.9248
 51
114.0752
  0
ARC
  8
0_00
  6
CONTINUOUS
 62
4
 10
710.5552
 20
349.1722
 40
2.1000
 50
155.9248
 51
204.0752
  0
ARC
  8
0_00
  6
CONTINUOUS
 62
4
 10
710.5552
 20
349.1722
 40
2.1000
 50
245.9248
 51
273.9125
  0
ARC
  8
12_0C
  6
CONTINUOUS
 62
2
 10
720.0551
 20
358.0616
 40
5.1605
 50
39.1846
 51
54.6973
  0
ARC
  8
12_0C
  6
CONTINUOUS
 62
2
 10
720.0551
 20
358.0616
 40
5.1605
 50
126.1964
 51
140.8154
  0
ARC
  8
12_0C
  6
CONTINUOUS
 62
2
 10
720.0551
 20
302.2827
 40
5.1605
 50
232.8002
 51
307.1998
  0
ARC
  8
12_0C
  6
CONTINUOUS
 62
2
 10
720.0551
 20
302.2827
 40
5.1605
 50
307.1998
 51
320.8154
  0
ARC
  8
12_0C
  6
CONTINUOUS
 62
2
 10
720.0551
 20
302.2827
 40
5.1605
 50
219.1846
 51
232.8002
  0
CIRCLE
  8
0_00
  6
CONTINUOUS
 62
2
 10
729.5551
 20
311.1721
 40
2.5000
  0
CIRCLE
  8
0_00
  6
CONTINUOUS
 62
2
 10
710.5552
 20
311.1721
 40
2.5000
  0
CIRCLE
  8
0_00
  6
CONTINUOUS
 62
2
 10
710.5552
 20
349.1722
 40
2.5000
  0
CIRCLE
  8
0_00
  6
CONTINUOUS
 62
2
 10
729.5551
 20
349.1722
 40
2.5000
  0
ARC
  8
0_00
  6
CONTINUOUS
 62
2
 10
682.5551
 20
302.6721
 40
8.5000
 50
143.9681
 51
396.0319
  0
ARC
  8
0_00
  6
CONTINUOUS
 62
2
 10
757.5551
 20
302.6721
 40
8.5000
 50
143.9681
 51
396.0319
  0
ARC
  8
0_00
  6
CONTINUOUS
 62
2
 10
682.5551
 20
357.6721
 40
8.5000
 50
323.9681
 51
576.0319
  0
ARC
  8
0_00
  6
CONTINUOUS
 62
2
 10
757.5551
 20
357.6721
 40
8.5000
 50
323.9681
 51
576.0319
  0
CIRCLE
  8
3_03
  6
CONTINUOUS
 62
2
 10
670.0551
 20
348.1722
 40
4.0000
  0
ARC
  8
3_03
  6
CONTINUOUS
 62
2
 10
670.0551
 20
348.1722
 40
2.0000
 50
306.1800
 51
323.8200
  0
ARC
  8
3_03
  6
CONTINUOUS
 62
2
 10
670.0551
 20
348.1722
 40
2.0000
 50
216.3201
 51
233.7932
  0
ARC
  8
3_03
  6
CONTINUOUS
 62
2
 10
670.0551
 20
348.1722
 40
2.0000
 50
126.2942
 51
143.8200
  0
ARC
  8
3_03
  6
CONTINUOUS
 62
2
 10
670.0551
 20
348.1722
 40
2.0000
 50
36.2068
 51
53.7932
  0
CIRCLE
  8
3_03
  6
CONTINUOUS
 62
2
 10
670.0551
 20
312.1721
 40
4.0000
  0
ARC
  8
3_03
  6
CONTINUOUS
 62
2
 10
670.0551
 20
312.1721
 40
2.0000
 50
306.1800
 51
323.8200
  0
ARC
  8
3_03
  6
CONTINUOUS
 62
2
 10
670.0551
 20
312.1721
 40
2.0000
 50
216.3201
 51
233.7932
  0
ARC
  8
3_03
  6
CONTINUOUS
 62
2
 10
670.0551
 20
312.1721
 40
2.0000
 50
126.2942
 51
143.8200
  0
ARC
  8
3_03
  6
CONTINUOUS
 62
2
 10
670.0551
 20
312.1721
 40
2.0000
 50
36.2068
 51
53.7932
  0
CIRCLE
  8
3_03
  6
CONTINUOUS
 62
2
 10
770.0551
 20
348.1722
 40
4.0000
  0
ARC
  8
3_03
  6
CONTINUOUS
 62
2
 10
770.0551
 20
348.1722
 40
2.0000
 50
216.1800
 51
233.8200
  0
ARC
  8
3_03
  6
CONTINUOUS
 62
2
 10
770.0551
 20
348.1722
 40
2.0000
 50
306.2068
 51
323.6800
  0
ARC
  8
3_03
  6
CONTINUOUS
 62
2
 10
770.0551
 20
348.1722
 40
2.0000
 50
36.1800
 51
53.7058
  0
ARC
  8
3_03
  6
CONTINUOUS
 62
2
 10
770.0551
 20
348.1722
 40
2.0000
 50
126.2068
 51
143.7932
  0
CIRCLE
  8
3_03
  6
CONTINUOUS
 62
2
 10
770.0551
 20
312.1721
 40
4.0000
  0
ARC
  8
3_03
  6
CONTINUOUS
 62
2
 10
770.0551
 20
312.1721
 40
2.0000
 50
216.1800
 51
233.8200
  0
ARC
  8
3_03
  6
CONTINUOUS
 62
2
 10
770.0551
 20
312.1721
 40
2.0000
 50
306.2068
 51
323.6800
  0
ARC
  8
3_03
  6
CONTINUOUS
 62
2
 10
770.0551
 20
312.1721
 40
2.0000
 50
36.1800
 51
53.7058
  0
ARC
  8
3_03
  6
CONTINUOUS
 62
2
 10
770.0551
 20
312.1721
 40
2.0000
 50
126.2068
 51
143.7932
  0
ARC
  8
0_00
  6
CONTINUOUS
 62
2
 10
720.0551
 20
309.7722
 40
7.7000
 50
219.9831
 51
320.0169
  0
ARC
  8
0_00
  6
CONTINUOUS
 62
2
 10
720.0363
 20
351.9717
 40
7.6428
 50
72.4111
 51
107.5889
  0
ARC
  8
0_00
  6
CONTINUOUS
 62
2
 10
720.0363
 20
364.1727
 40
7.6428
 50
252.4111
 51
287.5889
  0
ARC
  8
0_00
  6
CONTINUOUS
 62
2
 10
716.5722
 20
357.5698
 40
2.0447
 50
55.6111
 51
124.3889
  0
ARC
  8
0_00
  6
CONTINUOUS
 62
2
 10
723.5005
 20
357.5698
 40
2.0447
 50
55.6111
 51
124.3889
  0
ARC
  8
0_00
  6
CONTINUOUS
 62
2
 10
716.5722
 20
358.5746
 40
2.0447
 50
235.6111
 51
304.3889
  0
ARC
  8
0_00
  6
CONTINUOUS
 62
2
 10
723.5005
 20
358.5746
 40
2.0447
 50
235.6111
 51
304.3889
  0
ARC
  8
0_00
  6
CONTINUOUS
 62
2
 10
720.0363
 20
360.4722
 40
3.5000
 50
0.0000
 51
180.0000
  0
ARC
  8
0_00
  6
CONTINUOUS
 62
4
 10
808.0551
 20
333.3822
 40
6.0000
 50
165.0000
 51
180.0000
  0
ARC
  8
0_00
  6
CONTINUOUS
 62
4
 10
806.6347
 20
339.6721
 40
3.0000
 50
90.0000
 51
165.0000
  0
ARC
  8
0_00
  6
CONTINUOUS
 62
4
 10
817.4756
 20
339.6721
 40
3.0000
 50
15.0000
 51
90.0000
  0
ARC
  8
0_00
  6
CONTINUOUS
 62
4
 10
803.0551
 20
331.3596
 40
1.0000
 50
180.0000
 51
208.3576
  0
ARC
  8
0_00
  6
CONTINUOUS
 62
4
 10
800.8551
 20
330.1722
 40
1.5000
 50
331.6424
 51
388.3576
  0
ARC
  8
0_00
  6
CONTINUOUS
 62
4
 10
817.4756
 20
339.6721
 40
2.3000
 50
15.0000
 51
90.0000
  0
ARC
  8
0_00
  6
CONTINUOUS
 62
4
 10
806.6347
 20
339.6721
 40
2.3000
 50
90.0000
 51
165.0000
  0
ARC
  8
0_00
  6
CONTINUOUS
 62
4
 10
808.0551
 20
333.3822
 40
5.3000
 50
165.0000
 51
180.0000
  0
ARC
  8
0_00
  6
CONTINUOUS
 62
4
 10
808.0551
 20
326.9621
 40
6.0000
 50
180.0000
 51
195.0000
  0
ARC
  8
0_00
  6
CONTINUOUS
 62
4
 10
806.6347
 20
320.6722
 40
3.0000
 50
195.0000
 51
270.0000
  0
ARC
  8
0_00
  6
CONTINUOUS
 62
4
 10
817.4756
 20
320.6722
 40
3.0000
 50
270.0000
 51
345.0000
  0
ARC
  8
0_00
  6
CONTINUOUS
 62
4
 10
803.0551
 20
328.9847
 40
1.0000
 50
151.6424
 51
180.0000
  0
ARC
  8
0_00
  6
CONTINUOUS
 62
4
 10
800.8551
 20
330.1722
 40
1.5000
 50
331.6424
 51
388.3576
  0
ARC
  8
0_00
  6
CONTINUOUS
 62
4
 10
817.4756
 20
320.6722
 40
2.3000
 50
270.0000
 51
345.0000
  0
ARC
  8
0_00
  6
CONTINUOUS
 62
4
 10
806.6347
 20
320.6722
 40
2.3000
 50
195.0000
 51
270.0000
  0
ARC
  8
0_00
  6
CONTINUOUS
 62
4
 10
808.0551
 20
326.9621
 40
5.3000
 50
180.0000
 51
195.0000
  0
ARC
  8
0_00
  6
CONTINUOUS
 62
4
 10
800.8551
 20
330.1722
 40
2.2000
 50
329.7274
 51
390.2726
  0
ARC
  8
0_00
  6
CONTINUOUS
 62
4
 10
821.0552
 20
331.3596
 40
1.0000
 50
331.6424
 51
360.0000
  0
ARC
  8
0_00
  6
CONTINUOUS
 62
4
 10
816.0551
 20
333.3822
 40
6.0000
 50
0.0000
 51
15.0000
  0
ARC
  8
0_00
  6
CONTINUOUS
 62
4
 10
823.2552
 20
330.1722
 40
1.5000
 50
151.6424
 51
208.3576
  0
ARC
  8
0_00
  6
CONTINUOUS
 62
4
 10
818.5551
 20
330.1722
 40
2.1500
 50
68.1552
 51
111.8448
  0
ARC
  8
0_00
  6
CONTINUOUS
 62
4
 10
818.5551
 20
330.1722
 40
1.7000
 50
118.0725
 51
142.6303
  0
ARC
  8
0_00
  6
CONTINUOUS
 62
4
 10
818.5551
 20
330.1722
 40
1.7000
 50
38.6269
 51
61.9275
  0
ARC
  8
0_00
  6
CONTINUOUS
 62
4
 10
820.1176
 20
331.4207
 40
0.3000
 50
218.6269
 51
300.0000
  0
ARC
  8
0_00
  6
CONTINUOUS
 62
4
 10
818.5551
 20
330.1722
 40
3.2000
 50
51.5653
 51
90.0000
  0
ARC
  8
0_00
  6
CONTINUOUS
 62
4
 10
818.5551
 20
331.5722
 40
1.8000
 50
90.0000
 51
180.0000
  0
ARC
  8
0_00
  6
CONTINUOUS
 62
4
 10
820.8552
 20
333.0704
 40
0.5000
 50
231.5654
 51
360.0000
  0
ARC
  8
0_00
  6
CONTINUOUS
 62
4
 10
817.0053
 20
331.3558
 40
0.2501
 50
180.0000
 51
322.6303
  0
ARC
  8
0_00
  6
CONTINUOUS
 62
4
 10
820.7758
 20
331.1079
 40
0.3000
 50
339.3231
 51
480.0000
  0
ARC
  8
0_00
  6
CONTINUOUS
 62
4
 10
821.0552
 20
328.9847
 40
1.0000
 50
0.0000
 51
28.3576
  0
ARC
  8
0_00
  6
CONTINUOUS
 62
4
 10
816.0551
 20
326.9621
 40
6.0000
 50
345.0000
 51
360.0000
  0
ARC
  8
0_00
  6
CONTINUOUS
 62
4
 10
820.7758
 20
329.2364
 40
0.3000
 50
240.0000
 51
380.6769
  0
ARC
  8
0_00
  6
CONTINUOUS
 62
4
 10
816.0551
 20
333.3822
 40
5.3000
 50
0.0000
 51
15.0000
  0
ARC
  8
0_00
  6
CONTINUOUS
 62
4
 10
820.8552
 20
327.2739
 40
0.5000
 50
0.0000
 51
128.4346
  0
ARC
  8
0_00
  6
CONTINUOUS
 62
4
 10
816.0551
 20
326.9621
 40
5.3000
 50
345.0000
 51
360.0000
  0
ARC
  8
0_00
  6
CONTINUOUS
 62
4
 10
823.2552
 20
330.1722
 40
2.3500
 50
159.3231
 51
200.6769
  0
ARC
  8
0_00
  6
CONTINUOUS
 62
4
 10
818.5551
 20
330.1722
 40
2.1500
 50
248.1552
 51
291.8448
  0
ARC
  8
0_00
  6
CONTINUOUS
 62
4
 10
818.5551
 20
330.1722
 40
1.7000
 50
217.3697
 51
241.9275
  0
ARC
  8
0_00
  6
CONTINUOUS
 62
4
 10
818.5551
 20
330.1722
 40
1.7000
 50
298.0725
 51
321.3731
  0
ARC
  8
0_00
  6
CONTINUOUS
 62
4
 10
820.1176
 20
328.9237
 40
0.3000
 50
60.0000
 51
141.3731
  0
ARC
  8
0_00
  6
CONTINUOUS
 62
4
 10
818.5551
 20
330.1722
 40
3.2000
 50
270.0000
 51
308.4347
  0
ARC
  8
0_00
  6
CONTINUOUS
 62
4
 10
818.5551
 20
328.7722
 40
1.8000
 50
180.0000
 51
270.0000
  0
ARC
  8
0_00
  6
CONTINUOUS
 62
4
 10
817.0053
 20
328.9885
 40
0.2501
 50
37.3697
 51
180.0000
  0
ARC
  8
0_00
  6
CONTINUOUS
 62
4
 10
624.0551
 20
333.3822
 40
6.0000
 50
165.0000
 51
180.0000
  0
ARC
  8
0_00
  6
CONTINUOUS
 62
4
 10
622.6347
 20
339.6721
 40
3.0000
 50
90.0000
 51
165.0000
  0
ARC
  8
0_00
  6
CONTINUOUS
 62
4
 10
633.4756
 20
339.6721
 40
3.0000
 50
15.0000
 51
90.0000
  0
ARC
  8
0_00
  6
CONTINUOUS
 62
4
 10
619.0551
 20
331.3596
 40
1.0000
 50
180.0000
 51
208.3576
  0
ARC
  8
0_00
  6
CONTINUOUS
 62
4
 10
616.8551
 20
330.1722
 40
1.5000
 50
331.6424
 51
388.3576
  0
ARC
  8
0_00
  6
CONTINUOUS
 62
4
 10
633.4756
 20
339.6721
 40
2.3000
 50
15.0000
 51
90.0000
  0
ARC
  8
0_00
  6
CONTINUOUS
 62
4
 10
622.6347
 20
339.6721
 40
2.3000
 50
90.0000
 51
165.0000
  0
ARC
  8
0_00
  6
CONTINUOUS
 62
4
 10
624.0551
 20
333.3822
 40
5.3000
 50
165.0000
 51
180.0000
  0
ARC
  8
0_00
  6
CONTINUOUS
 62
4
 10
624.0551
 20
326.9621
 40
6.0000
 50
180.0000
 51
195.0000
  0
ARC
  8
0_00
  6
CONTINUOUS
 62
4
 10
622.6347
 20
320.6722
 40
3.0000
 50
195.0000
 51
270.0000
  0
ARC
  8
0_00
  6
CONTINUOUS
 62
4
 10
633.4756
 20
320.6722
 40
3.0000
 50
270.0000
 51
345.0000
  0
ARC
  8
0_00
  6
CONTINUOUS
 62
4
 10
619.0551
 20
328.9847
 40
1.0000
 50
151.6424
 51
180.0000
  0
ARC
  8
0_00
  6
CONTINUOUS
 62
4
 10
616.8551
 20
330.1722
 40
1.5000
 50
331.6424
 51
388.3576
  0
ARC
  8
0_00
  6
CONTINUOUS
 62
4
 10
633.4756
 20
320.6722
 40
2.3000
 50
270.0000
 51
345.0000
  0
ARC
  8
0_00
  6
CONTINUOUS
 62
4
 10
622.6347
 20
320.6722
 40
2.3000
 50
195.0000
 51
270.0000
  0
ARC
  8
0_00
  6
CONTINUOUS
 62
4
 10
624.0551
 20
326.9621
 40
5.3000
 50
180.0000
 51
195.0000
  0
ARC
  8
0_00
  6
CONTINUOUS
 62
4
 10
616.8551
 20
330.1722
 40
2.2000
 50
329.7274
 51
390.2726
  0
ARC
  8
0_00
  6
CONTINUOUS
 62
4
 10
637.0551
 20
331.3596
 40
1.0000
 50
331.6424
 51
360.0000
  0
ARC
  8
0_00
  6
CONTINUOUS
 62
4
 10
632.0551
 20
333.3822
 40
6.0000
 50
0.0000
 51
15.0000
  0
ARC
  8
0_00
  6
CONTINUOUS
 62
4
 10
639.2552
 20
330.1722
 40
1.5000
 50
151.6424
 51
208.3576
  0
ARC
  8
0_00
  6
CONTINUOUS
 62
4
 10
634.5551
 20
330.1722
 40
2.1500
 50
68.1552
 51
111.8448
  0
ARC
  8
0_00
  6
CONTINUOUS
 62
4
 10
634.5551
 20
330.1722
 40
1.7000
 50
118.0725
 51
142.6303
  0
ARC
  8
0_00
  6
CONTINUOUS
 62
4
 10
634.5551
 20
330.1722
 40
1.7000
 50
38.6269
 51
61.9275
  0
ARC
  8
0_00
  6
CONTINUOUS
 62
4
 10
636.1176
 20
331.4207
 40
0.3000
 50
218.6269
 51
300.0000
  0
ARC
  8
0_00
  6
CONTINUOUS
 62
4
 10
634.5551
 20
330.1722
 40
3.2000
 50
51.5653
 51
90.0000
  0
ARC
  8
0_00
  6
CONTINUOUS
 62
4
 10
634.5551
 20
331.5722
 40
1.8000
 50
90.0000
 51
180.0000
  0
ARC
  8
0_00
  6
CONTINUOUS
 62
4
 10
636.8551
 20
333.0704
 40
0.5000
 50
231.5654
 51
360.0000
  0
ARC
  8
0_00
  6
CONTINUOUS
 62
4
 10
633.0052
 20
331.3558
 40
0.2501
 50
180.0000
 51
322.6303
  0
ARC
  8
0_00
  6
CONTINUOUS
 62
4
 10
636.7758
 20
331.1079
 40
0.3000
 50
339.3231
 51
480.0000
  0
ARC
  8
0_00
  6
CONTINUOUS
 62
4
 10
637.0551
 20
328.9847
 40
1.0000
 50
0.0000
 51
28.3576
  0
ARC
  8
0_00
  6
CONTINUOUS
 62
4
 10
632.0551
 20
326.9621
 40
6.0000
 50
345.0000
 51
360.0000
  0
ARC
  8
0_00
  6
CONTINUOUS
 62
4
 10
636.7758
 20
329.2364
 40
0.3000
 50
240.0000
 51
380.6769
  0
ARC
  8
0_00
  6
CONTINUOUS
 62
4
 10
632.0551
 20
333.3822
 40
5.3000
 50
0.0000
 51
15.0000
  0
ARC
  8
0_00
  6
CONTINUOUS
 62
4
 10
636.8551
 20
327.2739
 40
0.5000
 50
0.0000
 51
128.4346
  0
ARC
  8
0_00
  6
CONTINUOUS
 62
4
 10
632.0551
 20
326.9621
 40
5.3000
 50
345.0000
 51
360.0000
  0
ARC
  8
0_00
  6
CONTINUOUS
 62
4
 10
639.2552
 20
330.1722
 40
2.3500
 50
159.3231
 51
200.6769
  0
ARC
  8
0_00
  6
CONTINUOUS
 62
4
 10
634.5551
 20
330.1722
 40
2.1500
 50
248.1552
 51
291.8448
  0
ARC
  8
0_00
  6
CONTINUOUS
 62
4
 10
634.5551
 20
330.1722
 40
1.7000
 50
217.3697
 51
241.9275
  0
ARC
  8
0_00
  6
CONTINUOUS
 62
4
 10
634.5551
 20
330.1722
 40
1.7000
 50
298.0725
 51
321.3731
  0
ARC
  8
0_00
  6
CONTINUOUS
 62
4
 10
636.1176
 20
328.9237
 40
0.3000
 50
60.0000
 51
141.3731
  0
ARC
  8
0_00
  6
CONTINUOUS
 62
4
 10
634.5551
 20
330.1722
 40
3.2000
 50
270.0000
 51
308.4347
  0
ARC
  8
0_00
  6
CONTINUOUS
 62
4
 10
634.5551
 20
328.7722
 40
1.8000
 50
180.0000
 51
270.0000
  0
ARC
  8
0_00
  6
CONTINUOUS
 62
4
 10
633.0052
 20
328.9885
 40
0.2501
 50
37.3697
 51
180.0000
  0
CIRCLE
  8
0_00
  6
CONTINUOUS
 62
2
 10
396.4358
 20
199.5028
 40
0.1000
  0
CIRCLE
  8
0_00
  6
CONTINUOUS
 62
2
 10
403.5449
 20
204.1392
 40
0.1000
  0
CIRCLE
  8
0_00
  6
CONTINUOUS
 62
2
 10
406.6358
 20
196.7210
 40
0.1000
  0
CIRCLE
  8
0_00
  6
CONTINUOUS
 62
2
 10
399.8358
 20
195.1755
 40
0.1000
  0
CIRCLE
  8
0_00
  6
CONTINUOUS
 62
2
 10
408.4903
 20
207.2301
 40
0.1000
  0
CIRCLE
  8
0_00
  6
CONTINUOUS
 62
2
 10
398.2903
 20
211.8665
 40
0.1000
  0
CIRCLE
  8
0_00
  6
CONTINUOUS
 62
2
 10
396.7448
 20
205.3755
 40
0.1000
  0
CIRCLE
  8
0_00
  6
CONTINUOUS
 62
2
 10
405.0904
 20
214.6483
 40
0.1000
  0
CIRCLE
  8
0_00
  6
CONTINUOUS
 62
2
 10
397.6721
 20
223.3029
 40
0.1000
  0
CIRCLE
  8
0_00
  6
CONTINUOUS
 62
2
 10
396.7448
 20
217.7392
 40
0.1000
  0
CIRCLE
  8
0_00
  6
CONTINUOUS
 62
2
 10
403.8540
 20
221.1392
 40
0.1000
  0
CIRCLE
  8
0_00
  6
CONTINUOUS
 62
2
 10
410.0358
 20
227.9392
 40
0.1000
  0
CIRCLE
  8
0_00
  6
CONTINUOUS
 62
2
 10
409.1085
 20
217.7392
 40
0.1000
  0
CIRCLE
  8
0_00
  6
CONTINUOUS
 62
2
 10
405.7085
 20
227.0120
 40
0.1000
  0
CIRCLE
  8
0_00
  6
CONTINUOUS
 62
2
 10
399.8358
 20
232.2665
 40
0.1000
  0
CIRCLE
  8
0_00
  6
CONTINUOUS
 62
2
 10
396.1267
 20
240.9211
 40
0.1000
  0
CIRCLE
  8
0_00
  6
CONTINUOUS
 62
2
 10
396.1267
 20
231.0302
 40
0.1000
  0
CIRCLE
  8
0_00
  6
CONTINUOUS
 62
2
 10
402.9267
 20
240.6120
 40
0.1000
  0
CIRCLE
  8
0_00
  6
CONTINUOUS
 62
2
 10
409.1085
 20
235.0484
 40
0.1000
  0
CIRCLE
  8
0_00
  6
CONTINUOUS
 62
2
 10
409.1085
 20
247.7211
 40
0.1000
  0
CIRCLE
  8
0_00
  6
CONTINUOUS
 62
2
 10
405.0904
 20
234.1211
 40
0.1000
  0
CIRCLE
  8
0_00
  6
CONTINUOUS
 62
2
 10
406.0176
 20
246.1757
 40
0.1000
  0
CIRCLE
  8
0_00
  6
CONTINUOUS
 62
2
 10
400.4540
 20
252.9757
 40
0.1000
  0
CIRCLE
  8
0_00
  6
CONTINUOUS
 62
2
 10
394.8903
 20
246.7938
 40
0.1000
  0
CIRCLE
  8
0_00
  6
CONTINUOUS
 62
2
 10
398.9085
 20
247.1029
 40
0.1000
  0
CIRCLE
  8
0_00
  6
CONTINUOUS
 62
2
 10
397.9813
 20
260.3939
 40
0.1000
  0
CIRCLE
  8
0_00
  6
CONTINUOUS
 62
2
 10
401.0721
 20
263.4848
 40
0.1000
  0
CIRCLE
  8
0_00
  6
CONTINUOUS
 62
2
 10
408.7994
 20
256.3757
 40
0.1000
  0
CIRCLE
  8
0_00
  6
CONTINUOUS
 62
2
 10
406.3267
 20
259.4666
 40
0.1000
  0
CIRCLE
  8
0_00
  6
CONTINUOUS
 62
2
 10
406.0176
 20
250.8120
 40
0.1000
  0
CIRCLE
  8
0_00
  6
CONTINUOUS
 62
2
 10
395.8176
 20
253.2848
 40
0.1000
  0
CIRCLE
  8
0_00
  6
CONTINUOUS
 62
2
 10
396.2033
 20
268.3365
 40
0.1000
  0
CIRCLE
  8
0_00
  6
CONTINUOUS
 62
2
 10
394.5812
 20
278.0121
 40
0.1000
  0
CIRCLE
  8
0_00
  6
CONTINUOUS
 62
2
 10
386.2358
 20
272.4485
 40
0.1000
  0
CIRCLE
  8
0_00
  6
CONTINUOUS
 62
2
 10
386.2358
 20
277.7030
 40
0.1000
  0
CIRCLE
  8
0_00
  6
CONTINUOUS
 62
2
 10
378.1994
 20
275.5394
 40
0.1000
  0
CIRCLE
  8
0_00
  6
CONTINUOUS
 62
2
 10
376.3448
 20
271.2121
 40
0.1000
  0
CIRCLE
  8
0_00
  6
CONTINUOUS
 62
2
 10
366.4539
 20
274.6121
 40
0.1000
  0
CIRCLE
  8
0_00
  6
CONTINUOUS
 62
2
 10
367.9993
 20
280.1758
 40
0.1000
  0
CIRCLE
  8
0_00
  6
CONTINUOUS
 62
2
 10
375.7266
 20
276.4667
 40
0.1000
  0
CIRCLE
  8
0_00
  6
CONTINUOUS
 62
2
 10
394.8903
 20
274.3030
 40
0.1000
  0
CIRCLE
  8
0_00
  6
CONTINUOUS
 62
2
 10
401.3812
 20
272.1394
 40
0.1000
  0
CIRCLE
  8
0_00
  6
CONTINUOUS
 62
2
 10
407.5631
 20
266.2666
 40
0.1000
  0
CIRCLE
  8
0_00
  6
CONTINUOUS
 62
2
 10
361.8175
 20
271.2121
 40
0.1000
  0
CIRCLE
  8
0_00
  6
CONTINUOUS
 62
2
 10
359.9629
 20
277.0848
 40
0.1000
  0
CIRCLE
  8
0_00
  6
CONTINUOUS
 62
2
 10
352.8538
 20
275.8485
 40
0.1000
  0
CIRCLE
  8
0_00
  6
CONTINUOUS
 62
2
 10
350.4533
 20
283.3365
 40
0.1000
  0
CIRCLE
  8
0_00
  6
CONTINUOUS
 62
2
 10
341.7265
 20
276.1576
 40
0.1000
  0
CIRCLE
  8
0_00
  6
CONTINUOUS
 62
2
 10
336.1629
 20
272.4485
 40
0.1000
  0
CIRCLE
  8
0_00
  6
CONTINUOUS
 62
2
 10
351.3063
 20
270.8215
 40
0.1000
  0
CIRCLE
  8
0_00
  6
CONTINUOUS
 62
2
 10
348.5265
 20
278.6303
 40
0.1000
  0
CIRCLE
  8
0_00
  6
CONTINUOUS
 62
2
 10
369.2357
 20
271.8303
 40
0.1000
  0
CIRCLE
  8
0_00
  6
CONTINUOUS
 62
2
 10
376.0357
 20
279.5576
 40
0.1000
  0
CIRCLE
  8
0_00
  6
CONTINUOUS
 62
2
 10
337.7083
 20
278.9394
 40
0.1000
  0
CIRCLE
  8
0_00
  6
CONTINUOUS
 62
2
 10
328.7447
 20
273.6848
 40
0.1000
  0
CIRCLE
  8
0_00
  6
CONTINUOUS
 62
2
 10
326.2719
 20
280.4849
 40
0.1000
  0
CIRCLE
  8
0_00
  6
CONTINUOUS
 62
2
 10
317.6173
 20
278.0121
 40
0.1000
  0
CIRCLE
  8
0_00
  6
CONTINUOUS
 62
2
 10
315.4537
 20
270.5939
 40
0.1000
  0
CIRCLE
  8
0_00
  6
CONTINUOUS
 62
2
 10
310.1991
 20
274.6121
 40
0.1000
  0
CIRCLE
  8
0_00
  6
CONTINUOUS
 62
2
 10
305.5628
 20
279.2485
 40
0.1000
  0
CIRCLE
  8
0_00
  6
CONTINUOUS
 62
2
 10
296.6368
 20
271.2154
 40
0.1000
  0
CIRCLE
  8
0_00
  6
CONTINUOUS
 62
2
 10
300.3082
 20
279.5576
 40
0.1000
  0
CIRCLE
  8
0_00
  6
CONTINUOUS
 62
2
 10
301.5446
 20
273.0667
 40
0.1000
  0
CIRCLE
  8
0_00
  6
CONTINUOUS
 62
2
 10
324.7264
 20
273.0667
 40
0.1000
  0
CIRCLE
  8
0_00
  6
CONTINUOUS
 62
2
 10
293.2033
 20
275.3365
 40
0.1000
  0
CIRCLE
  8
0_00
  6
CONTINUOUS
 62
2
 10
289.7033
 20
271.4035
 40
0.1000
  0
CIRCLE
  8
0_00
  6
CONTINUOUS
 62
2
 10
285.7809
 20
277.0848
 40
0.1000
  0
CIRCLE
  8
0_00
  6
CONTINUOUS
 62
2
 10
280.8354
 20
269.9757
 40
0.1000
  0
CIRCLE
  8
0_00
  6
CONTINUOUS
 62
2
 10
277.4354
 20
274.9212
 40
0.1000
  0
CIRCLE
  8
0_00
  6
CONTINUOUS
 62
2
 10
262.2899
 20
274.6121
 40
0.1000
  0
CIRCLE
  8
0_00
  6
CONTINUOUS
 62
2
 10
257.3444
 20
272.4485
 40
0.1000
  0
CIRCLE
  8
0_00
  6
CONTINUOUS
 62
2
 10
258.2717
 20
278.6303
 40
0.1000
  0
CIRCLE
  8
0_00
  6
CONTINUOUS
 62
2
 10
246.8353
 20
276.4667
 40
0.1000
  0
CIRCLE
  8
0_00
  6
CONTINUOUS
 62
2
 10
242.5080
 20
271.8303
 40
0.1000
  0
CIRCLE
  8
0_00
  6
CONTINUOUS
 62
2
 10
246.2033
 20
268.3365
 40
0.1000
  0
CIRCLE
  8
0_00
  6
CONTINUOUS
 62
2
 10
235.7080
 20
259.7757
 40
0.1000
  0
CIRCLE
  8
0_00
  6
CONTINUOUS
 62
2
 10
241.8898
 20
252.3575
 40
0.1000
  0
CIRCLE
  8
0_00
  6
CONTINUOUS
 62
2
 10
240.6534
 20
261.6303
 40
0.1000
  0
CIRCLE
  8
0_00
  6
CONTINUOUS
 62
2
 10
270.9445
 20
279.2485
 40
0.1000
  0
CIRCLE
  8
0_00
  6
CONTINUOUS
 62
2
 10
270.6354
 20
272.7576
 40
0.1000
  0
CIRCLE
  8
0_00
  6
CONTINUOUS
 62
2
 10
280.8354
 20
278.3212
 40
0.1000
  0
CIRCLE
  8
0_00
  6
CONTINUOUS
 62
2
 10
245.2898
 20
241.5393
 40
0.1000
  0
CIRCLE
  8
0_00
  6
CONTINUOUS
 62
2
 10
238.7989
 20
224.2301
 40
0.1000
  0
CIRCLE
  8
0_00
  6
CONTINUOUS
 62
2
 10
237.2535
 20
212.7937
 40
0.1000
  0
CIRCLE
  8
0_00
  6
CONTINUOUS
 62
2
 10
243.4353
 20
203.8301
 40
0.1000
  0
CIRCLE
  8
0_00
  6
CONTINUOUS
 62
2
 10
239.4171
 20
198.5755
 40
0.1000
  0
CIRCLE
  8
0_00
  6
CONTINUOUS
 62
2
 10
235.7080
 20
196.4119
 40
0.1000
  0
CIRCLE
  8
0_00
  6
CONTINUOUS
 62
2
 10
243.4353
 20
194.5573
 40
0.1000
  0
CIRCLE
  8
0_00
  6
CONTINUOUS
 62
2
 10
243.4353
 20
213.7210
 40
0.1000
  0
CIRCLE
  8
0_00
  6
CONTINUOUS
 62
2
 10
246.2171
 20
229.4847
 40
0.1000
  0
CIRCLE
  8
0_00
  6
CONTINUOUS
 62
2
 10
237.2535
 20
237.2120
 40
0.1000
  0
CIRCLE
  8
0_00
  6
CONTINUOUS
 62
2
 10
235.3989
 20
232.2665
 40
0.1000
  0
CIRCLE
  8
0_00
  6
CONTINUOUS
 62
2
 10
234.7807
 20
248.3393
 40
0.1000
  0
CIRCLE
  8
0_00
  6
CONTINUOUS
 62
2
 10
238.1807
 20
247.1029
 40
0.1000
  0
CIRCLE
  8
0_00
  6
CONTINUOUS
 62
2
 10
246.5262
 20
259.1575
 40
0.1000
  0
CIRCLE
  8
0_00
  6
CONTINUOUS
 62
2
 10
238.4898
 20
266.8848
 40
0.1000
  0
CIRCLE
  8
0_00
  6
CONTINUOUS
 62
2
 10
234.4716
 20
265.6485
 40
0.1000
  0
CIRCLE
  8
0_00
  6
CONTINUOUS
 62
2
 10
246.5262
 20
248.0302
 40
0.1000
  0
CIRCLE
  8
0_00
  6
CONTINUOUS
 62
2
 10
242.5080
 20
233.1938
 40
0.1000
  0
CIRCLE
  8
0_00
  6
CONTINUOUS
 62
2
 10
234.4716
 20
218.6665
 40
0.1000
  0
CIRCLE
  8
0_00
  6
CONTINUOUS
 62
2
 10
246.2171
 20
220.5210
 40
0.1000
  0
CIRCLE
  8
0_00
  6
CONTINUOUS
 62
2
 10
242.1989
 20
218.6665
 40
0.1000
  0
CIRCLE
  8
0_00
  6
CONTINUOUS
 62
2
 10
233.8534
 20
204.7574
 40
0.1000
  0
CIRCLE
  8
0_00
  6
CONTINUOUS
 62
2
 10
239.1080
 20
203.5210
 40
0.1000
  0
CIRCLE
  8
0_00
  6
CONTINUOUS
 62
2
 10
253.3262
 20
278.3212
 40
0.1000
  0
CIRCLE
  8
0_00
  6
CONTINUOUS
 62
2
 10
252.7080
 20
273.9939
 40
0.1000
  0
CIRCLE
  8
0_00
  6
CONTINUOUS
 62
2
 10
249.9262
 20
271.8303
 40
0.1000
  0
CIRCLE
  8
0_00
  6
CONTINUOUS
 62
2
 10
266.9263
 20
278.9394
 40
0.1000
  0
CIRCLE
  8
0_00
  6
CONTINUOUS
 62
2
 10
233.2353
 20
241.5393
 40
0.1000
  0
ARC
  8
0_00
  6
CONTINUOUS
 62
4
 10
321.2033
 20
528.5099
 40
201.6001
 50
82.9521
 51
97.0479
  0
ARC
  8
0_00
  6
CONTINUOUS
 62
4
 10
297.2032
 20
722.6320
 40
6.0000
 50
97.0479
 51
180.0001
  0
ARC
  8
0_00
  6
CONTINUOUS
 62
4
 10
345.2033
 20
722.6320
 40
6.0000
 50
359.9999
 51
442.9521
  0
ARC
  8
14_0E
  6
CONTINUOUS
 62
4
 10
321.2033
 20
528.5099
 40
200.0000
 50
82.8930
 51
97.1069
  0
ARC
  8
14_0E
  6
CONTINUOUS
 62
4
 10
297.0033
 20
722.6072
 40
4.4000
 50
97.1069
 51
180.0000
  0
ARC
  8
14_0E
  6
CONTINUOUS
 62
4
 10
345.4033
 20
722.6072
 40
4.4000
 50
0.0000
 51
82.8930
  0
ARC
  8
0_00
  6
CONTINUOUS
 62
4
 10
350.5032
 20
683.8099
 40
0.7000
 50
179.9999
 51
359.9999
  0
ARC
  8
0_00
  6
CONTINUOUS
 62
4
 10
291.9027
 20
683.8099
 40
0.7000
 50
180.0001
 51
360.0001
  0
ARC
  8
0_00
  6
CONTINUOUS
 62
4
 10
346.5310
 20
686.7099
 40
0.6000
 50
270.0000
 51
388.8667
  0
ARC
  8
0_00
  6
CONTINUOUS
 62
4
 10
335.2156
 20
686.5099
 40
0.4000
 50
194.0362
 51
270.0000
  0
ARC
  8
0_00
  6
CONTINUOUS
 62
4
 10
334.2665
 20
687.4199
 40
0.3000
 50
14.0362
 51
87.5372
  0
ARC
  8
0_00
  6
CONTINUOUS
 62
4
 10
307.1909
 20
686.5099
 40
0.4000
 50
270.0000
 51
345.9637
  0
ARC
  8
0_00
  6
CONTINUOUS
 62
4
 10
308.1400
 20
687.4199
 40
0.3000
 50
92.4628
 51
165.9638
  0
ARC
  8
0_00
  6
CONTINUOUS
 62
4
 10
349.4533
 20
689.3617
 40
0.3000
 50
275.0000
 51
371.6000
  0
ARC
  8
0_00
  6
CONTINUOUS
 62
4
 10
348.6533
 20
688.6392
 40
0.3500
 50
95.0000
 51
185.0988
  0
ARC
  8
0_00
  6
CONTINUOUS
 62
4
 10
347.6033
 20
688.9991
 40
1.0000
 50
95.0000
 51
180.0000
  0
ARC
  8
0_00
  6
CONTINUOUS
 62
4
 10
348.3280
 20
690.3675
 40
0.3000
 50
275.0000
 51
371.6000
  0
ARC
  8
0_00
  6
CONTINUOUS
 62
4
 10
348.6012
 20
694.0100
 40
0.7000
 50
90.0000
 51
191.6000
  0
ARC
  8
0_00
  6
CONTINUOUS
 62
4
 10
350.2967
 20
688.7859
 40
2.0000
 50
185.0988
 51
249.7122
  0
ARC
  8
0_00
  6
CONTINUOUS
 62
4
 10
350.2967
 20
688.7859
 40
3.7000
 50
183.4043
 51
208.8667
  0
ARC
  8
0_00
  6
CONTINUOUS
 62
4
 10
295.8755
 20
686.7099
 40
0.6000
 50
151.1333
 51
270.0000
  0
ARC
  8
0_00
  6
CONTINUOUS
 62
4
 10
292.9533
 20
689.3617
 40
0.3000
 50
168.4000
 51
265.0000
  0
ARC
  8
0_00
  6
CONTINUOUS
 62
4
 10
293.7532
 20
688.6392
 40
0.3500
 50
354.9012
 51
445.0000
  0
ARC
  8
0_00
  6
CONTINUOUS
 62
4
 10
294.8033
 20
688.9991
 40
1.0000
 50
0.0000
 51
85.0000
  0
ARC
  8
0_00
  6
CONTINUOUS
 62
4
 10
294.0785
 20
690.3675
 40
0.3000
 50
168.4000
 51
265.0000
  0
ARC
  8
0_00
  6
CONTINUOUS
 62
4
 10
293.8053
 20
694.0100
 40
0.7000
 50
348.4000
 51
450.0000
  0
ARC
  8
0_00
  6
CONTINUOUS
 62
4
 10
292.1098
 20
688.7859
 40
2.0000
 50
290.2878
 51
354.9012
  0
ARC
  8
0_00
  6
CONTINUOUS
 62
4
 10
292.1098
 20
688.7859
 40
3.7000
 50
331.1333
 51
356.5957
  0
ARC
  8
0_00
  6
CONTINUOUS
 62
4
 10
349.4032
 20
694.4338
 40
0.4000
 50
0.0000
 51
90.0000
  0
ARC
  8
0_00
  6
CONTINUOUS
 62
4
 10
349.4032
 20
696.2337
 40
0.4000
 50
270.0000
 51
359.9999
  0
ARC
  8
0_00
  6
CONTINUOUS
 62
4
 10
346.8032
 20
695.3338
 40
0.5000
 50
90.0000
 51
180.0000
  0
ARC
  8
0_00
  6
CONTINUOUS
 62
4
 10
346.5032
 20
694.2337
 40
0.2000
 50
180.0000
 51
270.0000
  0
ARC
  8
0_00
  6
CONTINUOUS
 62
4
 10
346.5032
 20
694.6337
 40
0.6000
 50
270.0000
 51
360.0000
  0
ARC
  8
0_00
  6
CONTINUOUS
 62
4
 10
348.7532
 20
688.5906
 40
0.3500
 50
95.0000
 51
190.8317
  0
ARC
  8
14_0E
  6
CONTINUOUS
 62
4
 10
350.3738
 20
688.9007
 40
2.0000
 50
190.8317
 51
253.4226
  0
ARC
  8
0_00
  6
CONTINUOUS
 62
4
 10
349.4032
 20
689.4003
 40
0.4000
 50
275.0000
 51
371.4000
  0
ARC
  8
0_00
  6
CONTINUOUS
 62
4
 10
349.5246
 20
691.8338
 40
0.2000
 50
90.0000
 51
191.4000
  0
ARC
  8
0_00
  6
CONTINUOUS
 62
4
 10
293.0027
 20
694.4338
 40
0.4000
 50
90.0000
 51
180.0000
  0
ARC
  8
0_00
  6
CONTINUOUS
 62
4
 10
293.0027
 20
696.2337
 40
0.4000
 50
183.0566
 51
270.0000
  0
ARC
  8
0_00
  6
CONTINUOUS
 62
4
 10
295.6027
 20
695.3338
 40
0.5000
 50
0.0000
 51
90.0000
  0
ARC
  8
0_00
  6
CONTINUOUS
 62
4
 10
295.9027
 20
694.2337
 40
0.2000
 50
270.0000
 51
360.0000
  0
ARC
  8
0_00
  6
CONTINUOUS
 62
4
 10
295.9027
 20
694.6337
 40
0.6000
 50
180.0000
 51
270.0000
  0
ARC
  8
0_00
  6
CONTINUOUS
 62
4
 10
293.6527
 20
688.5906
 40
0.3500
 50
349.1683
 51
445.0000
  0
ARC
  8
14_0E
  6
CONTINUOUS
 62
4
 10
292.0321
 20
688.9007
 40
2.0000
 50
286.5774
 51
349.1683
  0
ARC
  8
0_00
  6
CONTINUOUS
 62
4
 10
293.0027
 20
689.4003
 40
0.4000
 50
168.6000
 51
265.0000
  0
ARC
  8
0_00
  6
CONTINUOUS
 62
4
 10
292.8813
 20
691.8338
 40
0.2000
 50
348.6000
 51
450.0000
  0
ARC
  8
12_0C
  6
CONTINUOUS
 62
2
 10
341.4033
 20
687.2799
 40
1.3000
 50
0.0000
 51
73.3778
  0
ARC
  8
12_0C
  6
CONTINUOUS
 62
2
 10
339.2033
 20
679.9099
 40
9.0000
 50
73.3790
 51
106.6667
  0
ARC
  8
12_0C
  6
CONTINUOUS
 62
2
 10
337.0032
 20
687.2799
 40
1.3000
 50
106.6222
 51
180.0000
  0
ARC
  8
12_0C
  6
CONTINUOUS
 62
2
 10
305.4033
 20
687.2799
 40
1.3000
 50
0.0000
 51
73.3778
  0
ARC
  8
12_0C
  6
CONTINUOUS
 62
2
 10
303.2033
 20
679.9099
 40
9.0000
 50
73.3790
 51
106.6667
  0
ARC
  8
12_0C
  6
CONTINUOUS
 62
2
 10
301.0032
 20
687.2799
 40
1.3000
 50
106.6222
 51
180.0000
  0
ARC
  8
12_0C
  6
CONTINUOUS
 62
2
 10
323.4033
 20
689.0799
 40
1.3000
 50
0.0000
 51
73.3778
  0
ARC
  8
12_0C
  6
CONTINUOUS
 62
2
 10
321.2033
 20
681.7099
 40
9.0000
 50
73.3790
 51
106.6667
  0
ARC
  8
12_0C
  6
CONTINUOUS
 62
2
 10
319.0033
 20
689.0799
 40
1.3000
 50
106.6222
 51
180.0000
  0
ARC
  8
2_02
  6
CONTINUOUS
 62
4
 10
323.7033
 20
283.8365
 40
1.0000
 50
0.0000
 51
90.0000
  0
ARC
  8
2_02
  6
CONTINUOUS
 62
4
 10
318.7033
 20
283.8365
 40
1.0000
 50
90.0000
 51
180.0000
  0
ARC
  8
0_00
  6
CONTINUOUS
 62
4
 10
575.6861
 20
696.2539
 40
0.4000
 50
194.0362
 51
270.0000
  0
ARC
  8
0_00
  6
CONTINUOUS
 62
4
 10
574.7370
 20
697.1637
 40
0.3000
 50
14.0362
 51
87.5372
  0
ARC
  8
0_00
  6
CONTINUOUS
 62
4
 10
547.6614
 20
696.2539
 40
0.4000
 50
270.0000
 51
345.9637
  0
ARC
  8
0_00
  6
CONTINUOUS
 62
4
 10
548.6104
 20
697.1637
 40
0.3000
 50
92.4628
 51
165.9638
  0
ARC
  8
0_00
  6
CONTINUOUS
 62
4
 10
575.6861
 20
696.2539
 40
0.4000
 50
194.0362
 51
270.0000
  0
ARC
  8
0_00
  6
CONTINUOUS
 62
4
 10
574.7370
 20
697.1637
 40
0.3000
 50
14.0362
 51
87.5372
  0
ARC
  8
0_00
  6
CONTINUOUS
 62
4
 10
587.0015
 20
696.4539
 40
0.6000
 50
270.0000
 51
388.8667
  0
ARC
  8
0_00
  6
CONTINUOUS
 62
4
 10
589.9238
 20
699.1057
 40
0.3000
 50
275.0000
 51
371.6000
  0
ARC
  8
0_00
  6
CONTINUOUS
 62
4
 10
589.1238
 20
698.3831
 40
0.3500
 50
95.0000
 51
185.0988
  0
ARC
  8
0_00
  6
CONTINUOUS
 62
4
 10
588.0738
 20
698.7430
 40
1.0000
 50
95.0000
 51
180.0000
  0
ARC
  8
0_00
  6
CONTINUOUS
 62
4
 10
588.7986
 20
700.1114
 40
0.3000
 50
275.0000
 51
371.6000
  0
ARC
  8
0_00
  6
CONTINUOUS
 62
4
 10
589.0717
 20
703.7538
 40
0.7000
 50
90.0000
 51
191.6000
  0
ARC
  8
0_00
  6
CONTINUOUS
 62
4
 10
590.7672
 20
698.5298
 40
2.0000
 50
185.0988
 51
249.7122
  0
ARC
  8
0_00
  6
CONTINUOUS
 62
4
 10
590.7672
 20
698.5298
 40
3.7000
 50
183.4043
 51
208.8667
  0
ARC
  8
0_00
  6
CONTINUOUS
 62
4
 10
592.1742
 20
695.3926
 40
0.5000
 50
179.9995
 51
296.3368
  0
ARC
  8
0_00
  6
CONTINUOUS
 62
4
 10
589.8744
 20
704.2004
 40
0.4000
 50
359.4403
 51
449.9995
  0
ARC
  8
0_00
  6
CONTINUOUS
 62
4
 10
586.9744
 20
704.0004
 40
0.2000
 50
179.9995
 51
269.9995
  0
ARC
  8
0_00
  6
CONTINUOUS
 62
4
 10
586.9744
 20
704.4005
 40
0.6000
 50
269.9995
 51
359.9996
  0
ARC
  8
0_00
  6
CONTINUOUS
 62
4
 10
589.2243
 20
698.3572
 40
0.3500
 50
94.9995
 51
190.8312
  0
ARC
  8
14_0E
  6
CONTINUOUS
 62
4
 10
590.8449
 20
698.6673
 40
2.0000
 50
190.8312
 51
253.4221
  0
ARC
  8
0_00
  6
CONTINUOUS
 62
4
 10
589.8743
 20
699.1669
 40
0.4000
 50
274.9995
 51
371.3995
  0
ARC
  8
0_00
  6
CONTINUOUS
 62
4
 10
589.9958
 20
701.6004
 40
0.2000
 50
89.9995
 51
191.3996
  0
ARC
  8
0_00
  6
CONTINUOUS
 62
4
 10
587.7743
 20
704.9005
 40
1.0000
 50
89.9995
 51
179.9995
  0
ARC
  8
0_00
  6
CONTINUOUS
 62
4
 10
590.3743
 20
704.6004
 40
1.3000
 50
359.9996
 51
449.9995
  0
ARC
  8
0_00
  6
CONTINUOUS
 62
4
 10
561.6737
 20
670.1099
 40
60.0000
 50
56.5252
 51
123.4747
  0
ARC
  8
0_00
  6
CONTINUOUS
 62
4
 10
586.2738
 20
707.3121
 40
15.4000
 50
292.7488
 51
416.5252
  0
ARC
  8
0_00
  6
CONTINUOUS
 62
4
 10
591.6837
 20
694.4100
 40
1.4095
 50
179.9994
 51
292.7488
  0
ARC
  8
0_00
  6
CONTINUOUS
 62
4
 10
586.2738
 20
707.3121
 40
13.8000
 50
296.3368
 51
416.5252
  0
ARC
  8
0_00
  6
CONTINUOUS
 62
4
 10
561.6737
 20
670.1099
 40
58.4000
 50
56.5252
 51
123.4747
  0
ARC
  8
0_00
  6
CONTINUOUS
 62
4
 10
547.6614
 20
696.2539
 40
0.4000
 50
270.0000
 51
345.9637
  0
ARC
  8
0_00
  6
CONTINUOUS
 62
4
 10
548.6104
 20
697.1637
 40
0.3000
 50
92.4628
 51
165.9638
  0
ARC
  8
0_00
  6
CONTINUOUS
 62
4
 10
536.3460
 20
696.4539
 40
0.6000
 50
151.1333
 51
270.0000
  0
ARC
  8
0_00
  6
CONTINUOUS
 62
4
 10
533.4237
 20
699.1057
 40
0.3000
 50
168.4000
 51
265.0000
  0
ARC
  8
0_00
  6
CONTINUOUS
 62
4
 10
534.2237
 20
698.3831
 40
0.3500
 50
354.9012
 51
445.0000
  0
ARC
  8
0_00
  6
CONTINUOUS
 62
4
 10
535.2738
 20
698.7430
 40
1.0000
 50
0.0000
 51
85.0000
  0
ARC
  8
0_00
  6
CONTINUOUS
 62
4
 10
534.5489
 20
700.1114
 40
0.3000
 50
168.4000
 51
265.0000
  0
ARC
  8
0_00
  6
CONTINUOUS
 62
4
 10
534.2758
 20
703.7538
 40
0.7000
 50
348.4000
 51
450.0000
  0
ARC
  8
0_00
  6
CONTINUOUS
 62
4
 10
532.5803
 20
698.5298
 40
2.0000
 50
290.2878
 51
354.9012
  0
ARC
  8
0_00
  6
CONTINUOUS
 62
4
 10
532.5803
 20
698.5298
 40
3.7000
 50
331.1333
 51
356.5957
  0
ARC
  8
0_00
  6
CONTINUOUS
 62
4
 10
531.1733
 20
695.3926
 40
0.5000
 50
243.6632
 51
360.0004
  0
ARC
  8
0_00
  6
CONTINUOUS
 62
4
 10
533.4732
 20
704.2004
 40
0.4000
 50
89.9999
 51
180.5597
  0
ARC
  8
0_00
  6
CONTINUOUS
 62
4
 10
536.3731
 20
704.0004
 40
0.2000
 50
270.0005
 51
360.0004
  0
ARC
  8
0_00
  6
CONTINUOUS
 62
4
 10
536.3731
 20
704.4005
 40
0.6000
 50
180.0005
 51
270.0005
  0
ARC
  8
0_00
  6
CONTINUOUS
 62
4
 10
534.1232
 20
698.3572
 40
0.3500
 50
349.1688
 51
445.0005
  0
ARC
  8
14_0E
  6
CONTINUOUS
 62
4
 10
532.5026
 20
698.6673
 40
2.0000
 50
286.5779
 51
349.1688
  0
ARC
  8
0_00
  6
CONTINUOUS
 62
4
 10
533.4732
 20
699.1669
 40
0.4000
 50
168.6004
 51
265.0005
  0
ARC
  8
0_00
  6
CONTINUOUS
 62
4
 10
533.3518
 20
701.6004
 40
0.2000
 50
348.6005
 51
450.0005
  0
ARC
  8
0_00
  6
CONTINUOUS
 62
4
 10
535.5731
 20
704.9005
 40
1.0000
 50
0.0004
 51
90.0005
  0
ARC
  8
0_00
  6
CONTINUOUS
 62
4
 10
532.9732
 20
704.6004
 40
1.3000
 50
90.0005
 51
180.0005
  0
ARC
  8
0_00
  6
CONTINUOUS
 62
4
 10
537.0738
 20
707.3121
 40
15.4000
 50
123.4747
 51
247.2512
  0
ARC
  8
0_00
  6
CONTINUOUS
 62
4
 10
531.6637
 20
694.4100
 40
1.4095
 50
247.2512
 51
360.0006
  0
ARC
  8
0_00
  6
CONTINUOUS
 62
4
 10
537.0738
 20
707.3121
 40
13.8000
 50
123.4747
 51
243.6632
  0
ARC
  8
12_0C
  6
CONTINUOUS
 62
2
 10
563.8737
 20
698.8239
 40
1.3000
 50
0.0000
 51
73.3778
  0
ARC
  8
12_0C
  6
CONTINUOUS
 62
2
 10
561.6737
 20
691.4539
 40
9.0000
 50
73.3790
 51
106.6667
  0
ARC
  8
12_0C
  6
CONTINUOUS
 62
2
 10
559.4737
 20
698.8239
 40
1.3000
 50
106.6222
 51
180.0000
  0
ARC
  8
12_0C
  6
CONTINUOUS
 62
2
 10
545.8737
 20
697.0238
 40
1.3000
 50
0.0000
 51
73.3778
  0
ARC
  8
12_0C
  6
CONTINUOUS
 62
2
 10
543.6737
 20
689.6539
 40
9.0000
 50
73.3790
 51
106.6667
  0
ARC
  8
12_0C
  6
CONTINUOUS
 62
2
 10
541.4737
 20
697.0238
 40
1.3000
 50
106.6222
 51
180.0000
  0
ARC
  8
12_0C
  6
CONTINUOUS
 62
2
 10
581.8738
 20
697.0238
 40
1.3000
 50
0.0000
 51
73.3778
  0
ARC
  8
12_0C
  6
CONTINUOUS
 62
2
 10
579.6737
 20
689.6539
 40
9.0000
 50
73.3790
 51
106.6667
  0
ARC
  8
12_0C
  6
CONTINUOUS
 62
2
 10
577.4737
 20
697.0238
 40
1.3000
 50
106.6222
 51
180.0000
  0
ARC
  8
0_00
  6
CONTINUOUS
 62
3
 10
1089.6763
 20
72.3460
 40
0.5363
 50
270.0000
 51
450.0000
  0
ARC
  8
0_00
  6
CONTINUOUS
 62
3
 10
1088.1846
 20
77.1723
 40
0.6533
 50
0.0000
 51
180.0000
  0
ARC
  8
0_00
  6
CONTINUOUS
 62
3
 10
1089.1889
 20
83.5099
 40
1.9500
 50
333.9999
 51
450.0000
  0
CIRCLE
  8
0_00
  6
CONTINUOUS
 62
3
 10
1090.0664
 20
87.4098
 40
1.5600
  0
ARC
  8
0_00
  6
CONTINUOUS
 62
3
 10
1088.2815
 20
77.1723
 40
0.4500
 50
0.0000
 51
180.0000
  0
ARC
  8
0_00
  6
CONTINUOUS
 62
3
 10
1088.2815
 20
77.1723
 40
0.1500
 50
0.0000
 51
180.0000
  0
ARC
  8
0_00
  6
CONTINUOUS
 62
3
 10
1089.6763
 20
72.2823
 40
0.3000
 50
270.0000
 51
450.0000
  0
CIRCLE
  8
0_00
  6
CONTINUOUS
 62
3
 10
1090.0664
 20
87.4098
 40
1.3244
  0
CIRCLE
  8
0_00
  6
CONTINUOUS
 62
3
 10
1090.0664
 20
87.4098
 40
1.0256
  0
CIRCLE
  8
0_00
  6
CONTINUOUS
 62
3
 10
1090.0664
 20
87.4098
 40
0.7027
  0
CIRCLE
  8
0_00
  6
CONTINUOUS
 62
3
 10
1090.0664
 20
87.4098
 40
0.3440
  0
CIRCLE
  8
0_00
  6
CONTINUOUS
 62
3
 10
1090.0664
 20
87.4098
 40
0.1699
  0
CIRCLE
  8
0_00
  6
CONTINUOUS
 62
4
 10
881.0412
 20
82.3098
 40
3.7500
  0
CIRCLE
  8
0_00
  6
CONTINUOUS
 62
4
 10
881.0412
 20
82.3098
 40
6.0000
  0
ARC
  8
0_00
  6
CONTINUOUS
 62
2
 10
1076.5552
 20
348.1722
 40
2.0500
 50
45.0000
 51
58.5444
  0
ARC
  8
0_00
  6
CONTINUOUS
 62
2
 10
1076.5552
 20
348.1722
 40
2.0500
 50
121.3667
 51
135.0000
  0
ARC
  8
0_00
  6
CONTINUOUS
 62
2
 10
1076.5552
 20
348.1722
 40
2.0500
 50
211.4556
 51
225.0000
  0
ARC
  8
0_00
  6
CONTINUOUS
 62
2
 10
1076.5552
 20
348.1722
 40
2.0500
 50
135.0000
 51
148.6333
  0
ARC
  8
0_00
  6
CONTINUOUS
 62
2
 10
1076.5552
 20
348.1722
 40
2.0500
 50
31.4556
 51
45.0000
  0
ARC
  8
0_00
  6
CONTINUOUS
 62
2
 10
1076.5552
 20
348.1722
 40
2.0500
 50
315.0000
 51
328.6334
  0
ARC
  8
0_00
  6
CONTINUOUS
 62
2
 10
1076.5552
 20
348.1722
 40
2.0500
 50
225.0000
 51
238.5444
  0
ARC
  8
0_00
  6
CONTINUOUS
 62
2
 10
1076.5552
 20
348.1722
 40
2.0500
 50
301.3667
 51
315.0000
  0
CIRCLE
  8
0_00
  6
CONTINUOUS
 62
2
 10
1076.5552
 20
348.1722
 40
3.5000
  0
ARC
  8
0_00
  6
CONTINUOUS
 62
2
 10
1076.5552
 20
312.1721
 40
2.0500
 50
45.0000
 51
58.5444
  0
ARC
  8
0_00
  6
CONTINUOUS
 62
2
 10
1076.5552
 20
312.1721
 40
2.0500
 50
121.3667
 51
135.0000
  0
ARC
  8
0_00
  6
CONTINUOUS
 62
2
 10
1076.5552
 20
312.1721
 40
2.0500
 50
211.4556
 51
225.0000
  0
ARC
  8
0_00
  6
CONTINUOUS
 62
2
 10
1076.5552
 20
312.1721
 40
2.0500
 50
135.0000
 51
148.6333
  0
ARC
  8
0_00
  6
CONTINUOUS
 62
2
 10
1076.5552
 20
312.1721
 40
2.0500
 50
31.4556
 51
45.0000
  0
ARC
  8
0_00
  6
CONTINUOUS
 62
2
 10
1076.5552
 20
312.1721
 40
2.0500
 50
315.0000
 51
328.6334
  0
ARC
  8
0_00
  6
CONTINUOUS
 62
2
 10
1076.5552
 20
312.1721
 40
2.0500
 50
225.0000
 51
238.5444
  0
ARC
  8
0_00
  6
CONTINUOUS
 62
2
 10
1076.5552
 20
312.1721
 40
2.0500
 50
301.3667
 51
315.0000
  0
CIRCLE
  8
0_00
  6
CONTINUOUS
 62
2
 10
1076.5552
 20
312.1721
 40
3.5000
  0
ARC
  8
0_00
  6
CONTINUOUS
 62
2
 10
1043.5552
 20
348.1722
 40
2.0500
 50
45.0000
 51
58.5444
  0
ARC
  8
0_00
  6
CONTINUOUS
 62
2
 10
1043.5552
 20
348.1722
 40
2.0500
 50
121.3667
 51
135.0000
  0
ARC
  8
0_00
  6
CONTINUOUS
 62
2
 10
1043.5552
 20
348.1722
 40
2.0500
 50
211.4556
 51
225.0000
  0
ARC
  8
0_00
  6
CONTINUOUS
 62
2
 10
1043.5552
 20
348.1722
 40
2.0500
 50
135.0000
 51
148.6333
  0
ARC
  8
0_00
  6
CONTINUOUS
 62
2
 10
1043.5552
 20
348.1722
 40
2.0500
 50
31.4556
 51
45.0000
  0
ARC
  8
0_00
  6
CONTINUOUS
 62
2
 10
1043.5552
 20
348.1722
 40
2.0500
 50
315.0000
 51
328.6334
  0
ARC
  8
0_00
  6
CONTINUOUS
 62
2
 10
1043.5552
 20
348.1722
 40
2.0500
 50
225.0000
 51
238.5444
  0
ARC
  8
0_00
  6
CONTINUOUS
 62
2
 10
1043.5552
 20
348.1722
 40
2.0500
 50
301.3667
 51
315.0000
  0
CIRCLE
  8
0_00
  6
CONTINUOUS
 62
2
 10
1043.5552
 20
348.1722
 40
3.5000
  0
ARC
  8
0_00
  6
CONTINUOUS
 62
2
 10
1043.5552
 20
312.1721
 40
2.0500
 50
45.0000
 51
58.5444
  0
ARC
  8
0_00
  6
CONTINUOUS
 62
2
 10
1043.5552
 20
312.1721
 40
2.0500
 50
121.3667
 51
135.0000
  0
ARC
  8
0_00
  6
CONTINUOUS
 62
2
 10
1043.5552
 20
312.1721
 40
2.0500
 50
211.4556
 51
225.0000
  0
ARC
  8
0_00
  6
CONTINUOUS
 62
2
 10
1043.5552
 20
312.1721
 40
2.0500
 50
135.0000
 51
148.6333
  0
ARC
  8
0_00
  6
CONTINUOUS
 62
2
 10
1043.5552
 20
312.1721
 40
2.0500
 50
31.4556
 51
45.0000
  0
ARC
  8
0_00
  6
CONTINUOUS
 62
2
 10
1043.5552
 20
312.1721
 40
2.0500
 50
315.0000
 51
328.6334
  0
ARC
  8
0_00
  6
CONTINUOUS
 62
2
 10
1043.5552
 20
312.1721
 40
2.0500
 50
225.0000
 51
238.5444
  0
ARC
  8
0_00
  6
CONTINUOUS
 62
2
 10
1043.5552
 20
312.1721
 40
2.0500
 50
301.3667
 51
315.0000
  0
CIRCLE
  8
0_00
  6
CONTINUOUS
 62
2
 10
1043.5552
 20
312.1721
 40
3.5000
  0
ARC
  8
0_00
  6
CONTINUOUS
 62
2
 10
974.5552
 20
330.1722
 40
2.0500
 50
45.0000
 51
58.5444
  0
ARC
  8
0_00
  6
CONTINUOUS
 62
2
 10
974.5552
 20
330.1722
 40
2.0500
 50
121.3667
 51
135.0000
  0
ARC
  8
0_00
  6
CONTINUOUS
 62
2
 10
974.5552
 20
330.1722
 40
2.0500
 50
211.4556
 51
225.0000
  0
ARC
  8
0_00
  6
CONTINUOUS
 62
2
 10
974.5552
 20
330.1722
 40
2.0500
 50
135.0000
 51
148.6333
  0
ARC
  8
0_00
  6
CONTINUOUS
 62
2
 10
974.5552
 20
330.1722
 40
2.0500
 50
31.4556
 51
45.0000
  0
ARC
  8
0_00
  6
CONTINUOUS
 62
2
 10
974.5552
 20
330.1722
 40
2.0500
 50
315.0000
 51
328.6334
  0
ARC
  8
0_00
  6
CONTINUOUS
 62
2
 10
974.5552
 20
330.1722
 40
2.0500
 50
225.0000
 51
238.5444
  0
ARC
  8
0_00
  6
CONTINUOUS
 62
2
 10
974.5552
 20
330.1722
 40
2.0500
 50
301.3667
 51
315.0000
  0
CIRCLE
  8
0_00
  6
CONTINUOUS
 62
2
 10
974.5552
 20
330.1722
 40
3.5000
  0
ARC
  8
0_00
  6
CONTINUOUS
 62
2
 10
757.5761
 20
357.6396
 40
3.1000
 50
45.0000
 51
58.5444
  0
ARC
  8
0_00
  6
CONTINUOUS
 62
2
 10
757.5761
 20
357.6396
 40
3.1000
 50
121.3667
 51
135.0000
  0
ARC
  8
0_00
  6
CONTINUOUS
 62
2
 10
757.5761
 20
357.6396
 40
3.1000
 50
211.4556
 51
225.0000
  0
ARC
  8
0_00
  6
CONTINUOUS
 62
2
 10
757.5761
 20
357.6396
 40
3.1000
 50
135.0000
 51
148.6333
  0
ARC
  8
0_00
  6
CONTINUOUS
 62
2
 10
757.5761
 20
357.6396
 40
3.1000
 50
31.4556
 51
45.0000
  0
ARC
  8
0_00
  6
CONTINUOUS
 62
2
 10
757.5761
 20
357.6396
 40
3.1000
 50
315.0000
 51
328.6334
  0
ARC
  8
0_00
  6
CONTINUOUS
 62
2
 10
757.5761
 20
357.6396
 40
3.1000
 50
225.0000
 51
238.5444
  0
ARC
  8
0_00
  6
CONTINUOUS
 62
2
 10
757.5761
 20
357.6396
 40
3.1000
 50
301.3667
 51
315.0000
  0
ARC
  8
0_00
  6
CONTINUOUS
 62
2
 10
757.5761
 20
357.6396
 40
7.0000
 50
314.4153
 51
585.5847
  0
ARC
  8
0_00
  6
CONTINUOUS
 62
2
 10
757.5551
 20
302.6721
 40
3.1000
 50
225.0000
 51
238.5444
  0
ARC
  8
0_00
  6
CONTINUOUS
 62
2
 10
757.5551
 20
302.6721
 40
3.1000
 50
301.3667
 51
315.0000
  0
ARC
  8
0_00
  6
CONTINUOUS
 62
2
 10
757.5551
 20
302.6721
 40
3.1000
 50
31.4556
 51
45.0000
  0
ARC
  8
0_00
  6
CONTINUOUS
 62
2
 10
757.5551
 20
302.6721
 40
3.1000
 50
315.0000
 51
328.6334
  0
ARC
  8
0_00
  6
CONTINUOUS
 62
2
 10
757.5551
 20
302.6721
 40
3.1000
 50
211.4556
 51
225.0000
  0
ARC
  8
0_00
  6
CONTINUOUS
 62
2
 10
757.5551
 20
302.6721
 40
3.1000
 50
135.0000
 51
148.6333
  0
ARC
  8
0_00
  6
CONTINUOUS
 62
2
 10
757.5551
 20
302.6721
 40
3.1000
 50
45.0000
 51
58.5444
  0
ARC
  8
0_00
  6
CONTINUOUS
 62
2
 10
757.5551
 20
302.6721
 40
3.1000
 50
121.3667
 51
135.0000
  0
ARC
  8
0_00
  6
CONTINUOUS
 62
2
 10
757.5551
 20
302.6721
 40
7.0000
 50
134.4153
 51
405.5847
  0
ARC
  8
0_00
  6
CONTINUOUS
 62
2
 10
682.5551
 20
302.6721
 40
3.1000
 50
225.0000
 51
238.5444
  0
ARC
  8
0_00
  6
CONTINUOUS
 62
2
 10
682.5551
 20
302.6721
 40
3.1000
 50
301.3667
 51
315.0000
  0
ARC
  8
0_00
  6
CONTINUOUS
 62
2
 10
682.5551
 20
302.6721
 40
3.1000
 50
31.4556
 51
45.0000
  0
ARC
  8
0_00
  6
CONTINUOUS
 62
2
 10
682.5551
 20
302.6721
 40
3.1000
 50
315.0000
 51
328.6334
  0
ARC
  8
0_00
  6
CONTINUOUS
 62
2
 10
682.5551
 20
302.6721
 40
3.1000
 50
211.4556
 51
225.0000
  0
ARC
  8
0_00
  6
CONTINUOUS
 62
2
 10
682.5551
 20
302.6721
 40
3.1000
 50
135.0000
 51
148.6333
  0
ARC
  8
0_00
  6
CONTINUOUS
 62
2
 10
682.5551
 20
302.6721
 40
3.1000
 50
45.0000
 51
58.5444
  0
ARC
  8
0_00
  6
CONTINUOUS
 62
2
 10
682.5551
 20
302.6721
 40
3.1000
 50
121.3667
 51
135.0000
  0
ARC
  8
0_00
  6
CONTINUOUS
 62
2
 10
682.5551
 20
302.6721
 40
7.0000
 50
134.4153
 51
405.5847
  0
ARC
  8
0_00
  6
CONTINUOUS
 62
2
 10
682.5969
 20
357.6070
 40
3.1000
 50
45.0000
 51
58.5444
  0
ARC
  8
0_00
  6
CONTINUOUS
 62
2
 10
682.5969
 20
357.6070
 40
3.1000
 50
121.3667
 51
135.0000
  0
ARC
  8
0_00
  6
CONTINUOUS
 62
2
 10
682.5969
 20
357.6070
 40
3.1000
 50
211.4556
 51
225.0000
  0
ARC
  8
0_00
  6
CONTINUOUS
 62
2
 10
682.5969
 20
357.6070
 40
3.1000
 50
135.0000
 51
148.6333
  0
ARC
  8
0_00
  6
CONTINUOUS
 62
2
 10
682.5969
 20
357.6070
 40
3.1000
 50
31.4556
 51
45.0000
  0
ARC
  8
0_00
  6
CONTINUOUS
 62
2
 10
682.5969
 20
357.6070
 40
3.1000
 50
315.0000
 51
328.6334
  0
ARC
  8
0_00
  6
CONTINUOUS
 62
2
 10
682.5969
 20
357.6070
 40
3.1000
 50
225.0000
 51
238.5444
  0
ARC
  8
0_00
  6
CONTINUOUS
 62
2
 10
682.5969
 20
357.6070
 40
3.1000
 50
301.3667
 51
315.0000
  0
ARC
  8
0_00
  6
CONTINUOUS
 62
2
 10
682.5969
 20
357.6070
 40
7.0000
 50
314.4153
 51
585.5847
  0
ARC
  8
0_00
  6
CONTINUOUS
 62
2
 10
293.7033
 20
288.4365
 40
9.1000
 50
39.7151
 51
140.2849
  0
ARC
  8
0_00
  6
CONTINUOUS
 62
2
 10
348.7033
 20
288.4365
 40
9.1000
 50
39.7151
 51
140.2849
  0
TEXT
  8
0_00
 62
7
 10
1077.6895
 20
535.3987
 40
6.00
 41
1.00
 50
0.0000
  1
外観姿図（１：３０）
  0
TEXT
  8
0_00
 62
7
 10
733.9818
 20
763.1099
 40
7.50
 41
1.00
 50
0.0000
  1
ＬＣ
  0
TEXT
  8
0_00
 62
7
 10
801.7484
 20
763.1099
 40
7.50
 41
1.00
 50
0.0000
  1
Ｌ
  0
TEXT
  8
0_00
 62
7
 10
872.6818
 20
763.1099
 40
7.50
 41
1.00
 50
0.0000
  1
２５０≦Ｌ≦１８２０
  0
TEXT
  8
0_00
 62
7
 10
1008.4151
 20
763.1099
 40
7.50
 41
1.00
 50
0.0000
  1
Ｌ
  0
TEXT
  8
0_00
 62
7
 10
1068.9819
 20
763.1099
 40
7.50
 41
1.00
 50
0.0000
  1
ＬＣ
  0
TEXT
  8
0_00
 62
7
 10
1157.0003
 20
656.2042
 40
6.75
 41
0.75
 50
90.0000
  1
H
  0
TEXT
  8
0_00
 62
7
 10
1137.0003
 20
599.6042
 40
6.75
 41
0.75
 50
90.0000
  1
g
  0
TEXT
  8
0_00
 62
7
 10
1137.0003
 20
656.6041
 40
6.75
 41
0.75
 50
90.0000
  1
H1
  0
TEXT
  8
0_00
 62
7
 10
904.2318
 20
743.1099
 40
6.75
 41
0.75
 50
0.0000
  1
127
  0
TEXT
  8
0_00
 62
7
 10
370.6574
 20
605.6542
 40
7.50
 41
1.00
 50
0.0000
  1
標準手すり直線格子セット
  0
TEXT
  8
0_00
 62
7
 10
370.6574
 20
491.1720
 40
7.50
 41
1.00
 50
0.0000
  1
間柱
  0
TEXT
  8
0_00
 62
7
 10
150.2785
 20
192.1410
 40
7.50
 41
1.00
 50
0.0000
  1
ナイロンアンカー
  0
TEXT
  8
0_00
 62
7
 10
168.4785
 20
180.1410
 40
7.50
 41
1.00
 50
0.0000
  1
φ８
  0
TEXT
  8
0_00
 62
7
 10
147.1277
 20
217.8097
 40
7.50
 41
1.00
 50
0.0000
  1
タッピンねじ・トラス
  0
TEXT
  8
0_00
 62
7
 10
166.1277
 20
205.8097
 40
7.50
 41
1.00
 50
0.0000
  1
φ６×５０
  0
TEXT
  8
0_00
 62
7
 10
122.9811
 20
167.4301
 40
7.50
 41
1.00
 50
0.0000
  1
下穴（φ８）現場加工
  0
TEXT
  8
0_00
 62
7
 10
126.1810
 20
155.4301
 40
7.50
 41
1.00
 50
0.0000
  1
下穴コーキング処理
  0
TEXT
  8
0_00
 62
2
 10
221.2033
 20
771.6820
 40
9.00
 41
1.00
 50
0.0000
  1
屋外側
  0
TEXT
  8
0_00
 62
2
 10
392.4033
 20
771.6820
 40
9.00
 41
1.00
 50
0.0000
  1
建物側
  0
TEXT
  8
15_0F
 62
7
 10
117.0000
 20
438.3232
 40
7.50
 41
1.00
 50
90.0000
  1
３０１≦Ｈ（手すり高さ寸法）≦１２００
  0
TEXT
  8
15_0F
 62
7
 10
138.5000
 20
549.5232
 40
7.50
 41
1.00
 50
90.0000
  1
Ｈ１
  0
TEXT
  8
15_0F
 62
7
 10
138.5000
 20
286.5365
 40
7.50
 41
1.00
 50
90.0000
  1
３５≦ｇ［１００］≦１００
  0
TEXT
  8
0_00
 62
7
 10
157.0000
 20
393.6365
 40
6.75
 41
0.75
 50
90.0000
  1
35
  0
TEXT
  8
0_00
 62
7
 10
314.0033
 20
153.1098
 40
6.75
 41
0.75
 50
0.0000
  1
55
  0
TEXT
  8
0_00
 62
7
 10
350.1533
 20
153.1098
 40
7.50
 41
1.00
 50
0.0000
  1
Ｃ（躯体端部～アンカー芯寸法）≧５０
  0
TEXT
  8
0_00
 62
7
 10
709.2551
 20
183.1098
 40
6.75
 41
0.75
 50
0.0000
  1
100
  0
TEXT
  8
0_00
 62
7
 10
712.8551
 20
203.1098
 40
6.75
 41
0.75
 50
0.0000
  1
75
  0
TEXT
  8
0_00
 62
7
 10
537.0001
 20
322.9722
 40
6.75
 41
0.75
 50
90.0000
  1
80
  0
TEXT
  8
0_00
 62
7
 10
557.0001
 20
322.9722
 40
6.75
 41
0.75
 50
90.0000
  1
55
  0
TEXT
  8
0_00
 62
7
 10
577.0002
 20
322.9722
 40
6.75
 41
0.75
 50
90.0000
  1
50
  0
TEXT
  8
0_00
 62
7
 10
857.0003
 20
359.7802
 40
6.75
 41
0.75
 50
90.0000
  1
25
  0
TEXT
  8
0_00
 62
7
 10
877.0003
 20
361.6721
 40
6.75
 41
0.75
 50
90.0000
  1
45
  0
TEXT
  8
0_00
 62
7
 10
831.0552
 20
463.1098
 40
6.75
 41
0.75
 50
0.0000
  1
20
  0
TEXT
  8
0_00
 62
7
 10
1085.5553
 20
483.1099
 40
6.75
 41
0.75
 50
0.0000
  1
33
  0
TEXT
  8
0_00
 62
7
 10
1157.0003
 20
322.9722
 40
6.75
 41
0.75
 50
90.0000
  1
36
  0
TEXT
  8
0_00
 62
7
 10
367.4589
 20
354.8108
 40
7.50
 41
1.00
 50
0.0000
  1
間柱基礎金具
  0
TEXT
  8
0_00
 62
7
 10
191.0306
 20
313.9091
 40
7.50
 41
1.00
 50
0.0000
  1
シーリングワッシャー
  0
TEXT
  8
0_00
 62
7
 10
203.0895
 20
300.2012
 40
7.50
 41
1.00
 50
0.0000
  1
φ６×Ｄ１７
  0
TEXT
  8
0_00
 62
7
 10
608.9955
 20
392.3968
 40
7.50
 41
1.00
 50
0.0000
  1
間柱基礎金具
  0
TEXT
  8
0_00
 62
7
 10
157.0000
 20
699.4099
 40
6.75
 41
0.75
 50
90.0000
  1
47
  0
TEXT
  8
0_00
 62
7
 10
314.0033
 20
778.4821
 40
6.75
 41
0.75
 50
0.0000
  1
60
  0
TEXT
  8
0_00
 62
7
 10
370.6574
 20
744.5644
 40
7.50
 41
1.00
 50
0.0000
  1
Ｋ型笠木カバー
  0
TEXT
  8
15_0F
 62
7
 10
824.1613
 20
70.3098
 40
7.50
 41
1.00
 50
0.0000
  1
１
  0
TEXT
  8
15_0F
 62
7
 10
852.6613
 20
70.3098
 40
7.50
 41
1.00
 50
0.0000
  1
３
  0
TEXT
  8
15_0F
 62
7
 10
704.3112
 20
74.8098
 40
7.50
 41
1.00
 50
0.0000
  1
納まり図
  0
TEXT
  8
15_0F
 62
7
 10
508.1112
 20
41.8098
 40
7.50
 41
1.00
 50
0.0000
  1
ＲＣ造
  0
TEXT
  8
15_0F
 62
7
 10
497.3112
 20
71.8098
 40
7.50
 41
1.00
 50
0.0000
  1
低・中・高層
  0
TEXT
  8
15_0F
 62
7
 10
576.0612
 20
71.8098
 40
7.50
 41
1.00
 50
0.0000
  1
アルミ手すり
  0
TEXT
  8
15_0F
 62
7
 10
578.2612
 20
41.8098
 40
7.50
 41
1.00
 50
0.0000
  1
Ｋ、Ｄ型
  0
TEXT
  8
15_0F
 62
7
 10
631.2312
 20
45.2598
 40
6.00
 41
1.00
 50
0.0000
  1
床支持標準手すり［直線部］（直線格子）後付工法納まり図
  0
TEXT
  8
15_0F
 62
7
 10
608.6525
 20
743.6748
 40
7.50
 41
1.00
 50
0.0000
  1
Ｄ型笠木カバー
  0
TEXT
  8
15_0F
 62
7
 10
547.7043
 20
807.5439
 40
7.50
 41
1.00
 50
0.0000
  1
［Ｄ型］
  0
TEXT
  8
15_0F
 62
7
 10
554.7541
 20
774.5842
 40
6.75
 41
0.75
 50
0.0000
  1
80
  0
TEXT
  8
0_00
 62
7
 10
477.0001
 20
704.3552
 40
6.75
 41
0.75
 50
90.0000
  1
37
  0
TEXT
  8
15_0F
 62
7
 10
307.2339
 20
807.5439
 40
7.50
 41
1.00
 50
0.0000
  1
［Ｋ型］
  0
TEXT
  8
0_00
 62
7
 10
880.4928
 20
712.7238
 40
6.75
 41
0.75
 50
0.0000
  1
A
  0
TEXT
  8
0_00
 62
7
 10
880.4928
 20
593.9085
 40
6.75
 41
0.75
 50
0.0000
  1
A
  0
TEXT
  8
0_00
 62
7
 10
833.7047
 20
600.6376
 40
7.50
 41
1.00
 50
0.0000
  1
Ｂ
  0
TEXT
  8
0_00
 62
7
 10
977.7128
 20
666.2016
 40
7.50
 41
1.00
 50
0.0000
  1
Ｂ
  0
TEXT
  8
15_0F
 62
7
 10
204.6905
 20
85.3098
 40
7.50
 41
1.00
 50
0.0000
  1
　　（躯体寸法発注の場合、Ｌは標準割付寸法とする。）
  0
TEXT
  8
15_0F
 62
7
 10
204.6905
 20
100.3098
 40
7.50
 41
1.00
 50
0.0000
  1
１）Ｈ、Ｈ１、Ｌ、ＬＣは発注寸法とする。
  0
TEXT
  8
0_00
 62
7
 10
204.6905
 20
70.3098
 40
7.50
 41
1.00
 50
0.0000
  1
２）［　］内寸法は標準寸法とする。
  0
TEXT
  8
0_00
 62
2
 10
1130.1796
 20
176.9721
 40
9.00
 41
1.00
 50
0.0000
  1
屋外側
  0
TEXT
  8
0_00
 62
2
 10
1130.1796
 20
471.3722
 40
9.00
 41
1.00
 50
0.0000
  1
建物側
  0
TEXT
  8
0_00
 62
7
 10
70.2905
 20
40.3098
 40
7.50
 41
1.00
 50
0.0000
  1
適用製品
  0
TEXT
  8
0_00
 62
7
 10
130.2905
 20
40.3098
 40
7.50
 41
1.00
 50
0.0000
  1
適用日付
  0
TEXT
  8
0_00
 62
7
 10
178.5906
 20
100.3098
 40
7.50
 41
1.00
 50
0.0000
  1
記事
  0
TEXT
  8
0_00
 62
7
 10
472.5612
 20
85.3098
 40
7.50
 41
1.00
 50
0.0000
  1
階層仕様
  0
TEXT
  8
0_00
 62
7
 10
472.5612
 20
55.3098
 40
7.50
 41
1.00
 50
0.0000
  1
適用躯体
  0
TEXT
  8
0_00
 62
7
 10
630.0612
 20
85.3098
 40
7.50
 41
1.00
 50
0.0000
  1
名　称
  0
TEXT
  8
0_00
 62
7
 10
630.0612
 20
55.3098
 40
7.50
 41
1.00
 50
0.0000
  1
図　名
  0
TEXT
  8
0_00
 62
7
 10
814.9370
 20
100.3555
 40
7.50
 41
1.00
 50
0.0000
  1
Ｎｏ．
  0
TEXT
  8
0_00
 62
7
 10
1123.5614
 20
100.3098
 40
7.50
 41
1.00
 50
0.0000
  1
適　　　　　　　　用
  0
TEXT
  8
0_00
 62
7
 10
1078.4114
 20
100.3098
 40
7.50
 41
1.00
 50
0.0000
  1
個数
  0
TEXT
  8
0_00
 62
7
 10
1023.2113
 20
100.3098
 40
7.50
 41
1.00
 50
0.0000
  1
材　　質
  0
TEXT
  8
0_00
 62
7
 10
926.1613
 20
100.3098
 40
7.50
 41
1.00
 50
0.0000
  1
部　　　品　　　名
  0
TEXT
  8
0_00
 62
7
 10
895.9363
 20
100.3098
 40
7.50
 41
1.00
 50
0.0000
  1
品番
  0
TEXT
  8
0_00
 62
7
 10
850.8614
 20
100.3098
 40
7.50
 41
1.00
 50
0.0000
  1
図　　番
  0
TEXT
  8
0_00
 62
7
 10
816.6613
 20
85.3098
 40
7.50
 41
1.00
 50
0.0000
  1
尺度
  0
TEXT
  8
0_00
 62
7
 10
816.6613
 20
55.3098
 40
7.50
 41
1.00
 50
0.0000
  1
日付
  0
TEXT
  8
0_00
 62
7
 10
928.3944
 20
85.3098
 40
7.50
 41
1.00
 50
0.0000
  1
承認
  0
TEXT
  8
0_00
 62
7
 10
970.5613
 20
85.3098
 40
7.50
 41
1.00
 50
0.0000
  1
検図
  0
TEXT
  8
0_00
 62
7
 10
1006.8613
 20
85.3098
 40
7.50
 41
1.00
 50
0.0000
  1
設計
  0
TEXT
  8
0_00
 62
7
 10
1044.2114
 20
85.3098
 40
7.50
 41
1.00
 50
0.0000
  1
製図
  0
TEXT
  8
0_00
 62
7
 10
1074.5113
 20
55.3098
 40
7.50
 41
1.00
 50
0.0000
  1
図番
  0
TEXT
  8
0_00
 62
2
 10
1103.9222
 20
74.3448
 40
9.00
 41
1.00
 50
0.0000
  1
文化シヤッター株式会社
  0
TEXT
  8
0_00
 62
7
 10
200.7906
 20
863.0600
 40
7.50
 41
1.00
 50
180.0000
  1
図番
  0
TEXT
  8
0_00
 62
7
 10
799.0512
 20
854.1268
 40
6.00
 41
1.00
 50
0.0000
  1
ＮＯ
  0
TEXT
  8
0_00
 62
7
 10
825.2113
 20
854.0600
 40
7.50
 41
1.00
 50
0.0000
  1
個　数
  0
TEXT
  8
0_00
 62
7
 10
870.3613
 20
854.0600
 40
7.50
 41
1.00
 50
0.0000
  1
日　　付
  0
TEXT
  8
0_00
 62
7
 10
984.2113
 20
854.0600
 40
7.50
 41
1.00
 50
0.0000
  1
訂　　　正　　　記　　　事
  0
TEXT
  8
0_00
 62
7
 10
838.4112
 20
70.3098
 40
6.75
 41
0.75
 50
0.0000
  1
:
  0
TEXT
  8
0_00
 62
7
 10
1137.8715
 20
26.8098
 40
6.00
 41
1.00
 50
0.0000
  1
ＪＩＳ　Ａ－３
  0
TEXT
  8
0_00
 62
7
 10
1179.4988
 20
26.8080
 40
6.00
 41
1.00
 50
0.0000
  1
（２９７×４２０）
  0
TEXT
  8
0_00
 62
7
 10
1153.1114
 20
854.0600
 40
7.50
 41
1.00
 50
0.0000
  1
担　当
  0
TEXT
  8
0_00
 62
7
 10
1189.1114
 20
854.0600
 40
7.50
 41
1.00
 50
0.0000
  1
承　認
  0
TEXT
  8
0_00
 62
7
 10
551.3112
 20
85.3098
 40
7.50
 41
1.00
 50
0.0000
  1
機種名
  0
TEXT
  8
0_00
 62
7
 10
551.3112
 20
55.3098
 40
7.50
 41
1.00
 50
0.0000
  1
型　式
  0
TEXT
  8
0_00
 62
7
 10
1077.6895
 20
535.3987
 40
6.00
 41
1.00
 50
0.0000
  1
外観姿図（１：３０）
  0
TEXT
  8
0_00
 62
7
 10
121.4709
 20
127.2631
 40
7.50
 41
1.00
 50
0.0000
  1
Ａ－Ａ矢視図
  0
TEXT
  8
0_00
 62
7
 10
557.6548
 20
170.5508
 40
7.50
 41
1.00
 50
0.0000
  1
Ｂ－Ｂ矢視図
  0
TEXT
  8
0_00
 62
7
 10
825.2552
 20
503.1099
 40
7.50
 41
1.00
 50
0.0000
  1
２５０≦Ｌ（柱スパン寸法）≦１８２０
  0
TEXT
  8
0_00
 62
7
 10
628.0551
 20
483.1099
 40
7.50
 41
1.00
 50
0.0000
  1
（５３．５～１１７）
  0
TEXT
  8
0_00
 62
7
 10
712.8551
 20
483.1099
 40
7.50
 41
1.00
 50
0.0000
  1
４０
  0
TEXT
  8
0_00
 62
7
 10
740.0551
 20
483.1099
 40
7.50
 41
1.00
 50
0.0000
  1
（５３．５～１１７）
  0
TEXT
  8
0_00
 62
7
 10
157.0000
 20
293.6365
 40
6.75
 41
0.75
 50
90.0000
  1
35
  0
POINT
  8
0_00
 62
2
 10
1063.6819
 20
618.5542
  0
POINT
  8
0_00
 62
2
 10
1063.6819
 20
618.5542
  0
POINT
  8
0_00
 62
2
 10
960.3485
 20
618.5542
  0
POINT
  8
0_00
 62
2
 10
960.3485
 20
618.5542
  0
POINT
  8
0_00
 62
2
 10
857.0151
 20
618.5542
  0
POINT
  8
0_00
 62
2
 10
857.0151
 20
618.5542
  0
POINT
  8
0_00
 62
2
 10
753.6818
 20
618.5542
  0
POINT
  8
0_00
 62
2
 10
753.6818
 20
618.5542
  0
POINT
  8
0_00
 62
2
 10
321.2033
 20
409.1365
  0
POINT
  8
0_00
 62
2
 10
321.2033
 20
396.1365
  0
POINT
  8
0_00
 62
2
 10
321.2033
 20
409.1365
  0
POINT
  8
0_00
 62
2
 10
321.2033
 20
396.1365
  0
POINT
  8
0_00
 62
2
 10
293.7033
 20
288.8365
  0
POINT
  8
0_00
 62
2
 10
348.7033
 20
288.8365
  0
POINT
  8
0_00
 62
2
 10
670.0551
 20
348.1722
  0
POINT
  8
0_00
 62
2
 10
670.0551
 20
312.1721
  0
POINT
  8
0_00
 62
2
 10
770.0551
 20
348.1722
  0
POINT
  8
0_00
 62
2
 10
770.0551
 20
312.1721
  0
POINT
  8
0_00
 62
2
 10
670.0551
 20
348.1722
  0
POINT
  8
0_00
 62
2
 10
670.0551
 20
312.1721
  0
POINT
  8
0_00
 62
2
 10
770.0551
 20
348.1722
  0
POINT
  8
0_00
 62
2
 10
770.0551
 20
312.1721
  0
POINT
  8
0_00
 62
2
 10
812.0551
 20
330.1722
  0
POINT
  8
0_00
 62
4
 10
307.9033
 20
687.7099
  0
POINT
  8
0_00
 62
4
 10
307.5033
 20
686.1099
  0
POINT
  8
0_00
 62
2
 10
293.7448
 20
694.7099
  0
POINT
  8
0_00
 62
2
 10
24.0905
 20
15.1088
  0
POINT
  8
0_00
 62
2
 10
24.0905
 20
15.1088
  0
POINT
  8
0_00
 62
2
 10
84.6905
 20
59.8098
  0
POINT
  8
0_00
 62
2
 10
84.6905
 20
74.8098
  0
POINT
  8
0_00
 62
2
 10
84.6905
 20
89.8098
  0
POINT
  8
0_00
 62
2
 10
84.6905
 20
104.8098
  0
POINT
  8
0_00
 62
2
 10
518.9111
 20
76.3098
  0
POINT
  8
0_00
 62
2
 10
518.9111
 20
46.3098
  0
POINT
  8
0_00
 62
2
 10
718.7112
 20
79.3098
  0
POINT
  8
0_00
 62
2
 10
718.7112
 20
49.3098
  0
POINT
  8
0_00
 62
2
 10
1097.7612
 20
52.3098
  0
POINT
  8
0_00
 62
2
 10
1014.0613
 20
59.8098
  0
POINT
  8
0_00
 62
2
 10
144.6905
 20
59.8098
  0
POINT
  8
0_00
 62
2
 10
144.6905
 20
74.8098
  0
POINT
  8
0_00
 62
2
 10
144.6905
 20
89.8098
  0
POINT
  8
0_00
 62
2
 10
144.6905
 20
104.8098
  0
POINT
  8
0_00
 62
2
 10
856.2613
 20
74.8098
  0
POINT
  8
0_00
 62
2
 10
827.7612
 20
74.8098
  0
POINT
  8
0_00
 62
2
 10
204.6905
 20
104.8098
  0
POINT
  8
0_00
 62
2
 10
204.6905
 20
89.8098
  0
POINT
  8
0_00
 62
2
 10
204.6905
 20
74.8098
  0
POINT
  8
0_00
 62
2
 10
204.6905
 20
59.8098
  0
POINT
  8
0_00
 62
2
 10
204.6905
 20
44.8098
  0
POINT
  8
0_00
 62
2
 10
1051.4113
 20
59.8098
  0
POINT
  8
0_00
 62
2
 10
84.6905
 20
44.8098
  0
POINT
  8
0_00
 62
2
 10
144.6905
 20
44.8098
  0
POINT
  8
0_00
 62
2
 10
174.6905
 20
858.5600
  0
POINT
  8
0_00
 62
2
 10
862.6363
 20
49.3098
  0
POINT
  8
0_00
 62
2
 10
597.6611
 20
76.3098
  0
POINT
  8
0_00
 62
2
 10
597.6611
 20
46.3098
  0
POINT
  8
0_00
 62
2
 10
1076.5552
 20
348.1722
  0
POINT
  8
0_00
 62
2
 10
1076.5552
 20
312.1721
  0
POINT
  8
0_00
 62
2
 10
1043.5552
 20
348.1722
  0
POINT
  8
0_00
 62
2
 10
1043.5552
 20
312.1721
  0
POINT
  8
0_00
 62
2
 10
974.5552
 20
330.1722
  0
POINT
  8
0_00
 62
5
 10
757.5551
 20
357.6721
  0
POINT
  8
0_00
 62
5
 10
757.5761
 20
302.6396
  0
POINT
  8
0_00
 62
5
 10
682.5761
 20
302.6396
  0
POINT
  8
0_00
 62
5
 10
682.5761
 20
357.6396
  0
POINT
  8
0_00
 62
2
 10
293.7033
 20
293.8365
  0
POINT
  8
0_00
 62
2
 10
348.7033
 20
293.8365
  0
ENDSEC
  0
EOF
