999
  
  0
SECTION
  2
HEADER
  9
$EXTMIN
 10
0
 20
0
  9
$EXTMAX
 10
1260
 20
888
  9
$LTSCALE
 40
3.00
  9
$PDMODE
 70
33
  9
$PDSIZE
 40
1.80
  0
ENDSEC
  0
SECTION
  2
TABLES
  0
TABLE
  2
LTYPE
 70
9
  0
LTYPE
  2
CONTINUOUS
 70
64
  3
実線
 72
65
 73
0
 40
0.00
  0
LTYPE
  2
DASHED
 70
64
  3
__  __  __  __  __  __  __ 
 72
65
 73
2
 40
1.00
 49
0.50
 49
-0.50
  0
LTYPE
  2
HIDDEN1
 70
64
  3
____    ____    ____    ___
 72
65
 73
2
 40
2.20
 49
1.20
 49
-1.00
  0
LTYPE
  2
HIDDEN2
 70
64
  3
______  ______  ______  ___
 72
65
 73
2
 40
4.50
 49
3.50
 49
-1.00
  0
LTYPE
  2
CENTER1
 70
64
  3
_______ _ _______ _ _______
 72
65
 73
4
 40
20.00
 49
17.00
 49
-1.00
 49
1.00
 49
-1.00
  0
LTYPE
  2
CENTER2
 70
64
  3
___________  __  __________
 72
65
 73
4
 40
40.00
 49
34.00
 49
-2.00
 49
2.00
 49
-2.00
  0
LTYPE
  2
PHANTOM1
 70
64
  3
______ _ _ ______ _ _ _____
 72
65
 73
6
 40
20.00
 49
15.00
 49
-1.00
 49
1.00
 49
-1.00
 49
1.00
 49
-1.00
  0
LTYPE
  2
PHANTOM2
 70
64
  3
__________  _  _  _________
 72
65
 73
6
 40
40.00
 49
30.00
 49
-2.00
 49
2.00
 49
-2.00
 49
2.00
 49
-2.00
  0
LTYPE
  2
DOT
 70
64
  3
 .  .  .  .  .  .  .  .  . 
 72
65
 73
2
 40
1.00
 49
0.00
 49
-1.00
  0
ENDTAB
  0
TABLE
  2
STYLE
 70
1
  0
STYLE
  2
STANDARD
 70
64
 40
0.0
 41
1.0
 42
0.0
 50
0.0
 71
0
  3
ROMANS
  4
BIGFONT
  0
ENDTAB
  0
TABLE
  2
LAYER
 70
7
  0
LAYER
  2
0_00
 70
64
 62
7
  6
CONTINUOUS
  0
LAYER
  2
2_02
 70
64
 62
7
  6
CONTINUOUS
  0
LAYER
  2
3_03
 70
64
 62
7
  6
CONTINUOUS
  0
LAYER
  2
12_0C
 70
64
 62
7
  6
CONTINUOUS
  0
LAYER
  2
13_0D
 70
64
 62
7
  6
CONTINUOUS
  0
LAYER
  2
14_0E
 70
64
 62
7
  6
CONTINUOUS
  0
LAYER
  2
15_0F
 70
64
 62
7
  6
CONTINUOUS
  0
ENDTAB
  0
ENDSEC
  0
SECTION
  2
ENTITIES
  0
LINE
  8
0_00
  6
CONTINUOUS
 62
4
 10
731.7816
 20
703.6943
 11
1085.5816
 21
703.6943
  0
LINE
  8
0_00
  6
CONTINUOUS
 62
4
 10
731.7816
 20
698.9943
 11
1085.5816
 21
698.9943
  0
LINE
  8
0_00
  6
CONTINUOUS
 62
4
 10
721.1815
 20
583.6943
 11
1096.1817
 21
583.6943
  0
LINE
  8
3_03
  6
CONTINUOUS
 62
4
 10
731.7315
 20
703.7641
 11
728.7453
 21
703.7641
  0
LINE
  8
3_03
  6
CONTINUOUS
 62
4
 10
725.6816
 20
698.9643
 11
731.7315
 21
698.9643
  0
LINE
  8
3_03
  6
CONTINUOUS
 62
4
 10
731.7816
 20
699.0142
 11
731.7816
 21
703.7142
  0
LINE
  8
3_03
  6
CONTINUOUS
 62
4
 10
725.6316
 20
702.9666
 11
725.6316
 21
699.0142
  0
LINE
  8
0_00
  6
CENTER1
 62
6
 10
728.6816
 20
706.9047
 11
728.6816
 21
607.4795
  0
LINE
  8
0_00
  6
CENTER1
 62
6
 10
857.0149
 20
706.9047
 11
857.0149
 21
607.4795
  0
LINE
  8
0_00
  6
CENTER1
 62
6
 10
960.3483
 20
706.9047
 11
960.3483
 21
607.4795
  0
LINE
  8
0_00
  6
CONTINUOUS
 62
4
 10
958.3482
 20
698.9943
 11
958.3482
 21
615.6943
  0
LINE
  8
0_00
  6
CONTINUOUS
 62
4
 10
962.3483
 20
698.9943
 11
962.3483
 21
615.6943
  0
LINE
  8
0_00
  6
CONTINUOUS
 62
4
 10
855.0149
 20
698.9943
 11
855.0149
 21
615.6943
  0
LINE
  8
0_00
  6
CONTINUOUS
 62
4
 10
859.0149
 20
698.9943
 11
859.0149
 21
615.6943
  0
LINE
  8
0_00
  6
CONTINUOUS
 62
4
 10
859.0149
 20
627.1942
 11
958.3482
 21
627.1942
  0
LINE
  8
0_00
  6
CONTINUOUS
 62
4
 10
859.0149
 20
623.6943
 11
958.3482
 21
623.6943
  0
LINE
  8
0_00
  6
CONTINUOUS
 62
4
 10
742.7316
 20
698.9943
 11
742.7316
 21
627.1942
  0
LINE
  8
0_00
  6
CONTINUOUS
 62
4
 10
740.7316
 20
627.1942
 11
740.7316
 21
698.9943
  0
LINE
  8
0_00
  6
CONTINUOUS
 62
4
 10
1096.1817
 20
614.6943
 11
1096.1817
 21
583.6943
  0
LINE
  8
0_00
  6
CONTINUOUS
 62
4
 10
751.6816
 20
698.9943
 11
751.6816
 21
615.6943
  0
LINE
  8
0_00
  6
CONTINUOUS
 62
4
 10
755.6816
 20
698.9943
 11
755.6816
 21
615.6943
  0
LINE
  8
0_00
  6
CONTINUOUS
 62
4
 10
731.7816
 20
627.1942
 11
751.6816
 21
627.1942
  0
LINE
  8
0_00
  6
CONTINUOUS
 62
4
 10
755.6816
 20
627.1942
 11
855.0149
 21
627.1942
  0
LINE
  8
0_00
  6
CONTINUOUS
 62
4
 10
731.7816
 20
623.6943
 11
751.6816
 21
623.6943
  0
LINE
  8
0_00
  6
CONTINUOUS
 62
4
 10
755.6816
 20
623.6943
 11
855.0149
 21
623.6943
  0
LINE
  8
0_00
  6
CENTER1
 62
6
 10
753.6816
 20
706.9047
 11
753.6816
 21
607.4795
  0
LINE
  8
0_00
  6
CONTINUOUS
 62
4
 10
726.1816
 20
615.6943
 11
726.1816
 21
698.9643
  0
LINE
  8
2_02
  6
CONTINUOUS
 62
4
 10
726.3815
 20
626.9943
 11
726.3815
 21
623.8442
  0
LINE
  8
2_02
  6
CONTINUOUS
 62
4
 10
731.7816
 20
627.2443
 11
731.7816
 21
623.8442
  0
LINE
  8
2_02
  6
CONTINUOUS
 62
4
 10
726.5815
 20
623.6443
 11
731.5815
 21
623.6443
  0
LINE
  8
0_00
  6
CONTINUOUS
 62
4
 10
731.7816
 20
624.4996
 11
731.7816
 21
624.3655
  0
LINE
  8
0_00
  6
CONTINUOUS
 62
4
 10
731.7816
 20
627.1942
 11
731.7816
 21
623.6943
  0
LINE
  8
0_00
  6
CONTINUOUS
 62
4
 10
731.1816
 20
698.9943
 11
731.1816
 21
627.2443
  0
LINE
  8
0_00
  6
CONTINUOUS
 62
4
 10
731.1816
 20
623.6443
 11
731.1816
 21
615.6943
  0
LINE
  8
0_00
  6
CONTINUOUS
 62
4
 10
729.9315
 20
627.2443
 11
729.9315
 21
698.9643
  0
LINE
  8
0_00
  6
CONTINUOUS
 62
4
 10
727.4316
 20
627.2443
 11
727.4316
 21
698.9643
  0
LINE
  8
2_02
  6
CONTINUOUS
 62
4
 10
726.6316
 20
627.2443
 11
731.7816
 21
627.2443
  0
LINE
  8
0_00
  6
CONTINUOUS
 62
4
 10
1085.6316
 20
703.7641
 11
1088.6180
 21
703.7641
  0
LINE
  8
0_00
  6
CONTINUOUS
 62
4
 10
1091.6817
 20
698.9643
 11
1085.6316
 21
698.9643
  0
LINE
  8
0_00
  6
CONTINUOUS
 62
4
 10
1085.5816
 20
699.0142
 11
1085.5816
 21
703.7142
  0
LINE
  8
0_00
  6
CONTINUOUS
 62
4
 10
1091.7316
 20
702.9666
 11
1091.7316
 21
699.0142
  0
LINE
  8
0_00
  6
CONTINUOUS
 62
4
 10
1074.6316
 20
698.9943
 11
1074.6316
 21
627.1942
  0
LINE
  8
0_00
  6
CONTINUOUS
 62
4
 10
1076.6316
 20
627.1942
 11
1076.6316
 21
698.9943
  0
LINE
  8
0_00
  6
CONTINUOUS
 62
4
 10
1065.6816
 20
698.9943
 11
1065.6816
 21
615.6943
  0
LINE
  8
0_00
  6
CONTINUOUS
 62
4
 10
1061.6817
 20
698.9943
 11
1061.6817
 21
615.6943
  0
LINE
  8
0_00
  6
CONTINUOUS
 62
4
 10
1085.5816
 20
627.1942
 11
1065.6816
 21
627.1942
  0
LINE
  8
0_00
  6
CONTINUOUS
 62
4
 10
1085.5816
 20
623.6943
 11
1065.6816
 21
623.6943
  0
LINE
  8
0_00
  6
CONTINUOUS
 62
4
 10
1091.1816
 20
615.6943
 11
1091.1816
 21
698.9643
  0
LINE
  8
0_00
  6
CONTINUOUS
 62
2
 10
1091.1816
 20
625.4978
 11
1091.1816
 21
626.6777
  0
LINE
  8
0_00
  6
CONTINUOUS
 62
2
 10
1091.2163
 20
626.6777
 11
1091.1816
 21
626.6777
  0
LINE
  8
0_00
  6
CONTINUOUS
 62
2
 10
1091.2163
 20
625.4978
 11
1091.1816
 21
625.4978
  0
LINE
  8
0_00
  6
CONTINUOUS
 62
2
 10
1091.2163
 20
625.4978
 11
1091.2163
 21
626.6777
  0
LINE
  8
0_00
  6
CONTINUOUS
 62
4
 10
1090.9816
 20
626.9943
 11
1090.9816
 21
623.8442
  0
LINE
  8
0_00
  6
CONTINUOUS
 62
4
 10
1085.5816
 20
627.2443
 11
1085.5816
 21
623.8442
  0
LINE
  8
0_00
  6
CONTINUOUS
 62
4
 10
1090.7816
 20
623.6443
 11
1085.7816
 21
623.6443
  0
LINE
  8
0_00
  6
CONTINUOUS
 62
4
 10
1085.5816
 20
624.4996
 11
1085.5816
 21
624.3655
  0
LINE
  8
0_00
  6
CONTINUOUS
 62
4
 10
1085.5816
 20
627.1942
 11
1085.5816
 21
623.6943
  0
LINE
  8
0_00
  6
CONTINUOUS
 62
4
 10
1086.1816
 20
698.9943
 11
1086.1816
 21
627.2443
  0
LINE
  8
0_00
  6
CONTINUOUS
 62
4
 10
1086.1816
 20
623.6443
 11
1086.1816
 21
615.6943
  0
LINE
  8
0_00
  6
CONTINUOUS
 62
4
 10
1087.4316
 20
627.2443
 11
1087.4316
 21
698.9643
  0
LINE
  8
0_00
  6
CONTINUOUS
 62
4
 10
1089.9316
 20
627.2443
 11
1089.9316
 21
698.9643
  0
LINE
  8
0_00
  6
CONTINUOUS
 62
4
 10
1090.7315
 20
627.2443
 11
1085.5816
 21
627.2443
  0
LINE
  8
0_00
  6
CENTER1
 62
6
 10
1063.6816
 20
706.9047
 11
1063.6816
 21
607.6007
  0
LINE
  8
0_00
  6
CENTER1
 62
6
 10
1088.6817
 20
706.9047
 11
1088.6817
 21
607.4795
  0
LINE
  8
0_00
  6
CONTINUOUS
 62
4
 10
962.3483
 20
627.1942
 11
1061.6817
 21
627.1942
  0
LINE
  8
0_00
  6
CONTINUOUS
 62
4
 10
962.3483
 20
623.6943
 11
1061.6817
 21
623.6943
  0
LINE
  8
0_00
  6
CONTINUOUS
 62
4
 10
1049.1149
 20
698.9943
 11
1049.1149
 21
627.1942
  0
LINE
  8
0_00
  6
CONTINUOUS
 62
4
 10
1051.1148
 20
627.1942
 11
1051.1148
 21
698.9943
  0
LINE
  8
0_00
  6
CONTINUOUS
 62
4
 10
1036.4149
 20
698.9943
 11
1036.4149
 21
627.1942
  0
LINE
  8
0_00
  6
CONTINUOUS
 62
4
 10
1038.4149
 20
627.1942
 11
1038.4149
 21
698.9943
  0
LINE
  8
0_00
  6
CONTINUOUS
 62
4
 10
1023.7148
 20
698.9943
 11
1023.7148
 21
627.1942
  0
LINE
  8
0_00
  6
CONTINUOUS
 62
4
 10
1025.7148
 20
627.1942
 11
1025.7148
 21
698.9943
  0
LINE
  8
0_00
  6
CONTINUOUS
 62
4
 10
1011.0149
 20
698.9943
 11
1011.0149
 21
627.1942
  0
LINE
  8
0_00
  6
CONTINUOUS
 62
4
 10
1013.0149
 20
627.1942
 11
1013.0149
 21
698.9943
  0
LINE
  8
0_00
  6
CONTINUOUS
 62
4
 10
974.9149
 20
698.9943
 11
974.9149
 21
627.1942
  0
LINE
  8
0_00
  6
CONTINUOUS
 62
4
 10
972.9149
 20
627.1942
 11
972.9149
 21
698.9943
  0
LINE
  8
0_00
  6
CONTINUOUS
 62
4
 10
987.6149
 20
698.9943
 11
987.6149
 21
627.1942
  0
LINE
  8
0_00
  6
CONTINUOUS
 62
4
 10
985.6149
 20
627.1942
 11
985.6149
 21
698.9943
  0
LINE
  8
0_00
  6
CONTINUOUS
 62
4
 10
1000.3150
 20
698.9943
 11
1000.3150
 21
627.1942
  0
LINE
  8
0_00
  6
CONTINUOUS
 62
4
 10
998.3149
 20
627.1942
 11
998.3149
 21
698.9943
  0
LINE
  8
0_00
  6
CONTINUOUS
 62
4
 10
945.7816
 20
698.9943
 11
945.7816
 21
627.1942
  0
LINE
  8
0_00
  6
CONTINUOUS
 62
4
 10
947.7816
 20
627.1942
 11
947.7816
 21
698.9943
  0
LINE
  8
0_00
  6
CONTINUOUS
 62
4
 10
933.0816
 20
698.9943
 11
933.0816
 21
627.1942
  0
LINE
  8
0_00
  6
CONTINUOUS
 62
4
 10
935.0815
 20
627.1942
 11
935.0815
 21
698.9943
  0
LINE
  8
0_00
  6
CONTINUOUS
 62
4
 10
920.3816
 20
698.9943
 11
920.3816
 21
627.1942
  0
LINE
  8
0_00
  6
CONTINUOUS
 62
4
 10
922.3816
 20
627.1942
 11
922.3816
 21
698.9943
  0
LINE
  8
0_00
  6
CONTINUOUS
 62
4
 10
907.6815
 20
698.9943
 11
907.6815
 21
627.1942
  0
LINE
  8
0_00
  6
CONTINUOUS
 62
4
 10
909.6815
 20
627.1942
 11
909.6815
 21
698.9943
  0
LINE
  8
0_00
  6
CONTINUOUS
 62
4
 10
896.9816
 20
698.9943
 11
896.9816
 21
627.1942
  0
LINE
  8
0_00
  6
CONTINUOUS
 62
4
 10
894.9815
 20
627.1942
 11
894.9815
 21
698.9943
  0
LINE
  8
0_00
  6
CONTINUOUS
 62
4
 10
871.5816
 20
698.9943
 11
871.5816
 21
627.1942
  0
LINE
  8
0_00
  6
CONTINUOUS
 62
4
 10
869.5815
 20
627.1942
 11
869.5815
 21
698.9943
  0
LINE
  8
0_00
  6
CONTINUOUS
 62
4
 10
884.2815
 20
698.9943
 11
884.2815
 21
627.1942
  0
LINE
  8
0_00
  6
CONTINUOUS
 62
4
 10
882.2815
 20
627.1942
 11
882.2815
 21
698.9943
  0
LINE
  8
0_00
  6
CONTINUOUS
 62
4
 10
842.4483
 20
698.9943
 11
842.4483
 21
627.1942
  0
LINE
  8
0_00
  6
CONTINUOUS
 62
4
 10
844.4482
 20
627.1942
 11
844.4482
 21
698.9943
  0
LINE
  8
0_00
  6
CONTINUOUS
 62
4
 10
829.7482
 20
698.9943
 11
829.7482
 21
627.1942
  0
LINE
  8
0_00
  6
CONTINUOUS
 62
4
 10
831.7483
 20
627.1942
 11
831.7483
 21
698.9943
  0
LINE
  8
0_00
  6
CONTINUOUS
 62
4
 10
817.0483
 20
698.9943
 11
817.0483
 21
627.1942
  0
LINE
  8
0_00
  6
CONTINUOUS
 62
4
 10
819.0482
 20
627.1942
 11
819.0482
 21
698.9943
  0
LINE
  8
0_00
  6
CONTINUOUS
 62
4
 10
804.3483
 20
698.9943
 11
804.3483
 21
627.1942
  0
LINE
  8
0_00
  6
CONTINUOUS
 62
4
 10
806.3483
 20
627.1942
 11
806.3483
 21
698.9943
  0
LINE
  8
0_00
  6
CONTINUOUS
 62
4
 10
793.6482
 20
698.9943
 11
793.6482
 21
627.1942
  0
LINE
  8
0_00
  6
CONTINUOUS
 62
4
 10
791.6483
 20
627.1942
 11
791.6483
 21
698.9943
  0
LINE
  8
0_00
  6
CONTINUOUS
 62
4
 10
768.2482
 20
698.9943
 11
768.2482
 21
627.1942
  0
LINE
  8
0_00
  6
CONTINUOUS
 62
4
 10
766.2482
 20
627.1942
 11
766.2482
 21
698.9943
  0
LINE
  8
0_00
  6
CONTINUOUS
 62
4
 10
780.9482
 20
698.9943
 11
780.9482
 21
627.1942
  0
LINE
  8
0_00
  6
CONTINUOUS
 62
4
 10
778.9482
 20
627.1942
 11
778.9482
 21
698.9943
  0
LINE
  8
0_00
  6
CENTER1
 62
6
 10
908.6816
 20
708.4304
 11
908.6816
 21
665.9073
  0
LINE
  8
0_00
  6
CENTER1
 62
6
 10
921.3816
 20
708.4304
 11
921.3816
 21
665.9073
  0
LINE
  8
0_00
  6
CONTINUOUS
 62
4
 10
1095.1816
 20
615.6943
 11
722.1816
 21
615.6943
  0
LINE
  8
0_00
  6
CONTINUOUS
 62
6
 10
1096.1817
 20
614.6943
 11
721.1815
 21
614.6943
  0
LINE
  8
0_00
  6
CONTINUOUS
 62
4
 10
1096.1817
 20
614.6943
 11
1095.1816
 21
615.6943
  0
LINE
  8
0_00
  6
CONTINUOUS
 62
4
 10
721.1815
 20
614.6943
 11
721.1815
 21
583.6943
  0
LINE
  8
0_00
  6
CONTINUOUS
 62
4
 10
721.1815
 20
614.6943
 11
722.1816
 21
615.6943
  0
LINE
  8
0_00
  6
CENTER1
 62
6
 10
321.2032
 20
748.3831
 11
321.2032
 21
135.6939
  0
LINE
  8
0_00
  6
CONTINUOUS
 62
4
 10
321.4032
 20
456.7267
 11
333.5032
 21
456.7267
  0
LINE
  8
0_00
  6
CONTINUOUS
 62
4
 10
333.5032
 20
456.7267
 11
333.9032
 21
458.2267
  0
LINE
  8
0_00
  6
CONTINUOUS
 62
4
 10
333.9032
 20
458.2267
 11
339.0032
 21
458.2267
  0
LINE
  8
0_00
  6
CONTINUOUS
 62
4
 10
339.4032
 20
458.2267
 11
341.7032
 21
458.2267
  0
LINE
  8
0_00
  6
CONTINUOUS
 62
4
 10
343.7032
 20
456.2266
 11
343.7032
 21
424.7266
  0
LINE
  8
0_00
  6
CONTINUOUS
 62
4
 10
342.2032
 20
423.2266
 11
341.5032
 21
423.2266
  0
LINE
  8
0_00
  6
CONTINUOUS
 62
4
 10
341.2032
 20
423.5267
 11
341.2032
 21
424.4267
  0
LINE
  8
0_00
  6
CONTINUOUS
 62
4
 10
341.5032
 20
424.7266
 11
342.2004
 21
424.7266
  0
LINE
  8
0_00
  6
CONTINUOUS
 62
4
 10
341.9060
 20
456.7267
 11
335.4397
 21
456.7267
  0
LINE
  8
0_00
  6
CONTINUOUS
 62
4
 10
334.9566
 20
456.3555
 11
334.6556
 21
455.2267
  0
LINE
  8
0_00
  6
CONTINUOUS
 62
4
 10
326.2032
 20
454.9267
 11
321.2032
 21
454.9267
  0
LINE
  8
0_00
  6
CONTINUOUS
 62
4
 10
334.6556
 20
455.2267
 11
326.2032
 21
454.9267
  0
LINE
  8
0_00
  6
CONTINUOUS
 62
4
 10
321.2032
 20
456.5267
 11
321.4032
 21
456.7267
  0
LINE
  8
0_00
  6
CONTINUOUS
 62
4
 10
339.0032
 20
458.2267
 11
339.2032
 21
458.0267
  0
LINE
  8
0_00
  6
CONTINUOUS
 62
4
 10
339.2032
 20
458.0267
 11
339.4032
 21
458.2267
  0
LINE
  8
0_00
  6
CONTINUOUS
 62
4
 10
321.0032
 20
456.7267
 11
308.9032
 21
456.7267
  0
LINE
  8
0_00
  6
CONTINUOUS
 62
4
 10
308.9032
 20
456.7267
 11
308.5032
 21
458.2267
  0
LINE
  8
0_00
  6
CONTINUOUS
 62
4
 10
308.5032
 20
458.2267
 11
303.4032
 21
458.2267
  0
LINE
  8
0_00
  6
CONTINUOUS
 62
4
 10
303.0032
 20
458.2267
 11
300.7032
 21
458.2267
  0
LINE
  8
0_00
  6
CONTINUOUS
 62
4
 10
300.5004
 20
456.7267
 11
306.9666
 21
456.7267
  0
LINE
  8
0_00
  6
CONTINUOUS
 62
4
 10
307.4497
 20
456.3555
 11
307.7508
 21
455.2267
  0
LINE
  8
0_00
  6
CONTINUOUS
 62
4
 10
316.2032
 20
454.9267
 11
321.2032
 21
454.9267
  0
LINE
  8
0_00
  6
CONTINUOUS
 62
4
 10
307.7508
 20
455.2267
 11
316.2032
 21
454.9267
  0
LINE
  8
0_00
  6
CONTINUOUS
 62
4
 10
321.2032
 20
456.5267
 11
321.0032
 21
456.7267
  0
LINE
  8
0_00
  6
CONTINUOUS
 62
4
 10
303.4032
 20
458.2267
 11
303.2032
 21
458.0267
  0
LINE
  8
0_00
  6
CONTINUOUS
 62
4
 10
342.5003
 20
425.0295
 11
342.2060
 21
456.4295
  0
LINE
  8
0_00
  6
CONTINUOUS
 62
4
 10
298.7032
 20
456.2266
 11
298.7032
 21
424.7266
  0
LINE
  8
0_00
  6
CONTINUOUS
 62
4
 10
300.2032
 20
423.2266
 11
300.9032
 21
423.2266
  0
LINE
  8
0_00
  6
CONTINUOUS
 62
4
 10
301.2032
 20
423.5267
 11
301.2032
 21
424.4267
  0
LINE
  8
0_00
  6
CONTINUOUS
 62
4
 10
300.9032
 20
424.7266
 11
300.2060
 21
424.7266
  0
LINE
  8
0_00
  6
CONTINUOUS
 62
4
 10
299.9060
 20
425.0295
 11
300.2004
 21
456.4295
  0
LINE
  8
0_00
  6
CONTINUOUS
 62
4
 10
303.2032
 20
458.0267
 11
303.0032
 21
458.2267
  0
LINE
  8
0_00
  6
CONTINUOUS
 62
4
 10
308.7032
 20
457.4767
 11
333.7032
 21
457.4767
  0
LINE
  8
12_0C
  6
CONTINUOUS
 62
2
 10
317.7032
 20
453.9567
 11
317.7032
 21
454.9267
  0
LINE
  8
12_0C
  6
CONTINUOUS
 62
2
 10
324.7032
 20
453.9567
 11
324.7032
 21
454.9267
  0
LINE
  8
12_0C
  6
DASHED
 62
2
 10
323.2032
 20
454.9267
 11
323.2032
 21
475.1066
  0
LINE
  8
12_0C
  6
DASHED
 62
2
 10
322.7032
 20
454.9267
 11
322.7032
 21
479.4885
  0
LINE
  8
12_0C
  6
DASHED
 62
2
 10
319.2032
 20
454.9267
 11
319.2032
 21
475.1066
  0
LINE
  8
12_0C
  6
DASHED
 62
2
 10
319.7032
 20
454.9267
 11
319.7032
 21
479.4885
  0
LINE
  8
12_0C
  6
DASHED
 62
2
 10
323.2032
 20
475.1066
 11
322.6532
 21
479.9267
  0
LINE
  8
12_0C
  6
DASHED
 62
2
 10
319.2032
 20
475.1066
 11
319.7532
 21
479.9267
  0
LINE
  8
12_0C
  6
DASHED
 62
2
 10
322.6532
 20
479.9267
 11
319.7532
 21
479.9267
  0
LINE
  8
0_00
  6
CONTINUOUS
 62
2
 10
324.7032
 20
454.9267
 11
317.7032
 21
454.9267
  0
LINE
  8
0_00
  6
CONTINUOUS
 62
4
 10
341.2032
 20
456.7267
 11
341.2032
 21
428.3266
  0
LINE
  8
0_00
  6
CONTINUOUS
 62
4
 10
335.7032
 20
456.7267
 11
335.7032
 21
428.3266
  0
LINE
  8
0_00
  6
CONTINUOUS
 62
4
 10
341.2032
 20
428.3266
 11
335.7032
 21
428.3266
  0
LINE
  8
0_00
  6
CONTINUOUS
 62
4
 10
307.7032
 20
454.5266
 11
317.7032
 21
454.5266
  0
LINE
  8
0_00
  6
CONTINUOUS
 62
4
 10
324.7032
 20
454.5266
 11
334.7032
 21
454.5266
  0
LINE
  8
0_00
  6
CONTINUOUS
 62
4
 10
334.7032
 20
430.5266
 11
307.7032
 21
430.5266
  0
LINE
  8
0_00
  6
CONTINUOUS
 62
4
 10
301.2032
 20
456.7267
 11
301.2032
 21
428.3266
  0
LINE
  8
0_00
  6
CONTINUOUS
 62
4
 10
306.7032
 20
456.7267
 11
306.7032
 21
428.3266
  0
LINE
  8
0_00
  6
CONTINUOUS
 62
4
 10
301.2032
 20
428.3266
 11
306.7032
 21
428.3266
  0
LINE
  8
0_00
  6
CENTER1
 62
6
 10
339.2032
 20
462.2993
 11
339.2032
 21
444.3538
  0
LINE
  8
0_00
  6
CENTER1
 62
6
 10
303.2032
 20
462.2993
 11
303.2032
 21
444.3538
  0
LINE
  8
12_0C
  6
CONTINUOUS
 62
2
 10
307.2032
 20
458.2267
 11
299.2032
 21
458.2267
  0
LINE
  8
12_0C
  6
CONTINUOUS
 62
2
 10
307.2032
 20
458.6266
 11
299.2032
 21
458.6266
  0
LINE
  8
12_0C
  6
CONTINUOUS
 62
2
 10
299.2032
 20
458.2267
 11
299.2032
 21
458.6266
  0
LINE
  8
12_0C
  6
CONTINUOUS
 62
2
 10
307.2032
 20
458.2267
 11
307.2032
 21
458.6266
  0
LINE
  8
0_00
  6
DASHED
 62
2
 10
305.2032
 20
458.2267
 11
305.2032
 21
451.0467
  0
LINE
  8
12_0C
  6
DASHED
 62
2
 10
304.6532
 20
458.2267
 11
304.6532
 21
446.2267
  0
LINE
  8
12_0C
  6
DASHED
 62
2
 10
304.6532
 20
446.2267
 11
301.7532
 21
446.2267
  0
LINE
  8
12_0C
  6
DASHED
 62
2
 10
305.2032
 20
451.0467
 11
304.6532
 21
446.2267
  0
LINE
  8
0_00
  6
DASHED
 62
2
 10
301.2032
 20
458.2267
 11
301.2032
 21
451.0467
  0
LINE
  8
12_0C
  6
DASHED
 62
2
 10
301.7532
 20
458.2267
 11
301.7532
 21
446.2267
  0
LINE
  8
12_0C
  6
DASHED
 62
2
 10
301.2032
 20
451.0467
 11
301.7532
 21
446.2267
  0
LINE
  8
0_00
  6
CENTER1
 62
6
 10
313.2870
 20
449.0267
 11
328.6363
 21
449.0267
  0
LINE
  8
0_00
  6
CENTER1
 62
6
 10
328.6363
 20
436.0267
 11
313.2870
 21
436.0267
  0
LINE
  8
0_00
  6
CONTINUOUS
 62
2
 10
261.2032
 20
573.6133
 11
381.2032
 21
573.6133
  0
LINE
  8
0_00
  6
CONTINUOUS
 62
2
 10
381.2032
 20
569.1134
 11
261.2032
 21
569.1134
  0
LINE
  8
0_00
  6
CONTINUOUS
 62
4
 10
346.2032
 20
684.0000
 11
346.2032
 21
573.6133
  0
LINE
  8
0_00
  6
CONTINUOUS
 62
4
 10
346.2032
 20
569.1134
 11
346.2032
 21
323.2266
  0
LINE
  8
0_00
  6
CONTINUOUS
 62
4
 10
333.7032
 20
457.4767
 11
333.7032
 21
569.1134
  0
LINE
  8
0_00
  6
CONTINUOUS
 62
4
 10
333.7032
 20
573.6133
 11
333.7032
 21
685.2500
  0
LINE
  8
0_00
  6
CONTINUOUS
 62
4
 10
308.7032
 20
685.2500
 11
308.7032
 21
573.6133
  0
LINE
  8
0_00
  6
CONTINUOUS
 62
4
 10
308.7032
 20
569.1134
 11
308.7032
 21
457.4767
  0
LINE
  8
0_00
  6
CONTINUOUS
 62
4
 10
296.2032
 20
684.0000
 11
296.2032
 21
573.6133
  0
LINE
  8
0_00
  6
CONTINUOUS
 62
4
 10
296.2032
 20
569.1134
 11
296.2032
 21
323.2266
  0
LINE
  8
0_00
  6
CONTINUOUS
 62
6
 10
333.7032
 20
591.5901
 11
366.1572
 21
624.0442
  0
LINE
  8
0_00
  6
CONTINUOUS
 62
6
 10
333.7032
 20
591.5901
 11
339.9932
 21
595.6749
  0
LINE
  8
0_00
  6
CONTINUOUS
 62
6
 10
333.7032
 20
591.5901
 11
337.7880
 21
597.8802
  0
LINE
  8
0_00
  6
CONTINUOUS
 62
6
 10
366.1572
 20
624.0442
 11
455.5096
 21
624.0442
  0
LINE
  8
0_00
  6
CONTINUOUS
 62
6
 10
346.2032
 20
509.6080
 11
366.1572
 21
529.5621
  0
LINE
  8
0_00
  6
CONTINUOUS
 62
6
 10
346.2032
 20
509.6080
 11
352.4932
 21
513.6928
  0
LINE
  8
0_00
  6
CONTINUOUS
 62
6
 10
346.2032
 20
509.6080
 11
350.2880
 21
515.8980
  0
LINE
  8
0_00
  6
CONTINUOUS
 62
6
 10
366.1572
 20
529.5621
 11
389.5573
 21
529.5621
  0
LINE
  8
0_00
  6
CONTINUOUS
 62
4
 10
220.0032
 20
770.3721
 11
251.2032
 21
770.3721
  0
LINE
  8
0_00
  6
CONTINUOUS
 62
4
 10
251.2032
 20
770.3721
 11
251.2032
 21
784.7721
  0
LINE
  8
0_00
  6
CONTINUOUS
 62
4
 10
220.0032
 20
784.7721
 11
251.2032
 21
784.7721
  0
LINE
  8
0_00
  6
CONTINUOUS
 62
4
 10
220.0032
 20
770.3721
 11
220.0032
 21
784.7721
  0
LINE
  8
0_00
  6
CONTINUOUS
 62
4
 10
391.2032
 20
770.3721
 11
422.4032
 21
770.3721
  0
LINE
  8
0_00
  6
CONTINUOUS
 62
4
 10
422.4032
 20
770.3721
 11
422.4032
 21
784.7721
  0
LINE
  8
0_00
  6
CONTINUOUS
 62
4
 10
391.2032
 20
784.7721
 11
422.4032
 21
784.7721
  0
LINE
  8
0_00
  6
CONTINUOUS
 62
4
 10
391.2032
 20
770.3721
 11
391.2032
 21
784.7721
  0
LINE
  8
12_0C
  6
CONTINUOUS
 62
2
 10
335.2032
 20
458.2267
 11
343.2032
 21
458.2267
  0
LINE
  8
12_0C
  6
CONTINUOUS
 62
2
 10
335.2032
 20
458.6266
 11
343.2032
 21
458.6266
  0
LINE
  8
12_0C
  6
CONTINUOUS
 62
2
 10
343.2032
 20
458.2267
 11
343.2032
 21
458.6266
  0
LINE
  8
12_0C
  6
CONTINUOUS
 62
2
 10
335.2032
 20
458.2267
 11
335.2032
 21
458.6266
  0
LINE
  8
0_00
  6
DASHED
 62
2
 10
337.2032
 20
458.2267
 11
337.2032
 21
451.0467
  0
LINE
  8
12_0C
  6
DASHED
 62
2
 10
337.7532
 20
458.2267
 11
337.7532
 21
446.2267
  0
LINE
  8
12_0C
  6
DASHED
 62
2
 10
337.7532
 20
446.2267
 11
340.6532
 21
446.2267
  0
LINE
  8
12_0C
  6
DASHED
 62
2
 10
337.2032
 20
451.0467
 11
337.7532
 21
446.2267
  0
LINE
  8
0_00
  6
DASHED
 62
2
 10
341.2032
 20
458.2267
 11
341.2032
 21
451.0467
  0
LINE
  8
12_0C
  6
DASHED
 62
2
 10
340.6532
 20
458.2267
 11
340.6532
 21
446.2267
  0
LINE
  8
12_0C
  6
DASHED
 62
2
 10
341.2032
 20
451.0467
 11
340.6532
 21
446.2267
  0
LINE
  8
3_03
  6
CONTINUOUS
 62
2
 10
321.2032
 20
449.6922
 11
320.8721
 21
449.8192
  0
LINE
  8
3_03
  6
CONTINUOUS
 62
2
 10
321.2032
 20
449.6922
 11
321.5339
 21
449.8191
  0
LINE
  8
3_03
  6
CONTINUOUS
 62
2
 10
320.8721
 20
449.8192
 11
320.0218
 21
450.6404
  0
LINE
  8
3_03
  6
CONTINUOUS
 62
2
 10
321.5342
 20
449.8192
 11
321.5335
 21
449.8199
  0
LINE
  8
3_03
  6
CONTINUOUS
 62
2
 10
321.5335
 20
449.8199
 11
322.3838
 21
450.6410
  0
LINE
  8
3_03
  6
CONTINUOUS
 62
2
 10
320.5377
 20
449.0267
 11
320.4106
 21
449.3577
  0
LINE
  8
3_03
  6
CONTINUOUS
 62
2
 10
320.5377
 20
449.0267
 11
320.4107
 21
448.6960
  0
LINE
  8
3_03
  6
CONTINUOUS
 62
2
 10
320.4106
 20
449.3577
 11
319.5889
 21
450.2086
  0
LINE
  8
3_03
  6
CONTINUOUS
 62
2
 10
320.4106
 20
448.6956
 11
320.4099
 21
448.6963
  0
LINE
  8
3_03
  6
CONTINUOUS
 62
2
 10
320.4099
 20
448.6963
 11
319.5888
 21
447.8460
  0
LINE
  8
3_03
  6
CONTINUOUS
 62
2
 10
321.8687
 20
449.0267
 11
321.9958
 21
448.6956
  0
LINE
  8
3_03
  6
CONTINUOUS
 62
2
 10
321.8687
 20
449.0267
 11
321.9957
 21
449.3573
  0
LINE
  8
3_03
  6
CONTINUOUS
 62
2
 10
321.9958
 20
448.6956
 11
322.8170
 21
447.8453
  0
LINE
  8
3_03
  6
CONTINUOUS
 62
2
 10
321.9958
 20
449.3577
 11
321.9964
 21
449.3570
  0
LINE
  8
3_03
  6
CONTINUOUS
 62
2
 10
321.9964
 20
449.3570
 11
322.8175
 21
450.2073
  0
LINE
  8
3_03
  6
CONTINUOUS
 62
2
 10
321.2032
 20
448.3612
 11
321.5342
 21
448.2340
  0
LINE
  8
3_03
  6
CONTINUOUS
 62
2
 10
321.2032
 20
448.3612
 11
320.8725
 21
448.2342
  0
LINE
  8
3_03
  6
CONTINUOUS
 62
2
 10
321.5342
 20
448.2340
 11
322.3846
 21
447.4129
  0
LINE
  8
3_03
  6
CONTINUOUS
 62
2
 10
320.8721
 20
448.2340
 11
320.8728
 21
448.2334
  0
LINE
  8
3_03
  6
CONTINUOUS
 62
2
 10
320.8728
 20
448.2334
 11
320.0221
 21
447.4118
  0
LINE
  8
3_03
  6
CONTINUOUS
 62
2
 10
321.2032
 20
436.6922
 11
320.8721
 21
436.8192
  0
LINE
  8
3_03
  6
CONTINUOUS
 62
2
 10
321.2032
 20
436.6922
 11
321.5339
 21
436.8191
  0
LINE
  8
3_03
  6
CONTINUOUS
 62
2
 10
320.8721
 20
436.8192
 11
320.0218
 21
437.6405
  0
LINE
  8
3_03
  6
CONTINUOUS
 62
2
 10
321.5342
 20
436.8192
 11
321.5335
 21
436.8199
  0
LINE
  8
3_03
  6
CONTINUOUS
 62
2
 10
321.5335
 20
436.8199
 11
322.3838
 21
437.6410
  0
LINE
  8
3_03
  6
CONTINUOUS
 62
2
 10
320.5377
 20
436.0267
 11
320.4106
 21
436.3577
  0
LINE
  8
3_03
  6
CONTINUOUS
 62
2
 10
320.5377
 20
436.0267
 11
320.4107
 21
435.6960
  0
LINE
  8
3_03
  6
CONTINUOUS
 62
2
 10
320.4106
 20
436.3577
 11
319.5889
 21
437.2086
  0
LINE
  8
3_03
  6
CONTINUOUS
 62
2
 10
320.4106
 20
435.6956
 11
320.4099
 21
435.6963
  0
LINE
  8
3_03
  6
CONTINUOUS
 62
2
 10
320.4099
 20
435.6963
 11
319.5888
 21
434.8460
  0
LINE
  8
3_03
  6
CONTINUOUS
 62
2
 10
321.8687
 20
436.0267
 11
321.9958
 21
435.6956
  0
LINE
  8
3_03
  6
CONTINUOUS
 62
2
 10
321.8687
 20
436.0267
 11
321.9957
 21
436.3573
  0
LINE
  8
3_03
  6
CONTINUOUS
 62
2
 10
321.9958
 20
435.6956
 11
322.8170
 21
434.8453
  0
LINE
  8
3_03
  6
CONTINUOUS
 62
2
 10
321.9958
 20
436.3577
 11
321.9964
 21
436.3570
  0
LINE
  8
3_03
  6
CONTINUOUS
 62
2
 10
321.9964
 20
436.3570
 11
322.8175
 21
437.2073
  0
LINE
  8
3_03
  6
CONTINUOUS
 62
2
 10
321.2032
 20
435.3612
 11
321.5342
 21
435.2341
  0
LINE
  8
3_03
  6
CONTINUOUS
 62
2
 10
321.2032
 20
435.3612
 11
320.8725
 21
435.2342
  0
LINE
  8
3_03
  6
CONTINUOUS
 62
2
 10
321.5342
 20
435.2341
 11
322.3846
 21
434.4129
  0
LINE
  8
3_03
  6
CONTINUOUS
 62
2
 10
320.8721
 20
435.2341
 11
320.8728
 21
435.2335
  0
LINE
  8
3_03
  6
CONTINUOUS
 62
2
 10
320.8728
 20
435.2335
 11
320.0221
 21
434.4119
  0
LINE
  8
15_0F
  6
CONTINUOUS
 62
6
 10
222.0414
 20
323.2266
 11
115.5000
 21
323.2266
  0
LINE
  8
15_0F
  6
CONTINUOUS
 62
6
 10
277.8228
 20
730.0000
 11
115.5000
 21
730.0000
  0
LINE
  8
15_0F
  6
CONTINUOUS
 62
6
 10
120.0000
 20
323.2266
 11
120.0000
 21
730.0000
  0
LINE
  8
15_0F
  6
CONTINUOUS
 62
6
 10
120.0000
 20
323.2266
 11
121.5593
 21
330.5628
  0
LINE
  8
15_0F
  6
CONTINUOUS
 62
6
 10
120.0000
 20
323.2266
 11
118.4407
 21
330.5628
  0
LINE
  8
15_0F
  6
CONTINUOUS
 62
6
 10
120.0000
 20
730.0000
 11
118.4407
 21
722.6639
  0
LINE
  8
15_0F
  6
CONTINUOUS
 62
6
 10
120.0000
 20
730.0000
 11
121.5593
 21
722.6639
  0
LINE
  8
15_0F
  6
CONTINUOUS
 62
6
 10
281.5254
 20
423.2266
 11
135.5000
 21
423.2266
  0
LINE
  8
15_0F
  6
CONTINUOUS
 62
6
 10
140.0000
 20
730.0000
 11
140.0000
 21
423.2266
  0
LINE
  8
15_0F
  6
CONTINUOUS
 62
6
 10
140.0000
 20
730.0000
 11
138.4407
 21
722.6639
  0
LINE
  8
15_0F
  6
CONTINUOUS
 62
6
 10
140.0000
 20
730.0000
 11
141.5593
 21
722.6639
  0
LINE
  8
15_0F
  6
CONTINUOUS
 62
6
 10
140.0000
 20
423.2266
 11
141.5593
 21
430.5628
  0
LINE
  8
15_0F
  6
CONTINUOUS
 62
6
 10
140.0000
 20
423.2266
 11
138.4407
 21
430.5628
  0
LINE
  8
15_0F
  6
CONTINUOUS
 62
6
 10
222.0414
 20
323.2266
 11
135.5000
 21
323.2266
  0
LINE
  8
15_0F
  6
CONTINUOUS
 62
6
 10
140.0000
 20
423.2266
 11
140.0000
 21
323.2266
  0
LINE
  8
15_0F
  6
CONTINUOUS
 62
6
 10
140.0000
 20
423.2266
 11
138.4407
 21
415.8906
  0
LINE
  8
15_0F
  6
CONTINUOUS
 62
6
 10
140.0000
 20
423.2266
 11
141.5593
 21
415.8906
  0
LINE
  8
15_0F
  6
CONTINUOUS
 62
6
 10
140.0000
 20
323.2266
 11
141.5593
 21
330.5628
  0
LINE
  8
15_0F
  6
CONTINUOUS
 62
6
 10
140.0000
 20
323.2266
 11
138.4407
 21
330.5628
  0
LINE
  8
15_0F
  6
CONTINUOUS
 62
6
 10
277.0254
 20
423.2266
 11
155.5000
 21
423.2266
  0
LINE
  8
15_0F
  6
CONTINUOUS
 62
6
 10
222.0414
 20
323.2266
 11
155.5000
 21
323.2266
  0
LINE
  8
0_00
  6
CONTINUOUS
 62
6
 10
480.0000
 20
684.5000
 11
480.0000
 21
684.0000
  0
LINE
  8
0_00
  6
CONTINUOUS
 62
4
 10
246.2032
 20
323.2266
 11
396.2032
 21
323.2266
  0
LINE
  8
0_00
  6
CENTER1
 62
6
 10
594.7826
 20
330.0623
 11
1140.4968
 21
330.0623
  0
LINE
  8
0_00
  6
CENTER1
 62
6
 10
720.0549
 20
389.7202
 11
720.0549
 21
268.0211
  0
LINE
  8
0_00
  6
CONTINUOUS
 62
2
 10
929.7786
 20
445.0623
 11
900.1602
 21
334.5252
  0
LINE
  8
0_00
  6
CONTINUOUS
 62
2
 10
925.1198
 20
445.0623
 11
894.6488
 21
331.3432
  0
LINE
  8
0_00
  6
CONTINUOUS
 62
2
 10
918.5370
 20
324.9424
 11
889.0947
 21
215.0623
  0
LINE
  8
0_00
  6
CONTINUOUS
 62
2
 10
893.7535
 20
215.0623
 11
924.0484
 21
328.1244
  0
LINE
  8
0_00
  6
CONTINUOUS
 62
2
 10
900.1602
 20
334.5252
 11
924.0484
 21
328.1244
  0
LINE
  8
0_00
  6
CONTINUOUS
 62
2
 10
918.5370
 20
324.9424
 11
894.6488
 21
331.3432
  0
LINE
  8
0_00
  6
CENTER1
 62
6
 10
812.0550
 20
356.7581
 11
812.0550
 21
303.1417
  0
LINE
  8
0_00
  6
CONTINUOUS
 62
4
 10
802.0550
 20
333.2724
 11
802.0550
 21
331.2497
  0
LINE
  8
0_00
  6
CONTINUOUS
 62
4
 10
802.2594
 20
334.8253
 11
803.7367
 21
340.3388
  0
LINE
  8
0_00
  6
CONTINUOUS
 62
4
 10
806.6344
 20
342.5623
 11
817.4754
 21
342.5623
  0
LINE
  8
0_00
  6
CONTINUOUS
 62
4
 10
820.3732
 20
340.3388
 11
821.8505
 21
334.8253
  0
LINE
  8
0_00
  6
CONTINUOUS
 62
4
 10
806.6344
 20
341.8624
 11
817.4754
 21
341.8624
  0
LINE
  8
0_00
  6
CONTINUOUS
 62
4
 10
819.6970
 20
340.1576
 11
821.1744
 21
334.6442
  0
LINE
  8
0_00
  6
CONTINUOUS
 62
4
 10
804.4128
 20
340.1576
 11
802.9355
 21
334.6442
  0
LINE
  8
0_00
  6
CONTINUOUS
 62
4
 10
802.7550
 20
331.1714
 11
802.7550
 21
333.2724
  0
LINE
  8
0_00
  6
CONTINUOUS
 62
4
 10
802.0550
 20
326.8522
 11
802.0550
 21
328.8749
  0
LINE
  8
0_00
  6
CONTINUOUS
 62
4
 10
802.2594
 20
325.2993
 11
803.7367
 21
319.7859
  0
LINE
  8
0_00
  6
CONTINUOUS
 62
4
 10
806.6344
 20
317.5623
 11
817.4754
 21
317.5623
  0
LINE
  8
0_00
  6
CONTINUOUS
 62
4
 10
820.3732
 20
319.7859
 11
821.8505
 21
325.2993
  0
LINE
  8
0_00
  6
CONTINUOUS
 62
4
 10
806.6344
 20
318.2623
 11
817.4754
 21
318.2623
  0
LINE
  8
0_00
  6
CONTINUOUS
 62
4
 10
819.6970
 20
319.9670
 11
821.1744
 21
325.4805
  0
LINE
  8
0_00
  6
CONTINUOUS
 62
4
 10
804.4128
 20
319.9670
 11
802.9355
 21
325.4805
  0
LINE
  8
0_00
  6
CONTINUOUS
 62
4
 10
802.7550
 20
328.9533
 11
802.7550
 21
326.8522
  0
LINE
  8
0_00
  6
CONTINUOUS
 62
4
 10
822.0549
 20
331.2497
 11
822.0549
 21
333.2724
  0
LINE
  8
0_00
  6
CONTINUOUS
 62
4
 10
817.7550
 20
331.5623
 11
817.7550
 21
332.0579
  0
LINE
  8
0_00
  6
CONTINUOUS
 62
4
 10
819.3549
 20
331.5623
 11
819.3549
 21
332.0579
  0
LINE
  8
0_00
  6
CONTINUOUS
 62
4
 10
816.7549
 20
331.2460
 11
816.7549
 21
331.4623
  0
LINE
  8
0_00
  6
CONTINUOUS
 62
4
 10
820.2674
 20
331.0510
 11
820.6256
 21
331.2578
  0
LINE
  8
0_00
  6
CONTINUOUS
 62
4
 10
822.0549
 20
328.8749
 11
822.0549
 21
326.8522
  0
LINE
  8
0_00
  6
CONTINUOUS
 62
4
 10
821.3549
 20
332.9606
 11
821.3549
 21
333.2724
  0
LINE
  8
0_00
  6
CONTINUOUS
 62
4
 10
821.3549
 20
327.1641
 11
821.3549
 21
326.8522
  0
LINE
  8
0_00
  6
CONTINUOUS
 62
4
 10
817.7550
 20
328.5623
 11
817.7550
 21
328.0667
  0
LINE
  8
0_00
  6
CONTINUOUS
 62
4
 10
819.3549
 20
328.5623
 11
819.3549
 21
328.0667
  0
LINE
  8
0_00
  6
CONTINUOUS
 62
4
 10
816.7549
 20
328.8787
 11
816.7549
 21
328.6623
  0
LINE
  8
0_00
  6
CONTINUOUS
 62
4
 10
820.2674
 20
329.0736
 11
820.6256
 21
328.8668
  0
LINE
  8
0_00
  6
CENTER1
 62
6
 10
628.0549
 20
356.7581
 11
628.0549
 21
303.1417
  0
LINE
  8
0_00
  6
CONTINUOUS
 62
4
 10
618.0549
 20
333.2724
 11
618.0549
 21
331.2497
  0
LINE
  8
0_00
  6
CONTINUOUS
 62
4
 10
618.2593
 20
334.8253
 11
619.7367
 21
340.3388
  0
LINE
  8
0_00
  6
CONTINUOUS
 62
4
 10
622.6345
 20
342.5623
 11
633.4754
 21
342.5623
  0
LINE
  8
0_00
  6
CONTINUOUS
 62
4
 10
636.3732
 20
340.3388
 11
637.8505
 21
334.8253
  0
LINE
  8
0_00
  6
CONTINUOUS
 62
4
 10
622.6345
 20
341.8624
 11
633.4754
 21
341.8624
  0
LINE
  8
0_00
  6
CONTINUOUS
 62
4
 10
635.6970
 20
340.1576
 11
637.1743
 21
334.6442
  0
LINE
  8
0_00
  6
CONTINUOUS
 62
4
 10
620.4128
 20
340.1576
 11
618.9355
 21
334.6442
  0
LINE
  8
0_00
  6
CONTINUOUS
 62
4
 10
618.7549
 20
331.1714
 11
618.7549
 21
333.2724
  0
LINE
  8
0_00
  6
CONTINUOUS
 62
4
 10
618.0549
 20
326.8522
 11
618.0549
 21
328.8749
  0
LINE
  8
0_00
  6
CONTINUOUS
 62
4
 10
618.2593
 20
325.2993
 11
619.7367
 21
319.7859
  0
LINE
  8
0_00
  6
CONTINUOUS
 62
4
 10
622.6345
 20
317.5623
 11
633.4754
 21
317.5623
  0
LINE
  8
0_00
  6
CONTINUOUS
 62
4
 10
636.3732
 20
319.7859
 11
637.8505
 21
325.2993
  0
LINE
  8
0_00
  6
CONTINUOUS
 62
4
 10
622.6345
 20
318.2623
 11
633.4754
 21
318.2623
  0
LINE
  8
0_00
  6
CONTINUOUS
 62
4
 10
635.6970
 20
319.9670
 11
637.1743
 21
325.4805
  0
LINE
  8
0_00
  6
CONTINUOUS
 62
4
 10
620.4128
 20
319.9670
 11
618.9355
 21
325.4805
  0
LINE
  8
0_00
  6
CONTINUOUS
 62
4
 10
618.7549
 20
328.9533
 11
618.7549
 21
326.8522
  0
LINE
  8
0_00
  6
CONTINUOUS
 62
4
 10
638.0549
 20
331.2497
 11
638.0549
 21
333.2724
  0
LINE
  8
0_00
  6
CONTINUOUS
 62
4
 10
633.7549
 20
331.5623
 11
633.7549
 21
332.0579
  0
LINE
  8
0_00
  6
CONTINUOUS
 62
4
 10
635.3549
 20
331.5623
 11
635.3549
 21
332.0579
  0
LINE
  8
0_00
  6
CONTINUOUS
 62
4
 10
632.7550
 20
331.2460
 11
632.7550
 21
331.4623
  0
LINE
  8
0_00
  6
CONTINUOUS
 62
4
 10
636.2674
 20
331.0510
 11
636.6256
 21
331.2578
  0
LINE
  8
0_00
  6
CONTINUOUS
 62
4
 10
638.0549
 20
328.8749
 11
638.0549
 21
326.8522
  0
LINE
  8
0_00
  6
CONTINUOUS
 62
4
 10
637.3549
 20
332.9606
 11
637.3549
 21
333.2724
  0
LINE
  8
0_00
  6
CONTINUOUS
 62
4
 10
637.3549
 20
327.1641
 11
637.3549
 21
326.8522
  0
LINE
  8
0_00
  6
CONTINUOUS
 62
4
 10
633.7549
 20
328.5623
 11
633.7549
 21
328.0667
  0
LINE
  8
0_00
  6
CONTINUOUS
 62
4
 10
635.3549
 20
328.5623
 11
635.3549
 21
328.0667
  0
LINE
  8
0_00
  6
CONTINUOUS
 62
4
 10
632.7550
 20
328.8787
 11
632.7550
 21
328.6623
  0
LINE
  8
0_00
  6
CONTINUOUS
 62
4
 10
636.2674
 20
329.0736
 11
636.6256
 21
328.8668
  0
LINE
  8
0_00
  6
CONTINUOUS
 62
4
 10
700.0549
 20
307.5623
 11
594.7826
 21
307.5623
  0
LINE
  8
0_00
  6
CONTINUOUS
 62
4
 10
700.0549
 20
317.3623
 11
594.7826
 21
317.3623
  0
LINE
  8
0_00
  6
CONTINUOUS
 62
4
 10
700.0549
 20
317.7623
 11
634.5524
 21
317.7623
  0
LINE
  8
0_00
  6
CONTINUOUS
 62
4
 10
700.0549
 20
342.3623
 11
634.5524
 21
342.3623
  0
LINE
  8
0_00
  6
CONTINUOUS
 62
4
 10
700.0549
 20
342.7623
 11
594.7826
 21
342.7623
  0
LINE
  8
0_00
  6
CONTINUOUS
 62
4
 10
621.5575
 20
342.3623
 11
594.7826
 21
342.3623
  0
LINE
  8
0_00
  6
CONTINUOUS
 62
4
 10
621.5575
 20
317.7623
 11
594.7826
 21
317.7623
  0
LINE
  8
0_00
  6
CONTINUOUS
 62
4
 10
913.8800
 20
307.5623
 11
740.0549
 21
307.5623
  0
LINE
  8
0_00
  6
CONTINUOUS
 62
4
 10
900.3345
 20
352.5623
 11
740.0549
 21
352.5623
  0
LINE
  8
0_00
  6
CONTINUOUS
 62
4
 10
897.7086
 20
342.7623
 11
740.0549
 21
342.7623
  0
LINE
  8
0_00
  6
CONTINUOUS
 62
4
 10
897.6014
 20
342.3623
 11
818.5524
 21
342.3623
  0
LINE
  8
0_00
  6
CONTINUOUS
 62
4
 10
805.5574
 20
342.3623
 11
740.0549
 21
342.3623
  0
LINE
  8
0_00
  6
CONTINUOUS
 62
4
 10
805.5574
 20
317.7623
 11
740.0549
 21
317.7623
  0
LINE
  8
0_00
  6
CONTINUOUS
 62
4
 10
916.5060
 20
317.3623
 11
740.0549
 21
317.3623
  0
LINE
  8
0_00
  6
CONTINUOUS
 62
4
 10
916.6132
 20
317.7623
 11
818.5524
 21
317.7623
  0
LINE
  8
0_00
  6
CONTINUOUS
 62
4
 10
700.0549
 20
352.5623
 11
594.7826
 21
352.5623
  0
LINE
  8
15_0F
  6
CONTINUOUS
 62
4
 10
1123.7267
 20
360.0628
 11
907.0031
 21
360.0628
  0
LINE
  8
15_0F
  6
CONTINUOUS
 62
4
 10
1123.7267
 20
358.6623
 11
906.6277
 21
358.6623
  0
LINE
  8
15_0F
  6
CONTINUOUS
 62
4
 10
1123.7267
 20
355.1629
 11
905.6901
 21
355.1629
  0
LINE
  8
15_0F
  6
CONTINUOUS
 62
6
 10
902.5281
 20
343.3623
 11
1123.7267
 21
343.3623
  0
LINE
  8
15_0F
  6
CONTINUOUS
 62
6
 10
1123.7267
 20
343.7623
 11
902.6353
 21
343.7623
  0
LINE
  8
15_0F
  6
CONTINUOUS
 62
4
 10
1123.7267
 20
333.9249
 11
902.4006
 21
333.9249
  0
LINE
  8
15_0F
  6
CONTINUOUS
 62
6
 10
921.0039
 20
316.7623
 11
1123.7267
 21
316.7623
  0
LINE
  8
15_0F
  6
CONTINUOUS
 62
6
 10
1123.7267
 20
316.3624
 11
920.8967
 21
316.3624
  0
LINE
  8
15_0F
  6
CONTINUOUS
 62
4
 10
1123.7267
 20
326.1998
 11
923.5327
 21
326.1998
  0
LINE
  8
15_0F
  6
CONTINUOUS
 62
4
 10
1123.7267
 20
300.0618
 11
916.5291
 21
300.0618
  0
LINE
  8
15_0F
  6
CONTINUOUS
 62
4
 10
1123.7267
 20
301.4624
 11
916.9043
 21
301.4624
  0
LINE
  8
15_0F
  6
CONTINUOUS
 62
4
 10
1123.7267
 20
304.9618
 11
917.8420
 21
304.9618
  0
LINE
  8
0_00
  6
CENTER1
 62
6
 10
1076.5550
 20
365.2186
 11
1076.5550
 21
294.9526
  0
LINE
  8
0_00
  6
CENTER1
 62
6
 10
1043.5550
 20
365.2186
 11
1043.5550
 21
294.9526
  0
LINE
  8
0_00
  6
CENTER1
 62
6
 10
1088.6165
 20
348.0623
 11
1031.8355
 21
348.0623
  0
LINE
  8
0_00
  6
CENTER1
 62
6
 10
1031.8355
 20
312.0623
 11
1088.6165
 21
312.0623
  0
LINE
  8
15_0F
  6
CONTINUOUS
 62
4
 10
1079.0044
 20
345.5623
 11
1123.7267
 21
345.5623
  0
LINE
  8
15_0F
  6
CONTINUOUS
 62
4
 10
1079.0044
 20
350.5623
 11
1123.7267
 21
350.5623
  0
LINE
  8
15_0F
  6
CONTINUOUS
 62
4
 10
904.4574
 20
350.5623
 11
1041.1055
 21
350.5623
  0
LINE
  8
15_0F
  6
CONTINUOUS
 62
4
 10
1046.0044
 20
350.5623
 11
1074.1055
 21
350.5623
  0
LINE
  8
15_0F
  6
CONTINUOUS
 62
4
 10
903.1176
 20
345.5623
 11
1041.1055
 21
345.5623
  0
LINE
  8
15_0F
  6
CONTINUOUS
 62
4
 10
1046.0044
 20
345.5623
 11
1074.1055
 21
345.5623
  0
LINE
  8
15_0F
  6
CONTINUOUS
 62
4
 10
920.4144
 20
314.5623
 11
1041.1055
 21
314.5623
  0
LINE
  8
15_0F
  6
CONTINUOUS
 62
4
 10
919.0747
 20
309.5623
 11
1041.1055
 21
309.5623
  0
LINE
  8
15_0F
  6
CONTINUOUS
 62
4
 10
1046.0044
 20
309.5623
 11
1074.1055
 21
309.5623
  0
LINE
  8
15_0F
  6
CONTINUOUS
 62
4
 10
1079.0044
 20
309.5623
 11
1123.7267
 21
309.5623
  0
LINE
  8
15_0F
  6
CONTINUOUS
 62
4
 10
1046.0044
 20
314.5623
 11
1074.1055
 21
314.5623
  0
LINE
  8
15_0F
  6
CONTINUOUS
 62
4
 10
1079.0044
 20
314.5623
 11
1123.7267
 21
314.5623
  0
LINE
  8
0_00
  6
CONTINUOUS
 62
4
 10
1060.0549
 20
360.0628
 11
1060.0549
 21
300.0618
  0
LINE
  8
0_00
  6
CENTER1
 62
6
 10
974.5550
 20
340.5152
 11
974.5550
 21
321.2527
  0
LINE
  8
0_00
  6
CENTER1
 62
6
 10
1060.0549
 20
383.7066
 11
1060.0549
 21
360.0628
  0
LINE
  8
0_00
  6
CENTER1
 62
6
 10
1060.0549
 20
300.0618
 11
1060.0549
 21
278.1850
  0
LINE
  8
0_00
  6
CONTINUOUS
 62
4
 10
1123.7267
 20
405.0623
 11
919.0606
 21
405.0623
  0
LINE
  8
0_00
  6
CONTINUOUS
 62
4
 10
914.4019
 20
405.0623
 11
594.7826
 21
405.0623
  0
LINE
  8
0_00
  6
CONTINUOUS
 62
4
 10
594.7826
 20
420.0623
 11
918.4211
 21
420.0623
  0
LINE
  8
0_00
  6
CONTINUOUS
 62
4
 10
923.0798
 20
420.0623
 11
1123.7267
 21
420.0623
  0
LINE
  8
0_00
  6
CONTINUOUS
 62
4
 10
594.7826
 20
255.0623
 11
899.8128
 21
255.0623
  0
LINE
  8
0_00
  6
CONTINUOUS
 62
4
 10
904.4714
 20
255.0623
 11
1123.7267
 21
255.0623
  0
LINE
  8
0_00
  6
CONTINUOUS
 62
4
 10
1123.7267
 20
240.0623
 11
900.4523
 21
240.0623
  0
LINE
  8
0_00
  6
CONTINUOUS
 62
4
 10
895.7935
 20
240.0623
 11
594.7826
 21
240.0623
  0
LINE
  8
0_00
  6
CONTINUOUS
 62
4
 10
351.2032
 20
722.5220
 11
351.2031
 21
683.7000
  0
LINE
  8
0_00
  6
CONTINUOUS
 62
4
 10
349.8032
 20
722.4971
 11
349.8031
 21
696.1238
  0
LINE
  8
0_00
  6
CONTINUOUS
 62
4
 10
349.8031
 20
683.7000
 11
349.8031
 21
686.8738
  0
LINE
  8
0_00
  6
CONTINUOUS
 62
4
 10
291.2032
 20
722.5220
 11
291.2032
 21
683.6949
  0
LINE
  8
0_00
  6
CONTINUOUS
 62
4
 10
292.6031
 20
722.4971
 11
292.6032
 21
696.1025
  0
LINE
  8
0_00
  6
CONTINUOUS
 62
4
 10
292.6027
 20
686.8738
 11
292.6027
 21
683.7000
  0
LINE
  8
0_00
  6
CONTINUOUS
 62
4
 10
321.2032
 20
686.2999
 11
320.9032
 21
686.0000
  0
LINE
  8
0_00
  6
CONTINUOUS
 62
4
 10
333.5032
 20
686.0000
 11
321.5032
 21
686.0000
  0
LINE
  8
0_00
  6
CONTINUOUS
 62
4
 10
321.2032
 20
686.2999
 11
321.5032
 21
686.0000
  0
LINE
  8
14_0E
  6
CONTINUOUS
 62
4
 10
334.2794
 20
687.6096
 11
325.2032
 21
688.0000
  0
LINE
  8
0_00
  6
CONTINUOUS
 62
4
 10
333.5032
 20
686.0000
 11
333.9032
 21
684.5000
  0
LINE
  8
0_00
  6
CONTINUOUS
 62
4
 10
336.7032
 20
686.2001
 11
341.7032
 21
686.2001
  0
LINE
  8
0_00
  6
CONTINUOUS
 62
4
 10
333.9032
 20
684.5000
 11
348.6032
 21
684.5000
  0
LINE
  8
0_00
  6
CONTINUOUS
 62
4
 10
339.2032
 20
684.8000
 11
338.9032
 21
684.5000
  0
LINE
  8
0_00
  6
CONTINUOUS
 62
4
 10
339.2032
 20
684.8000
 11
339.5032
 21
684.5000
  0
LINE
  8
0_00
  6
CONTINUOUS
 62
4
 10
346.5309
 20
686.0000
 11
342.0032
 21
686.0000
  0
LINE
  8
0_00
  6
CONTINUOUS
 62
4
 10
341.7032
 20
686.2001
 11
342.0032
 21
686.0000
  0
LINE
  8
0_00
  6
CONTINUOUS
 62
4
 10
336.4032
 20
686.0000
 11
335.2155
 21
686.0000
  0
LINE
  8
0_00
  6
CONTINUOUS
 62
4
 10
336.7032
 20
686.2001
 11
336.4032
 21
686.0000
  0
LINE
  8
0_00
  6
CONTINUOUS
 62
4
 10
334.5575
 20
687.3827
 11
334.8274
 21
686.3030
  0
LINE
  8
0_00
  6
CONTINUOUS
 62
4
 10
321.2032
 20
686.2999
 11
321.5032
 21
686.0000
  0
LINE
  8
0_00
  6
CONTINUOUS
 62
4
 10
308.9032
 20
686.0000
 11
320.9032
 21
686.0000
  0
LINE
  8
0_00
  6
CONTINUOUS
 62
4
 10
321.2032
 20
686.2999
 11
320.9032
 21
686.0000
  0
LINE
  8
14_0E
  6
CONTINUOUS
 62
4
 10
308.1270
 20
687.6096
 11
317.2032
 21
688.0000
  0
LINE
  8
0_00
  6
CONTINUOUS
 62
4
 10
308.9032
 20
686.0000
 11
308.5032
 21
684.5000
  0
LINE
  8
0_00
  6
CONTINUOUS
 62
4
 10
305.7032
 20
686.2001
 11
300.7032
 21
686.2001
  0
LINE
  8
0_00
  6
CONTINUOUS
 62
4
 10
296.2033
 20
684.5000
 11
293.8032
 21
684.5000
  0
LINE
  8
0_00
  6
CONTINUOUS
 62
4
 10
303.2032
 20
684.8000
 11
303.5032
 21
684.5000
  0
LINE
  8
0_00
  6
CONTINUOUS
 62
4
 10
303.2032
 20
684.8000
 11
302.9032
 21
684.5000
  0
LINE
  8
0_00
  6
CONTINUOUS
 62
4
 10
295.8754
 20
686.0000
 11
300.4032
 21
686.0000
  0
LINE
  8
0_00
  6
CONTINUOUS
 62
4
 10
300.7032
 20
686.2001
 11
300.4032
 21
686.0000
  0
LINE
  8
0_00
  6
CONTINUOUS
 62
4
 10
306.0032
 20
686.0000
 11
307.1908
 21
686.0000
  0
LINE
  8
0_00
  6
CONTINUOUS
 62
4
 10
305.7032
 20
686.2001
 11
306.0032
 21
686.0000
  0
LINE
  8
0_00
  6
CONTINUOUS
 62
4
 10
307.8488
 20
687.3827
 11
307.5789
 21
686.3030
  0
LINE
  8
0_00
  6
CONTINUOUS
 62
4
 10
325.2032
 20
688.0000
 11
317.2032
 21
688.0000
  0
LINE
  8
0_00
  6
CONTINUOUS
 62
4
 10
348.6032
 20
684.5000
 11
349.6032
 21
685.5000
  0
LINE
  8
0_00
  6
CONTINUOUS
 62
4
 10
349.6032
 20
685.5000
 11
349.6032
 21
686.8000
  0
LINE
  8
0_00
  6
CONTINUOUS
 62
4
 10
349.6032
 20
686.0000
 11
349.6032
 21
685.5000
  0
LINE
  8
0_00
  6
CONTINUOUS
 62
4
 10
348.6227
 20
688.8780
 11
349.4793
 21
688.9529
  0
LINE
  8
0_00
  6
CONTINUOUS
 62
4
 10
347.5160
 20
689.8853
 11
348.3541
 21
689.9587
  0
LINE
  8
0_00
  6
CONTINUOUS
 62
4
 10
346.6032
 20
688.8891
 11
346.6032
 21
688.4561
  0
LINE
  8
14_0E
  6
CONTINUOUS
 62
4
 10
349.7471
 20
689.3121
 11
348.6616
 21
694.6000
  0
LINE
  8
0_00
  6
CONTINUOUS
 62
4
 10
347.9154
 20
693.7593
 11
348.6218
 21
690.3179
  0
LINE
  8
0_00
  6
CONTINUOUS
 62
4
 10
348.6011
 20
694.6000
 11
348.6616
 21
694.6000
  0
LINE
  8
0_00
  6
CONTINUOUS
 62
4
 10
293.8032
 20
684.5000
 11
292.8032
 21
685.5000
  0
LINE
  8
0_00
  6
CONTINUOUS
 62
4
 10
292.8032
 20
685.5000
 11
292.8032
 21
686.8000
  0
LINE
  8
0_00
  6
CONTINUOUS
 62
4
 10
292.8032
 20
686.0000
 11
292.8032
 21
685.5000
  0
LINE
  8
0_00
  6
CONTINUOUS
 62
4
 10
293.7837
 20
688.8780
 11
292.9270
 21
688.9529
  0
LINE
  8
0_00
  6
CONTINUOUS
 62
4
 10
294.8903
 20
689.8853
 11
294.0523
 21
689.9587
  0
LINE
  8
0_00
  6
CONTINUOUS
 62
4
 10
295.8032
 20
688.8891
 11
295.8032
 21
688.4561
  0
LINE
  8
0_00
  6
CONTINUOUS
 62
4
 10
292.6593
 20
689.3121
 11
293.7448
 21
694.6000
  0
LINE
  8
0_00
  6
CONTINUOUS
 62
4
 10
294.4909
 20
693.7593
 11
293.7845
 21
690.3179
  0
LINE
  8
0_00
  6
CONTINUOUS
 62
4
 10
293.8052
 20
694.6000
 11
293.7448
 21
694.6000
  0
LINE
  8
0_00
  6
CONTINUOUS
 62
4
 10
349.8031
 20
691.9238
 11
349.8031
 21
694.3239
  0
LINE
  8
0_00
  6
CONTINUOUS
 62
4
 10
347.1031
 20
694.7238
 11
349.4031
 21
694.7238
  0
LINE
  8
0_00
  6
CONTINUOUS
 62
4
 10
346.8031
 20
695.7238
 11
349.4031
 21
695.7238
  0
LINE
  8
0_00
  6
CONTINUOUS
 62
4
 10
346.3031
 20
695.2238
 11
346.3031
 21
694.1239
  0
LINE
  8
0_00
  6
CONTINUOUS
 62
4
 10
347.1031
 20
694.7238
 11
347.1031
 21
694.5238
  0
LINE
  8
0_00
  6
CONTINUOUS
 62
4
 10
348.7226
 20
688.8293
 11
349.4380
 21
688.8919
  0
LINE
  8
0_00
  6
CONTINUOUS
 62
4
 10
349.7952
 20
689.3694
 11
349.3285
 21
691.6843
  0
LINE
  8
0_00
  6
CONTINUOUS
 62
4
 10
349.5245
 20
691.9238
 11
349.8031
 21
691.9238
  0
LINE
  8
0_00
  6
CONTINUOUS
 62
4
 10
292.6027
 20
691.9238
 11
292.6027
 21
694.3239
  0
LINE
  8
0_00
  6
CONTINUOUS
 62
4
 10
295.3027
 20
694.7238
 11
293.0027
 21
694.7238
  0
LINE
  8
0_00
  6
CONTINUOUS
 62
4
 10
295.6027
 20
695.7238
 11
293.0027
 21
695.7238
  0
LINE
  8
0_00
  6
CONTINUOUS
 62
4
 10
296.1027
 20
695.2238
 11
296.1027
 21
694.1239
  0
LINE
  8
0_00
  6
CONTINUOUS
 62
4
 10
295.3027
 20
694.7238
 11
295.3027
 21
694.5238
  0
LINE
  8
0_00
  6
CONTINUOUS
 62
4
 10
293.6832
 20
688.8293
 11
292.9678
 21
688.8919
  0
LINE
  8
0_00
  6
CONTINUOUS
 62
4
 10
292.6106
 20
689.3694
 11
293.0773
 21
691.6843
  0
LINE
  8
0_00
  6
CONTINUOUS
 62
4
 10
292.8812
 20
691.9238
 11
292.6027
 21
691.9238
  0
LINE
  8
12_0C
  6
CONTINUOUS
 62
2
 10
342.7032
 20
687.1700
 11
342.7032
 21
686.2001
  0
LINE
  8
12_0C
  6
CONTINUOUS
 62
2
 10
335.7032
 20
687.1700
 11
335.7032
 21
686.2001
  0
LINE
  8
12_0C
  6
DASHED
 62
2
 10
337.2032
 20
686.2001
 11
337.2032
 21
666.0200
  0
LINE
  8
12_0C
  6
DASHED
 62
2
 10
337.7032
 20
686.2001
 11
337.7032
 21
656.2000
  0
LINE
  8
12_0C
  6
DASHED
 62
2
 10
341.2032
 20
686.2001
 11
341.2032
 21
666.0200
  0
LINE
  8
12_0C
  6
DASHED
 62
2
 10
340.7032
 20
686.2001
 11
340.7032
 21
656.2000
  0
LINE
  8
12_0C
  6
DASHED
 62
2
 10
337.2032
 20
666.0200
 11
337.7032
 21
661.6382
  0
LINE
  8
12_0C
  6
DASHED
 62
2
 10
341.2032
 20
666.0200
 11
340.7032
 21
661.6382
  0
LINE
  8
12_0C
  6
DASHED
 62
2
 10
337.7032
 20
656.2000
 11
340.7032
 21
656.2000
  0
LINE
  8
12_0C
  6
CONTINUOUS
 62
2
 10
335.7032
 20
686.2001
 11
342.7032
 21
686.2001
  0
LINE
  8
12_0C
  6
DASHED
 62
2
 10
341.2032
 20
666.0200
 11
337.7032
 21
661.6382
  0
LINE
  8
12_0C
  6
CONTINUOUS
 62
2
 10
306.7032
 20
687.1700
 11
306.7032
 21
686.2001
  0
LINE
  8
12_0C
  6
CONTINUOUS
 62
2
 10
299.7032
 20
687.1700
 11
299.7032
 21
686.2001
  0
LINE
  8
12_0C
  6
DASHED
 62
2
 10
301.2032
 20
686.2001
 11
301.2032
 21
666.0200
  0
LINE
  8
12_0C
  6
DASHED
 62
2
 10
301.7032
 20
686.2001
 11
301.7032
 21
656.2000
  0
LINE
  8
12_0C
  6
DASHED
 62
2
 10
305.2032
 20
686.2001
 11
305.2032
 21
666.0200
  0
LINE
  8
12_0C
  6
DASHED
 62
2
 10
304.7032
 20
686.2001
 11
304.7032
 21
656.2000
  0
LINE
  8
12_0C
  6
DASHED
 62
2
 10
301.2032
 20
666.0200
 11
301.7032
 21
661.6382
  0
LINE
  8
12_0C
  6
DASHED
 62
2
 10
305.2032
 20
666.0200
 11
304.7032
 21
661.6382
  0
LINE
  8
12_0C
  6
DASHED
 62
2
 10
301.7032
 20
656.2000
 11
304.7032
 21
656.2000
  0
LINE
  8
12_0C
  6
CONTINUOUS
 62
2
 10
299.7032
 20
686.2001
 11
306.7032
 21
686.2001
  0
LINE
  8
12_0C
  6
DASHED
 62
2
 10
305.2032
 20
666.0200
 11
301.7032
 21
661.6382
  0
LINE
  8
0_00
  6
CENTER1
 62
6
 10
303.2032
 20
691.0646
 11
303.2032
 21
653.3716
  0
LINE
  8
0_00
  6
CENTER1
 62
6
 10
339.2032
 20
691.0646
 11
339.2032
 21
653.3716
  0
LINE
  8
0_00
  6
CONTINUOUS
 62
4
 10
333.7032
 20
685.2500
 11
308.7032
 21
685.2500
  0
LINE
  8
0_00
  6
CONTINUOUS
 62
4
 10
308.5032
 20
684.5000
 11
296.2032
 21
684.5000
  0
LINE
  8
12_0C
  6
CONTINUOUS
 62
2
 10
324.7032
 20
688.9700
 11
324.7032
 21
688.0000
  0
LINE
  8
12_0C
  6
CONTINUOUS
 62
2
 10
317.7032
 20
688.9700
 11
317.7032
 21
688.0000
  0
LINE
  8
12_0C
  6
DASHED
 62
2
 10
319.2032
 20
688.0000
 11
319.2032
 21
667.8200
  0
LINE
  8
12_0C
  6
DASHED
 62
2
 10
319.7032
 20
688.0000
 11
319.7032
 21
663.4381
  0
LINE
  8
12_0C
  6
DASHED
 62
2
 10
323.2032
 20
688.0000
 11
323.2032
 21
667.8200
  0
LINE
  8
12_0C
  6
DASHED
 62
2
 10
322.7032
 20
688.0000
 11
322.7032
 21
663.4381
  0
LINE
  8
12_0C
  6
DASHED
 62
2
 10
319.2032
 20
667.8200
 11
319.7532
 21
663.0000
  0
LINE
  8
12_0C
  6
DASHED
 62
2
 10
323.2032
 20
667.8200
 11
322.6532
 21
663.0000
  0
LINE
  8
12_0C
  6
DASHED
 62
2
 10
319.7532
 20
663.0000
 11
322.6532
 21
663.0000
  0
LINE
  8
0_00
  6
CONTINUOUS
 62
2
 10
317.7032
 20
688.0000
 11
324.7032
 21
688.0000
  0
LINE
  8
0_00
  6
CONTINUOUS
 62
4
 10
295.2032
 20
684.0000
 11
308.7032
 21
684.0000
  0
LINE
  8
0_00
  6
CONTINUOUS
 62
4
 10
333.7032
 20
684.0000
 11
347.2032
 21
684.0000
  0
LINE
  8
0_00
  6
CONTINUOUS
 62
4
 10
347.2032
 20
684.5000
 11
347.2032
 21
684.0000
  0
LINE
  8
0_00
  6
CONTINUOUS
 62
4
 10
295.2032
 20
684.5000
 11
295.2032
 21
684.0000
  0
LINE
  8
15_0F
  6
CONTINUOUS
 62
6
 10
291.2032
 20
737.7629
 11
291.2032
 21
779.8721
  0
LINE
  8
15_0F
  6
CONTINUOUS
 62
6
 10
351.2032
 20
737.7629
 11
351.2032
 21
779.8721
  0
LINE
  8
15_0F
  6
CONTINUOUS
 62
6
 10
291.2032
 20
775.3720
 11
351.2032
 21
775.3720
  0
LINE
  8
15_0F
  6
CONTINUOUS
 62
6
 10
291.2032
 20
775.3720
 11
298.5393
 21
773.8128
  0
LINE
  8
15_0F
  6
CONTINUOUS
 62
6
 10
291.2032
 20
775.3720
 11
298.5393
 21
776.9313
  0
LINE
  8
15_0F
  6
CONTINUOUS
 62
6
 10
351.2032
 20
775.3720
 11
343.8671
 21
776.9313
  0
LINE
  8
15_0F
  6
CONTINUOUS
 62
6
 10
351.2032
 20
775.3720
 11
343.8671
 21
773.8128
  0
LINE
  8
0_00
  6
CONTINUOUS
 62
6
 10
349.6986
 20
726.4959
 11
366.1572
 21
742.9545
  0
LINE
  8
0_00
  6
CONTINUOUS
 62
6
 10
349.6986
 20
726.4959
 11
355.9886
 21
730.5807
  0
LINE
  8
0_00
  6
CONTINUOUS
 62
6
 10
349.6986
 20
726.4959
 11
353.7834
 21
732.7858
  0
LINE
  8
0_00
  6
CONTINUOUS
 62
6
 10
366.1572
 20
742.9545
 11
425.5573
 21
742.9545
  0
LINE
  8
0_00
  6
CONTINUOUS
 62
6
 10
500.0000
 20
704.5000
 11
500.0000
 21
704.0000
  0
LINE
  8
0_00
  6
CENTER1
 62
6
 10
561.6736
 20
738.1352
 11
561.6736
 21
615.5081
  0
LINE
  8
0_00
  6
CONTINUOUS
 62
4
 10
561.6736
 20
696.0439
 11
561.3736
 21
695.7440
  0
LINE
  8
0_00
  6
CONTINUOUS
 62
4
 10
561.6736
 20
696.0439
 11
561.9736
 21
695.7440
  0
LINE
  8
14_0E
  6
CONTINUOUS
 62
4
 10
574.7498
 20
697.3536
 11
565.6736
 21
697.7439
  0
LINE
  8
0_00
  6
CONTINUOUS
 62
4
 10
561.6736
 20
696.0439
 11
561.9736
 21
695.7440
  0
LINE
  8
0_00
  6
CONTINUOUS
 62
4
 10
561.6736
 20
696.0439
 11
561.3736
 21
695.7440
  0
LINE
  8
14_0E
  6
CONTINUOUS
 62
4
 10
548.5974
 20
697.3536
 11
557.6736
 21
697.7439
  0
LINE
  8
0_00
  6
CONTINUOUS
 62
4
 10
565.6736
 20
697.7439
 11
557.6736
 21
697.7439
  0
LINE
  8
0_00
  6
CONTINUOUS
 62
4
 10
577.1736
 20
695.9439
 11
582.1736
 21
695.9439
  0
LINE
  8
0_00
  6
CONTINUOUS
 62
4
 10
576.8736
 20
695.7440
 11
575.6859
 21
695.7440
  0
LINE
  8
0_00
  6
CONTINUOUS
 62
4
 10
577.1736
 20
695.9439
 11
576.8736
 21
695.7440
  0
LINE
  8
0_00
  6
CONTINUOUS
 62
4
 10
575.0280
 20
697.1266
 11
575.2978
 21
696.0469
  0
LINE
  8
0_00
  6
CONTINUOUS
 62
4
 10
546.1736
 20
695.9439
 11
541.1736
 21
695.9439
  0
LINE
  8
0_00
  6
CONTINUOUS
 62
4
 10
541.1736
 20
695.9439
 11
540.8736
 21
695.7440
  0
LINE
  8
0_00
  6
CONTINUOUS
 62
4
 10
546.4736
 20
695.7440
 11
547.6613
 21
695.7440
  0
LINE
  8
0_00
  6
CONTINUOUS
 62
4
 10
546.1736
 20
695.9439
 11
546.4736
 21
695.7440
  0
LINE
  8
0_00
  6
CONTINUOUS
 62
4
 10
548.3193
 20
697.1266
 11
548.0493
 21
696.0469
  0
LINE
  8
15_0F
  6
CONTINUOUS
 62
6
 10
584.7749
 20
725.5847
 11
599.1523
 21
741.1649
  0
LINE
  8
15_0F
  6
CONTINUOUS
 62
6
 10
584.7749
 20
725.5847
 11
590.8960
 21
729.9185
  0
LINE
  8
15_0F
  6
CONTINUOUS
 62
6
 10
584.7749
 20
725.5847
 11
588.6041
 21
732.0335
  0
LINE
  8
15_0F
  6
CONTINUOUS
 62
6
 10
599.1523
 20
741.1649
 11
663.5523
 21
741.1649
  0
LINE
  8
0_00
  6
CONTINUOUS
 62
4
 10
561.6736
 20
696.0439
 11
561.3736
 21
695.7440
  0
LINE
  8
0_00
  6
CONTINUOUS
 62
4
 10
573.9736
 20
695.7440
 11
561.9736
 21
695.7440
  0
LINE
  8
0_00
  6
CONTINUOUS
 62
4
 10
561.6736
 20
696.0439
 11
561.9736
 21
695.7440
  0
LINE
  8
14_0E
  6
CONTINUOUS
 62
4
 10
574.7498
 20
697.3536
 11
565.6736
 21
697.7439
  0
LINE
  8
0_00
  6
CONTINUOUS
 62
4
 10
561.6736
 20
696.0439
 11
561.9736
 21
695.7440
  0
LINE
  8
0_00
  6
CONTINUOUS
 62
4
 10
549.3736
 20
695.7440
 11
561.3736
 21
695.7440
  0
LINE
  8
0_00
  6
CONTINUOUS
 62
4
 10
561.6736
 20
696.0439
 11
561.3736
 21
695.7440
  0
LINE
  8
14_0E
  6
CONTINUOUS
 62
4
 10
548.5974
 20
697.3536
 11
557.6736
 21
697.7439
  0
LINE
  8
0_00
  6
CONTINUOUS
 62
4
 10
565.6736
 20
697.7439
 11
557.6736
 21
697.7439
  0
LINE
  8
0_00
  6
CONTINUOUS
 62
4
 10
574.3736
 20
694.2440
 11
579.3736
 21
694.2440
  0
LINE
  8
0_00
  6
CONTINUOUS
 62
4
 10
573.9736
 20
695.7440
 11
574.3736
 21
694.2440
  0
LINE
  8
0_00
  6
CONTINUOUS
 62
4
 10
577.1736
 20
695.9439
 11
582.1736
 21
695.9439
  0
LINE
  8
0_00
  6
CONTINUOUS
 62
4
 10
579.9736
 20
694.2440
 11
589.0736
 21
694.2440
  0
LINE
  8
0_00
  6
CONTINUOUS
 62
4
 10
579.6736
 20
694.5439
 11
579.3736
 21
694.2440
  0
LINE
  8
0_00
  6
CONTINUOUS
 62
4
 10
579.6736
 20
694.5439
 11
579.9736
 21
694.2440
  0
LINE
  8
0_00
  6
CONTINUOUS
 62
4
 10
587.0013
 20
695.7440
 11
582.4736
 21
695.7440
  0
LINE
  8
0_00
  6
CONTINUOUS
 62
4
 10
582.1736
 20
695.9439
 11
582.4736
 21
695.7440
  0
LINE
  8
0_00
  6
CONTINUOUS
 62
4
 10
576.8736
 20
695.7440
 11
575.6859
 21
695.7440
  0
LINE
  8
0_00
  6
CONTINUOUS
 62
4
 10
577.1736
 20
695.9439
 11
576.8736
 21
695.7440
  0
LINE
  8
0_00
  6
CONTINUOUS
 62
4
 10
575.0280
 20
697.1266
 11
575.2978
 21
696.0469
  0
LINE
  8
0_00
  6
CONTINUOUS
 62
4
 10
589.0736
 20
694.2440
 11
590.0736
 21
695.2440
  0
LINE
  8
0_00
  6
CONTINUOUS
 62
4
 10
590.0736
 20
695.2440
 11
590.0736
 21
696.5440
  0
LINE
  8
0_00
  6
CONTINUOUS
 62
4
 10
590.0736
 20
695.7440
 11
590.0736
 21
695.2440
  0
LINE
  8
0_00
  6
CONTINUOUS
 62
4
 10
589.0930
 20
698.6219
 11
589.9498
 21
698.6968
  0
LINE
  8
0_00
  6
CONTINUOUS
 62
4
 10
587.9865
 20
699.6292
 11
588.8245
 21
699.7026
  0
LINE
  8
0_00
  6
CONTINUOUS
 62
4
 10
587.0736
 20
698.6331
 11
587.0736
 21
698.2002
  0
LINE
  8
0_00
  6
CONTINUOUS
 62
4
 10
590.2175
 20
699.0560
 11
589.1320
 21
704.3440
  0
LINE
  8
0_00
  6
CONTINUOUS
 62
4
 10
588.3858
 20
703.5032
 11
589.0922
 21
700.0617
  0
LINE
  8
0_00
  6
CONTINUOUS
 62
4
 10
589.0715
 20
704.3440
 11
589.1320
 21
704.3440
  0
LINE
  8
0_00
  6
CONTINUOUS
 62
4
 10
591.6742
 20
704.4905
 11
591.6741
 21
695.2827
  0
LINE
  8
0_00
  6
CONTINUOUS
 62
4
 10
590.2741
 20
696.6405
 11
590.2741
 21
694.3000
  0
LINE
  8
0_00
  6
CONTINUOUS
 62
4
 10
590.2742
 20
701.6905
 11
590.2742
 21
704.0865
  0
LINE
  8
0_00
  6
CONTINUOUS
 62
4
 10
587.5742
 20
704.4905
 11
589.8742
 21
704.4905
  0
LINE
  8
0_00
  6
CONTINUOUS
 62
4
 10
586.7742
 20
704.7905
 11
586.7742
 21
703.8905
  0
LINE
  8
0_00
  6
CONTINUOUS
 62
4
 10
587.5742
 20
704.4905
 11
587.5742
 21
704.2905
  0
LINE
  8
0_00
  6
CONTINUOUS
 62
4
 10
589.1937
 20
698.5960
 11
589.9090
 21
698.6586
  0
LINE
  8
0_00
  6
CONTINUOUS
 62
4
 10
590.2663
 20
699.1361
 11
589.7995
 21
701.4510
  0
LINE
  8
0_00
  6
CONTINUOUS
 62
4
 10
589.9956
 20
701.6905
 11
590.2742
 21
701.6905
  0
LINE
  8
0_00
  6
CONTINUOUS
 62
4
 10
587.7742
 20
705.7905
 11
590.3742
 21
705.7905
  0
LINE
  8
0_00
  6
CONTINUOUS
 62
4
 10
548.9735
 20
694.2440
 11
543.9736
 21
694.2440
  0
LINE
  8
0_00
  6
CONTINUOUS
 62
4
 10
549.3736
 20
695.7440
 11
548.9735
 21
694.2440
  0
LINE
  8
0_00
  6
CONTINUOUS
 62
4
 10
546.1736
 20
695.9439
 11
541.1736
 21
695.9439
  0
LINE
  8
0_00
  6
CONTINUOUS
 62
4
 10
543.3736
 20
694.2440
 11
534.2737
 21
694.2440
  0
LINE
  8
0_00
  6
CONTINUOUS
 62
4
 10
543.6736
 20
694.5439
 11
543.9736
 21
694.2440
  0
LINE
  8
0_00
  6
CONTINUOUS
 62
4
 10
543.6736
 20
694.5439
 11
543.3736
 21
694.2440
  0
LINE
  8
0_00
  6
CONTINUOUS
 62
4
 10
536.3458
 20
695.7440
 11
540.8736
 21
695.7440
  0
LINE
  8
0_00
  6
CONTINUOUS
 62
4
 10
541.1736
 20
695.9439
 11
540.8736
 21
695.7440
  0
LINE
  8
0_00
  6
CONTINUOUS
 62
4
 10
546.4736
 20
695.7440
 11
547.6613
 21
695.7440
  0
LINE
  8
0_00
  6
CONTINUOUS
 62
4
 10
546.1736
 20
695.9439
 11
546.4736
 21
695.7440
  0
LINE
  8
0_00
  6
CONTINUOUS
 62
4
 10
548.3193
 20
697.1266
 11
548.0493
 21
696.0469
  0
LINE
  8
0_00
  6
CONTINUOUS
 62
4
 10
534.2737
 20
694.2440
 11
533.2736
 21
695.2440
  0
LINE
  8
0_00
  6
CONTINUOUS
 62
4
 10
533.2736
 20
695.2440
 11
533.2736
 21
696.5440
  0
LINE
  8
0_00
  6
CONTINUOUS
 62
4
 10
533.2736
 20
695.7440
 11
533.2736
 21
695.2440
  0
LINE
  8
0_00
  6
CONTINUOUS
 62
4
 10
534.2541
 20
698.6219
 11
533.3975
 21
698.6968
  0
LINE
  8
0_00
  6
CONTINUOUS
 62
4
 10
535.3607
 20
699.6292
 11
534.5226
 21
699.7026
  0
LINE
  8
0_00
  6
CONTINUOUS
 62
4
 10
536.2736
 20
698.6331
 11
536.2736
 21
698.2002
  0
LINE
  8
0_00
  6
CONTINUOUS
 62
4
 10
533.1297
 20
699.0560
 11
534.2152
 21
704.3440
  0
LINE
  8
0_00
  6
CONTINUOUS
 62
4
 10
534.9613
 20
703.5032
 11
534.2549
 21
700.0617
  0
LINE
  8
0_00
  6
CONTINUOUS
 62
4
 10
534.2756
 20
704.3440
 11
534.2152
 21
704.3440
  0
LINE
  8
0_00
  6
CONTINUOUS
 62
4
 10
531.6730
 20
704.4905
 11
531.6731
 21
695.2827
  0
LINE
  8
0_00
  6
CONTINUOUS
 62
4
 10
533.0730
 20
696.6405
 11
533.0731
 21
694.3000
  0
LINE
  8
0_00
  6
CONTINUOUS
 62
4
 10
533.0730
 20
701.6905
 11
533.0730
 21
704.0865
  0
LINE
  8
0_00
  6
CONTINUOUS
 62
4
 10
535.7730
 20
704.4905
 11
533.4730
 21
704.4905
  0
LINE
  8
0_00
  6
CONTINUOUS
 62
4
 10
536.5730
 20
704.7905
 11
536.5730
 21
703.8905
  0
LINE
  8
0_00
  6
CONTINUOUS
 62
4
 10
535.7730
 20
704.4905
 11
535.7730
 21
704.2905
  0
LINE
  8
0_00
  6
CONTINUOUS
 62
4
 10
534.1536
 20
698.5960
 11
533.4382
 21
698.6586
  0
LINE
  8
0_00
  6
CONTINUOUS
 62
4
 10
533.0809
 20
699.1361
 11
533.5477
 21
701.4510
  0
LINE
  8
0_00
  6
CONTINUOUS
 62
4
 10
533.3516
 20
701.6905
 11
533.0730
 21
701.6905
  0
LINE
  8
0_00
  6
CONTINUOUS
 62
4
 10
535.5730
 20
705.7905
 11
532.9730
 21
705.7905
  0
LINE
  8
0_00
  6
CONTINUOUS
 62
4
 10
538.1736
 20
695.7440
 11
539.6736
 21
695.7440
  0
LINE
  8
0_00
  6
CONTINUOUS
 62
4
 10
536.6736
 20
693.7439
 11
536.6736
 21
621.6125
  0
LINE
  8
0_00
  6
CONTINUOUS
 62
4
 10
549.1736
 20
694.9939
 11
549.1736
 21
621.6125
  0
LINE
  8
0_00
  6
CONTINUOUS
 62
4
 10
574.1736
 20
694.9939
 11
549.1736
 21
694.9939
  0
LINE
  8
0_00
  6
CONTINUOUS
 62
4
 10
574.1736
 20
621.6125
 11
574.1736
 21
694.9939
  0
LINE
  8
0_00
  6
CONTINUOUS
 62
4
 10
586.6736
 20
693.7439
 11
586.6736
 21
621.6125
  0
LINE
  8
0_00
  6
CONTINUOUS
 62
4
 10
574.1736
 20
693.7439
 11
587.6736
 21
693.7439
  0
LINE
  8
0_00
  6
CONTINUOUS
 62
4
 10
587.6736
 20
694.2440
 11
587.6736
 21
693.7439
  0
LINE
  8
0_00
  6
CONTINUOUS
 62
4
 10
535.6736
 20
693.7439
 11
549.1736
 21
693.7439
  0
LINE
  8
0_00
  6
CONTINUOUS
 62
4
 10
535.6736
 20
694.2440
 11
535.6736
 21
693.7439
  0
LINE
  8
12_0C
  6
DASHED
 62
2
 10
563.6736
 20
697.7439
 11
563.6736
 21
677.5640
  0
LINE
  8
12_0C
  6
CONTINUOUS
 62
2
 10
565.1736
 20
698.7140
 11
565.1736
 21
697.7439
  0
LINE
  8
12_0C
  6
CONTINUOUS
 62
2
 10
558.1736
 20
698.7140
 11
558.1736
 21
697.7439
  0
LINE
  8
12_0C
  6
DASHED
 62
2
 10
559.6736
 20
697.7439
 11
559.6736
 21
677.5640
  0
LINE
  8
12_0C
  6
DASHED
 62
2
 10
560.1736
 20
697.7439
 11
560.1736
 21
673.1821
  0
LINE
  8
12_0C
  6
DASHED
 62
2
 10
563.1736
 20
697.7439
 11
563.1736
 21
673.1821
  0
LINE
  8
12_0C
  6
DASHED
 62
2
 10
559.6736
 20
677.5640
 11
560.2235
 21
672.7440
  0
LINE
  8
12_0C
  6
DASHED
 62
2
 10
563.6736
 20
677.5640
 11
563.1236
 21
672.7440
  0
LINE
  8
12_0C
  6
DASHED
 62
2
 10
560.2235
 20
672.7440
 11
563.1236
 21
672.7440
  0
LINE
  8
0_00
  6
CONTINUOUS
 62
2
 10
558.1736
 20
697.7439
 11
565.1736
 21
697.7439
  0
LINE
  8
12_0C
  6
CONTINUOUS
 62
2
 10
547.1736
 20
696.9139
 11
547.1736
 21
695.9439
  0
LINE
  8
12_0C
  6
CONTINUOUS
 62
2
 10
540.1736
 20
696.9139
 11
540.1736
 21
695.9439
  0
LINE
  8
12_0C
  6
DASHED
 62
2
 10
541.6736
 20
695.9439
 11
541.6736
 21
675.7640
  0
LINE
  8
12_0C
  6
DASHED
 62
2
 10
542.1736
 20
695.9439
 11
542.1736
 21
665.9440
  0
LINE
  8
12_0C
  6
DASHED
 62
2
 10
545.6736
 20
695.9439
 11
545.6736
 21
675.7640
  0
LINE
  8
12_0C
  6
DASHED
 62
2
 10
545.1736
 20
695.9439
 11
545.1736
 21
665.9440
  0
LINE
  8
12_0C
  6
DASHED
 62
2
 10
541.6736
 20
675.7640
 11
542.1736
 21
671.3822
  0
LINE
  8
12_0C
  6
DASHED
 62
2
 10
545.6736
 20
675.7640
 11
545.1736
 21
671.3822
  0
LINE
  8
12_0C
  6
DASHED
 62
2
 10
542.1736
 20
665.9440
 11
545.1736
 21
665.9440
  0
LINE
  8
12_0C
  6
CONTINUOUS
 62
2
 10
540.1736
 20
695.9439
 11
547.1736
 21
695.9439
  0
LINE
  8
12_0C
  6
DASHED
 62
2
 10
545.6736
 20
675.7640
 11
542.1736
 21
671.3822
  0
LINE
  8
0_00
  6
CENTER1
 62
6
 10
543.6736
 20
700.8086
 11
543.6736
 21
663.1156
  0
LINE
  8
12_0C
  6
CONTINUOUS
 62
2
 10
583.1736
 20
696.9139
 11
583.1736
 21
695.9439
  0
LINE
  8
12_0C
  6
CONTINUOUS
 62
2
 10
576.1736
 20
696.9139
 11
576.1736
 21
695.9439
  0
LINE
  8
12_0C
  6
DASHED
 62
2
 10
577.6736
 20
695.9439
 11
577.6736
 21
675.7640
  0
LINE
  8
12_0C
  6
DASHED
 62
2
 10
578.1736
 20
695.9439
 11
578.1736
 21
665.9440
  0
LINE
  8
12_0C
  6
DASHED
 62
2
 10
581.6736
 20
695.9439
 11
581.6736
 21
675.7640
  0
LINE
  8
12_0C
  6
DASHED
 62
2
 10
581.1736
 20
695.9439
 11
581.1736
 21
665.9440
  0
LINE
  8
12_0C
  6
DASHED
 62
2
 10
577.6736
 20
675.7640
 11
578.1736
 21
671.3822
  0
LINE
  8
12_0C
  6
DASHED
 62
2
 10
581.6736
 20
675.7640
 11
581.1736
 21
671.3822
  0
LINE
  8
12_0C
  6
DASHED
 62
2
 10
578.1736
 20
665.9440
 11
581.1736
 21
665.9440
  0
LINE
  8
12_0C
  6
CONTINUOUS
 62
2
 10
576.1736
 20
695.9439
 11
583.1736
 21
695.9439
  0
LINE
  8
12_0C
  6
DASHED
 62
2
 10
581.6736
 20
675.7640
 11
578.1736
 21
671.3822
  0
LINE
  8
0_00
  6
CENTER1
 62
6
 10
579.6736
 20
700.8086
 11
579.6736
 21
663.1156
  0
LINE
  8
0_00
  6
CONTINUOUS
 62
2
 10
876.7982
 20
717.4691
 11
860.0854
 21
717.4691
  0
LINE
  8
0_00
  6
CONTINUOUS
 62
2
 10
860.0854
 20
717.4691
 11
867.4215
 21
715.9098
  0
LINE
  8
0_00
  6
CONTINUOUS
 62
2
 10
860.0854
 20
717.4691
 11
867.4215
 21
719.0284
  0
LINE
  8
0_00
  6
CONTINUOUS
 62
2
 10
876.7982
 20
717.4691
 11
876.7982
 21
598.6539
  0
LINE
  8
0_00
  6
CONTINUOUS
 62
2
 10
876.7982
 20
598.6539
 11
860.0854
 21
598.6539
  0
LINE
  8
0_00
  6
CONTINUOUS
 62
2
 10
860.0854
 20
598.6539
 11
867.4215
 21
597.0945
  0
LINE
  8
0_00
  6
CONTINUOUS
 62
2
 10
860.0854
 20
598.6539
 11
867.4215
 21
600.2132
  0
LINE
  8
0_00
  6
CONTINUOUS
 62
2
 10
837.0983
 20
643.0806
 11
837.0983
 21
612.2856
  0
LINE
  8
0_00
  6
CONTINUOUS
 62
2
 10
837.0983
 20
612.2856
 11
838.6576
 21
619.6218
  0
LINE
  8
0_00
  6
CONTINUOUS
 62
2
 10
837.0983
 20
612.2856
 11
835.5390
 21
619.6218
  0
LINE
  8
0_00
  6
CONTINUOUS
 62
2
 10
981.1063
 20
701.6228
 11
981.1063
 21
676.7657
  0
LINE
  8
0_00
  6
CONTINUOUS
 62
2
 10
981.1063
 20
676.7657
 11
982.6656
 21
684.1018
  0
LINE
  8
0_00
  6
CONTINUOUS
 62
2
 10
981.1063
 20
676.7657
 11
979.5470
 21
684.1018
  0
LINE
  8
0_00
  6
CONTINUOUS
 62
2
 10
902.3316
 20
701.6228
 11
981.1063
 21
701.6228
  0
LINE
  8
0_00
  6
CONTINUOUS
 62
2
 10
902.3316
 20
701.6228
 11
902.3316
 21
643.0806
  0
LINE
  8
0_00
  6
CONTINUOUS
 62
2
 10
837.0983
 20
643.0806
 11
902.3316
 21
643.0806
  0
LINE
  8
0_00
  6
CONTINUOUS
 62
4
 10
236.2032
 20
323.2266
 11
406.2032
 21
323.2266
  0
LINE
  8
0_00
  6
DASHED
 62
2
 10
269.2032
 20
223.2267
 11
373.2032
 21
223.2267
  0
LINE
  8
0_00
  6
DASHED
 62
2
 10
271.2032
 20
216.2267
 11
371.2032
 21
216.2267
  0
LINE
  8
0_00
  6
DASHED
 62
2
 10
316.2032
 20
216.2267
 11
316.2032
 21
176.8267
  0
LINE
  8
0_00
  6
DASHED
 62
2
 10
326.2032
 20
216.2267
 11
326.2032
 21
176.8267
  0
LINE
  8
0_00
  6
DASHED
 62
2
 10
371.2032
 20
223.2267
 11
371.2032
 21
216.2267
  0
LINE
  8
0_00
  6
DASHED
 62
2
 10
271.2032
 20
223.2267
 11
271.2032
 21
216.2267
  0
LINE
  8
0_00
  6
DASHED
 62
2
 10
331.2032
 20
161.8267
 11
356.2032
 21
161.8267
  0
LINE
  8
0_00
  6
DASHED
 62
2
 10
331.2032
 20
171.8267
 11
356.2032
 21
171.8267
  0
LINE
  8
0_00
  6
DASHED
 62
2
 10
356.2032
 20
171.8267
 11
356.2032
 21
161.8267
  0
LINE
  8
0_00
  6
CONTINUOUS
 62
4
 10
421.2032
 20
308.2267
 11
421.2032
 21
160.0228
  0
LINE
  8
0_00
  6
CONTINUOUS
 62
4
 10
221.2032
 20
308.2267
 11
221.2032
 21
144.0697
  0
LINE
  8
0_00
  6
CONTINUOUS
 62
4
 10
236.2032
 20
323.2266
 11
221.2032
 21
308.2267
  0
LINE
  8
0_00
  6
CONTINUOUS
 62
4
 10
406.2032
 20
323.2266
 11
421.2032
 21
308.2267
  0
LINE
  8
0_00
  6
CONTINUOUS
 62
4
 10
241.2032
 20
303.2267
 11
241.2032
 21
144.0697
  0
LINE
  8
0_00
  6
DASHED
 62
2
 10
269.2032
 20
223.2267
 11
269.2032
 21
303.2267
  0
LINE
  8
0_00
  6
DASHED
 62
2
 10
342.9532
 20
223.2267
 11
342.9532
 21
373.2266
  0
LINE
  8
0_00
  6
DASHED
 62
2
 10
299.4532
 20
373.2266
 11
299.4532
 21
223.2267
  0
LINE
  8
0_00
  6
DASHED
 62
2
 10
339.7532
 20
373.2266
 11
339.7532
 21
223.2267
  0
LINE
  8
0_00
  6
DASHED
 62
2
 10
302.6532
 20
373.2266
 11
302.6532
 21
223.2267
  0
LINE
  8
0_00
  6
DASHED
 62
2
 10
310.9532
 20
323.2266
 11
331.4532
 21
323.2266
  0
LINE
  8
0_00
  6
DASHED
 62
2
 10
336.4532
 20
373.2266
 11
336.4532
 21
328.2266
  0
LINE
  8
0_00
  6
DASHED
 62
2
 10
305.9532
 20
373.2266
 11
305.9532
 21
328.2266
  0
LINE
  8
0_00
  6
DASHED
 62
2
 10
299.4532
 20
373.2266
 11
305.9532
 21
373.2266
  0
LINE
  8
0_00
  6
DASHED
 62
2
 10
336.4532
 20
373.2266
 11
342.9532
 21
373.2266
  0
LINE
  8
0_00
  6
DASHED
 62
2
 10
346.2032
 20
323.2266
 11
346.2032
 21
223.2267
  0
LINE
  8
0_00
  6
DASHED
 62
2
 10
296.2032
 20
323.2266
 11
296.2032
 21
223.2267
  0
LINE
  8
0_00
  6
CONTINUOUS
 62
2
 10
262.8020
 20
303.2267
 11
241.2032
 21
281.6278
  0
LINE
  8
0_00
  6
CONTINUOUS
 62
2
 10
267.0446
 20
303.2267
 11
241.2032
 21
277.3852
  0
LINE
  8
0_00
  6
CONTINUOUS
 62
2
 10
269.2032
 20
301.1426
 11
241.2032
 21
273.1426
  0
LINE
  8
0_00
  6
CONTINUOUS
 62
2
 10
290.3533
 20
216.2267
 11
241.2032
 21
167.0765
  0
LINE
  8
0_00
  6
CONTINUOUS
 62
2
 10
294.5959
 20
216.2267
 11
241.2032
 21
162.8339
  0
LINE
  8
0_00
  6
CONTINUOUS
 62
2
 10
298.8386
 20
216.2267
 11
241.7032
 21
159.0913
  0
LINE
  8
0_00
  6
CONTINUOUS
 62
2
 10
401.2032
 20
212.5253
 11
332.7477
 21
144.0697
  0
LINE
  8
0_00
  6
CONTINUOUS
 62
2
 10
401.2032
 20
208.2826
 11
336.9903
 21
144.0697
  0
LINE
  8
0_00
  6
CONTINUOUS
 62
2
 10
401.2032
 20
204.0400
 11
341.2329
 21
144.0697
  0
LINE
  8
0_00
  6
CENTER1
 62
6
 10
285.1643
 20
313.2267
 11
358.9894
 21
313.2267
  0
LINE
  8
0_00
  6
CONTINUOUS
 62
6
 10
334.8246
 20
293.7741
 11
379.5324
 21
338.4819
  0
LINE
  8
0_00
  6
CONTINUOUS
 62
6
 10
334.8246
 20
293.7741
 11
341.1146
 21
297.8589
  0
LINE
  8
0_00
  6
CONTINUOUS
 62
6
 10
334.8246
 20
293.7741
 11
338.9094
 21
300.0641
  0
LINE
  8
0_00
  6
CONTINUOUS
 62
6
 10
379.5324
 20
338.4819
 11
417.3324
 21
338.4819
  0
LINE
  8
0_00
  6
CONTINUOUS
 62
6
 10
342.9532
 20
223.2267
 11
379.4476
 21
259.7211
  0
LINE
  8
0_00
  6
CONTINUOUS
 62
6
 10
342.9532
 20
223.2267
 11
349.2432
 21
227.3115
  0
LINE
  8
0_00
  6
CONTINUOUS
 62
6
 10
342.9532
 20
223.2267
 11
347.0379
 21
229.5167
  0
LINE
  8
0_00
  6
CONTINUOUS
 62
6
 10
379.4476
 20
259.7211
 11
417.2476
 21
259.7211
  0
LINE
  8
0_00
  6
CONTINUOUS
 62
6
 10
350.2811
 20
167.1734
 11
367.7207
 21
141.1339
  0
LINE
  8
0_00
  6
CONTINUOUS
 62
6
 10
350.2811
 20
167.1734
 11
353.0678
 21
160.2103
  0
LINE
  8
0_00
  6
CONTINUOUS
 62
6
 10
350.2811
 20
167.1734
 11
355.6590
 21
161.9458
  0
LINE
  8
0_00
  6
CONTINUOUS
 62
6
 10
367.7207
 20
141.1339
 11
448.7207
 21
141.1339
  0
LINE
  8
0_00
  6
CONTINUOUS
 62
4
 10
401.2032
 20
303.2267
 11
401.2032
 21
274.0370
  0
LINE
  8
0_00
  6
CONTINUOUS
 62
4
 10
401.2032
 20
249.8806
 11
401.2032
 21
160.0228
  0
LINE
  8
0_00
  6
CONTINUOUS
 62
2
 10
373.2032
 20
229.0730
 11
397.0708
 21
252.9406
  0
LINE
  8
0_00
  6
CONTINUOUS
 62
2
 10
373.2032
 20
233.3156
 11
392.3493
 21
252.4617
  0
LINE
  8
0_00
  6
CONTINUOUS
 62
2
 10
373.2032
 20
237.5583
 11
388.1310
 21
252.4861
  0
LINE
  8
0_00
  6
CONTINUOUS
 62
6
 10
294.0994
 20
325.3305
 11
269.5906
 21
349.8393
  0
LINE
  8
0_00
  6
CONTINUOUS
 62
6
 10
294.0994
 20
325.3305
 11
290.0146
 21
331.6205
  0
LINE
  8
0_00
  6
CONTINUOUS
 62
6
 10
294.0994
 20
325.3305
 11
287.8093
 21
329.4153
  0
LINE
  8
0_00
  6
CONTINUOUS
 62
2
 10
348.3070
 20
325.3305
 11
346.2032
 21
323.2266
  0
LINE
  8
0_00
  6
CONTINUOUS
 62
2
 10
346.6138
 20
327.8799
 11
346.2032
 21
327.4693
  0
LINE
  8
0_00
  6
CONTINUOUS
 62
2
 10
350.8564
 20
323.6373
 11
350.4458
 21
323.2266
  0
LINE
  8
0_00
  6
CONTINUOUS
 62
6
 10
269.5906
 20
349.8393
 11
166.9906
 21
349.8393
  0
LINE
  8
0_00
  6
DASHED
 62
2
 10
373.2032
 20
223.2267
 11
373.2032
 21
303.2267
  0
LINE
  8
0_00
  6
CONTINUOUS
 62
4
 10
373.2032
 20
303.2267
 11
401.2032
 21
303.2267
  0
LINE
  8
0_00
  6
DASHED
 62
2
 10
269.2032
 20
303.2267
 11
373.2032
 21
303.2267
  0
LINE
  8
0_00
  6
CONTINUOUS
 62
4
 10
241.2032
 20
303.2267
 11
269.2032
 21
303.2267
  0
LINE
  8
0_00
  6
CONTINUOUS
 62
2
 10
296.2032
 20
325.6307
 11
293.7991
 21
323.2266
  0
LINE
  8
0_00
  6
CONTINUOUS
 62
2
 10
755.6816
 20
616.2942
 11
751.6816
 21
616.2942
  0
LINE
  8
0_00
  6
CONTINUOUS
 62
2
 10
731.1816
 20
616.2942
 11
726.1816
 21
616.2942
  0
LINE
  8
0_00
  6
CONTINUOUS
 62
2
 10
1091.1816
 20
616.2942
 11
1086.1816
 21
616.2942
  0
LINE
  8
0_00
  6
CONTINUOUS
 62
2
 10
859.0149
 20
616.2942
 11
855.0149
 21
616.2942
  0
LINE
  8
0_00
  6
CONTINUOUS
 62
2
 10
962.3483
 20
616.2942
 11
958.3482
 21
616.2942
  0
LINE
  8
0_00
  6
CONTINUOUS
 62
2
 10
1065.6816
 20
616.2942
 11
1061.6817
 21
616.2942
  0
LINE
  8
0_00
  6
CONTINUOUS
 62
4
 10
738.0549
 20
332.5623
 11
738.0549
 21
327.5623
  0
LINE
  8
0_00
  6
CONTINUOUS
 62
4
 10
720.3549
 20
355.0623
 11
737.5550
 21
355.0623
  0
LINE
  8
0_00
  6
CONTINUOUS
 62
4
 10
738.8549
 20
344.7726
 11
738.8549
 21
333.3623
  0
LINE
  8
0_00
  6
CONTINUOUS
 62
4
 10
738.8549
 20
333.3623
 11
738.0549
 21
332.5623
  0
LINE
  8
0_00
  6
CONTINUOUS
 62
4
 10
738.2550
 20
353.0623
 11
729.5549
 21
353.0623
  0
LINE
  8
0_00
  6
CONTINUOUS
 62
4
 10
710.5550
 20
353.0623
 11
701.8549
 21
353.0623
  0
LINE
  8
0_00
  6
CONTINUOUS
 62
4
 10
701.2549
 20
344.7726
 11
701.2549
 21
333.3623
  0
LINE
  8
0_00
  6
CONTINUOUS
 62
4
 10
701.2549
 20
333.3623
 11
702.0549
 21
332.5623
  0
LINE
  8
0_00
  6
CONTINUOUS
 62
4
 10
702.0549
 20
327.5623
 11
702.0549
 21
332.5623
  0
LINE
  8
0_00
  6
CONTINUOUS
 62
4
 10
740.0549
 20
352.5623
 11
740.0549
 21
330.3623
  0
LINE
  8
0_00
  6
CONTINUOUS
 62
4
 10
740.0549
 20
329.7623
 11
740.0549
 21
307.5623
  0
LINE
  8
0_00
  6
CONTINUOUS
 62
4
 10
700.0549
 20
352.5623
 11
700.0549
 21
330.3623
  0
LINE
  8
0_00
  6
CONTINUOUS
 62
4
 10
700.0549
 20
329.7623
 11
700.0549
 21
307.5623
  0
LINE
  8
0_00
  6
CONTINUOUS
 62
4
 10
734.7050
 20
349.2979
 11
734.7050
 21
350.3990
  0
LINE
  8
0_00
  6
CONTINUOUS
 62
4
 10
737.3549
 20
350.0580
 11
737.3549
 21
349.5623
  0
LINE
  8
0_00
  6
CONTINUOUS
 62
4
 10
735.7549
 20
350.0580
 11
735.7549
 21
349.5623
  0
LINE
  8
0_00
  6
CONTINUOUS
 62
4
 10
738.7050
 20
348.7840
 11
738.7050
 21
347.3406
  0
LINE
  8
0_00
  6
CONTINUOUS
 62
4
 10
738.0271
 20
348.9123
 11
738.2550
 21
349.0438
  0
LINE
  8
0_00
  6
CONTINUOUS
 62
4
 10
734.7050
 20
346.8268
 11
734.7050
 21
345.7257
  0
LINE
  8
0_00
  6
CONTINUOUS
 62
4
 10
737.3549
 20
346.0667
 11
737.3549
 21
346.5623
  0
LINE
  8
0_00
  6
CONTINUOUS
 62
4
 10
735.7549
 20
346.0667
 11
735.7549
 21
346.5623
  0
LINE
  8
0_00
  6
CONTINUOUS
 62
4
 10
738.0271
 20
347.2123
 11
738.2550
 21
347.0809
  0
LINE
  8
0_00
  6
CONTINUOUS
 62
4
 10
705.4049
 20
349.2979
 11
705.4049
 21
350.3990
  0
LINE
  8
0_00
  6
CONTINUOUS
 62
4
 10
702.7549
 20
350.0580
 11
702.7549
 21
349.5623
  0
LINE
  8
0_00
  6
CONTINUOUS
 62
4
 10
704.3550
 20
350.0580
 11
704.3550
 21
349.5623
  0
LINE
  8
0_00
  6
CONTINUOUS
 62
4
 10
701.4049
 20
348.7840
 11
701.4049
 21
347.3406
  0
LINE
  8
0_00
  6
CONTINUOUS
 62
4
 10
702.0827
 20
348.9123
 11
701.8549
 21
349.0438
  0
LINE
  8
0_00
  6
CONTINUOUS
 62
4
 10
705.4049
 20
346.8268
 11
705.4049
 21
345.7257
  0
LINE
  8
0_00
  6
CONTINUOUS
 62
4
 10
702.7549
 20
346.0667
 11
702.7549
 21
346.5623
  0
LINE
  8
0_00
  6
CONTINUOUS
 62
4
 10
704.3550
 20
346.0667
 11
704.3550
 21
346.5623
  0
LINE
  8
0_00
  6
CONTINUOUS
 62
4
 10
702.0827
 20
347.2123
 11
701.8549
 21
347.0809
  0
LINE
  8
0_00
  6
CONTINUOUS
 62
4
 10
738.7549
 20
351.4048
 11
738.7549
 21
352.5623
  0
LINE
  8
0_00
  6
CONTINUOUS
 62
4
 10
701.3549
 20
351.4048
 11
701.3549
 21
352.5623
  0
LINE
  8
0_00
  6
CONTINUOUS
 62
4
 10
723.3549
 20
353.7623
 11
728.7549
 21
353.7623
  0
LINE
  8
0_00
  6
CONTINUOUS
 62
4
 10
729.5549
 20
353.0623
 11
728.7549
 21
353.7623
  0
LINE
  8
0_00
  6
CONTINUOUS
 62
4
 10
723.3549
 20
353.7623
 11
722.5549
 21
353.0623
  0
LINE
  8
0_00
  6
CONTINUOUS
 62
4
 10
716.7550
 20
353.7623
 11
711.3549
 21
353.7623
  0
LINE
  8
0_00
  6
CONTINUOUS
 62
4
 10
710.5550
 20
353.0623
 11
711.3549
 21
353.7623
  0
LINE
  8
0_00
  6
CONTINUOUS
 62
4
 10
716.7550
 20
353.7623
 11
717.5549
 21
353.0623
  0
LINE
  8
0_00
  6
CONTINUOUS
 62
4
 10
717.5549
 20
353.0623
 11
722.5549
 21
353.0623
  0
LINE
  8
0_00
  6
CONTINUOUS
 62
4
 10
719.7550
 20
355.0623
 11
720.0549
 21
354.7623
  0
LINE
  8
0_00
  6
CONTINUOUS
 62
4
 10
720.3549
 20
355.0623
 11
720.0549
 21
354.7623
  0
LINE
  8
0_00
  6
CONTINUOUS
 62
4
 10
700.0549
 20
329.7623
 11
700.3549
 21
330.0623
  0
LINE
  8
0_00
  6
CONTINUOUS
 62
4
 10
700.0549
 20
330.3623
 11
700.3549
 21
330.0623
  0
LINE
  8
0_00
  6
CONTINUOUS
 62
4
 10
740.0549
 20
329.7623
 11
739.7550
 21
330.0623
  0
LINE
  8
0_00
  6
CONTINUOUS
 62
4
 10
740.0549
 20
330.3623
 11
739.7550
 21
330.0623
  0
LINE
  8
0_00
  6
CONTINUOUS
 62
4
 10
702.5549
 20
355.0623
 11
719.7550
 21
355.0623
  0
LINE
  8
0_00
  6
CONTINUOUS
 62
4
 10
720.3549
 20
305.0623
 11
737.5550
 21
305.0623
  0
LINE
  8
0_00
  6
CONTINUOUS
 62
4
 10
738.8549
 20
315.3521
 11
738.8549
 21
326.7624
  0
LINE
  8
0_00
  6
CONTINUOUS
 62
4
 10
738.8549
 20
326.7624
 11
738.0549
 21
327.5623
  0
LINE
  8
0_00
  6
CONTINUOUS
 62
4
 10
738.2550
 20
307.0623
 11
729.5549
 21
307.0623
  0
LINE
  8
0_00
  6
CONTINUOUS
 62
4
 10
710.5550
 20
307.0623
 11
701.8549
 21
307.0623
  0
LINE
  8
0_00
  6
CONTINUOUS
 62
4
 10
701.2549
 20
315.3521
 11
701.2549
 21
326.7624
  0
LINE
  8
0_00
  6
CONTINUOUS
 62
4
 10
701.2549
 20
326.7624
 11
702.0549
 21
327.5623
  0
LINE
  8
0_00
  6
CONTINUOUS
 62
4
 10
734.7050
 20
310.8268
 11
734.7050
 21
309.7257
  0
LINE
  8
0_00
  6
CONTINUOUS
 62
4
 10
737.3549
 20
310.0667
 11
737.3549
 21
310.5623
  0
LINE
  8
0_00
  6
CONTINUOUS
 62
4
 10
735.7549
 20
310.0667
 11
735.7549
 21
310.5623
  0
LINE
  8
0_00
  6
CONTINUOUS
 62
4
 10
738.7050
 20
311.3406
 11
738.7050
 21
312.7840
  0
LINE
  8
0_00
  6
CONTINUOUS
 62
4
 10
738.0271
 20
311.2123
 11
738.2550
 21
311.0809
  0
LINE
  8
0_00
  6
CONTINUOUS
 62
4
 10
734.7050
 20
313.2979
 11
734.7050
 21
314.3990
  0
LINE
  8
0_00
  6
CONTINUOUS
 62
4
 10
737.3549
 20
314.0580
 11
737.3549
 21
313.5623
  0
LINE
  8
0_00
  6
CONTINUOUS
 62
4
 10
735.7549
 20
314.0580
 11
735.7549
 21
313.5623
  0
LINE
  8
0_00
  6
CONTINUOUS
 62
4
 10
738.0271
 20
312.9123
 11
738.2550
 21
313.0438
  0
LINE
  8
0_00
  6
CONTINUOUS
 62
4
 10
705.4049
 20
310.8268
 11
705.4049
 21
309.7257
  0
LINE
  8
0_00
  6
CONTINUOUS
 62
4
 10
702.7549
 20
310.0667
 11
702.7549
 21
310.5623
  0
LINE
  8
0_00
  6
CONTINUOUS
 62
4
 10
704.3550
 20
310.0667
 11
704.3550
 21
310.5623
  0
LINE
  8
0_00
  6
CONTINUOUS
 62
4
 10
701.4049
 20
311.3406
 11
701.4049
 21
312.7840
  0
LINE
  8
0_00
  6
CONTINUOUS
 62
4
 10
702.0827
 20
311.2123
 11
701.8549
 21
311.0809
  0
LINE
  8
0_00
  6
CONTINUOUS
 62
4
 10
705.4049
 20
313.2979
 11
705.4049
 21
314.3990
  0
LINE
  8
0_00
  6
CONTINUOUS
 62
4
 10
702.7549
 20
314.0580
 11
702.7549
 21
313.5623
  0
LINE
  8
0_00
  6
CONTINUOUS
 62
4
 10
704.3550
 20
314.0580
 11
704.3550
 21
313.5623
  0
LINE
  8
0_00
  6
CONTINUOUS
 62
4
 10
702.0827
 20
312.9123
 11
701.8549
 21
313.0438
  0
LINE
  8
0_00
  6
CONTINUOUS
 62
4
 10
738.7549
 20
308.7198
 11
738.7549
 21
307.5623
  0
LINE
  8
0_00
  6
CONTINUOUS
 62
4
 10
701.3549
 20
308.7198
 11
701.3549
 21
307.5623
  0
LINE
  8
0_00
  6
CONTINUOUS
 62
4
 10
723.3549
 20
306.3623
 11
728.7549
 21
306.3623
  0
LINE
  8
0_00
  6
CONTINUOUS
 62
4
 10
729.5549
 20
307.0623
 11
728.7549
 21
306.3623
  0
LINE
  8
0_00
  6
CONTINUOUS
 62
4
 10
723.3549
 20
306.3623
 11
722.5549
 21
307.0623
  0
LINE
  8
0_00
  6
CONTINUOUS
 62
4
 10
716.7550
 20
306.3623
 11
711.3549
 21
306.3623
  0
LINE
  8
0_00
  6
CONTINUOUS
 62
4
 10
710.5550
 20
307.0623
 11
711.3549
 21
306.3623
  0
LINE
  8
0_00
  6
CONTINUOUS
 62
4
 10
716.7550
 20
306.3623
 11
717.5549
 21
307.0623
  0
LINE
  8
0_00
  6
CONTINUOUS
 62
4
 10
717.5549
 20
307.0623
 11
722.5549
 21
307.0623
  0
LINE
  8
0_00
  6
CONTINUOUS
 62
4
 10
719.7550
 20
305.0623
 11
720.0549
 21
305.3623
  0
LINE
  8
0_00
  6
CONTINUOUS
 62
4
 10
720.3549
 20
305.0623
 11
720.0549
 21
305.3623
  0
LINE
  8
0_00
  6
CONTINUOUS
 62
4
 10
702.5549
 20
305.0623
 11
719.7550
 21
305.0623
  0
LINE
  8
0_00
  6
CONTINUOUS
 62
4
 10
706.3049
 20
351.8123
 11
730.6049
 21
351.8123
  0
LINE
  8
0_00
  6
CONTINUOUS
 62
4
 10
730.6049
 20
308.3123
 11
706.3049
 21
308.3123
  0
LINE
  8
0_00
  6
CONTINUOUS
 62
4
 10
733.8049
 20
348.6123
 11
733.8049
 21
311.5123
  0
LINE
  8
0_00
  6
CONTINUOUS
 62
4
 10
706.3049
 20
348.6123
 11
730.6049
 21
348.6123
  0
LINE
  8
0_00
  6
CONTINUOUS
 62
4
 10
706.3049
 20
311.5123
 11
730.6049
 21
311.5123
  0
LINE
  8
0_00
  6
CONTINUOUS
 62
4
 10
730.6049
 20
348.6123
 11
730.6049
 21
311.5123
  0
LINE
  8
0_00
  6
CONTINUOUS
 62
4
 10
706.3049
 20
308.3123
 11
706.3049
 21
311.5123
  0
LINE
  8
0_00
  6
CONTINUOUS
 62
4
 10
706.3049
 20
348.6123
 11
706.3049
 21
351.8123
  0
LINE
  8
0_00
  6
CONTINUOUS
 62
4
 10
730.6049
 20
345.3123
 11
733.8049
 21
345.3123
  0
LINE
  8
0_00
  6
CONTINUOUS
 62
4
 10
730.6049
 20
314.8123
 11
733.8049
 21
314.8123
  0
LINE
  8
0_00
  6
CONTINUOUS
 62
2
 10
746.0549
 20
356.0623
 11
746.0549
 21
304.0623
  0
LINE
  8
0_00
  6
CONTINUOUS
 62
2
 10
699.0549
 20
299.0623
 11
741.0549
 21
299.0623
  0
LINE
  8
0_00
  6
CONTINUOUS
 62
2
 10
694.0550
 20
356.0623
 11
694.0550
 21
304.0623
  0
LINE
  8
0_00
  6
CONTINUOUS
 62
2
 10
699.0549
 20
361.0623
 11
741.0549
 21
361.0623
  0
LINE
  8
0_00
  6
CONTINUOUS
 62
2
 10
746.0549
 20
356.0623
 11
740.0549
 21
350.0623
  0
LINE
  8
0_00
  6
CONTINUOUS
 62
2
 10
700.0549
 20
310.0623
 11
694.0550
 21
304.0623
  0
LINE
  8
0_00
  6
CONTINUOUS
 62
2
 10
744.9488
 20
359.1988
 11
739.6603
 21
353.9104
  0
LINE
  8
0_00
  6
CONTINUOUS
 62
2
 10
700.0549
 20
314.3050
 11
694.0550
 21
308.3050
  0
LINE
  8
0_00
  6
CONTINUOUS
 62
2
 10
742.3885
 20
360.8812
 11
736.5697
 21
355.0623
  0
LINE
  8
0_00
  6
CONTINUOUS
 62
2
 10
700.0549
 20
318.5476
 11
694.0550
 21
312.5476
  0
LINE
  8
0_00
  6
CONTINUOUS
 62
2
 10
738.3270
 20
361.0623
 11
732.3270
 21
355.0623
  0
LINE
  8
0_00
  6
CONTINUOUS
 62
2
 10
700.0549
 20
322.7903
 11
694.0550
 21
316.7902
  0
LINE
  8
0_00
  6
CONTINUOUS
 62
2
 10
734.0843
 20
361.0623
 11
728.0844
 21
355.0623
  0
LINE
  8
0_00
  6
CONTINUOUS
 62
2
 10
700.0549
 20
327.0329
 11
694.0550
 21
321.0329
  0
LINE
  8
0_00
  6
CONTINUOUS
 62
2
 10
729.8417
 20
361.0623
 11
723.8417
 21
355.0623
  0
LINE
  8
0_00
  6
CONTINUOUS
 62
2
 10
700.0549
 20
331.2755
 11
694.0550
 21
325.2756
  0
LINE
  8
0_00
  6
CONTINUOUS
 62
2
 10
725.5991
 20
361.0623
 11
719.5990
 21
355.0623
  0
LINE
  8
0_00
  6
CONTINUOUS
 62
2
 10
700.0549
 20
335.5182
 11
694.0550
 21
329.5182
  0
LINE
  8
0_00
  6
CONTINUOUS
 62
2
 10
721.3564
 20
361.0623
 11
715.3564
 21
355.0623
  0
LINE
  8
0_00
  6
CONTINUOUS
 62
2
 10
700.0549
 20
339.7608
 11
694.0550
 21
333.7608
  0
LINE
  8
0_00
  6
CONTINUOUS
 62
2
 10
717.1138
 20
361.0623
 11
711.1138
 21
355.0623
  0
LINE
  8
0_00
  6
CONTINUOUS
 62
2
 10
700.0549
 20
344.0034
 11
694.0550
 21
338.0034
  0
LINE
  8
0_00
  6
CONTINUOUS
 62
2
 10
712.8711
 20
361.0623
 11
706.8712
 21
355.0623
  0
LINE
  8
0_00
  6
CONTINUOUS
 62
2
 10
700.0549
 20
348.2461
 11
694.0550
 21
342.2461
  0
LINE
  8
0_00
  6
CONTINUOUS
 62
2
 10
708.6286
 20
361.0623
 11
702.6285
 21
355.0623
  0
LINE
  8
0_00
  6
CONTINUOUS
 62
2
 10
700.0549
 20
352.4887
 11
694.0550
 21
346.4887
  0
LINE
  8
0_00
  6
CONTINUOUS
 62
2
 10
704.3859
 20
361.0623
 11
694.0550
 21
350.7314
  0
LINE
  8
0_00
  6
CONTINUOUS
 62
2
 10
700.1433
 20
361.0623
 11
694.0550
 21
354.9740
  0
LINE
  8
0_00
  6
CONTINUOUS
 62
2
 10
746.0549
 20
351.8197
 11
740.0549
 21
345.8197
  0
LINE
  8
0_00
  6
CONTINUOUS
 62
2
 10
700.4495
 20
306.2143
 11
695.1611
 21
300.9258
  0
LINE
  8
0_00
  6
CONTINUOUS
 62
2
 10
746.0549
 20
347.5770
 11
740.0549
 21
341.5770
  0
LINE
  8
0_00
  6
CONTINUOUS
 62
2
 10
703.5402
 20
305.0623
 11
697.7213
 21
299.2435
  0
LINE
  8
0_00
  6
CONTINUOUS
 62
2
 10
746.0549
 20
343.3344
 11
740.0549
 21
337.3344
  0
LINE
  8
0_00
  6
CONTINUOUS
 62
2
 10
707.7828
 20
305.0623
 11
701.7828
 21
299.0623
  0
LINE
  8
0_00
  6
CONTINUOUS
 62
2
 10
746.0549
 20
339.0918
 11
740.0549
 21
333.0918
  0
LINE
  8
0_00
  6
CONTINUOUS
 62
2
 10
712.0255
 20
305.0623
 11
706.0255
 21
299.0623
  0
LINE
  8
0_00
  6
CONTINUOUS
 62
2
 10
746.0549
 20
334.8491
 11
740.0549
 21
328.8491
  0
LINE
  8
0_00
  6
CONTINUOUS
 62
2
 10
716.2681
 20
305.0623
 11
710.2681
 21
299.0623
  0
LINE
  8
0_00
  6
CONTINUOUS
 62
2
 10
746.0549
 20
330.6065
 11
740.0549
 21
324.6065
  0
LINE
  8
0_00
  6
CONTINUOUS
 62
2
 10
720.5107
 20
305.0623
 11
714.5108
 21
299.0623
  0
LINE
  8
0_00
  6
CONTINUOUS
 62
2
 10
746.0549
 20
326.3638
 11
740.0549
 21
320.3638
  0
LINE
  8
0_00
  6
CONTINUOUS
 62
2
 10
724.7534
 20
305.0623
 11
718.7534
 21
299.0623
  0
LINE
  8
0_00
  6
CONTINUOUS
 62
2
 10
746.0549
 20
322.1212
 11
740.0549
 21
316.1212
  0
LINE
  8
0_00
  6
CONTINUOUS
 62
2
 10
728.9960
 20
305.0623
 11
722.9960
 21
299.0623
  0
LINE
  8
0_00
  6
CONTINUOUS
 62
2
 10
746.0549
 20
317.8786
 11
740.0549
 21
311.8786
  0
LINE
  8
0_00
  6
CONTINUOUS
 62
2
 10
733.2388
 20
305.0623
 11
727.2387
 21
299.0623
  0
LINE
  8
0_00
  6
CONTINUOUS
 62
2
 10
746.0549
 20
313.6359
 11
740.0549
 21
307.6359
  0
LINE
  8
0_00
  6
CONTINUOUS
 62
2
 10
737.4813
 20
305.0623
 11
731.4813
 21
299.0623
  0
LINE
  8
0_00
  6
CONTINUOUS
 62
2
 10
746.0549
 20
309.3933
 11
735.7240
 21
299.0623
  0
LINE
  8
0_00
  6
CONTINUOUS
 62
2
 10
746.0549
 20
305.1506
 11
739.9666
 21
299.0623
  0
LINE
  8
0_00
  6
CONTINUOUS
 62
6
 10
696.7402
 20
357.6594
 11
681.9856
 21
372.4140
  0
LINE
  8
0_00
  6
CONTINUOUS
 62
6
 10
696.7402
 20
357.6594
 11
692.6555
 21
363.9494
  0
LINE
  8
0_00
  6
CONTINUOUS
 62
6
 10
696.7402
 20
357.6594
 11
690.4502
 21
361.7441
  0
LINE
  8
0_00
  6
CONTINUOUS
 62
6
 10
730.6049
 20
312.9275
 11
757.1408
 21
286.3915
  0
LINE
  8
0_00
  6
CONTINUOUS
 62
6
 10
730.6049
 20
312.9275
 11
734.6897
 21
306.6374
  0
LINE
  8
0_00
  6
CONTINUOUS
 62
6
 10
730.6049
 20
312.9275
 11
736.8950
 21
308.8426
  0
LINE
  8
0_00
  6
CONTINUOUS
 62
6
 10
757.1408
 20
286.3915
 11
794.9408
 21
286.3915
  0
LINE
  8
0_00
  6
CONTINUOUS
 62
6
 10
681.9856
 20
372.4140
 11
579.3856
 21
372.4140
  0
LINE
  8
0_00
  6
CONTINUOUS
 62
4
 10
1128.9793
 20
175.6623
 11
1160.1793
 21
175.6623
  0
LINE
  8
0_00
  6
CONTINUOUS
 62
4
 10
1160.1793
 20
175.6623
 11
1160.1793
 21
190.0623
  0
LINE
  8
0_00
  6
CONTINUOUS
 62
4
 10
1128.9793
 20
190.0623
 11
1160.1793
 21
190.0623
  0
LINE
  8
0_00
  6
CONTINUOUS
 62
4
 10
1128.9793
 20
175.6623
 11
1128.9793
 21
190.0623
  0
LINE
  8
0_00
  6
CONTINUOUS
 62
4
 10
1128.9793
 20
470.0623
 11
1160.1793
 21
470.0623
  0
LINE
  8
0_00
  6
CONTINUOUS
 62
4
 10
1160.1793
 20
470.0623
 11
1160.1793
 21
484.4623
  0
LINE
  8
0_00
  6
CONTINUOUS
 62
4
 10
1128.9793
 20
484.4623
 11
1160.1793
 21
484.4623
  0
LINE
  8
0_00
  6
CONTINUOUS
 62
4
 10
1128.9793
 20
470.0623
 11
1128.9793
 21
484.4623
  0
LINE
  8
0_00
  6
CENTER1
 62
6
 10
285.1643
 20
273.2267
 11
361.5170
 21
273.2267
  0
LINE
  8
0_00
  6
CONTINUOUS
 62
6
 10
361.4671
 20
273.1768
 11
412.4688
 21
324.1785
  0
LINE
  8
0_00
  6
CONTINUOUS
 62
6
 10
361.4671
 20
273.1768
 11
367.7572
 21
277.2616
  0
LINE
  8
0_00
  6
CONTINUOUS
 62
6
 10
361.4671
 20
273.1768
 11
365.5519
 21
279.4669
  0
LINE
  8
0_00
  6
CONTINUOUS
 62
6
 10
412.4688
 20
324.1785
 11
507.8688
 21
324.1785
  0
LINE
  8
0_00
  6
CONTINUOUS
 62
3
 10
547.4110
 20
97.2001
 11
547.4110
 21
37.2000
  0
LINE
  8
0_00
  6
CONTINUOUS
 62
7
 10
54.6905
 20
112.2001
 11
1218.5110
 21
112.2001
  0
LINE
  8
0_00
  6
CONTINUOUS
 62
3
 10
1218.5110
 20
851.7001
 11
1218.5110
 21
865.2001
  0
LINE
  8
0_00
  6
CONTINUOUS
 62
7
 10
1218.5110
 20
37.2000
 11
1218.5110
 21
851.7001
  0
LINE
  8
0_00
  6
CONTINUOUS
 62
3
 10
54.6905
 20
851.7001
 11
54.6905
 21
865.2001
  0
LINE
  8
0_00
  6
CONTINUOUS
 62
7
 10
54.6905
 20
37.2000
 11
54.6905
 21
851.7001
  0
LINE
  8
0_00
  6
CONTINUOUS
 62
7
 10
54.6905
 20
851.7001
 11
1218.5110
 21
851.7001
  0
LINE
  8
0_00
  6
CONTINUOUS
 62
7
 10
54.6905
 20
37.2000
 11
1218.5110
 21
37.2000
  0
LINE
  8
0_00
  6
CONTINUOUS
 62
3
 10
39.6905
 20
22.2000
 11
39.6905
 21
865.2001
  0
LINE
  8
0_00
  6
CONTINUOUS
 62
3
 10
1233.5110
 20
22.2000
 11
1233.5110
 21
865.2001
  0
LINE
  8
0_00
  6
CONTINUOUS
 62
3
 10
39.6905
 20
865.2001
 11
1233.5110
 21
865.2001
  0
LINE
  8
0_00
  6
CONTINUOUS
 62
3
 10
1070.6111
 20
37.2000
 11
1070.6111
 21
112.2001
  0
LINE
  8
0_00
  6
CONTINUOUS
 62
3
 10
54.6905
 20
97.2001
 11
812.7610
 21
97.2001
  0
LINE
  8
0_00
  6
CONTINUOUS
 62
7
 10
812.7610
 20
97.2001
 11
1218.5110
 21
97.2001
  0
LINE
  8
0_00
  6
CONTINUOUS
 62
3
 10
1070.6111
 20
67.2000
 11
1218.5110
 21
67.2000
  0
LINE
  8
0_00
  6
CONTINUOUS
 62
3
 10
1100.6111
 20
112.2001
 11
1100.6111
 21
97.2001
  0
LINE
  8
0_00
  6
CONTINUOUS
 62
3
 10
812.7610
 20
37.2000
 11
812.7610
 21
97.2001
  0
LINE
  8
0_00
  6
CONTINUOUS
 62
7
 10
812.7610
 20
97.2001
 11
812.7610
 21
112.2001
  0
LINE
  8
0_00
  6
CONTINUOUS
 62
3
 10
836.7610
 20
97.2001
 11
836.7610
 21
112.2001
  0
LINE
  8
0_00
  6
CONTINUOUS
 62
3
 10
912.5110
 20
37.2000
 11
912.5110
 21
112.2001
  0
LINE
  8
0_00
  6
CONTINUOUS
 62
3
 10
1004.6111
 20
97.2001
 11
1004.6111
 21
112.2001
  0
LINE
  8
0_00
  6
CONTINUOUS
 62
3
 10
1032.2110
 20
37.2000
 11
1032.2110
 21
97.2001
  0
LINE
  8
0_00
  6
CONTINUOUS
 62
3
 10
995.9110
 20
37.2000
 11
995.9110
 21
97.2001
  0
LINE
  8
0_00
  6
CONTINUOUS
 62
3
 10
959.6110
 20
37.2000
 11
959.6110
 21
97.2001
  0
LINE
  8
0_00
  6
CONTINUOUS
 62
3
 10
468.6610
 20
37.2000
 11
468.6610
 21
112.2001
  0
LINE
  8
0_00
  6
CONTINUOUS
 62
3
 10
626.1610
 20
37.2000
 11
626.1610
 21
97.2001
  0
LINE
  8
0_00
  6
CONTINUOUS
 62
3
 10
54.6905
 20
82.2001
 11
468.6610
 21
82.2001
  0
LINE
  8
0_00
  6
CONTINUOUS
 62
3
 10
54.6905
 20
67.2000
 11
912.5110
 21
67.2000
  0
LINE
  8
0_00
  6
CONTINUOUS
 62
3
 10
174.6905
 20
52.2000
 11
468.6610
 21
52.2000
  0
LINE
  8
0_00
  6
CONTINUOUS
 62
7
 10
54.6905
 20
52.2000
 11
174.6905
 21
52.2000
  0
LINE
  8
0_00
  6
CONTINUOUS
 62
3
 10
818.0110
 20
851.7001
 11
818.0110
 21
865.2001
  0
LINE
  8
0_00
  6
CONTINUOUS
 62
3
 10
788.0110
 20
851.7001
 11
788.0110
 21
865.2001
  0
LINE
  8
0_00
  6
CONTINUOUS
 62
3
 10
204.6905
 20
851.7001
 11
204.6905
 21
865.2001
  0
LINE
  8
0_00
  6
CONTINUOUS
 62
3
 10
854.0110
 20
851.7001
 11
854.0110
 21
865.2001
  0
LINE
  8
0_00
  6
CONTINUOUS
 62
3
 10
915.5110
 20
851.7001
 11
915.5110
 21
865.2001
  0
LINE
  8
0_00
  6
CONTINUOUS
 62
3
 10
1146.5110
 20
851.7001
 11
1146.5110
 21
865.2001
  0
LINE
  8
0_00
  6
CONTINUOUS
 62
3
 10
114.6905
 20
112.2001
 11
114.6905
 21
37.2000
  0
LINE
  8
0_00
  6
CONTINUOUS
 62
7
 10
174.6905
 20
112.2001
 11
174.6905
 21
37.2000
  0
LINE
  8
0_00
  6
CONTINUOUS
 62
3
 10
869.7610
 20
67.2000
 11
869.7610
 21
97.2001
  0
LINE
  8
0_00
  6
CONTINUOUS
 62
3
 10
893.7610
 20
112.2001
 11
893.7610
 21
97.2001
  0
LINE
  8
0_00
  6
CONTINUOUS
 62
3
 10
912.5110
 20
82.2001
 11
1070.6111
 21
82.2001
  0
LINE
  8
0_00
  6
CONTINUOUS
 62
3
 10
1076.6111
 20
71.7000
 11
1078.5610
 21
71.7000
  0
LINE
  8
0_00
  6
CONTINUOUS
 62
3
 10
1078.5610
 20
71.7000
 11
1078.5610
 21
91.2000
  0
LINE
  8
0_00
  6
CONTINUOUS
 62
3
 10
1078.5610
 20
91.2000
 11
1076.6111
 21
91.2000
  0
LINE
  8
0_00
  6
CONTINUOUS
 62
3
 10
1076.6111
 20
71.7000
 11
1076.6111
 21
91.2000
  0
LINE
  8
0_00
  6
CONTINUOUS
 62
3
 10
1079.3410
 20
71.7000
 11
1081.2911
 21
71.7000
  0
LINE
  8
0_00
  6
CONTINUOUS
 62
3
 10
1081.2911
 20
71.7000
 11
1081.2911
 21
91.2000
  0
LINE
  8
0_00
  6
CONTINUOUS
 62
3
 10
1081.2911
 20
91.2000
 11
1079.3410
 21
91.2000
  0
LINE
  8
0_00
  6
CONTINUOUS
 62
3
 10
1079.3410
 20
71.7000
 11
1079.3410
 21
91.2000
  0
LINE
  8
0_00
  6
CONTINUOUS
 62
3
 10
1082.0711
 20
71.7000
 11
1084.0210
 21
71.7000
  0
LINE
  8
0_00
  6
CONTINUOUS
 62
3
 10
1084.0210
 20
71.7000
 11
1084.0210
 21
91.2000
  0
LINE
  8
0_00
  6
CONTINUOUS
 62
3
 10
1084.0210
 20
91.2000
 11
1082.0711
 21
91.2000
  0
LINE
  8
0_00
  6
CONTINUOUS
 62
3
 10
1082.0711
 20
71.7000
 11
1082.0711
 21
91.2000
  0
LINE
  8
0_00
  6
CONTINUOUS
 62
3
 10
1084.8010
 20
71.7000
 11
1086.7511
 21
71.7000
  0
LINE
  8
0_00
  6
CONTINUOUS
 62
3
 10
1086.7511
 20
91.2000
 11
1084.8010
 21
91.2000
  0
LINE
  8
0_00
  6
CONTINUOUS
 62
3
 10
1084.8010
 20
71.7000
 11
1084.8010
 21
91.2000
  0
LINE
  8
0_00
  6
CONTINUOUS
 62
3
 10
1092.4061
 20
71.7000
 11
1100.0110
 21
71.7000
  0
LINE
  8
0_00
  6
CONTINUOUS
 62
3
 10
1100.0110
 20
71.7000
 11
1100.0110
 21
73.4550
  0
LINE
  8
0_00
  6
CONTINUOUS
 62
3
 10
1100.0110
 20
73.4550
 11
1092.4061
 21
73.4550
  0
LINE
  8
0_00
  6
CONTINUOUS
 62
3
 10
1092.4061
 20
73.4550
 11
1092.4061
 21
71.7000
  0
LINE
  8
0_00
  6
CONTINUOUS
 62
3
 10
1092.4061
 20
74.2350
 11
1100.0110
 21
74.2350
  0
LINE
  8
0_00
  6
CONTINUOUS
 62
3
 10
1100.0110
 20
74.2350
 11
1100.0110
 21
75.9900
  0
LINE
  8
0_00
  6
CONTINUOUS
 62
3
 10
1100.0110
 20
75.9900
 11
1092.4061
 21
75.9900
  0
LINE
  8
0_00
  6
CONTINUOUS
 62
3
 10
1092.4061
 20
75.9900
 11
1092.4061
 21
74.2350
  0
LINE
  8
0_00
  6
CONTINUOUS
 62
3
 10
1092.4061
 20
76.7700
 11
1100.0110
 21
76.7700
  0
LINE
  8
0_00
  6
CONTINUOUS
 62
3
 10
1100.0110
 20
76.7700
 11
1100.0110
 21
78.5250
  0
LINE
  8
0_00
  6
CONTINUOUS
 62
3
 10
1100.0110
 20
78.5250
 11
1092.4061
 21
78.5250
  0
LINE
  8
0_00
  6
CONTINUOUS
 62
3
 10
1092.4061
 20
78.5250
 11
1092.4061
 21
76.7700
  0
LINE
  8
0_00
  6
CONTINUOUS
 62
3
 10
1092.4061
 20
79.3050
 11
1100.0110
 21
79.3050
  0
LINE
  8
0_00
  6
CONTINUOUS
 62
3
 10
1100.0110
 20
79.3050
 11
1100.0110
 21
81.0600
  0
LINE
  8
0_00
  6
CONTINUOUS
 62
3
 10
1100.0110
 20
81.0600
 11
1092.4061
 21
81.0600
  0
LINE
  8
0_00
  6
CONTINUOUS
 62
3
 10
1092.4061
 20
81.0600
 11
1092.4061
 21
79.3050
  0
LINE
  8
0_00
  6
CONTINUOUS
 62
3
 10
1092.4061
 20
81.8401
 11
1100.0110
 21
81.8401
  0
LINE
  8
0_00
  6
CONTINUOUS
 62
3
 10
1100.0110
 20
81.8401
 11
1100.0110
 21
83.5950
  0
LINE
  8
0_00
  6
CONTINUOUS
 62
3
 10
1100.0110
 20
83.5950
 11
1092.4061
 21
83.5950
  0
LINE
  8
0_00
  6
CONTINUOUS
 62
3
 10
1092.4061
 20
83.5950
 11
1092.4061
 21
81.8401
  0
LINE
  8
0_00
  6
CONTINUOUS
 62
3
 10
1092.4061
 20
84.3751
 11
1100.0110
 21
84.3751
  0
LINE
  8
0_00
  6
CONTINUOUS
 62
3
 10
1100.0110
 20
84.3751
 11
1100.0110
 21
86.1300
  0
LINE
  8
0_00
  6
CONTINUOUS
 62
3
 10
1100.0110
 20
86.1300
 11
1092.4061
 21
86.1300
  0
LINE
  8
0_00
  6
CONTINUOUS
 62
3
 10
1092.4061
 20
86.1300
 11
1092.4061
 21
84.3751
  0
LINE
  8
0_00
  6
CONTINUOUS
 62
3
 10
1092.4061
 20
86.9101
 11
1100.0110
 21
86.9101
  0
LINE
  8
0_00
  6
CONTINUOUS
 62
3
 10
1100.0110
 20
86.9101
 11
1100.0110
 21
88.6650
  0
LINE
  8
0_00
  6
CONTINUOUS
 62
3
 10
1100.0110
 20
88.6650
 11
1092.4061
 21
88.6650
  0
LINE
  8
0_00
  6
CONTINUOUS
 62
3
 10
1092.4061
 20
88.6650
 11
1092.4061
 21
86.9101
  0
LINE
  8
0_00
  6
CONTINUOUS
 62
3
 10
1092.4061
 20
89.4451
 11
1100.0110
 21
89.4451
  0
LINE
  8
0_00
  6
CONTINUOUS
 62
3
 10
1100.0110
 20
89.4451
 11
1100.0110
 21
91.2000
  0
LINE
  8
0_00
  6
CONTINUOUS
 62
3
 10
1100.0110
 20
91.2000
 11
1092.4061
 21
91.2000
  0
LINE
  8
0_00
  6
CONTINUOUS
 62
3
 10
1092.4061
 20
91.2000
 11
1092.4061
 21
89.4451
  0
LINE
  8
0_00
  6
CONTINUOUS
 62
3
 10
1087.5311
 20
71.7000
 11
1087.5311
 21
77.0626
  0
LINE
  8
0_00
  6
CONTINUOUS
 62
3
 10
1088.8375
 20
72.7725
 11
1088.8375
 21
77.0626
  0
LINE
  8
0_00
  6
CONTINUOUS
 62
3
 10
1087.5311
 20
71.7000
 11
1089.6760
 21
71.7000
  0
LINE
  8
0_00
  6
CONTINUOUS
 62
3
 10
1088.8375
 20
72.7725
 11
1089.6760
 21
72.7725
  0
LINE
  8
0_00
  6
CONTINUOUS
 62
3
 10
1089.6050
 20
79.8056
 11
1090.4561
 21
78.1351
  0
LINE
  8
0_00
  6
CONTINUOUS
 62
3
 10
1090.9410
 20
82.5453
 11
1089.6047
 21
79.8055
  0
LINE
  8
0_00
  6
CONTINUOUS
 62
3
 10
1086.7511
 20
85.3501
 11
1086.7511
 21
91.2000
  0
LINE
  8
0_00
  6
CONTINUOUS
 62
3
 10
1086.7511
 20
85.3501
 11
1089.1886
 21
85.3501
  0
LINE
  8
0_00
  6
CONTINUOUS
 62
3
 10
1086.7511
 20
84.1801
 11
1087.8333
 21
84.1801
  0
LINE
  8
0_00
  6
CONTINUOUS
 62
3
 10
1086.7511
 20
78.1351
 11
1090.4561
 21
78.1351
  0
LINE
  8
0_00
  6
CONTINUOUS
 62
3
 10
1086.7511
 20
81.9611
 11
1087.8334
 21
84.1801
  0
LINE
  8
0_00
  6
CONTINUOUS
 62
3
 10
1086.7511
 20
81.9613
 11
1086.7511
 21
84.1801
  0
LINE
  8
0_00
  6
CONTINUOUS
 62
3
 10
1086.7511
 20
78.1351
 11
1086.7511
 21
71.7000
  0
LINE
  8
0_00
  6
CONTINUOUS
 62
3
 10
1076.9110
 20
91.2000
 11
1076.9110
 21
71.7000
  0
LINE
  8
0_00
  6
CONTINUOUS
 62
3
 10
1077.2110
 20
91.2000
 11
1077.2110
 21
71.7000
  0
LINE
  8
0_00
  6
CONTINUOUS
 62
3
 10
1077.5110
 20
91.2000
 11
1077.5110
 21
71.7000
  0
LINE
  8
0_00
  6
CONTINUOUS
 62
3
 10
1077.8109
 20
91.2000
 11
1077.8109
 21
71.7000
  0
LINE
  8
0_00
  6
CONTINUOUS
 62
3
 10
1078.1111
 20
91.2000
 11
1078.1111
 21
71.7000
  0
LINE
  8
0_00
  6
CONTINUOUS
 62
3
 10
1079.6411
 20
91.2000
 11
1079.6411
 21
71.7000
  0
LINE
  8
0_00
  6
CONTINUOUS
 62
3
 10
1079.9410
 20
91.2000
 11
1079.9410
 21
71.7000
  0
LINE
  8
0_00
  6
CONTINUOUS
 62
3
 10
1080.2410
 20
91.2000
 11
1080.2410
 21
71.7000
  0
LINE
  8
0_00
  6
CONTINUOUS
 62
3
 10
1080.5410
 20
91.2000
 11
1080.5410
 21
71.7000
  0
LINE
  8
0_00
  6
CONTINUOUS
 62
3
 10
1080.8410
 20
91.2000
 11
1080.8410
 21
71.7000
  0
LINE
  8
0_00
  6
CONTINUOUS
 62
3
 10
1081.1411
 20
91.2000
 11
1081.1411
 21
71.7000
  0
LINE
  8
0_00
  6
CONTINUOUS
 62
3
 10
1082.3709
 20
91.2000
 11
1082.3709
 21
71.7000
  0
LINE
  8
0_00
  6
CONTINUOUS
 62
3
 10
1082.6711
 20
91.2000
 11
1082.6711
 21
71.7000
  0
LINE
  8
0_00
  6
CONTINUOUS
 62
3
 10
1082.9711
 20
91.2000
 11
1082.9711
 21
71.7000
  0
LINE
  8
0_00
  6
CONTINUOUS
 62
3
 10
1083.2710
 20
91.2000
 11
1083.2710
 21
71.7000
  0
LINE
  8
0_00
  6
CONTINUOUS
 62
3
 10
1083.5711
 20
91.2000
 11
1083.5711
 21
71.7000
  0
LINE
  8
0_00
  6
CONTINUOUS
 62
3
 10
1083.8709
 20
91.2000
 11
1083.8709
 21
71.7000
  0
LINE
  8
0_00
  6
CONTINUOUS
 62
3
 10
1092.4061
 20
72.0001
 11
1100.0110
 21
72.0001
  0
LINE
  8
0_00
  6
CONTINUOUS
 62
3
 10
1092.4061
 20
72.3001
 11
1100.0110
 21
72.3001
  0
LINE
  8
0_00
  6
CONTINUOUS
 62
3
 10
1092.4061
 20
72.6000
 11
1100.0110
 21
72.6000
  0
LINE
  8
0_00
  6
CONTINUOUS
 62
3
 10
1092.4061
 20
72.9000
 11
1100.0110
 21
72.9000
  0
LINE
  8
0_00
  6
CONTINUOUS
 62
3
 10
1092.4061
 20
73.2000
 11
1100.0110
 21
73.2000
  0
LINE
  8
0_00
  6
CONTINUOUS
 62
3
 10
1092.4061
 20
74.5351
 11
1100.0110
 21
74.5351
  0
LINE
  8
0_00
  6
CONTINUOUS
 62
3
 10
1092.4061
 20
74.8351
 11
1100.0110
 21
74.8351
  0
LINE
  8
0_00
  6
CONTINUOUS
 62
3
 10
1092.4061
 20
75.1350
 11
1100.0110
 21
75.1350
  0
LINE
  8
0_00
  6
CONTINUOUS
 62
3
 10
1092.4061
 20
75.4350
 11
1100.0110
 21
75.4350
  0
LINE
  8
0_00
  6
CONTINUOUS
 62
3
 10
1092.4061
 20
75.7350
 11
1100.0110
 21
75.7350
  0
LINE
  8
0_00
  6
CONTINUOUS
 62
3
 10
1092.4061
 20
77.0701
 11
1100.0110
 21
77.0701
  0
LINE
  8
0_00
  6
CONTINUOUS
 62
3
 10
1092.4061
 20
77.3701
 11
1100.0110
 21
77.3701
  0
LINE
  8
0_00
  6
CONTINUOUS
 62
3
 10
1092.4061
 20
77.6700
 11
1100.0110
 21
77.6700
  0
LINE
  8
0_00
  6
CONTINUOUS
 62
3
 10
1092.4061
 20
77.9700
 11
1100.0110
 21
77.9700
  0
LINE
  8
0_00
  6
CONTINUOUS
 62
3
 10
1092.4061
 20
78.2701
 11
1100.0110
 21
78.2701
  0
LINE
  8
0_00
  6
CONTINUOUS
 62
3
 10
1092.4061
 20
79.6051
 11
1100.0110
 21
79.6051
  0
LINE
  8
0_00
  6
CONTINUOUS
 62
3
 10
1092.4061
 20
79.9051
 11
1100.0110
 21
79.9051
  0
LINE
  8
0_00
  6
CONTINUOUS
 62
3
 10
1092.4061
 20
80.2050
 11
1100.0110
 21
80.2050
  0
LINE
  8
0_00
  6
CONTINUOUS
 62
3
 10
1092.4061
 20
80.5050
 11
1100.0110
 21
80.5050
  0
LINE
  8
0_00
  6
CONTINUOUS
 62
3
 10
1092.4061
 20
80.8051
 11
1100.0110
 21
80.8051
  0
LINE
  8
0_00
  6
CONTINUOUS
 62
3
 10
1092.4061
 20
82.1401
 11
1100.0110
 21
82.1401
  0
LINE
  8
0_00
  6
CONTINUOUS
 62
3
 10
1092.4061
 20
82.4401
 11
1100.0110
 21
82.4401
  0
LINE
  8
0_00
  6
CONTINUOUS
 62
3
 10
1092.4061
 20
82.7400
 11
1100.0110
 21
82.7400
  0
LINE
  8
0_00
  6
CONTINUOUS
 62
3
 10
1092.4061
 20
83.0400
 11
1100.0110
 21
83.0400
  0
LINE
  8
0_00
  6
CONTINUOUS
 62
3
 10
1092.4061
 20
83.3401
 11
1100.0110
 21
83.3401
  0
LINE
  8
0_00
  6
CONTINUOUS
 62
3
 10
1100.0110
 20
84.6751
 11
1092.4061
 21
84.6751
  0
LINE
  8
0_00
  6
CONTINUOUS
 62
3
 10
1100.0110
 20
84.9751
 11
1092.4061
 21
84.9751
  0
LINE
  8
0_00
  6
CONTINUOUS
 62
3
 10
1100.0110
 20
85.2750
 11
1092.4061
 21
85.2750
  0
LINE
  8
0_00
  6
CONTINUOUS
 62
3
 10
1100.0110
 20
85.5750
 11
1092.4061
 21
85.5750
  0
LINE
  8
0_00
  6
CONTINUOUS
 62
3
 10
1100.0110
 20
85.8751
 11
1092.4061
 21
85.8751
  0
LINE
  8
0_00
  6
CONTINUOUS
 62
3
 10
1092.4061
 20
87.2101
 11
1100.0110
 21
87.2101
  0
LINE
  8
0_00
  6
CONTINUOUS
 62
3
 10
1092.4061
 20
87.5101
 11
1100.0110
 21
87.5101
  0
LINE
  8
0_00
  6
CONTINUOUS
 62
3
 10
1092.4061
 20
87.8100
 11
1100.0110
 21
87.8100
  0
LINE
  8
0_00
  6
CONTINUOUS
 62
3
 10
1092.4061
 20
88.1100
 11
1100.0110
 21
88.1100
  0
LINE
  8
0_00
  6
CONTINUOUS
 62
3
 10
1092.4061
 20
88.4101
 11
1100.0110
 21
88.4101
  0
LINE
  8
0_00
  6
CONTINUOUS
 62
3
 10
1092.4061
 20
89.7451
 11
1100.0110
 21
89.7451
  0
LINE
  8
0_00
  6
CONTINUOUS
 62
3
 10
1092.4061
 20
90.0451
 11
1100.0110
 21
90.0451
  0
LINE
  8
0_00
  6
CONTINUOUS
 62
3
 10
1092.4061
 20
90.3450
 11
1100.0110
 21
90.3450
  0
LINE
  8
0_00
  6
CONTINUOUS
 62
3
 10
1092.4061
 20
90.6450
 11
1100.0110
 21
90.6450
  0
LINE
  8
0_00
  6
CONTINUOUS
 62
3
 10
1092.4061
 20
90.9451
 11
1100.0110
 21
90.9451
  0
LINE
  8
0_00
  6
CONTINUOUS
 62
3
 10
1085.1010
 20
91.2000
 11
1085.1010
 21
71.7000
  0
LINE
  8
0_00
  6
CONTINUOUS
 62
3
 10
1085.4011
 20
91.2000
 11
1085.4011
 21
71.7000
  0
LINE
  8
0_00
  6
CONTINUOUS
 62
3
 10
1085.7009
 20
91.2000
 11
1085.7009
 21
71.7000
  0
LINE
  8
0_00
  6
CONTINUOUS
 62
3
 10
1086.0008
 20
91.2000
 11
1086.0008
 21
71.7000
  0
LINE
  8
0_00
  6
CONTINUOUS
 62
3
 10
1086.3010
 20
91.2000
 11
1086.3010
 21
71.7000
  0
LINE
  8
0_00
  6
CONTINUOUS
 62
3
 10
1086.6010
 20
91.2000
 11
1086.6010
 21
71.7000
  0
LINE
  8
0_00
  6
CONTINUOUS
 62
3
 10
1087.8311
 20
71.7000
 11
1087.8311
 21
77.0626
  0
LINE
  8
0_00
  6
CONTINUOUS
 62
3
 10
1088.1312
 20
71.7000
 11
1088.1312
 21
77.0626
  0
LINE
  8
0_00
  6
CONTINUOUS
 62
3
 10
1088.4310
 20
71.7000
 11
1088.4310
 21
77.0626
  0
LINE
  8
0_00
  6
CONTINUOUS
 62
3
 10
1088.7309
 20
71.7000
 11
1088.7309
 21
77.0626
  0
LINE
  8
0_00
  6
CONTINUOUS
 62
3
 10
1088.8375
 20
72.4725
 11
1089.6760
 21
72.4725
  0
LINE
  8
0_00
  6
CONTINUOUS
 62
3
 10
1088.8375
 20
72.1725
 11
1089.6760
 21
72.1725
  0
LINE
  8
0_00
  6
CONTINUOUS
 62
3
 10
1088.8375
 20
71.8725
 11
1089.6760
 21
71.8725
  0
LINE
  8
0_00
  6
CONTINUOUS
 62
3
 10
1090.2825
 20
78.4758
 11
1086.7853
 21
78.4758
  0
LINE
  8
0_00
  6
CONTINUOUS
 62
3
 10
1090.1032
 20
78.8278
 11
1086.7853
 21
78.8278
  0
LINE
  8
0_00
  6
CONTINUOUS
 62
3
 10
1089.8939
 20
79.2384
 11
1086.7779
 21
79.2384
  0
LINE
  8
0_00
  6
CONTINUOUS
 62
3
 10
1089.7204
 20
79.5787
 11
1086.7744
 21
79.5787
  0
LINE
  8
0_00
  6
CONTINUOUS
 62
3
 10
1091.0859
 20
83.5262
 11
1089.1502
 21
79.5579
  0
LINE
  8
0_00
  6
CONTINUOUS
 62
3
 10
1090.9896
 20
84.0133
 11
1088.8107
 21
79.5458
  0
LINE
  8
0_00
  6
CONTINUOUS
 62
3
 10
1090.8083
 20
84.3258
 11
1088.4914
 21
79.5758
  0
LINE
  8
0_00
  6
CONTINUOUS
 62
3
 10
1090.6029
 20
84.5893
 11
1088.1454
 21
79.5508
  0
LINE
  8
0_00
  6
CONTINUOUS
 62
3
 10
1090.4008
 20
84.8596
 11
1087.8790
 21
79.6887
  0
LINE
  8
0_00
  6
CONTINUOUS
 62
3
 10
1090.1371
 20
85.0026
 11
1087.4908
 21
79.5774
  0
LINE
  8
0_00
  6
CONTINUOUS
 62
3
 10
1089.8761
 20
85.1521
 11
1087.1534
 21
79.5697
  0
LINE
  8
0_00
  6
CONTINUOUS
 62
3
 10
1089.5665
 20
85.2017
 11
1086.8386
 21
79.6087
  0
LINE
  8
0_00
  6
CONTINUOUS
 62
3
 10
1089.2498
 20
85.2367
 11
1086.7053
 21
80.0197
  0
LINE
  8
0_00
  6
CONTINUOUS
 62
3
 10
1088.9374
 20
85.2802
 11
1086.7329
 21
80.7607
  0
LINE
  8
0_00
  6
CONTINUOUS
 62
3
 10
1088.5957
 20
85.2643
 11
1086.6388
 21
81.2521
  0
LINE
  8
0_00
  6
CONTINUOUS
 62
3
 10
1087.9926
 20
84.4801
 11
1086.7511
 21
84.4801
  0
LINE
  8
0_00
  6
CONTINUOUS
 62
3
 10
1088.2355
 20
84.7801
 11
1086.7511
 21
84.7801
  0
LINE
  8
0_00
  6
CONTINUOUS
 62
3
 10
1088.3496
 20
85.0800
 11
1086.7511
 21
85.0800
  0
LINE
  8
0_00
  6
CONTINUOUS
 62
3
 10
796.2610
 20
852.4893
 11
809.7610
 21
852.4893
  0
LINE
  8
0_00
  6
CONTINUOUS
 62
3
 10
797.1685
 20
854.0609
 11
796.2610
 21
852.4893
  0
LINE
  8
0_00
  6
CONTINUOUS
 62
3
 10
800.8929
 20
860.5119
 11
803.0110
 21
864.1806
  0
LINE
  8
0_00
  6
CONTINUOUS
 62
3
 10
808.8538
 20
854.0609
 11
809.7610
 21
852.4893
  0
LINE
  8
0_00
  6
CONTINUOUS
 62
3
 10
805.1292
 20
860.5119
 11
803.0110
 21
864.1806
  0
LINE
  8
0_00
  6
CONTINUOUS
 62
3
 10
1218.5110
 20
154.2001
 11
1221.5110
 21
154.2001
  0
LINE
  8
0_00
  6
CONTINUOUS
 62
3
 10
1218.5110
 20
175.2001
 11
1221.5110
 21
175.2001
  0
LINE
  8
0_00
  6
CONTINUOUS
 62
3
 10
1218.5110
 20
196.2001
 11
1221.5110
 21
196.2001
  0
LINE
  8
0_00
  6
CONTINUOUS
 62
3
 10
1218.5110
 20
217.2001
 11
1221.5110
 21
217.2001
  0
LINE
  8
0_00
  6
CONTINUOUS
 62
3
 10
1218.5110
 20
238.2001
 11
1221.5110
 21
238.2001
  0
LINE
  8
0_00
  6
CONTINUOUS
 62
3
 10
1218.5110
 20
259.2001
 11
1221.5110
 21
259.2001
  0
LINE
  8
0_00
  6
CONTINUOUS
 62
3
 10
1218.5110
 20
280.2001
 11
1221.5110
 21
280.2001
  0
LINE
  8
0_00
  6
CONTINUOUS
 62
3
 10
1218.5110
 20
301.2001
 11
1221.5110
 21
301.2001
  0
LINE
  8
0_00
  6
CONTINUOUS
 62
3
 10
1218.5110
 20
322.2001
 11
1221.5110
 21
322.2001
  0
LINE
  8
0_00
  6
CONTINUOUS
 62
3
 10
1218.5110
 20
343.2001
 11
1221.5110
 21
343.2001
  0
LINE
  8
0_00
  6
CONTINUOUS
 62
3
 10
1218.5110
 20
364.2001
 11
1221.5110
 21
364.2001
  0
LINE
  8
0_00
  6
CONTINUOUS
 62
3
 10
1218.5110
 20
385.2001
 11
1221.5110
 21
385.2001
  0
LINE
  8
0_00
  6
CONTINUOUS
 62
3
 10
1218.5110
 20
406.2001
 11
1221.5110
 21
406.2001
  0
LINE
  8
0_00
  6
CONTINUOUS
 62
3
 10
1218.5110
 20
427.2001
 11
1221.5110
 21
427.2001
  0
LINE
  8
0_00
  6
CONTINUOUS
 62
3
 10
1218.5110
 20
448.2001
 11
1221.5110
 21
448.2001
  0
LINE
  8
0_00
  6
CONTINUOUS
 62
3
 10
1218.5110
 20
469.2001
 11
1221.5110
 21
469.2001
  0
LINE
  8
0_00
  6
CONTINUOUS
 62
3
 10
1218.5110
 20
490.2001
 11
1221.5110
 21
490.2001
  0
LINE
  8
0_00
  6
CONTINUOUS
 62
3
 10
1218.5110
 20
833.7001
 11
1221.5110
 21
833.7001
  0
LINE
  8
0_00
  6
CONTINUOUS
 62
3
 10
1218.5110
 20
815.7001
 11
1221.5110
 21
815.7001
  0
LINE
  8
0_00
  6
CONTINUOUS
 62
3
 10
1218.5110
 20
797.7001
 11
1221.5110
 21
797.7001
  0
LINE
  8
0_00
  6
CONTINUOUS
 62
3
 10
1218.5110
 20
779.7001
 11
1221.5110
 21
779.7001
  0
LINE
  8
0_00
  6
CONTINUOUS
 62
3
 10
1218.5110
 20
761.7001
 11
1221.5110
 21
761.7001
  0
LINE
  8
0_00
  6
CONTINUOUS
 62
3
 10
1218.5110
 20
743.7001
 11
1221.5110
 21
743.7001
  0
LINE
  8
0_00
  6
CONTINUOUS
 62
3
 10
1218.5110
 20
511.2001
 11
1221.5110
 21
511.2001
  0
LINE
  8
0_00
  6
CONTINUOUS
 62
3
 10
1218.5110
 20
532.2001
 11
1221.5110
 21
532.2001
  0
LINE
  8
0_00
  6
CONTINUOUS
 62
3
 10
1218.5110
 20
553.2001
 11
1221.5110
 21
553.2001
  0
LINE
  8
0_00
  6
CONTINUOUS
 62
3
 10
1218.5110
 20
574.2001
 11
1221.5110
 21
574.2001
  0
LINE
  8
0_00
  6
CONTINUOUS
 62
3
 10
1218.5110
 20
595.2001
 11
1221.5110
 21
595.2001
  0
LINE
  8
0_00
  6
CONTINUOUS
 62
3
 10
1218.5110
 20
616.2001
 11
1221.5110
 21
616.2001
  0
LINE
  8
0_00
  6
CONTINUOUS
 62
3
 10
1218.5110
 20
637.2000
 11
1221.5110
 21
637.2000
  0
LINE
  8
0_00
  6
CONTINUOUS
 62
3
 10
1218.5110
 20
658.2000
 11
1221.5110
 21
658.2000
  0
LINE
  8
0_00
  6
CONTINUOUS
 62
3
 10
1218.5110
 20
679.2000
 11
1221.5110
 21
679.2000
  0
LINE
  8
0_00
  6
CONTINUOUS
 62
3
 10
1218.5110
 20
700.2001
 11
1221.5110
 21
700.2001
  0
LINE
  8
0_00
  6
CONTINUOUS
 62
3
 10
1218.5110
 20
721.2001
 11
1221.5110
 21
721.2001
  0
LINE
  8
0_00
  6
CENTER1
 62
3
 10
881.0410
 20
73.2001
 11
881.0410
 21
91.2001
  0
LINE
  8
0_00
  6
CONTINUOUS
 62
4
 10
891.5411
 20
78.4501
 11
891.5411
 21
85.9501
  0
LINE
  8
0_00
  6
CONTINUOUS
 62
4
 10
905.0410
 20
76.2001
 11
905.0410
 21
88.2001
  0
LINE
  8
0_00
  6
CONTINUOUS
 62
4
 10
891.5411
 20
85.9501
 11
905.0410
 21
88.2001
  0
LINE
  8
0_00
  6
CONTINUOUS
 62
4
 10
891.5411
 20
78.4501
 11
905.0410
 21
76.2001
  0
LINE
  8
0_00
  6
CENTER1
 62
3
 10
872.0411
 20
82.2001
 11
907.3555
 21
82.2001
  0
LINE
  8
0_00
  6
CONTINUOUS
 62
3
 10
1191.5110
 20
37.2000
 11
1191.5110
 21
67.2000
  0
LINE
  8
0_00
  6
CONTINUOUS
 62
3
 10
39.6905
 20
22.2000
 11
1233.5110
 21
22.2000
  0
LINE
  8
0_00
  6
CONTINUOUS
 62
3
 10
1182.5110
 20
865.2001
 11
1182.5110
 21
851.7001
  0
LINE
  8
0_00
  6
CONTINUOUS
 62
3
 10
0.0000
 20
443.7000
 11
39.6905
 21
443.7000
  0
LINE
  8
0_00
  6
CONTINUOUS
 62
3
 10
626.1610
 20
22.2000
 11
626.1610
 21
0.0000
  0
LINE
  8
0_00
  6
CONTINUOUS
 62
3
 10
626.1610
 20
865.2001
 11
626.1610
 21
891.0000
  0
LINE
  8
0_00
  6
CONTINUOUS
 62
3
 10
1233.5110
 20
443.7000
 11
1260.0000
 21
443.7000
  0
LINE
  8
0_00
  6
CONTINUOUS
 62
6
 10
728.6816
 20
721.9046
 11
728.6816
 21
766.0000
  0
LINE
  8
0_00
  6
CONTINUOUS
 62
6
 10
753.6816
 20
721.9046
 11
753.6816
 21
766.0000
  0
LINE
  8
0_00
  6
CONTINUOUS
 62
6
 10
728.6816
 20
760.0000
 11
753.6816
 21
760.0000
  0
LINE
  8
0_00
  6
CONTINUOUS
 62
6
 10
728.6816
 20
760.0000
 11
736.0177
 21
758.4407
  0
LINE
  8
0_00
  6
CONTINUOUS
 62
6
 10
728.6816
 20
760.0000
 11
736.0177
 21
761.5594
  0
LINE
  8
0_00
  6
CONTINUOUS
 62
6
 10
753.6816
 20
760.0000
 11
746.3454
 21
761.5594
  0
LINE
  8
0_00
  6
CONTINUOUS
 62
6
 10
753.6816
 20
760.0000
 11
746.3454
 21
758.4407
  0
LINE
  8
0_00
  6
CONTINUOUS
 62
6
 10
857.0149
 20
721.9046
 11
857.0149
 21
766.0000
  0
LINE
  8
0_00
  6
CONTINUOUS
 62
6
 10
753.6816
 20
760.0000
 11
857.0149
 21
760.0000
  0
LINE
  8
0_00
  6
CONTINUOUS
 62
6
 10
753.6816
 20
760.0000
 11
761.0177
 21
758.4407
  0
LINE
  8
0_00
  6
CONTINUOUS
 62
6
 10
753.6816
 20
760.0000
 11
761.0177
 21
761.5594
  0
LINE
  8
0_00
  6
CONTINUOUS
 62
6
 10
857.0149
 20
760.0000
 11
849.6789
 21
761.5594
  0
LINE
  8
0_00
  6
CONTINUOUS
 62
6
 10
857.0149
 20
760.0000
 11
849.6789
 21
758.4407
  0
LINE
  8
0_00
  6
CONTINUOUS
 62
6
 10
960.3483
 20
721.9046
 11
960.3483
 21
766.0000
  0
LINE
  8
0_00
  6
CONTINUOUS
 62
6
 10
857.0149
 20
760.0000
 11
960.3483
 21
760.0000
  0
LINE
  8
0_00
  6
CONTINUOUS
 62
6
 10
857.0149
 20
760.0000
 11
864.3510
 21
758.4407
  0
LINE
  8
0_00
  6
CONTINUOUS
 62
6
 10
857.0149
 20
760.0000
 11
864.3510
 21
761.5594
  0
LINE
  8
0_00
  6
CONTINUOUS
 62
6
 10
960.3483
 20
760.0000
 11
953.0121
 21
761.5594
  0
LINE
  8
0_00
  6
CONTINUOUS
 62
6
 10
960.3483
 20
760.0000
 11
953.0121
 21
758.4407
  0
LINE
  8
0_00
  6
CONTINUOUS
 62
6
 10
1063.6816
 20
721.6828
 11
1063.6816
 21
766.0000
  0
LINE
  8
0_00
  6
CONTINUOUS
 62
6
 10
960.3483
 20
760.0000
 11
1063.6816
 21
760.0000
  0
LINE
  8
0_00
  6
CONTINUOUS
 62
6
 10
960.3483
 20
760.0000
 11
967.6843
 21
758.4407
  0
LINE
  8
0_00
  6
CONTINUOUS
 62
6
 10
960.3483
 20
760.0000
 11
967.6843
 21
761.5594
  0
LINE
  8
0_00
  6
CONTINUOUS
 62
6
 10
1063.6816
 20
760.0000
 11
1056.3454
 21
761.5594
  0
LINE
  8
0_00
  6
CONTINUOUS
 62
6
 10
1063.6816
 20
760.0000
 11
1056.3454
 21
758.4407
  0
LINE
  8
0_00
  6
CONTINUOUS
 62
6
 10
1088.6817
 20
721.6828
 11
1088.6817
 21
766.0000
  0
LINE
  8
0_00
  6
CONTINUOUS
 62
6
 10
1063.6816
 20
760.0000
 11
1088.6817
 21
760.0000
  0
LINE
  8
0_00
  6
CONTINUOUS
 62
6
 10
1063.6816
 20
760.0000
 11
1071.0177
 21
758.4407
  0
LINE
  8
0_00
  6
CONTINUOUS
 62
6
 10
1063.6816
 20
760.0000
 11
1071.0177
 21
761.5594
  0
LINE
  8
0_00
  6
CONTINUOUS
 62
6
 10
1088.6817
 20
760.0000
 11
1081.3455
 21
761.5594
  0
LINE
  8
0_00
  6
CONTINUOUS
 62
6
 10
1088.6817
 20
760.0000
 11
1081.3455
 21
758.4407
  0
LINE
  8
0_00
  6
CONTINUOUS
 62
6
 10
1100.5815
 20
703.6943
 11
1166.0000
 21
703.6943
  0
LINE
  8
0_00
  6
CONTINUOUS
 62
6
 10
1100.5815
 20
615.6943
 11
1166.0000
 21
615.6943
  0
LINE
  8
0_00
  6
CONTINUOUS
 62
6
 10
1160.0000
 20
703.6943
 11
1160.0000
 21
615.6943
  0
LINE
  8
0_00
  6
CONTINUOUS
 62
6
 10
1160.0000
 20
703.6943
 11
1158.4406
 21
696.3582
  0
LINE
  8
0_00
  6
CONTINUOUS
 62
6
 10
1160.0000
 20
703.6943
 11
1161.5593
 21
696.3582
  0
LINE
  8
0_00
  6
CONTINUOUS
 62
6
 10
1160.0000
 20
615.6943
 11
1161.5593
 21
623.0304
  0
LINE
  8
0_00
  6
CONTINUOUS
 62
6
 10
1160.0000
 20
615.6943
 11
1158.4406
 21
623.0304
  0
LINE
  8
0_00
  6
CONTINUOUS
 62
6
 10
1100.5815
 20
623.6943
 11
1146.0000
 21
623.6943
  0
LINE
  8
0_00
  6
CONTINUOUS
 62
6
 10
1110.1316
 20
615.6943
 11
1146.0000
 21
615.6943
  0
LINE
  8
0_00
  6
CONTINUOUS
 62
6
 10
1140.0000
 20
615.6943
 11
1140.0000
 21
623.6943
  0
LINE
  8
0_00
  6
CONTINUOUS
 62
6
 10
1140.0000
 20
593.5918
 11
1140.0000
 21
615.6943
  0
LINE
  8
0_00
  6
CONTINUOUS
 62
6
 10
1140.0000
 20
615.6943
 11
1138.4407
 21
608.3582
  0
LINE
  8
0_00
  6
CONTINUOUS
 62
6
 10
1140.0000
 20
615.6943
 11
1141.5593
 21
608.3582
  0
LINE
  8
0_00
  6
CONTINUOUS
 62
6
 10
1100.5815
 20
703.6943
 11
1146.0000
 21
703.6943
  0
LINE
  8
0_00
  6
CONTINUOUS
 62
6
 10
1140.0000
 20
623.6943
 11
1140.0000
 21
703.6943
  0
LINE
  8
0_00
  6
CONTINUOUS
 62
6
 10
1140.0000
 20
623.6943
 11
1141.5593
 21
631.0304
  0
LINE
  8
0_00
  6
CONTINUOUS
 62
6
 10
1140.0000
 20
623.6943
 11
1138.4407
 21
631.0304
  0
LINE
  8
0_00
  6
CONTINUOUS
 62
6
 10
1140.0000
 20
703.6943
 11
1138.4407
 21
696.3582
  0
LINE
  8
0_00
  6
CONTINUOUS
 62
6
 10
1140.0000
 20
703.6943
 11
1141.5593
 21
696.3582
  0
LINE
  8
0_00
  6
CONTINUOUS
 62
6
 10
908.6816
 20
721.9046
 11
908.6816
 21
746.0000
  0
LINE
  8
0_00
  6
CONTINUOUS
 62
6
 10
921.3816
 20
721.9046
 11
921.3816
 21
746.0000
  0
LINE
  8
0_00
  6
CONTINUOUS
 62
6
 10
908.6816
 20
740.0000
 11
921.3816
 21
740.0000
  0
LINE
  8
0_00
  6
CONTINUOUS
 62
6
 10
939.3816
 20
740.0000
 11
921.3816
 21
740.0000
  0
LINE
  8
0_00
  6
CONTINUOUS
 62
6
 10
921.3816
 20
740.0000
 11
928.7176
 21
738.4407
  0
LINE
  8
0_00
  6
CONTINUOUS
 62
6
 10
921.3816
 20
740.0000
 11
928.7176
 21
741.5593
  0
LINE
  8
0_00
  6
CONTINUOUS
 62
6
 10
890.6816
 20
740.0000
 11
908.6816
 21
740.0000
  0
LINE
  8
0_00
  6
CONTINUOUS
 62
6
 10
908.6816
 20
740.0000
 11
901.3455
 21
741.5593
  0
LINE
  8
0_00
  6
CONTINUOUS
 62
6
 10
908.6816
 20
740.0000
 11
901.3455
 21
738.4407
  0
LINE
  8
0_00
  6
CONTINUOUS
 62
4
 10
1076.8893
 20
534.4888
 11
1142.4896
 21
534.4888
  0
LINE
  8
0_00
  6
CONTINUOUS
 62
6
 10
266.5254
 20
423.2266
 11
154.0000
 21
423.2266
  0
LINE
  8
0_00
  6
CONTINUOUS
 62
6
 10
281.5254
 20
458.2267
 11
154.0000
 21
458.2267
  0
LINE
  8
0_00
  6
CONTINUOUS
 62
6
 10
160.0000
 20
458.2267
 11
160.0000
 21
423.2266
  0
LINE
  8
0_00
  6
CONTINUOUS
 62
6
 10
160.0000
 20
458.2267
 11
158.4407
 21
450.8906
  0
LINE
  8
0_00
  6
CONTINUOUS
 62
6
 10
160.0000
 20
458.2267
 11
161.5593
 21
450.8906
  0
LINE
  8
0_00
  6
CONTINUOUS
 62
6
 10
160.0000
 20
423.2266
 11
161.5593
 21
430.5628
  0
LINE
  8
0_00
  6
CONTINUOUS
 62
6
 10
160.0000
 20
423.2266
 11
158.4407
 21
430.5628
  0
LINE
  8
0_00
  6
CONTINUOUS
 62
4
 10
120.5709
 20
166.2534
 11
165.5709
 21
166.2534
  0
LINE
  8
0_00
  6
CONTINUOUS
 62
4
 10
556.7546
 20
169.5410
 11
601.7546
 21
169.5410
  0
LINE
  8
0_00
  6
CONTINUOUS
 62
2
 10
1075.4873
 20
349.8110
 11
1076.2144
 21
349.1093
  0
LINE
  8
0_00
  6
CONTINUOUS
 62
2
 10
1076.2144
 20
349.1093
 11
1076.5550
 21
348.9850
  0
LINE
  8
0_00
  6
CONTINUOUS
 62
2
 10
1076.5550
 20
348.9850
 11
1076.8770
 21
349.1023
  0
LINE
  8
0_00
  6
CONTINUOUS
 62
2
 10
1076.8770
 20
349.1023
 11
1077.6271
 21
349.8087
  0
LINE
  8
0_00
  6
CONTINUOUS
 62
2
 10
1074.8063
 20
349.1299
 11
1075.5081
 21
348.4029
  0
LINE
  8
0_00
  6
CONTINUOUS
 62
2
 10
1075.5081
 20
348.4029
 11
1075.6323
 21
348.0623
  0
LINE
  8
0_00
  6
CONTINUOUS
 62
2
 10
1075.6323
 20
348.0623
 11
1075.5149
 21
347.7402
  0
LINE
  8
0_00
  6
CONTINUOUS
 62
2
 10
1075.5149
 20
347.7402
 11
1074.8086
 21
346.9901
  0
LINE
  8
0_00
  6
CONTINUOUS
 62
2
 10
1078.3035
 20
346.9947
 11
1077.6018
 21
347.7218
  0
LINE
  8
0_00
  6
CONTINUOUS
 62
2
 10
1077.6018
 20
347.7218
 11
1077.4775
 21
348.0623
  0
LINE
  8
0_00
  6
CONTINUOUS
 62
2
 10
1077.4775
 20
348.0623
 11
1077.5949
 21
348.3845
  0
LINE
  8
0_00
  6
CONTINUOUS
 62
2
 10
1077.5949
 20
348.3845
 11
1078.3012
 21
349.1346
  0
LINE
  8
0_00
  6
CONTINUOUS
 62
2
 10
1077.6226
 20
346.3137
 11
1076.8955
 21
347.0155
  0
LINE
  8
0_00
  6
CONTINUOUS
 62
2
 10
1076.8955
 20
347.0155
 11
1076.5550
 21
347.1397
  0
LINE
  8
0_00
  6
CONTINUOUS
 62
2
 10
1076.5550
 20
347.1397
 11
1076.2328
 21
347.0223
  0
LINE
  8
0_00
  6
CONTINUOUS
 62
2
 10
1076.2328
 20
347.0223
 11
1075.4827
 21
346.3159
  0
LINE
  8
0_00
  6
CONTINUOUS
 62
2
 10
1075.4873
 20
313.8110
 11
1076.2144
 21
313.1092
  0
LINE
  8
0_00
  6
CONTINUOUS
 62
2
 10
1076.2144
 20
313.1092
 11
1076.5550
 21
312.9850
  0
LINE
  8
0_00
  6
CONTINUOUS
 62
2
 10
1076.5550
 20
312.9850
 11
1076.8770
 21
313.1024
  0
LINE
  8
0_00
  6
CONTINUOUS
 62
2
 10
1076.8770
 20
313.1024
 11
1077.6271
 21
313.8087
  0
LINE
  8
0_00
  6
CONTINUOUS
 62
2
 10
1074.8063
 20
313.1299
 11
1075.5081
 21
312.4029
  0
LINE
  8
0_00
  6
CONTINUOUS
 62
2
 10
1075.5081
 20
312.4029
 11
1075.6323
 21
312.0623
  0
LINE
  8
0_00
  6
CONTINUOUS
 62
2
 10
1075.6323
 20
312.0623
 11
1075.5149
 21
311.7402
  0
LINE
  8
0_00
  6
CONTINUOUS
 62
2
 10
1075.5149
 20
311.7402
 11
1074.8086
 21
310.9901
  0
LINE
  8
0_00
  6
CONTINUOUS
 62
2
 10
1078.3035
 20
310.9947
 11
1077.6018
 21
311.7218
  0
LINE
  8
0_00
  6
CONTINUOUS
 62
2
 10
1077.6018
 20
311.7218
 11
1077.4775
 21
312.0623
  0
LINE
  8
0_00
  6
CONTINUOUS
 62
2
 10
1077.4775
 20
312.0623
 11
1077.5949
 21
312.3845
  0
LINE
  8
0_00
  6
CONTINUOUS
 62
2
 10
1077.5949
 20
312.3845
 11
1078.3012
 21
313.1345
  0
LINE
  8
0_00
  6
CONTINUOUS
 62
2
 10
1077.6226
 20
310.3137
 11
1076.8955
 21
311.0154
  0
LINE
  8
0_00
  6
CONTINUOUS
 62
2
 10
1076.8955
 20
311.0154
 11
1076.5550
 21
311.1397
  0
LINE
  8
0_00
  6
CONTINUOUS
 62
2
 10
1076.5550
 20
311.1397
 11
1076.2328
 21
311.0223
  0
LINE
  8
0_00
  6
CONTINUOUS
 62
2
 10
1076.2328
 20
311.0223
 11
1075.4827
 21
310.3159
  0
LINE
  8
0_00
  6
CONTINUOUS
 62
2
 10
1042.4874
 20
349.8110
 11
1043.2144
 21
349.1093
  0
LINE
  8
0_00
  6
CONTINUOUS
 62
2
 10
1043.2144
 20
349.1093
 11
1043.5550
 21
348.9850
  0
LINE
  8
0_00
  6
CONTINUOUS
 62
2
 10
1043.5550
 20
348.9850
 11
1043.8771
 21
349.1023
  0
LINE
  8
0_00
  6
CONTINUOUS
 62
2
 10
1043.8771
 20
349.1023
 11
1044.6272
 21
349.8087
  0
LINE
  8
0_00
  6
CONTINUOUS
 62
2
 10
1041.8062
 20
349.1299
 11
1042.5081
 21
348.4029
  0
LINE
  8
0_00
  6
CONTINUOUS
 62
2
 10
1042.5081
 20
348.4029
 11
1042.6323
 21
348.0623
  0
LINE
  8
0_00
  6
CONTINUOUS
 62
2
 10
1042.6323
 20
348.0623
 11
1042.5148
 21
347.7402
  0
LINE
  8
0_00
  6
CONTINUOUS
 62
2
 10
1042.5148
 20
347.7402
 11
1041.8086
 21
346.9901
  0
LINE
  8
0_00
  6
CONTINUOUS
 62
2
 10
1045.3036
 20
346.9947
 11
1044.6018
 21
347.7218
  0
LINE
  8
0_00
  6
CONTINUOUS
 62
2
 10
1044.6018
 20
347.7218
 11
1044.4775
 21
348.0623
  0
LINE
  8
0_00
  6
CONTINUOUS
 62
2
 10
1044.4775
 20
348.0623
 11
1044.5950
 21
348.3845
  0
LINE
  8
0_00
  6
CONTINUOUS
 62
2
 10
1044.5950
 20
348.3845
 11
1045.3012
 21
349.1346
  0
LINE
  8
0_00
  6
CONTINUOUS
 62
2
 10
1044.6226
 20
346.3137
 11
1043.8955
 21
347.0155
  0
LINE
  8
0_00
  6
CONTINUOUS
 62
2
 10
1043.8955
 20
347.0155
 11
1043.5550
 21
347.1397
  0
LINE
  8
0_00
  6
CONTINUOUS
 62
2
 10
1043.5550
 20
347.1397
 11
1043.2328
 21
347.0223
  0
LINE
  8
0_00
  6
CONTINUOUS
 62
2
 10
1043.2328
 20
347.0223
 11
1042.4826
 21
346.3159
  0
LINE
  8
0_00
  6
CONTINUOUS
 62
2
 10
1042.4874
 20
313.8110
 11
1043.2144
 21
313.1092
  0
LINE
  8
0_00
  6
CONTINUOUS
 62
2
 10
1043.2144
 20
313.1092
 11
1043.5550
 21
312.9850
  0
LINE
  8
0_00
  6
CONTINUOUS
 62
2
 10
1043.5550
 20
312.9850
 11
1043.8771
 21
313.1024
  0
LINE
  8
0_00
  6
CONTINUOUS
 62
2
 10
1043.8771
 20
313.1024
 11
1044.6272
 21
313.8087
  0
LINE
  8
0_00
  6
CONTINUOUS
 62
2
 10
1041.8062
 20
313.1299
 11
1042.5081
 21
312.4029
  0
LINE
  8
0_00
  6
CONTINUOUS
 62
2
 10
1042.5081
 20
312.4029
 11
1042.6323
 21
312.0623
  0
LINE
  8
0_00
  6
CONTINUOUS
 62
2
 10
1042.6323
 20
312.0623
 11
1042.5148
 21
311.7402
  0
LINE
  8
0_00
  6
CONTINUOUS
 62
2
 10
1042.5148
 20
311.7402
 11
1041.8086
 21
310.9901
  0
LINE
  8
0_00
  6
CONTINUOUS
 62
2
 10
1045.3036
 20
310.9947
 11
1044.6018
 21
311.7218
  0
LINE
  8
0_00
  6
CONTINUOUS
 62
2
 10
1044.6018
 20
311.7218
 11
1044.4775
 21
312.0623
  0
LINE
  8
0_00
  6
CONTINUOUS
 62
2
 10
1044.4775
 20
312.0623
 11
1044.5950
 21
312.3845
  0
LINE
  8
0_00
  6
CONTINUOUS
 62
2
 10
1044.5950
 20
312.3845
 11
1045.3012
 21
313.1345
  0
LINE
  8
0_00
  6
CONTINUOUS
 62
2
 10
1044.6226
 20
310.3137
 11
1043.8955
 21
311.0154
  0
LINE
  8
0_00
  6
CONTINUOUS
 62
2
 10
1043.8955
 20
311.0154
 11
1043.5550
 21
311.1397
  0
LINE
  8
0_00
  6
CONTINUOUS
 62
2
 10
1043.5550
 20
311.1397
 11
1043.2328
 21
311.0223
  0
LINE
  8
0_00
  6
CONTINUOUS
 62
2
 10
1043.2328
 20
311.0223
 11
1042.4826
 21
310.3159
  0
LINE
  8
0_00
  6
CONTINUOUS
 62
2
 10
973.4873
 20
331.8111
 11
974.2144
 21
331.1093
  0
LINE
  8
0_00
  6
CONTINUOUS
 62
2
 10
974.2144
 20
331.1093
 11
974.5550
 21
330.9850
  0
LINE
  8
0_00
  6
CONTINUOUS
 62
2
 10
974.5550
 20
330.9850
 11
974.8770
 21
331.1024
  0
LINE
  8
0_00
  6
CONTINUOUS
 62
2
 10
974.8770
 20
331.1024
 11
975.6271
 21
331.8087
  0
LINE
  8
0_00
  6
CONTINUOUS
 62
2
 10
972.8062
 20
331.1299
 11
973.5081
 21
330.4029
  0
LINE
  8
0_00
  6
CONTINUOUS
 62
2
 10
973.5081
 20
330.4029
 11
973.6323
 21
330.0623
  0
LINE
  8
0_00
  6
CONTINUOUS
 62
2
 10
973.6323
 20
330.0623
 11
973.5148
 21
329.7402
  0
LINE
  8
0_00
  6
CONTINUOUS
 62
2
 10
973.5148
 20
329.7402
 11
972.8085
 21
328.9901
  0
LINE
  8
0_00
  6
CONTINUOUS
 62
2
 10
976.3036
 20
328.9947
 11
975.6018
 21
329.7218
  0
LINE
  8
0_00
  6
CONTINUOUS
 62
2
 10
975.6018
 20
329.7218
 11
975.4775
 21
330.0623
  0
LINE
  8
0_00
  6
CONTINUOUS
 62
2
 10
975.4775
 20
330.0623
 11
975.5950
 21
330.3845
  0
LINE
  8
0_00
  6
CONTINUOUS
 62
2
 10
975.5950
 20
330.3845
 11
976.3013
 21
331.1345
  0
LINE
  8
0_00
  6
CONTINUOUS
 62
2
 10
975.6226
 20
328.3136
 11
974.8954
 21
329.0154
  0
LINE
  8
0_00
  6
CONTINUOUS
 62
2
 10
974.8954
 20
329.0154
 11
974.5550
 21
329.1397
  0
LINE
  8
0_00
  6
CONTINUOUS
 62
2
 10
974.5550
 20
329.1397
 11
974.2328
 21
329.0223
  0
LINE
  8
0_00
  6
CONTINUOUS
 62
2
 10
974.2328
 20
329.0223
 11
973.4826
 21
328.3160
  0
LINE
  8
0_00
  6
CONTINUOUS
 62
6
 10
1060.0549
 20
398.7066
 11
1060.0549
 21
506.0000
  0
LINE
  8
0_00
  6
CONTINUOUS
 62
6
 10
720.0549
 20
500.0000
 11
1060.0549
 21
500.0000
  0
LINE
  8
0_00
  6
CONTINUOUS
 62
6
 10
720.0549
 20
500.0000
 11
727.3911
 21
498.4407
  0
LINE
  8
0_00
  6
CONTINUOUS
 62
6
 10
720.0549
 20
500.0000
 11
727.3911
 21
501.5593
  0
LINE
  8
0_00
  6
CONTINUOUS
 62
6
 10
1060.0549
 20
500.0000
 11
1052.7188
 21
501.5593
  0
LINE
  8
0_00
  6
CONTINUOUS
 62
6
 10
1060.0549
 20
500.0000
 11
1052.7188
 21
498.4407
  0
LINE
  8
0_00
  6
CONTINUOUS
 62
6
 10
720.0549
 20
398.7066
 11
720.0549
 21
474.8236
  0
LINE
  8
0_00
  6
CONTINUOUS
 62
6
 10
720.0549
 20
495.1200
 11
720.0549
 21
506.0000
  0
LINE
  8
0_00
  6
CONTINUOUS
 62
6
 10
689.4884
 20
355.0623
 11
534.0000
 21
355.0623
  0
LINE
  8
0_00
  6
CONTINUOUS
 62
6
 10
689.4884
 20
305.0623
 11
534.0000
 21
305.0623
  0
LINE
  8
0_00
  6
CONTINUOUS
 62
6
 10
540.0000
 20
355.0623
 11
540.0000
 21
305.0623
  0
LINE
  8
0_00
  6
CONTINUOUS
 62
6
 10
540.0000
 20
355.0623
 11
538.4407
 21
347.7262
  0
LINE
  8
0_00
  6
CONTINUOUS
 62
6
 10
540.0000
 20
355.0623
 11
541.5593
 21
347.7262
  0
LINE
  8
0_00
  6
CONTINUOUS
 62
6
 10
540.0000
 20
305.0623
 11
541.5593
 21
312.3984
  0
LINE
  8
0_00
  6
CONTINUOUS
 62
6
 10
540.0000
 20
305.0623
 11
538.4407
 21
312.3984
  0
LINE
  8
0_00
  6
CONTINUOUS
 62
6
 10
860.0001
 20
342.5623
 11
860.0001
 21
317.5623
  0
LINE
  8
0_00
  6
CONTINUOUS
 62
6
 10
860.0001
 20
380.0703
 11
860.0001
 21
342.5623
  0
LINE
  8
0_00
  6
CONTINUOUS
 62
6
 10
860.0001
 20
342.5623
 11
861.5594
 21
349.8984
  0
LINE
  8
0_00
  6
CONTINUOUS
 62
6
 10
860.0001
 20
342.5623
 11
858.4406
 21
349.8984
  0
LINE
  8
0_00
  6
CONTINUOUS
 62
6
 10
860.0001
 20
299.5623
 11
860.0001
 21
317.5623
  0
LINE
  8
0_00
  6
CONTINUOUS
 62
6
 10
860.0001
 20
317.5623
 11
858.4406
 21
310.2262
  0
LINE
  8
0_00
  6
CONTINUOUS
 62
6
 10
860.0001
 20
317.5623
 11
861.5594
 21
310.2262
  0
LINE
  8
0_00
  6
CONTINUOUS
 62
6
 10
802.0550
 20
368.0441
 11
802.0550
 21
466.0000
  0
LINE
  8
0_00
  6
CONTINUOUS
 62
6
 10
822.0549
 20
368.0441
 11
822.0549
 21
466.0000
  0
LINE
  8
0_00
  6
CONTINUOUS
 62
6
 10
802.0550
 20
460.0000
 11
822.0549
 21
460.0000
  0
LINE
  8
0_00
  6
CONTINUOUS
 62
6
 10
851.4550
 20
460.0000
 11
822.0549
 21
460.0000
  0
LINE
  8
0_00
  6
CONTINUOUS
 62
6
 10
822.0549
 20
460.0000
 11
829.3911
 21
458.4407
  0
LINE
  8
0_00
  6
CONTINUOUS
 62
6
 10
822.0549
 20
460.0000
 11
829.3911
 21
461.5593
  0
LINE
  8
0_00
  6
CONTINUOUS
 62
6
 10
784.0550
 20
460.0000
 11
802.0550
 21
460.0000
  0
LINE
  8
0_00
  6
CONTINUOUS
 62
6
 10
802.0550
 20
460.0000
 11
794.7188
 21
461.5593
  0
LINE
  8
0_00
  6
CONTINUOUS
 62
6
 10
802.0550
 20
460.0000
 11
794.7188
 21
458.4407
  0
LINE
  8
0_00
  6
CONTINUOUS
 62
6
 10
1043.5550
 20
380.2186
 11
1043.5550
 21
486.0000
  0
LINE
  8
0_00
  6
CONTINUOUS
 62
6
 10
1076.5550
 20
380.2186
 11
1076.5550
 21
486.0000
  0
LINE
  8
0_00
  6
CONTINUOUS
 62
6
 10
1043.5550
 20
480.0000
 11
1076.5550
 21
480.0000
  0
LINE
  8
0_00
  6
CONTINUOUS
 62
6
 10
1105.9549
 20
480.0000
 11
1076.5550
 21
480.0000
  0
LINE
  8
0_00
  6
CONTINUOUS
 62
6
 10
1076.5550
 20
480.0000
 11
1083.8910
 21
478.4407
  0
LINE
  8
0_00
  6
CONTINUOUS
 62
6
 10
1076.5550
 20
480.0000
 11
1083.8910
 21
481.5593
  0
LINE
  8
0_00
  6
CONTINUOUS
 62
6
 10
1025.5550
 20
480.0000
 11
1043.5550
 21
480.0000
  0
LINE
  8
0_00
  6
CONTINUOUS
 62
6
 10
1043.5550
 20
480.0000
 11
1036.2188
 21
481.5593
  0
LINE
  8
0_00
  6
CONTINUOUS
 62
6
 10
1043.5550
 20
480.0000
 11
1036.2188
 21
478.4407
  0
LINE
  8
0_00
  6
CONTINUOUS
 62
6
 10
1103.6164
 20
348.0623
 11
1166.0000
 21
348.0623
  0
LINE
  8
0_00
  6
CONTINUOUS
 62
6
 10
1103.6164
 20
312.0623
 11
1166.0000
 21
312.0623
  0
LINE
  8
0_00
  6
CONTINUOUS
 62
6
 10
1160.0000
 20
348.0623
 11
1160.0000
 21
312.0623
  0
LINE
  8
0_00
  6
CONTINUOUS
 62
6
 10
1160.0000
 20
348.0623
 11
1158.4406
 21
340.7262
  0
LINE
  8
0_00
  6
CONTINUOUS
 62
6
 10
1160.0000
 20
348.0623
 11
1161.5593
 21
340.7262
  0
LINE
  8
0_00
  6
CONTINUOUS
 62
6
 10
1160.0000
 20
312.0623
 11
1161.5593
 21
319.3984
  0
LINE
  8
0_00
  6
CONTINUOUS
 62
6
 10
1160.0000
 20
312.0623
 11
1158.4406
 21
319.3984
  0
LINE
  8
0_00
  6
CONTINUOUS
 62
6
 10
700.0549
 20
367.5623
 11
700.0549
 21
486.0000
  0
LINE
  8
0_00
  6
CONTINUOUS
 62
6
 10
628.0549
 20
480.0000
 11
700.0549
 21
480.0000
  0
LINE
  8
0_00
  6
CONTINUOUS
 62
6
 10
628.0549
 20
480.0000
 11
635.3910
 21
478.4407
  0
LINE
  8
0_00
  6
CONTINUOUS
 62
6
 10
628.0549
 20
480.0000
 11
635.3910
 21
481.5593
  0
LINE
  8
0_00
  6
CONTINUOUS
 62
6
 10
700.0549
 20
480.0000
 11
692.7188
 21
481.5593
  0
LINE
  8
0_00
  6
CONTINUOUS
 62
6
 10
700.0549
 20
480.0000
 11
692.7188
 21
478.4407
  0
LINE
  8
0_00
  6
CONTINUOUS
 62
6
 10
740.0549
 20
367.5623
 11
740.0549
 21
486.0000
  0
LINE
  8
0_00
  6
CONTINUOUS
 62
6
 10
700.0549
 20
480.0000
 11
740.0549
 21
480.0000
  0
LINE
  8
0_00
  6
CONTINUOUS
 62
6
 10
700.0549
 20
480.0000
 11
707.3910
 21
478.4407
  0
LINE
  8
0_00
  6
CONTINUOUS
 62
6
 10
700.0549
 20
480.0000
 11
707.3910
 21
481.5593
  0
LINE
  8
0_00
  6
CONTINUOUS
 62
6
 10
740.0549
 20
480.0000
 11
732.7188
 21
481.5593
  0
LINE
  8
0_00
  6
CONTINUOUS
 62
6
 10
740.0549
 20
480.0000
 11
732.7188
 21
478.4407
  0
LINE
  8
0_00
  6
CONTINUOUS
 62
6
 10
812.0550
 20
371.7581
 11
812.0550
 21
486.0000
  0
LINE
  8
0_00
  6
CONTINUOUS
 62
6
 10
740.0549
 20
480.0000
 11
812.0550
 21
480.0000
  0
LINE
  8
0_00
  6
CONTINUOUS
 62
6
 10
740.0549
 20
480.0000
 11
747.3911
 21
478.4407
  0
LINE
  8
0_00
  6
CONTINUOUS
 62
6
 10
740.0549
 20
480.0000
 11
747.3911
 21
481.5593
  0
LINE
  8
0_00
  6
CONTINUOUS
 62
6
 10
812.0550
 20
480.0000
 11
804.7189
 21
481.5593
  0
LINE
  8
0_00
  6
CONTINUOUS
 62
6
 10
812.0550
 20
480.0000
 11
804.7189
 21
478.4407
  0
LINE
  8
0_00
  6
CONTINUOUS
 62
6
 10
628.0549
 20
388.0165
 11
628.0549
 21
486.0000
  0
LINE
  8
0_00
  6
CONTINUOUS
 62
2
 10
339.8282
 20
684.5000
 11
339.3282
 21
684.0000
  0
LINE
  8
0_00
  6
CONTINUOUS
 62
2
 10
335.5856
 20
684.5000
 11
335.0855
 21
684.0000
  0
LINE
  8
0_00
  6
CONTINUOUS
 62
2
 10
344.0708
 20
684.5000
 11
343.5708
 21
684.0000
  0
LINE
  8
0_00
  6
CONTINUOUS
 62
2
 10
302.3282
 20
684.5000
 11
301.8282
 21
684.0000
  0
LINE
  8
0_00
  6
CONTINUOUS
 62
2
 10
298.0855
 20
684.5000
 11
297.5855
 21
684.0000
  0
LINE
  8
0_00
  6
CONTINUOUS
 62
2
 10
306.5708
 20
684.5000
 11
306.0708
 21
684.0000
  0
LINE
  8
0_00
  6
CONTINUOUS
 62
6
 10
266.5254
 20
730.0000
 11
154.0000
 21
730.0000
  0
LINE
  8
0_00
  6
CONTINUOUS
 62
6
 10
276.9027
 20
683.0000
 11
154.0000
 21
683.0000
  0
LINE
  8
0_00
  6
CONTINUOUS
 62
6
 10
160.0000
 20
730.0000
 11
160.0000
 21
683.0000
  0
LINE
  8
0_00
  6
CONTINUOUS
 62
6
 10
160.0000
 20
730.0000
 11
158.4407
 21
722.6639
  0
LINE
  8
0_00
  6
CONTINUOUS
 62
6
 10
160.0000
 20
730.0000
 11
161.5593
 21
722.6639
  0
LINE
  8
0_00
  6
CONTINUOUS
 62
6
 10
160.0000
 20
683.0000
 11
161.5593
 21
690.3361
  0
LINE
  8
0_00
  6
CONTINUOUS
 62
6
 10
160.0000
 20
683.0000
 11
158.4407
 21
690.3361
  0
LINE
  8
15_0F
  6
CONTINUOUS
 62
6
 10
601.6736
 20
722.2022
 11
601.6736
 21
777.4742
  0
LINE
  8
15_0F
  6
CONTINUOUS
 62
6
 10
521.6736
 20
722.2022
 11
521.6736
 21
777.4742
  0
LINE
  8
15_0F
  6
CONTINUOUS
 62
6
 10
521.6736
 20
771.4742
 11
601.6736
 21
771.4742
  0
LINE
  8
15_0F
  6
CONTINUOUS
 62
6
 10
521.6736
 20
771.4742
 11
529.0097
 21
769.9149
  0
LINE
  8
15_0F
  6
CONTINUOUS
 62
6
 10
521.6736
 20
771.4742
 11
529.0097
 21
773.0336
  0
LINE
  8
15_0F
  6
CONTINUOUS
 62
6
 10
601.6736
 20
771.4742
 11
594.3375
 21
773.0336
  0
LINE
  8
15_0F
  6
CONTINUOUS
 62
6
 10
601.6736
 20
771.4742
 11
594.3375
 21
769.9149
  0
LINE
  8
0_00
  6
CONTINUOUS
 62
2
 10
580.2986
 20
694.2440
 11
579.7986
 21
693.7439
  0
LINE
  8
0_00
  6
CONTINUOUS
 62
2
 10
576.0560
 20
694.2440
 11
575.5560
 21
693.7439
  0
LINE
  8
0_00
  6
CONTINUOUS
 62
2
 10
584.5412
 20
694.2440
 11
584.0413
 21
693.7439
  0
LINE
  8
0_00
  6
CONTINUOUS
 62
2
 10
542.7986
 20
694.2440
 11
542.2986
 21
693.7439
  0
LINE
  8
0_00
  6
CONTINUOUS
 62
2
 10
538.5560
 20
694.2440
 11
538.0560
 21
693.7439
  0
LINE
  8
0_00
  6
CONTINUOUS
 62
2
 10
547.0413
 20
694.2440
 11
546.5413
 21
693.7439
  0
LINE
  8
0_00
  6
CONTINUOUS
 62
6
 10
516.6636
 20
692.8905
 11
474.0000
 21
692.8905
  0
LINE
  8
0_00
  6
CONTINUOUS
 62
6
 10
546.6736
 20
730.0000
 11
474.0000
 21
730.0000
  0
LINE
  8
0_00
  6
CONTINUOUS
 62
6
 10
480.0000
 20
730.0000
 11
480.0000
 21
692.8905
  0
LINE
  8
0_00
  6
CONTINUOUS
 62
6
 10
480.0000
 20
730.0000
 11
478.4407
 21
722.6639
  0
LINE
  8
0_00
  6
CONTINUOUS
 62
6
 10
480.0000
 20
730.0000
 11
481.5593
 21
722.6639
  0
LINE
  8
0_00
  6
CONTINUOUS
 62
6
 10
480.0000
 20
692.8905
 11
481.5593
 21
700.2265
  0
LINE
  8
0_00
  6
CONTINUOUS
 62
6
 10
480.0000
 20
692.8905
 11
478.4407
 21
700.2265
  0
LINE
  8
0_00
  6
DASHED
 62
2
 10
312.2032
 20
313.2267
 11
307.3832
 21
315.2267
  0
LINE
  8
0_00
  6
DASHED
 62
2
 10
296.2032
 20
315.2267
 11
307.3832
 21
315.2267
  0
LINE
  8
0_00
  6
DASHED
 62
2
 10
296.2032
 20
317.9267
 11
296.2032
 21
308.5267
  0
LINE
  8
0_00
  6
DASHED
 62
2
 10
312.2032
 20
313.2267
 11
307.3832
 21
311.2267
  0
LINE
  8
0_00
  6
DASHED
 62
2
 10
296.2032
 20
311.2267
 11
307.3832
 21
311.2267
  0
LINE
  8
0_00
  6
DASHED
 62
2
 10
296.2032
 20
311.7767
 11
308.7087
 21
311.7767
  0
LINE
  8
0_00
  6
DASHED
 62
2
 10
296.2032
 20
314.6767
 11
308.7087
 21
314.6767
  0
LINE
  8
0_00
  6
DASHED
 62
2
 10
295.9147
 20
317.9267
 11
296.2032
 21
317.9267
  0
LINE
  8
0_00
  6
DASHED
 62
2
 10
295.9147
 20
308.5267
 11
295.9147
 21
317.9267
  0
LINE
  8
0_00
  6
DASHED
 62
2
 10
295.9147
 20
308.5267
 11
296.2032
 21
308.5267
  0
LINE
  8
0_00
  6
DASHED
 62
2
 10
330.2032
 20
313.2267
 11
335.0232
 21
315.2267
  0
LINE
  8
0_00
  6
DASHED
 62
2
 10
346.2032
 20
315.2267
 11
335.0232
 21
315.2267
  0
LINE
  8
0_00
  6
DASHED
 62
2
 10
346.2032
 20
317.9267
 11
346.2032
 21
308.5267
  0
LINE
  8
0_00
  6
DASHED
 62
2
 10
330.2032
 20
313.2267
 11
335.0232
 21
311.2267
  0
LINE
  8
0_00
  6
DASHED
 62
2
 10
346.2032
 20
311.2267
 11
335.0232
 21
311.2267
  0
LINE
  8
0_00
  6
DASHED
 62
2
 10
346.2032
 20
311.7767
 11
333.6977
 21
311.7767
  0
LINE
  8
0_00
  6
DASHED
 62
2
 10
346.2032
 20
314.6767
 11
333.6977
 21
314.6767
  0
LINE
  8
0_00
  6
DASHED
 62
2
 10
346.4916
 20
317.9267
 11
346.2032
 21
317.9267
  0
LINE
  8
0_00
  6
DASHED
 62
2
 10
346.4916
 20
308.5267
 11
346.4916
 21
317.9267
  0
LINE
  8
0_00
  6
DASHED
 62
2
 10
346.4916
 20
308.5267
 11
346.2032
 21
308.5267
  0
LINE
  8
0_00
  6
CONTINUOUS
 62
6
 10
207.0414
 20
323.2266
 11
114.0000
 21
323.2266
  0
LINE
  8
0_00
  6
CONTINUOUS
 62
6
 10
254.2032
 20
223.2267
 11
114.0000
 21
223.2267
  0
LINE
  8
0_00
  6
CONTINUOUS
 62
6
 10
120.0000
 20
323.2266
 11
120.0000
 21
223.2267
  0
LINE
  8
0_00
  6
CONTINUOUS
 62
6
 10
120.0000
 20
323.2266
 11
118.4407
 21
315.8906
  0
LINE
  8
0_00
  6
CONTINUOUS
 62
6
 10
120.0000
 20
323.2266
 11
121.5593
 21
315.8906
  0
LINE
  8
0_00
  6
CONTINUOUS
 62
6
 10
120.0000
 20
223.2267
 11
121.5593
 21
230.5628
  0
LINE
  8
0_00
  6
CONTINUOUS
 62
6
 10
120.0000
 20
223.2267
 11
118.4407
 21
230.5628
  0
LINE
  8
0_00
  6
CONTINUOUS
 62
6
 10
588.2783
 20
352.5623
 11
554.0000
 21
352.5623
  0
LINE
  8
0_00
  6
CONTINUOUS
 62
6
 10
588.2783
 20
307.5623
 11
554.0000
 21
307.5623
  0
LINE
  8
0_00
  6
CONTINUOUS
 62
6
 10
560.0000
 20
352.5623
 11
560.0000
 21
307.5623
  0
LINE
  8
0_00
  6
CONTINUOUS
 62
6
 10
560.0000
 20
352.5623
 11
558.4406
 21
345.2262
  0
LINE
  8
0_00
  6
CONTINUOUS
 62
6
 10
560.0000
 20
352.5623
 11
561.5593
 21
345.2262
  0
LINE
  8
0_00
  6
CONTINUOUS
 62
6
 10
560.0000
 20
307.5623
 11
561.5593
 21
314.8984
  0
LINE
  8
0_00
  6
CONTINUOUS
 62
6
 10
560.0000
 20
307.5623
 11
558.4406
 21
314.8984
  0
LINE
  8
0_00
  6
DASHED
 62
2
 10
312.2032
 20
273.2267
 11
307.3832
 21
275.2267
  0
LINE
  8
0_00
  6
DASHED
 62
2
 10
296.2032
 20
275.2267
 11
307.3832
 21
275.2267
  0
LINE
  8
0_00
  6
DASHED
 62
2
 10
296.2032
 20
277.9267
 11
296.2032
 21
268.5267
  0
LINE
  8
0_00
  6
DASHED
 62
2
 10
312.2032
 20
273.2267
 11
307.3832
 21
271.2267
  0
LINE
  8
0_00
  6
DASHED
 62
2
 10
296.2032
 20
271.2267
 11
307.3832
 21
271.2267
  0
LINE
  8
0_00
  6
DASHED
 62
2
 10
296.2032
 20
271.7767
 11
308.7087
 21
271.7767
  0
LINE
  8
0_00
  6
DASHED
 62
2
 10
296.2032
 20
274.6767
 11
308.7087
 21
274.6767
  0
LINE
  8
0_00
  6
DASHED
 62
2
 10
295.9147
 20
277.9267
 11
296.2032
 21
277.9267
  0
LINE
  8
0_00
  6
DASHED
 62
2
 10
295.9147
 20
268.5267
 11
295.9147
 21
277.9267
  0
LINE
  8
0_00
  6
DASHED
 62
2
 10
295.9147
 20
268.5267
 11
296.2032
 21
268.5267
  0
LINE
  8
0_00
  6
DASHED
 62
2
 10
330.2032
 20
273.2267
 11
335.0232
 21
275.2267
  0
LINE
  8
0_00
  6
DASHED
 62
2
 10
346.2032
 20
275.2267
 11
335.0232
 21
275.2267
  0
LINE
  8
0_00
  6
DASHED
 62
2
 10
346.2032
 20
277.9267
 11
346.2032
 21
268.5267
  0
LINE
  8
0_00
  6
DASHED
 62
2
 10
330.2032
 20
273.2267
 11
335.0232
 21
271.2267
  0
LINE
  8
0_00
  6
DASHED
 62
2
 10
346.2032
 20
271.2267
 11
335.0232
 21
271.2267
  0
LINE
  8
0_00
  6
DASHED
 62
2
 10
346.2032
 20
271.7767
 11
333.6977
 21
271.7767
  0
LINE
  8
0_00
  6
DASHED
 62
2
 10
346.2032
 20
274.6767
 11
333.6977
 21
274.6767
  0
LINE
  8
0_00
  6
DASHED
 62
2
 10
346.4916
 20
277.9267
 11
346.2032
 21
277.9267
  0
LINE
  8
0_00
  6
DASHED
 62
2
 10
346.4916
 20
268.5267
 11
346.4916
 21
277.9267
  0
LINE
  8
0_00
  6
DASHED
 62
2
 10
346.4916
 20
268.5267
 11
346.2032
 21
268.5267
  0
LINE
  8
13_0D
  6
CONTINUOUS
 62
6
 10
254.2032
 20
223.2267
 11
135.5000
 21
223.2267
  0
LINE
  8
13_0D
  6
CONTINUOUS
 62
6
 10
270.1643
 20
313.2267
 11
135.5000
 21
313.2267
  0
LINE
  8
13_0D
  6
CONTINUOUS
 62
6
 10
140.0000
 20
313.2267
 11
140.0000
 21
223.2267
  0
LINE
  8
13_0D
  6
CONTINUOUS
 62
6
 10
140.0000
 20
313.2267
 11
138.4407
 21
305.8906
  0
LINE
  8
13_0D
  6
CONTINUOUS
 62
6
 10
140.0000
 20
313.2267
 11
141.5593
 21
305.8906
  0
LINE
  8
13_0D
  6
CONTINUOUS
 62
6
 10
140.0000
 20
223.2267
 11
141.5593
 21
230.5628
  0
LINE
  8
13_0D
  6
CONTINUOUS
 62
6
 10
140.0000
 20
223.2267
 11
138.4407
 21
230.5628
  0
LINE
  8
13_0D
  6
CONTINUOUS
 62
6
 10
254.2032
 20
223.2267
 11
155.5000
 21
223.2267
  0
LINE
  8
13_0D
  6
CONTINUOUS
 62
6
 10
270.1643
 20
273.2267
 11
155.5000
 21
273.2267
  0
LINE
  8
13_0D
  6
CONTINUOUS
 62
6
 10
160.0000
 20
273.2267
 11
160.0000
 21
223.2267
  0
LINE
  8
13_0D
  6
CONTINUOUS
 62
6
 10
160.0000
 20
273.2267
 11
158.4407
 21
265.8906
  0
LINE
  8
13_0D
  6
CONTINUOUS
 62
6
 10
160.0000
 20
273.2267
 11
161.5593
 21
265.8906
  0
LINE
  8
13_0D
  6
CONTINUOUS
 62
6
 10
160.0000
 20
223.2267
 11
161.5593
 21
230.5628
  0
LINE
  8
13_0D
  6
CONTINUOUS
 62
6
 10
160.0000
 20
223.2267
 11
158.4407
 21
230.5628
  0
ARC
  8
3_03
  6
CONTINUOUS
 62
4
 10
728.6816
 20
683.5343
 40
20.2300
 50
89.8197
 51
97.0407
  0
ARC
  8
3_03
  6
CONTINUOUS
 62
4
 10
726.2816
 20
702.9666
 40
0.6500
 50
97.0407
 51
180.0000
  0
ARC
  8
3_03
  6
CONTINUOUS
 62
4
 10
731.7315
 20
703.7142
 40
0.0500
 50
0.0000
 51
90.0000
  0
ARC
  8
3_03
  6
CONTINUOUS
 62
4
 10
731.7315
 20
699.0142
 40
0.0500
 50
270.0000
 51
360.0000
  0
ARC
  8
3_03
  6
CONTINUOUS
 62
4
 10
725.6816
 20
699.0142
 40
0.0500
 50
180.0000
 51
270.0000
  0
ARC
  8
2_02
  6
CONTINUOUS
 62
4
 10
731.5815
 20
623.8442
 40
0.2000
 50
270.0000
 51
360.0000
  0
ARC
  8
2_02
  6
CONTINUOUS
 62
4
 10
726.6316
 20
626.9943
 40
0.2500
 50
90.0000
 51
180.0000
  0
ARC
  8
2_02
  6
CONTINUOUS
 62
4
 10
726.5815
 20
623.8442
 40
0.2000
 50
180.0000
 51
270.0000
  0
ARC
  8
0_00
  6
CONTINUOUS
 62
4
 10
1088.6817
 20
683.5343
 40
20.2300
 50
82.9593
 51
90.1802
  0
ARC
  8
0_00
  6
CONTINUOUS
 62
4
 10
1091.0815
 20
702.9666
 40
0.6500
 50
0.0000
 51
82.9593
  0
ARC
  8
0_00
  6
CONTINUOUS
 62
4
 10
1085.6316
 20
703.7142
 40
0.0500
 50
90.0000
 51
180.0000
  0
ARC
  8
0_00
  6
CONTINUOUS
 62
4
 10
1085.6316
 20
699.0142
 40
0.0500
 50
180.0000
 51
270.0000
  0
ARC
  8
0_00
  6
CONTINUOUS
 62
4
 10
1091.6817
 20
699.0142
 40
0.0500
 50
270.0000
 51
360.0000
  0
ARC
  8
0_00
  6
CONTINUOUS
 62
2
 10
1090.7216
 20
626.0878
 40
0.7700
 50
309.9831
 51
410.0169
  0
ARC
  8
0_00
  6
CONTINUOUS
 62
4
 10
1085.7816
 20
623.8442
 40
0.2000
 50
180.0000
 51
270.0000
  0
ARC
  8
0_00
  6
CONTINUOUS
 62
4
 10
1090.7315
 20
626.9943
 40
0.2500
 50
0.0000
 51
90.0000
  0
ARC
  8
0_00
  6
CONTINUOUS
 62
4
 10
1090.7816
 20
623.8442
 40
0.2000
 50
270.0000
 51
360.0000
  0
ARC
  8
0_00
  6
CONTINUOUS
 62
4
 10
341.7032
 20
456.2266
 40
2.0000
 50
0.0000
 51
90.0000
  0
ARC
  8
0_00
  6
CONTINUOUS
 62
4
 10
342.2032
 20
424.7266
 40
1.5000
 50
270.0000
 51
360.0000
  0
ARC
  8
0_00
  6
CONTINUOUS
 62
4
 10
341.5032
 20
423.5267
 40
0.3000
 50
180.0000
 51
270.0000
  0
ARC
  8
0_00
  6
CONTINUOUS
 62
4
 10
341.5032
 20
424.4267
 40
0.3000
 50
90.0000
 51
180.0000
  0
ARC
  8
0_00
  6
CONTINUOUS
 62
4
 10
335.4397
 20
456.2266
 40
0.5000
 50
90.0000
 51
165.0686
  0
ARC
  8
0_00
  6
CONTINUOUS
 62
4
 10
306.9666
 20
456.2266
 40
0.5000
 50
14.9314
 51
90.0000
  0
ARC
  8
0_00
  6
CONTINUOUS
 62
4
 10
341.9060
 20
456.4267
 40
0.3000
 50
0.5371
 51
90.0000
  0
ARC
  8
0_00
  6
CONTINUOUS
 62
4
 10
342.2004
 20
425.0267
 40
0.3000
 50
270.0000
 51
360.5371
  0
ARC
  8
0_00
  6
CONTINUOUS
 62
4
 10
300.7032
 20
456.2266
 40
2.0000
 50
90.0000
 51
180.0000
  0
ARC
  8
0_00
  6
CONTINUOUS
 62
4
 10
300.2032
 20
424.7266
 40
1.5000
 50
180.0000
 51
270.0000
  0
ARC
  8
0_00
  6
CONTINUOUS
 62
4
 10
300.9032
 20
423.5267
 40
0.3000
 50
270.0000
 51
360.0000
  0
ARC
  8
0_00
  6
CONTINUOUS
 62
4
 10
300.9032
 20
424.4267
 40
0.3000
 50
0.0000
 51
90.0000
  0
ARC
  8
0_00
  6
CONTINUOUS
 62
4
 10
300.5004
 20
456.4267
 40
0.3000
 50
90.0000
 51
179.4629
  0
ARC
  8
0_00
  6
CONTINUOUS
 62
4
 10
300.2060
 20
425.0267
 40
0.3000
 50
179.4629
 51
270.0000
  0
ARC
  8
12_0C
  6
CONTINUOUS
 62
2
 10
319.0032
 20
453.9567
 40
1.3000
 50
180.0000
 51
253.3778
  0
ARC
  8
12_0C
  6
CONTINUOUS
 62
2
 10
321.2032
 20
461.3267
 40
9.0000
 50
253.3790
 51
286.6667
  0
ARC
  8
12_0C
  6
CONTINUOUS
 62
2
 10
323.4032
 20
453.9567
 40
1.3000
 50
286.6222
 51
360.0000
  0
ARC
  8
12_0C
  6
CONTINUOUS
 62
2
 10
303.2032
 20
455.3661
 40
5.1605
 50
39.1846
 51
140.8154
  0
ARC
  8
12_0C
  6
CONTINUOUS
 62
2
 10
339.2032
 20
455.3661
 40
5.1605
 50
39.1846
 51
140.8154
  0
ARC
  8
3_03
  6
CONTINUOUS
 62
2
 10
321.2032
 20
449.0267
 40
4.0000
 50
118.7257
 51
421.2743
  0
ARC
  8
3_03
  6
CONTINUOUS
 62
2
 10
321.2032
 20
449.0267
 40
2.0000
 50
36.1800
 51
53.8200
  0
ARC
  8
3_03
  6
CONTINUOUS
 62
2
 10
321.2032
 20
449.0267
 40
2.0000
 50
126.2068
 51
143.6799
  0
ARC
  8
3_03
  6
CONTINUOUS
 62
2
 10
321.2032
 20
449.0267
 40
2.0000
 50
216.1800
 51
233.7058
  0
ARC
  8
3_03
  6
CONTINUOUS
 62
2
 10
321.2032
 20
449.0267
 40
2.0000
 50
306.2068
 51
323.7932
  0
CIRCLE
  8
3_03
  6
CONTINUOUS
 62
2
 10
321.2032
 20
436.0267
 40
4.0000
  0
ARC
  8
3_03
  6
CONTINUOUS
 62
2
 10
321.2032
 20
436.0267
 40
2.0000
 50
36.1800
 51
53.8200
  0
ARC
  8
3_03
  6
CONTINUOUS
 62
2
 10
321.2032
 20
436.0267
 40
2.0000
 50
126.2068
 51
143.6799
  0
ARC
  8
3_03
  6
CONTINUOUS
 62
2
 10
321.2032
 20
436.0267
 40
2.0000
 50
216.1800
 51
233.7058
  0
ARC
  8
3_03
  6
CONTINUOUS
 62
2
 10
321.2032
 20
436.0267
 40
2.0000
 50
306.2068
 51
323.7932
  0
ARC
  8
0_00
  6
CONTINUOUS
 62
4
 10
307.7032
 20
455.5267
 40
1.0000
 50
180.0000
 51
270.0000
  0
ARC
  8
0_00
  6
CONTINUOUS
 62
4
 10
307.7032
 20
429.5267
 40
1.0000
 50
90.0000
 51
180.0000
  0
ARC
  8
0_00
  6
CONTINUOUS
 62
4
 10
334.7032
 20
455.5267
 40
1.0000
 50
270.0000
 51
360.0000
  0
ARC
  8
0_00
  6
CONTINUOUS
 62
4
 10
334.7032
 20
429.5267
 40
1.0000
 50
0.0000
 51
90.0000
  0
ARC
  8
0_00
  6
CONTINUOUS
 62
4
 10
808.0550
 20
333.2724
 40
6.0000
 50
165.0000
 51
180.0000
  0
ARC
  8
0_00
  6
CONTINUOUS
 62
4
 10
806.6344
 20
339.5623
 40
3.0000
 50
90.0000
 51
165.0000
  0
ARC
  8
0_00
  6
CONTINUOUS
 62
4
 10
817.4754
 20
339.5623
 40
3.0000
 50
15.0000
 51
90.0000
  0
ARC
  8
0_00
  6
CONTINUOUS
 62
4
 10
803.0549
 20
331.2497
 40
1.0000
 50
180.0000
 51
208.3576
  0
ARC
  8
0_00
  6
CONTINUOUS
 62
4
 10
800.8549
 20
330.0623
 40
1.5000
 50
331.6424
 51
388.3576
  0
ARC
  8
0_00
  6
CONTINUOUS
 62
4
 10
817.4754
 20
339.5623
 40
2.3000
 50
15.0000
 51
90.0000
  0
ARC
  8
0_00
  6
CONTINUOUS
 62
4
 10
806.6344
 20
339.5623
 40
2.3000
 50
90.0000
 51
165.0000
  0
ARC
  8
0_00
  6
CONTINUOUS
 62
4
 10
808.0550
 20
333.2724
 40
5.3000
 50
165.0000
 51
180.0000
  0
ARC
  8
0_00
  6
CONTINUOUS
 62
4
 10
808.0550
 20
326.8522
 40
6.0000
 50
180.0000
 51
195.0000
  0
ARC
  8
0_00
  6
CONTINUOUS
 62
4
 10
806.6344
 20
320.5623
 40
3.0000
 50
195.0000
 51
270.0000
  0
ARC
  8
0_00
  6
CONTINUOUS
 62
4
 10
817.4754
 20
320.5623
 40
3.0000
 50
270.0000
 51
345.0000
  0
ARC
  8
0_00
  6
CONTINUOUS
 62
4
 10
803.0549
 20
328.8749
 40
1.0000
 50
151.6424
 51
180.0000
  0
ARC
  8
0_00
  6
CONTINUOUS
 62
4
 10
800.8549
 20
330.0623
 40
1.5000
 50
331.6424
 51
388.3576
  0
ARC
  8
0_00
  6
CONTINUOUS
 62
4
 10
817.4754
 20
320.5623
 40
2.3000
 50
270.0000
 51
345.0000
  0
ARC
  8
0_00
  6
CONTINUOUS
 62
4
 10
806.6344
 20
320.5623
 40
2.3000
 50
195.0000
 51
270.0000
  0
ARC
  8
0_00
  6
CONTINUOUS
 62
4
 10
808.0550
 20
326.8522
 40
5.3000
 50
180.0000
 51
195.0000
  0
ARC
  8
0_00
  6
CONTINUOUS
 62
4
 10
800.8549
 20
330.0623
 40
2.2000
 50
329.7274
 51
390.2726
  0
ARC
  8
0_00
  6
CONTINUOUS
 62
4
 10
821.0549
 20
331.2497
 40
1.0000
 50
331.6424
 51
360.0000
  0
ARC
  8
0_00
  6
CONTINUOUS
 62
4
 10
816.0549
 20
333.2724
 40
6.0000
 50
0.0000
 51
15.0000
  0
ARC
  8
0_00
  6
CONTINUOUS
 62
4
 10
823.2549
 20
330.0623
 40
1.5000
 50
151.6424
 51
208.3576
  0
ARC
  8
0_00
  6
CONTINUOUS
 62
4
 10
818.5550
 20
330.0623
 40
2.1500
 50
68.1552
 51
111.8448
  0
ARC
  8
0_00
  6
CONTINUOUS
 62
4
 10
818.5550
 20
330.0623
 40
1.7000
 50
118.0725
 51
142.6303
  0
ARC
  8
0_00
  6
CONTINUOUS
 62
4
 10
818.5550
 20
330.0623
 40
1.7000
 50
38.6269
 51
61.9275
  0
ARC
  8
0_00
  6
CONTINUOUS
 62
4
 10
820.1174
 20
331.3108
 40
0.3000
 50
218.6269
 51
300.0000
  0
ARC
  8
0_00
  6
CONTINUOUS
 62
4
 10
818.5550
 20
330.0623
 40
3.2000
 50
51.5653
 51
90.0000
  0
ARC
  8
0_00
  6
CONTINUOUS
 62
4
 10
818.5550
 20
331.4623
 40
1.8000
 50
90.0000
 51
180.0000
  0
ARC
  8
0_00
  6
CONTINUOUS
 62
4
 10
820.8549
 20
332.9606
 40
0.5000
 50
231.5654
 51
360.0000
  0
ARC
  8
0_00
  6
CONTINUOUS
 62
4
 10
817.0051
 20
331.2460
 40
0.2501
 50
180.0000
 51
322.6303
  0
ARC
  8
0_00
  6
CONTINUOUS
 62
4
 10
820.7757
 20
330.9981
 40
0.3000
 50
339.3231
 51
480.0000
  0
ARC
  8
0_00
  6
CONTINUOUS
 62
4
 10
821.0549
 20
328.8749
 40
1.0000
 50
0.0000
 51
28.3576
  0
ARC
  8
0_00
  6
CONTINUOUS
 62
4
 10
816.0549
 20
326.8522
 40
6.0000
 50
345.0000
 51
360.0000
  0
ARC
  8
0_00
  6
CONTINUOUS
 62
4
 10
820.7757
 20
329.1266
 40
0.3000
 50
240.0000
 51
380.6769
  0
ARC
  8
0_00
  6
CONTINUOUS
 62
4
 10
816.0549
 20
333.2724
 40
5.3000
 50
0.0000
 51
15.0000
  0
ARC
  8
0_00
  6
CONTINUOUS
 62
4
 10
820.8549
 20
327.1641
 40
0.5000
 50
0.0000
 51
128.4346
  0
ARC
  8
0_00
  6
CONTINUOUS
 62
4
 10
816.0549
 20
326.8522
 40
5.3000
 50
345.0000
 51
360.0000
  0
ARC
  8
0_00
  6
CONTINUOUS
 62
4
 10
823.2549
 20
330.0623
 40
2.3500
 50
159.3231
 51
200.6769
  0
ARC
  8
0_00
  6
CONTINUOUS
 62
4
 10
818.5550
 20
330.0623
 40
2.1500
 50
248.1552
 51
291.8448
  0
ARC
  8
0_00
  6
CONTINUOUS
 62
4
 10
818.5550
 20
330.0623
 40
1.7000
 50
217.3697
 51
241.9275
  0
ARC
  8
0_00
  6
CONTINUOUS
 62
4
 10
818.5550
 20
330.0623
 40
1.7000
 50
298.0725
 51
321.3731
  0
ARC
  8
0_00
  6
CONTINUOUS
 62
4
 10
820.1174
 20
328.8139
 40
0.3000
 50
60.0000
 51
141.3731
  0
ARC
  8
0_00
  6
CONTINUOUS
 62
4
 10
818.5550
 20
330.0623
 40
3.2000
 50
270.0000
 51
308.4347
  0
ARC
  8
0_00
  6
CONTINUOUS
 62
4
 10
818.5550
 20
328.6623
 40
1.8000
 50
180.0000
 51
270.0000
  0
ARC
  8
0_00
  6
CONTINUOUS
 62
4
 10
817.0051
 20
328.8787
 40
0.2501
 50
37.3697
 51
180.0000
  0
ARC
  8
0_00
  6
CONTINUOUS
 62
4
 10
624.0549
 20
333.2724
 40
6.0000
 50
165.0000
 51
180.0000
  0
ARC
  8
0_00
  6
CONTINUOUS
 62
4
 10
622.6345
 20
339.5623
 40
3.0000
 50
90.0000
 51
165.0000
  0
ARC
  8
0_00
  6
CONTINUOUS
 62
4
 10
633.4754
 20
339.5623
 40
3.0000
 50
15.0000
 51
90.0000
  0
ARC
  8
0_00
  6
CONTINUOUS
 62
4
 10
619.0550
 20
331.2497
 40
1.0000
 50
180.0000
 51
208.3576
  0
ARC
  8
0_00
  6
CONTINUOUS
 62
4
 10
616.8549
 20
330.0623
 40
1.5000
 50
331.6424
 51
388.3576
  0
ARC
  8
0_00
  6
CONTINUOUS
 62
4
 10
633.4754
 20
339.5623
 40
2.3000
 50
15.0000
 51
90.0000
  0
ARC
  8
0_00
  6
CONTINUOUS
 62
4
 10
622.6345
 20
339.5623
 40
2.3000
 50
90.0000
 51
165.0000
  0
ARC
  8
0_00
  6
CONTINUOUS
 62
4
 10
624.0549
 20
333.2724
 40
5.3000
 50
165.0000
 51
180.0000
  0
ARC
  8
0_00
  6
CONTINUOUS
 62
4
 10
624.0549
 20
326.8522
 40
6.0000
 50
180.0000
 51
195.0000
  0
ARC
  8
0_00
  6
CONTINUOUS
 62
4
 10
622.6345
 20
320.5623
 40
3.0000
 50
195.0000
 51
270.0000
  0
ARC
  8
0_00
  6
CONTINUOUS
 62
4
 10
633.4754
 20
320.5623
 40
3.0000
 50
270.0000
 51
345.0000
  0
ARC
  8
0_00
  6
CONTINUOUS
 62
4
 10
619.0550
 20
328.8749
 40
1.0000
 50
151.6424
 51
180.0000
  0
ARC
  8
0_00
  6
CONTINUOUS
 62
4
 10
616.8549
 20
330.0623
 40
1.5000
 50
331.6424
 51
388.3576
  0
ARC
  8
0_00
  6
CONTINUOUS
 62
4
 10
633.4754
 20
320.5623
 40
2.3000
 50
270.0000
 51
345.0000
  0
ARC
  8
0_00
  6
CONTINUOUS
 62
4
 10
622.6345
 20
320.5623
 40
2.3000
 50
195.0000
 51
270.0000
  0
ARC
  8
0_00
  6
CONTINUOUS
 62
4
 10
624.0549
 20
326.8522
 40
5.3000
 50
180.0000
 51
195.0000
  0
ARC
  8
0_00
  6
CONTINUOUS
 62
4
 10
616.8549
 20
330.0623
 40
2.2000
 50
329.7274
 51
390.2726
  0
ARC
  8
0_00
  6
CONTINUOUS
 62
4
 10
637.0549
 20
331.2497
 40
1.0000
 50
331.6424
 51
360.0000
  0
ARC
  8
0_00
  6
CONTINUOUS
 62
4
 10
632.0549
 20
333.2724
 40
6.0000
 50
0.0000
 51
15.0000
  0
ARC
  8
0_00
  6
CONTINUOUS
 62
4
 10
639.2549
 20
330.0623
 40
1.5000
 50
151.6424
 51
208.3576
  0
ARC
  8
0_00
  6
CONTINUOUS
 62
4
 10
634.5549
 20
330.0623
 40
2.1500
 50
68.1552
 51
111.8448
  0
ARC
  8
0_00
  6
CONTINUOUS
 62
4
 10
634.5549
 20
330.0623
 40
1.7000
 50
118.0725
 51
142.6303
  0
ARC
  8
0_00
  6
CONTINUOUS
 62
4
 10
634.5549
 20
330.0623
 40
1.7000
 50
38.6269
 51
61.9275
  0
ARC
  8
0_00
  6
CONTINUOUS
 62
4
 10
636.1174
 20
331.3108
 40
0.3000
 50
218.6269
 51
300.0000
  0
ARC
  8
0_00
  6
CONTINUOUS
 62
4
 10
634.5549
 20
330.0623
 40
3.2000
 50
51.5653
 51
90.0000
  0
ARC
  8
0_00
  6
CONTINUOUS
 62
4
 10
634.5549
 20
331.4623
 40
1.8000
 50
90.0000
 51
180.0000
  0
ARC
  8
0_00
  6
CONTINUOUS
 62
4
 10
636.8550
 20
332.9606
 40
0.5000
 50
231.5654
 51
360.0000
  0
ARC
  8
0_00
  6
CONTINUOUS
 62
4
 10
633.0050
 20
331.2460
 40
0.2501
 50
180.0000
 51
322.6303
  0
ARC
  8
0_00
  6
CONTINUOUS
 62
4
 10
636.7757
 20
330.9981
 40
0.3000
 50
339.3231
 51
480.0000
  0
ARC
  8
0_00
  6
CONTINUOUS
 62
4
 10
637.0549
 20
328.8749
 40
1.0000
 50
0.0000
 51
28.3576
  0
ARC
  8
0_00
  6
CONTINUOUS
 62
4
 10
632.0549
 20
326.8522
 40
6.0000
 50
345.0000
 51
360.0000
  0
ARC
  8
0_00
  6
CONTINUOUS
 62
4
 10
636.7757
 20
329.1266
 40
0.3000
 50
240.0000
 51
380.6769
  0
ARC
  8
0_00
  6
CONTINUOUS
 62
4
 10
632.0549
 20
333.2724
 40
5.3000
 50
0.0000
 51
15.0000
  0
ARC
  8
0_00
  6
CONTINUOUS
 62
4
 10
636.8550
 20
327.1641
 40
0.5000
 50
0.0000
 51
128.4346
  0
ARC
  8
0_00
  6
CONTINUOUS
 62
4
 10
632.0549
 20
326.8522
 40
5.3000
 50
345.0000
 51
360.0000
  0
ARC
  8
0_00
  6
CONTINUOUS
 62
4
 10
639.2549
 20
330.0623
 40
2.3500
 50
159.3231
 51
200.6769
  0
ARC
  8
0_00
  6
CONTINUOUS
 62
4
 10
634.5549
 20
330.0623
 40
2.1500
 50
248.1552
 51
291.8448
  0
ARC
  8
0_00
  6
CONTINUOUS
 62
4
 10
634.5549
 20
330.0623
 40
1.7000
 50
217.3697
 51
241.9275
  0
ARC
  8
0_00
  6
CONTINUOUS
 62
4
 10
634.5549
 20
330.0623
 40
1.7000
 50
298.0725
 51
321.3731
  0
ARC
  8
0_00
  6
CONTINUOUS
 62
4
 10
636.1174
 20
328.8139
 40
0.3000
 50
60.0000
 51
141.3731
  0
ARC
  8
0_00
  6
CONTINUOUS
 62
4
 10
634.5549
 20
330.0623
 40
3.2000
 50
270.0000
 51
308.4347
  0
ARC
  8
0_00
  6
CONTINUOUS
 62
4
 10
634.5549
 20
328.6623
 40
1.8000
 50
180.0000
 51
270.0000
  0
ARC
  8
0_00
  6
CONTINUOUS
 62
4
 10
633.0050
 20
328.8787
 40
0.2501
 50
37.3697
 51
180.0000
  0
ARC
  8
0_00
  6
CONTINUOUS
 62
4
 10
321.2032
 20
528.4000
 40
201.6000
 50
82.9521
 51
97.0479
  0
ARC
  8
0_00
  6
CONTINUOUS
 62
4
 10
297.2032
 20
722.5220
 40
6.0000
 50
97.0479
 51
180.0001
  0
ARC
  8
0_00
  6
CONTINUOUS
 62
4
 10
345.2032
 20
722.5220
 40
6.0000
 50
359.9999
 51
442.9521
  0
ARC
  8
14_0E
  6
CONTINUOUS
 62
4
 10
321.2032
 20
528.4000
 40
200.0000
 50
82.8930
 51
97.1069
  0
ARC
  8
14_0E
  6
CONTINUOUS
 62
4
 10
297.0032
 20
722.4971
 40
4.4000
 50
97.1069
 51
180.0000
  0
ARC
  8
14_0E
  6
CONTINUOUS
 62
4
 10
345.4032
 20
722.4971
 40
4.4000
 50
0.0000
 51
82.8930
  0
ARC
  8
0_00
  6
CONTINUOUS
 62
4
 10
350.5031
 20
683.7000
 40
0.7000
 50
179.9999
 51
359.9999
  0
ARC
  8
0_00
  6
CONTINUOUS
 62
4
 10
291.9027
 20
683.7000
 40
0.7000
 50
180.0001
 51
360.0001
  0
ARC
  8
0_00
  6
CONTINUOUS
 62
4
 10
346.5309
 20
686.6000
 40
0.6000
 50
270.0000
 51
388.8667
  0
ARC
  8
0_00
  6
CONTINUOUS
 62
4
 10
335.2155
 20
686.4000
 40
0.4000
 50
194.0363
 51
270.0000
  0
ARC
  8
0_00
  6
CONTINUOUS
 62
4
 10
334.2664
 20
687.3100
 40
0.3000
 50
14.0362
 51
87.5372
  0
ARC
  8
0_00
  6
CONTINUOUS
 62
4
 10
307.1908
 20
686.4000
 40
0.4000
 50
270.0000
 51
345.9637
  0
ARC
  8
0_00
  6
CONTINUOUS
 62
4
 10
308.1399
 20
687.3100
 40
0.3000
 50
92.4628
 51
165.9637
  0
ARC
  8
0_00
  6
CONTINUOUS
 62
4
 10
349.4532
 20
689.2518
 40
0.3000
 50
275.0000
 51
371.6000
  0
ARC
  8
0_00
  6
CONTINUOUS
 62
4
 10
348.6532
 20
688.5293
 40
0.3500
 50
95.0000
 51
185.0988
  0
ARC
  8
0_00
  6
CONTINUOUS
 62
4
 10
347.6032
 20
688.8891
 40
1.0000
 50
95.0000
 51
180.0000
  0
ARC
  8
0_00
  6
CONTINUOUS
 62
4
 10
348.3279
 20
690.2575
 40
0.3000
 50
275.0000
 51
371.6000
  0
ARC
  8
0_00
  6
CONTINUOUS
 62
4
 10
348.6011
 20
693.9001
 40
0.7000
 50
90.0000
 51
191.6000
  0
ARC
  8
0_00
  6
CONTINUOUS
 62
4
 10
350.2966
 20
688.6759
 40
2.0000
 50
185.0988
 51
249.7122
  0
ARC
  8
0_00
  6
CONTINUOUS
 62
4
 10
350.2966
 20
688.6759
 40
3.7000
 50
183.4043
 51
208.8667
  0
ARC
  8
0_00
  6
CONTINUOUS
 62
4
 10
295.8754
 20
686.6000
 40
0.6000
 50
151.1333
 51
270.0000
  0
ARC
  8
0_00
  6
CONTINUOUS
 62
4
 10
292.9532
 20
689.2518
 40
0.3000
 50
168.4000
 51
265.0000
  0
ARC
  8
0_00
  6
CONTINUOUS
 62
4
 10
293.7532
 20
688.5293
 40
0.3500
 50
354.9012
 51
445.0000
  0
ARC
  8
0_00
  6
CONTINUOUS
 62
4
 10
294.8031
 20
688.8891
 40
1.0000
 50
0.0000
 51
85.0000
  0
ARC
  8
0_00
  6
CONTINUOUS
 62
4
 10
294.0784
 20
690.2575
 40
0.3000
 50
168.4000
 51
265.0000
  0
ARC
  8
0_00
  6
CONTINUOUS
 62
4
 10
293.8052
 20
693.9001
 40
0.7000
 50
348.4000
 51
450.0000
  0
ARC
  8
0_00
  6
CONTINUOUS
 62
4
 10
292.1097
 20
688.6759
 40
2.0000
 50
290.2878
 51
354.9012
  0
ARC
  8
0_00
  6
CONTINUOUS
 62
4
 10
292.1097
 20
688.6759
 40
3.7000
 50
331.1333
 51
356.5957
  0
ARC
  8
0_00
  6
CONTINUOUS
 62
4
 10
349.4031
 20
694.3239
 40
0.4000
 50
0.0000
 51
90.0000
  0
ARC
  8
0_00
  6
CONTINUOUS
 62
4
 10
349.4031
 20
696.1238
 40
0.4000
 50
270.0000
 51
359.9999
  0
ARC
  8
0_00
  6
CONTINUOUS
 62
4
 10
346.8031
 20
695.2238
 40
0.5000
 50
90.0000
 51
180.0000
  0
ARC
  8
0_00
  6
CONTINUOUS
 62
4
 10
346.5031
 20
694.1239
 40
0.2000
 50
180.0000
 51
270.0000
  0
ARC
  8
0_00
  6
CONTINUOUS
 62
4
 10
346.5031
 20
694.5238
 40
0.6000
 50
270.0000
 51
360.0000
  0
ARC
  8
0_00
  6
CONTINUOUS
 62
4
 10
348.7531
 20
688.4807
 40
0.3500
 50
95.0000
 51
190.8317
  0
ARC
  8
14_0E
  6
CONTINUOUS
 62
4
 10
350.3737
 20
688.7907
 40
2.0000
 50
190.8317
 51
253.4226
  0
ARC
  8
0_00
  6
CONTINUOUS
 62
4
 10
349.4031
 20
689.2903
 40
0.4000
 50
275.0000
 51
371.4000
  0
ARC
  8
0_00
  6
CONTINUOUS
 62
4
 10
349.5245
 20
691.7238
 40
0.2000
 50
90.0000
 51
191.4000
  0
ARC
  8
0_00
  6
CONTINUOUS
 62
4
 10
293.0027
 20
694.3239
 40
0.4000
 50
90.0000
 51
180.0000
  0
ARC
  8
0_00
  6
CONTINUOUS
 62
4
 10
293.0027
 20
696.1238
 40
0.4000
 50
183.0566
 51
270.0000
  0
ARC
  8
0_00
  6
CONTINUOUS
 62
4
 10
295.6027
 20
695.2238
 40
0.5000
 50
0.0000
 51
90.0000
  0
ARC
  8
0_00
  6
CONTINUOUS
 62
4
 10
295.9026
 20
694.1239
 40
0.2000
 50
270.0000
 51
360.0000
  0
ARC
  8
0_00
  6
CONTINUOUS
 62
4
 10
295.9026
 20
694.5238
 40
0.6000
 50
180.0000
 51
270.0000
  0
ARC
  8
0_00
  6
CONTINUOUS
 62
4
 10
293.6526
 20
688.4807
 40
0.3500
 50
349.1683
 51
445.0000
  0
ARC
  8
14_0E
  6
CONTINUOUS
 62
4
 10
292.0320
 20
688.7907
 40
2.0000
 50
286.5774
 51
349.1683
  0
ARC
  8
0_00
  6
CONTINUOUS
 62
4
 10
293.0027
 20
689.2903
 40
0.4000
 50
168.6000
 51
265.0000
  0
ARC
  8
0_00
  6
CONTINUOUS
 62
4
 10
292.8812
 20
691.7238
 40
0.2000
 50
348.6000
 51
450.0000
  0
ARC
  8
12_0C
  6
CONTINUOUS
 62
2
 10
341.4031
 20
687.1700
 40
1.3000
 50
0.0000
 51
73.3778
  0
ARC
  8
12_0C
  6
CONTINUOUS
 62
2
 10
339.2032
 20
679.8000
 40
9.0000
 50
73.3790
 51
106.6667
  0
ARC
  8
12_0C
  6
CONTINUOUS
 62
2
 10
337.0032
 20
687.1700
 40
1.3000
 50
106.6222
 51
180.0000
  0
ARC
  8
12_0C
  6
CONTINUOUS
 62
2
 10
305.4032
 20
687.1700
 40
1.3000
 50
0.0000
 51
73.3778
  0
ARC
  8
12_0C
  6
CONTINUOUS
 62
2
 10
303.2032
 20
679.8000
 40
9.0000
 50
73.3790
 51
106.6667
  0
ARC
  8
12_0C
  6
CONTINUOUS
 62
2
 10
301.0032
 20
687.1700
 40
1.3000
 50
106.6222
 51
180.0000
  0
ARC
  8
12_0C
  6
CONTINUOUS
 62
2
 10
323.4032
 20
688.9700
 40
1.3000
 50
0.0000
 51
73.3778
  0
ARC
  8
12_0C
  6
CONTINUOUS
 62
2
 10
321.2032
 20
681.5999
 40
9.0000
 50
73.3790
 51
106.6667
  0
ARC
  8
12_0C
  6
CONTINUOUS
 62
2
 10
319.0032
 20
688.9700
 40
1.3000
 50
106.6222
 51
180.0000
  0
ARC
  8
0_00
  6
CONTINUOUS
 62
4
 10
575.6859
 20
696.1439
 40
0.4000
 50
194.0363
 51
270.0000
  0
ARC
  8
0_00
  6
CONTINUOUS
 62
4
 10
574.7369
 20
697.0539
 40
0.3000
 50
14.0362
 51
87.5372
  0
ARC
  8
0_00
  6
CONTINUOUS
 62
4
 10
547.6613
 20
696.1439
 40
0.4000
 50
270.0000
 51
345.9637
  0
ARC
  8
0_00
  6
CONTINUOUS
 62
4
 10
548.6103
 20
697.0539
 40
0.3000
 50
92.4628
 51
165.9637
  0
ARC
  8
0_00
  6
CONTINUOUS
 62
4
 10
575.6859
 20
696.1439
 40
0.4000
 50
194.0363
 51
270.0000
  0
ARC
  8
0_00
  6
CONTINUOUS
 62
4
 10
574.7369
 20
697.0539
 40
0.3000
 50
14.0362
 51
87.5372
  0
ARC
  8
0_00
  6
CONTINUOUS
 62
4
 10
587.0013
 20
696.3440
 40
0.6000
 50
270.0000
 51
388.8667
  0
ARC
  8
0_00
  6
CONTINUOUS
 62
4
 10
589.9236
 20
698.9957
 40
0.3000
 50
275.0000
 51
371.6000
  0
ARC
  8
0_00
  6
CONTINUOUS
 62
4
 10
589.1236
 20
698.2733
 40
0.3500
 50
95.0000
 51
185.0988
  0
ARC
  8
0_00
  6
CONTINUOUS
 62
4
 10
588.0736
 20
698.6331
 40
1.0000
 50
95.0000
 51
180.0000
  0
ARC
  8
0_00
  6
CONTINUOUS
 62
4
 10
588.7984
 20
700.0014
 40
0.3000
 50
275.0000
 51
371.6000
  0
ARC
  8
0_00
  6
CONTINUOUS
 62
4
 10
589.0715
 20
703.6440
 40
0.7000
 50
90.0000
 51
191.6000
  0
ARC
  8
0_00
  6
CONTINUOUS
 62
4
 10
590.7671
 20
698.4200
 40
2.0000
 50
185.0988
 51
249.7122
  0
ARC
  8
0_00
  6
CONTINUOUS
 62
4
 10
590.7671
 20
698.4200
 40
3.7000
 50
183.4043
 51
208.8667
  0
ARC
  8
0_00
  6
CONTINUOUS
 62
4
 10
592.1741
 20
695.2827
 40
0.5000
 50
179.9995
 51
296.3368
  0
ARC
  8
0_00
  6
CONTINUOUS
 62
4
 10
589.8742
 20
704.0905
 40
0.4000
 50
359.4403
 51
449.9995
  0
ARC
  8
0_00
  6
CONTINUOUS
 62
4
 10
586.9742
 20
703.8905
 40
0.2000
 50
179.9995
 51
269.9996
  0
ARC
  8
0_00
  6
CONTINUOUS
 62
4
 10
586.9742
 20
704.2905
 40
0.6000
 50
269.9996
 51
359.9996
  0
ARC
  8
0_00
  6
CONTINUOUS
 62
4
 10
589.2241
 20
698.2473
 40
0.3500
 50
94.9995
 51
190.8312
  0
ARC
  8
14_0E
  6
CONTINUOUS
 62
4
 10
590.8447
 20
698.5573
 40
2.0000
 50
190.8312
 51
253.4221
  0
ARC
  8
0_00
  6
CONTINUOUS
 62
4
 10
589.8741
 20
699.0570
 40
0.4000
 50
274.9996
 51
371.3995
  0
ARC
  8
0_00
  6
CONTINUOUS
 62
4
 10
589.9956
 20
701.4905
 40
0.2000
 50
89.9995
 51
191.3996
  0
ARC
  8
0_00
  6
CONTINUOUS
 62
4
 10
587.7741
 20
704.7905
 40
1.0000
 50
89.9995
 51
179.9995
  0
ARC
  8
0_00
  6
CONTINUOUS
 62
4
 10
590.3741
 20
704.4905
 40
1.3000
 50
359.9996
 51
449.9995
  0
ARC
  8
0_00
  6
CONTINUOUS
 62
4
 10
561.6736
 20
670.0000
 40
60.0000
 50
56.5252
 51
123.4747
  0
ARC
  8
0_00
  6
CONTINUOUS
 62
4
 10
586.2736
 20
707.2022
 40
15.4000
 50
292.7488
 51
416.5252
  0
ARC
  8
0_00
  6
CONTINUOUS
 62
4
 10
591.6836
 20
694.3000
 40
1.4095
 50
179.9994
 51
292.7488
  0
ARC
  8
0_00
  6
CONTINUOUS
 62
4
 10
586.2736
 20
707.2022
 40
13.8000
 50
296.3368
 51
416.5252
  0
ARC
  8
0_00
  6
CONTINUOUS
 62
4
 10
561.6736
 20
670.0000
 40
58.4000
 50
56.5252
 51
123.4747
  0
ARC
  8
0_00
  6
CONTINUOUS
 62
4
 10
547.6613
 20
696.1439
 40
0.4000
 50
270.0000
 51
345.9637
  0
ARC
  8
0_00
  6
CONTINUOUS
 62
4
 10
548.6103
 20
697.0539
 40
0.3000
 50
92.4628
 51
165.9637
  0
ARC
  8
0_00
  6
CONTINUOUS
 62
4
 10
536.3458
 20
696.3440
 40
0.6000
 50
151.1333
 51
270.0000
  0
ARC
  8
0_00
  6
CONTINUOUS
 62
4
 10
533.4236
 20
698.9957
 40
0.3000
 50
168.4000
 51
265.0000
  0
ARC
  8
0_00
  6
CONTINUOUS
 62
4
 10
534.2236
 20
698.2733
 40
0.3500
 50
354.9012
 51
445.0000
  0
ARC
  8
0_00
  6
CONTINUOUS
 62
4
 10
535.2736
 20
698.6331
 40
1.0000
 50
0.0000
 51
85.0000
  0
ARC
  8
0_00
  6
CONTINUOUS
 62
4
 10
534.5488
 20
700.0014
 40
0.3000
 50
168.4000
 51
265.0000
  0
ARC
  8
0_00
  6
CONTINUOUS
 62
4
 10
534.2756
 20
703.6440
 40
0.7000
 50
348.4000
 51
450.0000
  0
ARC
  8
0_00
  6
CONTINUOUS
 62
4
 10
532.5802
 20
698.4200
 40
2.0000
 50
290.2878
 51
354.9012
  0
ARC
  8
0_00
  6
CONTINUOUS
 62
4
 10
532.5802
 20
698.4200
 40
3.7000
 50
331.1333
 51
356.5957
  0
ARC
  8
0_00
  6
CONTINUOUS
 62
4
 10
531.1731
 20
695.2827
 40
0.5000
 50
243.6632
 51
360.0004
  0
ARC
  8
0_00
  6
CONTINUOUS
 62
4
 10
533.4730
 20
704.0905
 40
0.4000
 50
89.9999
 51
180.5597
  0
ARC
  8
0_00
  6
CONTINUOUS
 62
4
 10
536.3730
 20
703.8905
 40
0.2000
 50
270.0005
 51
360.0004
  0
ARC
  8
0_00
  6
CONTINUOUS
 62
4
 10
536.3730
 20
704.2905
 40
0.6000
 50
180.0005
 51
270.0005
  0
ARC
  8
0_00
  6
CONTINUOUS
 62
4
 10
534.1230
 20
698.2473
 40
0.3500
 50
349.1688
 51
445.0004
  0
ARC
  8
14_0E
  6
CONTINUOUS
 62
4
 10
532.5025
 20
698.5573
 40
2.0000
 50
286.5779
 51
349.1688
  0
ARC
  8
0_00
  6
CONTINUOUS
 62
4
 10
533.4730
 20
699.0570
 40
0.4000
 50
168.6004
 51
265.0005
  0
ARC
  8
0_00
  6
CONTINUOUS
 62
4
 10
533.3516
 20
701.4905
 40
0.2000
 50
348.6005
 51
450.0004
  0
ARC
  8
0_00
  6
CONTINUOUS
 62
4
 10
535.5730
 20
704.7905
 40
1.0000
 50
0.0004
 51
90.0004
  0
ARC
  8
0_00
  6
CONTINUOUS
 62
4
 10
532.9730
 20
704.4905
 40
1.3000
 50
90.0004
 51
180.0005
  0
ARC
  8
0_00
  6
CONTINUOUS
 62
4
 10
537.0736
 20
707.2022
 40
15.4000
 50
123.4747
 51
247.2512
  0
ARC
  8
0_00
  6
CONTINUOUS
 62
4
 10
531.6636
 20
694.3000
 40
1.4095
 50
247.2512
 51
360.0006
  0
ARC
  8
0_00
  6
CONTINUOUS
 62
4
 10
537.0736
 20
707.2022
 40
13.8000
 50
123.4747
 51
243.6632
  0
ARC
  8
12_0C
  6
CONTINUOUS
 62
2
 10
563.8736
 20
698.7140
 40
1.3000
 50
0.0000
 51
73.3778
  0
ARC
  8
12_0C
  6
CONTINUOUS
 62
2
 10
561.6736
 20
691.3440
 40
9.0000
 50
73.3790
 51
106.6667
  0
ARC
  8
12_0C
  6
CONTINUOUS
 62
2
 10
559.4735
 20
698.7140
 40
1.3000
 50
106.6222
 51
180.0000
  0
ARC
  8
12_0C
  6
CONTINUOUS
 62
2
 10
545.8736
 20
696.9139
 40
1.3000
 50
0.0000
 51
73.3778
  0
ARC
  8
12_0C
  6
CONTINUOUS
 62
2
 10
543.6736
 20
689.5440
 40
9.0000
 50
73.3790
 51
106.6667
  0
ARC
  8
12_0C
  6
CONTINUOUS
 62
2
 10
541.4736
 20
696.9139
 40
1.3000
 50
106.6222
 51
180.0000
  0
ARC
  8
12_0C
  6
CONTINUOUS
 62
2
 10
581.8736
 20
696.9139
 40
1.3000
 50
0.0000
 51
73.3778
  0
ARC
  8
12_0C
  6
CONTINUOUS
 62
2
 10
579.6736
 20
689.5440
 40
9.0000
 50
73.3790
 51
106.6667
  0
ARC
  8
12_0C
  6
CONTINUOUS
 62
2
 10
577.4736
 20
696.9139
 40
1.3000
 50
106.6222
 51
180.0000
  0
ARC
  8
0_00
  6
DASHED
 62
2
 10
331.2032
 20
176.8267
 40
5.0000
 50
180.0000
 51
270.0000
  0
ARC
  8
0_00
  6
DASHED
 62
2
 10
331.2032
 20
176.8267
 40
15.0000
 50
180.0000
 51
270.0000
  0
ARC
  8
0_00
  6
DASHED
 62
2
 10
310.9532
 20
328.2266
 40
5.0000
 50
180.0000
 51
270.0000
  0
ARC
  8
0_00
  6
DASHED
 62
2
 10
331.4532
 20
328.2266
 40
5.0000
 50
270.0000
 51
360.0000
  0
ARC
  8
0_00
  6
CONTINUOUS
 62
2
 10
353.7764
 20
330.7999
 40
7.7349
 50
191.7355
 51
258.2645
  0
ARC
  8
0_00
  6
CONTINUOUS
 62
2
 10
288.6300
 20
330.7999
 40
7.7349
 50
281.7355
 51
348.2645
  0
CIRCLE
  8
0_00
  6
CONTINUOUS
 62
2
 10
403.5645
 20
317.5376
 40
0.2000
  0
CIRCLE
  8
0_00
  6
CONTINUOUS
 62
2
 10
410.8544
 20
311.7664
 40
0.2000
  0
CIRCLE
  8
0_00
  6
CONTINUOUS
 62
2
 10
402.3495
 20
307.5140
 40
0.2000
  0
CIRCLE
  8
0_00
  6
CONTINUOUS
 62
2
 10
407.5132
 20
296.8828
 40
0.2000
  0
CIRCLE
  8
0_00
  6
CONTINUOUS
 62
2
 10
414.4993
 20
301.4390
 40
0.2000
  0
CIRCLE
  8
0_00
  6
CONTINUOUS
 62
2
 10
416.9293
 20
287.4667
 40
0.2000
  0
CIRCLE
  8
0_00
  6
CONTINUOUS
 62
2
 10
407.2094
 20
283.8217
 40
0.2000
  0
CIRCLE
  8
0_00
  6
CONTINUOUS
 62
2
 10
411.7656
 20
275.0131
 40
0.2000
  0
CIRCLE
  8
0_00
  6
CONTINUOUS
 62
2
 10
417.2330
 20
268.9382
 40
0.2000
  0
CIRCLE
  8
0_00
  6
CONTINUOUS
 62
2
 10
414.8031
 20
246.7646
 40
0.2000
  0
CIRCLE
  8
0_00
  6
CONTINUOUS
 62
2
 10
406.9057
 20
244.6384
 40
0.2000
  0
CIRCLE
  8
0_00
  6
CONTINUOUS
 62
2
 10
405.3869
 20
233.3998
 40
0.2000
  0
CIRCLE
  8
0_00
  6
CONTINUOUS
 62
2
 10
412.9806
 20
236.7410
 40
0.2000
  0
CIRCLE
  8
0_00
  6
CONTINUOUS
 62
2
 10
418.7518
 20
229.7548
 40
0.2000
  0
CIRCLE
  8
0_00
  6
CONTINUOUS
 62
2
 10
410.8544
 20
226.7173
 40
0.2000
  0
CIRCLE
  8
0_00
  6
CONTINUOUS
 62
2
 10
405.9944
 20
220.9462
 40
0.2000
  0
CIRCLE
  8
0_00
  6
CONTINUOUS
 62
2
 10
410.8544
 20
213.0488
 40
0.2000
  0
CIRCLE
  8
0_00
  6
CONTINUOUS
 62
2
 10
417.2330
 20
217.9087
 40
0.2000
  0
CIRCLE
  8
0_00
  6
CONTINUOUS
 62
2
 10
416.0181
 20
205.4551
 40
0.2000
  0
CIRCLE
  8
0_00
  6
CONTINUOUS
 62
2
 10
407.8169
 20
203.6326
 40
0.2000
  0
CIRCLE
  8
0_00
  6
CONTINUOUS
 62
2
 10
406.9057
 20
193.0015
 40
0.2000
  0
CIRCLE
  8
0_00
  6
CONTINUOUS
 62
2
 10
414.4993
 20
196.0390
 40
0.2000
  0
CIRCLE
  8
0_00
  6
CONTINUOUS
 62
2
 10
416.0181
 20
190.8753
 40
0.2000
  0
CIRCLE
  8
0_00
  6
CONTINUOUS
 62
2
 10
410.5506
 20
182.6741
 40
0.2000
  0
CIRCLE
  8
0_00
  6
CONTINUOUS
 62
2
 10
405.0832
 20
179.6366
 40
0.2000
  0
CIRCLE
  8
0_00
  6
CONTINUOUS
 62
2
 10
407.2094
 20
169.0055
 40
0.2000
  0
CIRCLE
  8
0_00
  6
CONTINUOUS
 62
2
 10
413.8918
 20
170.8280
 40
0.2000
  0
CIRCLE
  8
0_00
  6
CONTINUOUS
 62
2
 10
416.0181
 20
179.6366
 40
0.2000
  0
CIRCLE
  8
0_00
  6
CONTINUOUS
 62
2
 10
417.2330
 20
165.3605
 40
0.2000
  0
CIRCLE
  8
0_00
  6
CONTINUOUS
 62
2
 10
391.1108
 20
315.4114
 40
0.2000
  0
CIRCLE
  8
0_00
  6
CONTINUOUS
 62
2
 10
394.4520
 20
308.7289
 40
0.2000
  0
CIRCLE
  8
0_00
  6
CONTINUOUS
 62
2
 10
381.0872
 20
307.8177
 40
0.2000
  0
CIRCLE
  8
0_00
  6
CONTINUOUS
 62
2
 10
375.0123
 20
316.0189
 40
0.2000
  0
CIRCLE
  8
0_00
  6
CONTINUOUS
 62
2
 10
382.6059
 20
316.6264
 40
0.2000
  0
CIRCLE
  8
0_00
  6
CONTINUOUS
 62
2
 10
371.6711
 20
307.5140
 40
0.2000
  0
CIRCLE
  8
0_00
  6
CONTINUOUS
 62
2
 10
366.2036
 20
315.1076
 40
0.2000
  0
CIRCLE
  8
0_00
  6
CONTINUOUS
 62
2
 10
361.3437
 20
305.3878
 40
0.2000
  0
CIRCLE
  8
0_00
  6
CONTINUOUS
 62
2
 10
354.0538
 20
306.6027
 40
0.2000
  0
CIRCLE
  8
0_00
  6
CONTINUOUS
 62
2
 10
352.5350
 20
317.2339
 40
0.2000
  0
CIRCLE
  8
0_00
  6
CONTINUOUS
 62
2
 10
313.9592
 20
318.7526
 40
0.2000
  0
CIRCLE
  8
0_00
  6
CONTINUOUS
 62
2
 10
313.0480
 20
308.1215
 40
0.2000
  0
CIRCLE
  8
0_00
  6
CONTINUOUS
 62
2
 10
327.3240
 20
307.5140
 40
0.2000
  0
CIRCLE
  8
0_00
  6
CONTINUOUS
 62
2
 10
335.5252
 20
307.2102
 40
0.2000
  0
CIRCLE
  8
0_00
  6
CONTINUOUS
 62
2
 10
330.0578
 20
318.4489
 40
0.2000
  0
CIRCLE
  8
0_00
  6
CONTINUOUS
 62
2
 10
337.0440
 20
319.0563
 40
0.2000
  0
CIRCLE
  8
0_00
  6
CONTINUOUS
 62
2
 10
307.8842
 20
306.9065
 40
0.2000
  0
CIRCLE
  8
0_00
  6
CONTINUOUS
 62
2
 10
292.0894
 20
319.3601
 40
0.2000
  0
CIRCLE
  8
0_00
  6
CONTINUOUS
 62
2
 10
289.6595
 20
307.8177
 40
0.2000
  0
CIRCLE
  8
0_00
  6
CONTINUOUS
 62
2
 10
275.3833
 20
308.4252
 40
0.2000
  0
CIRCLE
  8
0_00
  6
CONTINUOUS
 62
2
 10
279.3321
 20
316.3226
 40
0.2000
  0
CIRCLE
  8
0_00
  6
CONTINUOUS
 62
2
 10
280.8508
 20
311.1590
 40
0.2000
  0
CIRCLE
  8
0_00
  6
CONTINUOUS
 62
2
 10
269.6122
 20
318.1451
 40
0.2000
  0
CIRCLE
  8
0_00
  6
CONTINUOUS
 62
2
 10
285.7108
 20
319.0563
 40
0.2000
  0
CIRCLE
  8
0_00
  6
CONTINUOUS
 62
2
 10
259.2848
 20
319.0563
 40
0.2000
  0
CIRCLE
  8
0_00
  6
CONTINUOUS
 62
2
 10
256.2473
 20
306.6027
 40
0.2000
  0
CIRCLE
  8
0_00
  6
CONTINUOUS
 62
2
 10
264.4485
 20
312.0702
 40
0.2000
  0
CIRCLE
  8
0_00
  6
CONTINUOUS
 62
2
 10
264.4485
 20
308.1215
 40
0.2000
  0
CIRCLE
  8
0_00
  6
CONTINUOUS
 62
2
 10
250.4762
 20
312.9814
 40
0.2000
  0
CIRCLE
  8
0_00
  6
CONTINUOUS
 62
2
 10
243.7937
 20
308.7289
 40
0.2000
  0
CIRCLE
  8
0_00
  6
CONTINUOUS
 62
2
 10
234.9850
 20
308.7289
 40
0.2000
  0
CIRCLE
  8
0_00
  6
CONTINUOUS
 62
2
 10
235.2888
 20
315.7151
 40
0.2000
  0
CIRCLE
  8
0_00
  6
CONTINUOUS
 62
2
 10
244.7050
 20
316.0189
 40
0.2000
  0
CIRCLE
  8
0_00
  6
CONTINUOUS
 62
2
 10
252.2986
 20
319.0563
 40
0.2000
  0
CIRCLE
  8
0_00
  6
CONTINUOUS
 62
2
 10
250.7799
 20
306.6027
 40
0.2000
  0
CIRCLE
  8
0_00
  6
CONTINUOUS
 62
2
 10
387.4659
 20
310.8552
 40
0.2000
  0
CIRCLE
  8
0_00
  6
CONTINUOUS
 62
2
 10
411.1581
 20
290.8079
 40
0.2000
  0
CIRCLE
  8
0_00
  6
CONTINUOUS
 62
2
 10
412.0693
 20
254.3583
 40
0.2000
  0
CIRCLE
  8
0_00
  6
CONTINUOUS
 62
2
 10
229.5176
 20
307.2102
 40
0.2000
  0
CIRCLE
  8
0_00
  6
CONTINUOUS
 62
2
 10
225.2652
 20
300.8316
 40
0.2000
  0
CIRCLE
  8
0_00
  6
CONTINUOUS
 62
2
 10
225.8727
 20
290.5042
 40
0.2000
  0
CIRCLE
  8
0_00
  6
CONTINUOUS
 62
2
 10
234.0738
 20
285.3405
 40
0.2000
  0
CIRCLE
  8
0_00
  6
CONTINUOUS
 62
2
 10
235.5926
 20
297.1866
 40
0.2000
  0
CIRCLE
  8
0_00
  6
CONTINUOUS
 62
2
 10
232.5551
 20
295.6678
 40
0.2000
  0
CIRCLE
  8
0_00
  6
CONTINUOUS
 62
2
 10
238.6300
 20
303.8690
 40
0.2000
  0
CIRCLE
  8
0_00
  6
CONTINUOUS
 62
2
 10
238.0225
 20
278.0506
 40
0.2000
  0
CIRCLE
  8
0_00
  6
CONTINUOUS
 62
2
 10
227.3914
 20
276.2281
 40
0.2000
  0
CIRCLE
  8
0_00
  6
CONTINUOUS
 62
2
 10
225.2652
 20
265.2932
 40
0.2000
  0
CIRCLE
  8
0_00
  6
CONTINUOUS
 62
2
 10
235.2888
 20
265.9007
 40
0.2000
  0
CIRCLE
  8
0_00
  6
CONTINUOUS
 62
2
 10
229.8214
 20
271.6719
 40
0.2000
  0
CIRCLE
  8
0_00
  6
CONTINUOUS
 62
2
 10
233.1626
 20
259.2182
 40
0.2000
  0
CIRCLE
  8
0_00
  6
CONTINUOUS
 62
2
 10
225.5689
 20
250.1059
 40
0.2000
  0
CIRCLE
  8
0_00
  6
CONTINUOUS
 62
2
 10
234.9850
 20
250.4096
 40
0.2000
  0
CIRCLE
  8
0_00
  6
CONTINUOUS
 62
2
 10
227.0876
 20
257.3958
 40
0.2000
  0
CIRCLE
  8
0_00
  6
CONTINUOUS
 62
2
 10
232.8588
 20
242.2085
 40
0.2000
  0
CIRCLE
  8
0_00
  6
CONTINUOUS
 62
2
 10
224.6577
 20
239.1710
 40
0.2000
  0
CIRCLE
  8
0_00
  6
CONTINUOUS
 62
2
 10
231.6439
 20
229.1473
 40
0.2000
  0
CIRCLE
  8
0_00
  6
CONTINUOUS
 62
2
 10
224.0502
 20
230.0586
 40
0.2000
  0
CIRCLE
  8
0_00
  6
CONTINUOUS
 62
2
 10
235.8963
 20
235.2223
 40
0.2000
  0
CIRCLE
  8
0_00
  6
CONTINUOUS
 62
2
 10
237.4150
 20
225.8061
 40
0.2000
  0
CIRCLE
  8
0_00
  6
CONTINUOUS
 62
2
 10
238.6300
 20
248.8909
 40
0.2000
  0
CIRCLE
  8
0_00
  6
CONTINUOUS
 62
2
 10
239.8450
 20
259.5220
 40
0.2000
  0
CIRCLE
  8
0_00
  6
CONTINUOUS
 62
2
 10
238.6300
 20
216.9975
 40
0.2000
  0
CIRCLE
  8
0_00
  6
CONTINUOUS
 62
2
 10
228.6064
 20
210.0113
 40
0.2000
  0
CIRCLE
  8
0_00
  6
CONTINUOUS
 62
2
 10
222.8352
 20
201.5064
 40
0.2000
  0
CIRCLE
  8
0_00
  6
CONTINUOUS
 62
2
 10
229.5176
 20
189.9640
 40
0.2000
  0
CIRCLE
  8
0_00
  6
CONTINUOUS
 62
2
 10
237.4150
 20
197.8614
 40
0.2000
  0
CIRCLE
  8
0_00
  6
CONTINUOUS
 62
2
 10
231.6439
 20
201.5064
 40
0.2000
  0
CIRCLE
  8
0_00
  6
CONTINUOUS
 62
2
 10
236.2000
 20
210.0113
 40
0.2000
  0
CIRCLE
  8
0_00
  6
CONTINUOUS
 62
2
 10
228.6064
 20
218.2125
 40
0.2000
  0
CIRCLE
  8
0_00
  6
CONTINUOUS
 62
2
 10
224.3539
 20
220.0349
 40
0.2000
  0
CIRCLE
  8
0_00
  6
CONTINUOUS
 62
2
 10
236.5038
 20
187.2303
 40
0.2000
  0
CIRCLE
  8
0_00
  6
CONTINUOUS
 62
2
 10
227.3914
 20
179.9404
 40
0.2000
  0
CIRCLE
  8
0_00
  6
CONTINUOUS
 62
2
 10
234.3776
 20
171.1317
 40
0.2000
  0
CIRCLE
  8
0_00
  6
CONTINUOUS
 62
2
 10
221.9240
 20
169.6130
 40
0.2000
  0
CIRCLE
  8
0_00
  6
CONTINUOUS
 62
2
 10
226.1764
 20
161.7156
 40
0.2000
  0
CIRCLE
  8
0_00
  6
CONTINUOUS
 62
2
 10
224.3539
 20
159.2856
 40
0.2000
  0
CIRCLE
  8
0_00
  6
CONTINUOUS
 62
2
 10
232.5551
 20
155.3369
 40
0.2000
  0
CIRCLE
  8
0_00
  6
CONTINUOUS
 62
2
 10
231.6439
 20
168.0943
 40
0.2000
  0
CIRCLE
  8
0_00
  6
CONTINUOUS
 62
2
 10
236.2000
 20
160.8044
 40
0.2000
  0
CIRCLE
  8
0_00
  6
CONTINUOUS
 62
2
 10
225.8727
 20
150.1732
 40
0.2000
  0
CIRCLE
  8
0_00
  6
CONTINUOUS
 62
2
 10
231.3401
 20
145.9207
 40
0.2000
  0
CIRCLE
  8
0_00
  6
CONTINUOUS
 62
2
 10
238.9338
 20
148.6545
 40
0.2000
  0
CIRCLE
  8
0_00
  6
CONTINUOUS
 62
2
 10
238.3263
 20
182.6741
 40
0.2000
  0
CIRCLE
  8
0_00
  6
CONTINUOUS
 62
2
 10
235.2888
 20
178.7254
 40
0.2000
  0
CIRCLE
  8
0_00
  6
CONTINUOUS
 62
2
 10
225.2652
 20
190.5715
 40
0.2000
  0
CIRCLE
  8
0_00
  6
CONTINUOUS
 62
2
 10
227.3914
 20
283.2142
 40
0.2000
  0
CIRCLE
  8
0_00
  6
CONTINUOUS
 62
2
 10
361.1137
 20
320.4962
 40
0.2000
  0
CIRCLE
  8
0_00
  6
CONTINUOUS
 62
2
 10
327.1029
 20
289.8270
 40
0.2000
  0
CIRCLE
  8
0_00
  6
CONTINUOUS
 62
2
 10
337.5963
 20
282.6473
 40
0.2000
  0
CIRCLE
  8
0_00
  6
CONTINUOUS
 62
2
 10
352.1398
 20
276.7563
 40
0.2000
  0
CIRCLE
  8
0_00
  6
CONTINUOUS
 62
2
 10
353.9808
 20
282.8315
 40
0.2000
  0
CIRCLE
  8
0_00
  6
CONTINUOUS
 62
2
 10
365.0265
 20
277.1245
 40
0.2000
  0
CIRCLE
  8
0_00
  6
CONTINUOUS
 62
2
 10
359.8718
 20
261.2924
 40
0.2000
  0
CIRCLE
  8
0_00
  6
CONTINUOUS
 62
2
 10
353.4285
 20
254.6649
 40
0.2000
  0
CIRCLE
  8
0_00
  6
CONTINUOUS
 62
2
 10
351.2193
 20
263.6856
 40
0.2000
  0
CIRCLE
  8
0_00
  6
CONTINUOUS
 62
2
 10
335.5713
 20
261.8446
 40
0.2000
  0
CIRCLE
  8
0_00
  6
CONTINUOUS
 62
2
 10
327.6552
 20
256.5059
 40
0.2000
  0
CIRCLE
  8
0_00
  6
CONTINUOUS
 62
2
 10
334.8349
 20
242.3306
 40
0.2000
  0
CIRCLE
  8
0_00
  6
CONTINUOUS
 62
2
 10
321.0278
 20
241.4101
 40
0.2000
  0
CIRCLE
  8
0_00
  6
CONTINUOUS
 62
2
 10
307.0365
 20
241.7783
 40
0.2000
  0
CIRCLE
  8
0_00
  6
CONTINUOUS
 62
2
 10
309.6139
 20
262.5810
 40
0.2000
  0
CIRCLE
  8
0_00
  6
CONTINUOUS
 62
2
 10
312.0071
 20
276.9404
 40
0.2000
  0
CIRCLE
  8
0_00
  6
CONTINUOUS
 62
2
 10
299.3046
 20
278.7814
 40
0.2000
  0
CIRCLE
  8
0_00
  6
CONTINUOUS
 62
2
 10
285.4974
 20
277.1245
 40
0.2000
  0
CIRCLE
  8
0_00
  6
CONTINUOUS
 62
2
 10
286.6020
 20
263.1333
 40
0.2000
  0
CIRCLE
  8
0_00
  6
CONTINUOUS
 62
2
 10
282.7360
 20
251.5353
 40
0.2000
  0
CIRCLE
  8
0_00
  6
CONTINUOUS
 62
2
 10
294.8863
 20
237.3600
 40
0.2000
  0
CIRCLE
  8
0_00
  6
CONTINUOUS
 62
2
 10
280.1587
 20
232.3894
 40
0.2000
  0
CIRCLE
  8
0_00
  6
CONTINUOUS
 62
2
 10
275.5563
 20
246.0125
 40
0.2000
  0
CIRCLE
  8
0_00
  6
CONTINUOUS
 62
2
 10
275.9245
 20
268.1039
 40
0.2000
  0
CIRCLE
  8
0_00
  6
CONTINUOUS
 62
2
 10
275.9245
 20
290.5634
 40
0.2000
  0
CIRCLE
  8
0_00
  6
CONTINUOUS
 62
2
 10
287.5225
 20
298.1113
 40
0.2000
  0
CIRCLE
  8
0_00
  6
CONTINUOUS
 62
2
 10
291.2044
 20
288.5384
 40
0.2000
  0
CIRCLE
  8
0_00
  6
CONTINUOUS
 62
2
 10
304.6433
 20
293.8771
 40
0.2000
  0
CIRCLE
  8
0_00
  6
CONTINUOUS
 62
2
 10
318.8186
 20
292.0362
 40
0.2000
  0
CIRCLE
  8
0_00
  6
CONTINUOUS
 62
2
 10
315.8731
 20
283.7519
 40
0.2000
  0
CIRCLE
  8
0_00
  6
CONTINUOUS
 62
2
 10
328.0234
 20
278.0450
 40
0.2000
  0
CIRCLE
  8
0_00
  6
CONTINUOUS
 62
2
 10
333.7303
 20
290.5634
 40
0.2000
  0
CIRCLE
  8
0_00
  6
CONTINUOUS
 62
2
 10
330.2325
 20
298.4795
 40
0.2000
  0
CIRCLE
  8
0_00
  6
CONTINUOUS
 62
2
 10
358.3990
 20
292.7726
 40
0.2000
  0
CIRCLE
  8
0_00
  6
CONTINUOUS
 62
2
 10
365.7628
 20
296.8227
 40
0.2000
  0
CIRCLE
  8
0_00
  6
CONTINUOUS
 62
2
 10
360.6082
 20
275.4676
 40
0.2000
  0
CIRCLE
  8
0_00
  6
CONTINUOUS
 62
2
 10
358.5831
 20
264.6061
 40
0.2000
  0
CIRCLE
  8
0_00
  6
CONTINUOUS
 62
2
 10
365.9469
 20
255.5854
 40
0.2000
  0
CIRCLE
  8
0_00
  6
CONTINUOUS
 62
2
 10
360.7923
 20
246.9329
 40
0.2000
  0
CIRCLE
  8
0_00
  6
CONTINUOUS
 62
2
 10
348.4579
 20
241.5942
 40
0.2000
  0
CIRCLE
  8
0_00
  6
CONTINUOUS
 62
2
 10
334.0985
 20
235.3350
 40
0.2000
  0
CIRCLE
  8
0_00
  6
CONTINUOUS
 62
2
 10
322.5005
 20
232.3894
 40
0.2000
  0
CIRCLE
  8
0_00
  6
CONTINUOUS
 62
2
 10
353.7967
 20
228.5234
 40
0.2000
  0
CIRCLE
  8
0_00
  6
CONTINUOUS
 62
2
 10
369.9970
 20
230.1803
 40
0.2000
  0
CIRCLE
  8
0_00
  6
CONTINUOUS
 62
2
 10
361.5287
 20
234.9668
 40
0.2000
  0
CIRCLE
  8
0_00
  6
CONTINUOUS
 62
2
 10
358.2150
 20
239.3850
 40
0.2000
  0
ARC
  8
0_00
  6
CONTINUOUS
 62
2
 10
725.4243
 20
616.4516
 40
0.7735
 50
281.7355
 51
348.2645
  0
ARC
  8
0_00
  6
CONTINUOUS
 62
2
 10
731.9389
 20
616.4516
 40
0.7735
 50
191.7355
 51
258.2645
  0
ARC
  8
0_00
  6
CONTINUOUS
 62
2
 10
750.9243
 20
616.4516
 40
0.7735
 50
281.7355
 51
348.2645
  0
ARC
  8
0_00
  6
CONTINUOUS
 62
2
 10
756.4389
 20
616.4516
 40
0.7735
 50
191.7355
 51
258.2645
  0
ARC
  8
0_00
  6
CONTINUOUS
 62
2
 10
1085.4243
 20
616.4516
 40
0.7735
 50
281.7355
 51
348.2645
  0
ARC
  8
0_00
  6
CONTINUOUS
 62
2
 10
1091.9389
 20
616.4516
 40
0.7735
 50
191.7355
 51
258.2645
  0
ARC
  8
0_00
  6
CONTINUOUS
 62
2
 10
854.2576
 20
616.4516
 40
0.7735
 50
281.7355
 51
348.2645
  0
ARC
  8
0_00
  6
CONTINUOUS
 62
2
 10
859.7722
 20
616.4516
 40
0.7735
 50
191.7355
 51
258.2645
  0
ARC
  8
0_00
  6
CONTINUOUS
 62
2
 10
957.5909
 20
616.4516
 40
0.7735
 50
281.7355
 51
348.2645
  0
ARC
  8
0_00
  6
CONTINUOUS
 62
2
 10
963.1057
 20
616.4516
 40
0.7735
 50
191.7355
 51
258.2645
  0
ARC
  8
0_00
  6
CONTINUOUS
 62
2
 10
1060.9243
 20
616.4516
 40
0.7735
 50
281.7355
 51
348.2645
  0
ARC
  8
0_00
  6
CONTINUOUS
 62
2
 10
1066.4389
 20
616.4516
 40
0.7735
 50
191.7355
 51
258.2645
  0
ARC
  8
0_00
  6
CONTINUOUS
 62
4
 10
737.5550
 20
352.5623
 40
2.5000
 50
0.0000
 51
90.0000
  0
ARC
  8
0_00
  6
CONTINUOUS
 62
4
 10
736.5549
 20
348.0623
 40
1.7000
 50
118.0725
 51
141.6204
  0
ARC
  8
0_00
  6
CONTINUOUS
 62
4
 10
736.5549
 20
348.0623
 40
3.2500
 50
63.0423
 51
118.1446
  0
ARC
  8
0_00
  6
CONTINUOUS
 62
4
 10
738.2550
 20
351.4048
 40
0.5000
 50
243.0423
 51
360.0000
  0
ARC
  8
0_00
  6
CONTINUOUS
 62
4
 10
735.3049
 20
350.3990
 40
0.6000
 50
118.1446
 51
180.0000
  0
ARC
  8
0_00
  6
CONTINUOUS
 62
4
 10
736.5549
 20
348.0623
 40
1.7000
 50
30.0000
 51
61.9275
  0
ARC
  8
0_00
  6
CONTINUOUS
 62
4
 10
702.5549
 20
352.5623
 40
2.5000
 50
90.0000
 51
180.0000
  0
ARC
  8
0_00
  6
CONTINUOUS
 62
4
 10
734.9949
 20
349.2979
 40
0.2900
 50
180.0000
 51
321.6204
  0
ARC
  8
0_00
  6
CONTINUOUS
 62
4
 10
738.4049
 20
348.7840
 40
0.3000
 50
0.0000
 51
120.0000
  0
ARC
  8
0_00
  6
CONTINUOUS
 62
4
 10
736.5549
 20
348.0623
 40
2.1500
 50
68.1552
 51
111.8448
  0
ARC
  8
0_00
  6
CONTINUOUS
 62
4
 10
736.5549
 20
348.0623
 40
1.7000
 50
218.3796
 51
241.9275
  0
ARC
  8
0_00
  6
CONTINUOUS
 62
4
 10
736.5549
 20
348.0623
 40
3.2500
 50
241.8554
 51
298.6854
  0
ARC
  8
0_00
  6
CONTINUOUS
 62
4
 10
735.3049
 20
345.7257
 40
0.6000
 50
180.0000
 51
241.8554
  0
ARC
  8
0_00
  6
CONTINUOUS
 62
4
 10
738.3549
 20
344.7726
 40
0.5000
 50
0.0000
 51
118.6854
  0
ARC
  8
0_00
  6
CONTINUOUS
 62
4
 10
736.5549
 20
348.0623
 40
1.7000
 50
298.0725
 51
330.0000
  0
ARC
  8
0_00
  6
CONTINUOUS
 62
4
 10
734.9949
 20
346.8268
 40
0.2900
 50
38.3796
 51
180.0000
  0
ARC
  8
0_00
  6
CONTINUOUS
 62
4
 10
738.4049
 20
347.3406
 40
0.3000
 50
240.0000
 51
360.0000
  0
ARC
  8
0_00
  6
CONTINUOUS
 62
4
 10
736.5549
 20
348.0623
 40
2.1500
 50
248.1552
 51
291.8448
  0
ARC
  8
0_00
  6
CONTINUOUS
 62
4
 10
703.5549
 20
348.0623
 40
1.7000
 50
38.3796
 51
61.9275
  0
ARC
  8
0_00
  6
CONTINUOUS
 62
4
 10
703.5549
 20
348.0623
 40
3.2500
 50
61.8554
 51
116.9577
  0
ARC
  8
0_00
  6
CONTINUOUS
 62
4
 10
704.8049
 20
350.3990
 40
0.6000
 50
0.0000
 51
61.8554
  0
ARC
  8
0_00
  6
CONTINUOUS
 62
4
 10
703.5549
 20
348.0623
 40
1.7000
 50
118.0725
 51
150.0000
  0
ARC
  8
0_00
  6
CONTINUOUS
 62
4
 10
705.1149
 20
349.2979
 40
0.2900
 50
218.3796
 51
360.0000
  0
ARC
  8
0_00
  6
CONTINUOUS
 62
4
 10
701.7049
 20
348.7840
 40
0.3000
 50
60.0000
 51
180.0000
  0
ARC
  8
0_00
  6
CONTINUOUS
 62
4
 10
703.5549
 20
348.0623
 40
2.1500
 50
68.1552
 51
111.8448
  0
ARC
  8
0_00
  6
CONTINUOUS
 62
4
 10
703.5549
 20
348.0623
 40
1.7000
 50
298.0725
 51
321.6204
  0
ARC
  8
0_00
  6
CONTINUOUS
 62
4
 10
703.5549
 20
348.0623
 40
3.2500
 50
241.3146
 51
298.1446
  0
ARC
  8
0_00
  6
CONTINUOUS
 62
4
 10
704.8049
 20
345.7257
 40
0.6000
 50
298.1446
 51
360.0000
  0
ARC
  8
0_00
  6
CONTINUOUS
 62
4
 10
701.7550
 20
344.7726
 40
0.5000
 50
61.3146
 51
180.0000
  0
ARC
  8
0_00
  6
CONTINUOUS
 62
4
 10
703.5549
 20
348.0623
 40
1.7000
 50
210.0000
 51
241.9275
  0
ARC
  8
0_00
  6
CONTINUOUS
 62
4
 10
705.1149
 20
346.8268
 40
0.2900
 50
0.0000
 51
141.6204
  0
ARC
  8
0_00
  6
CONTINUOUS
 62
4
 10
701.7049
 20
347.3406
 40
0.3000
 50
180.0000
 51
300.0000
  0
ARC
  8
0_00
  6
CONTINUOUS
 62
4
 10
703.5549
 20
348.0623
 40
2.1500
 50
248.1552
 51
291.8448
  0
ARC
  8
0_00
  6
CONTINUOUS
 62
4
 10
738.2550
 20
352.5623
 40
0.5000
 50
0.0000
 51
90.0000
  0
ARC
  8
0_00
  6
CONTINUOUS
 62
4
 10
701.8549
 20
351.4048
 40
0.5000
 50
180.0000
 51
296.9578
  0
ARC
  8
0_00
  6
CONTINUOUS
 62
4
 10
701.8549
 20
352.5623
 40
0.5000
 50
90.0000
 51
180.0000
  0
ARC
  8
0_00
  6
CONTINUOUS
 62
4
 10
737.5550
 20
307.5623
 40
2.5000
 50
270.0000
 51
360.0000
  0
ARC
  8
0_00
  6
CONTINUOUS
 62
4
 10
736.5549
 20
312.0623
 40
1.7000
 50
218.3796
 51
241.9275
  0
ARC
  8
0_00
  6
CONTINUOUS
 62
4
 10
736.5549
 20
312.0623
 40
3.2500
 50
241.8554
 51
296.9578
  0
ARC
  8
0_00
  6
CONTINUOUS
 62
4
 10
738.2550
 20
308.7198
 40
0.5000
 50
0.0000
 51
116.9577
  0
ARC
  8
0_00
  6
CONTINUOUS
 62
4
 10
735.3049
 20
309.7257
 40
0.6000
 50
180.0000
 51
241.8554
  0
ARC
  8
0_00
  6
CONTINUOUS
 62
4
 10
736.5549
 20
312.0623
 40
1.7000
 50
298.0725
 51
330.0000
  0
ARC
  8
0_00
  6
CONTINUOUS
 62
4
 10
702.5549
 20
307.5623
 40
2.5000
 50
180.0000
 51
270.0000
  0
ARC
  8
0_00
  6
CONTINUOUS
 62
4
 10
734.9949
 20
310.8268
 40
0.2900
 50
38.3796
 51
180.0000
  0
ARC
  8
0_00
  6
CONTINUOUS
 62
4
 10
738.4049
 20
311.3406
 40
0.3000
 50
240.0000
 51
360.0000
  0
ARC
  8
0_00
  6
CONTINUOUS
 62
4
 10
736.5549
 20
312.0623
 40
2.1500
 50
248.1552
 51
291.8448
  0
ARC
  8
0_00
  6
CONTINUOUS
 62
4
 10
736.5549
 20
312.0623
 40
1.7000
 50
118.0725
 51
141.6204
  0
ARC
  8
0_00
  6
CONTINUOUS
 62
4
 10
736.5549
 20
312.0623
 40
3.2500
 50
61.3146
 51
118.1446
  0
ARC
  8
0_00
  6
CONTINUOUS
 62
4
 10
735.3049
 20
314.3990
 40
0.6000
 50
118.1446
 51
180.0000
  0
ARC
  8
0_00
  6
CONTINUOUS
 62
4
 10
738.3549
 20
315.3521
 40
0.5000
 50
241.3146
 51
360.0000
  0
ARC
  8
0_00
  6
CONTINUOUS
 62
4
 10
736.5549
 20
312.0623
 40
1.7000
 50
30.0000
 51
61.9275
  0
ARC
  8
0_00
  6
CONTINUOUS
 62
4
 10
734.9949
 20
313.2979
 40
0.2900
 50
180.0000
 51
321.6204
  0
ARC
  8
0_00
  6
CONTINUOUS
 62
4
 10
738.4049
 20
312.7840
 40
0.3000
 50
0.0000
 51
120.0000
  0
ARC
  8
0_00
  6
CONTINUOUS
 62
4
 10
736.5549
 20
312.0623
 40
2.1500
 50
68.1552
 51
111.8448
  0
ARC
  8
0_00
  6
CONTINUOUS
 62
4
 10
703.5549
 20
312.0623
 40
1.7000
 50
298.0725
 51
321.6204
  0
ARC
  8
0_00
  6
CONTINUOUS
 62
4
 10
703.5549
 20
312.0623
 40
3.2500
 50
243.0423
 51
298.1446
  0
ARC
  8
0_00
  6
CONTINUOUS
 62
4
 10
704.8049
 20
309.7257
 40
0.6000
 50
298.1446
 51
360.0000
  0
ARC
  8
0_00
  6
CONTINUOUS
 62
4
 10
703.5549
 20
312.0623
 40
1.7000
 50
210.0000
 51
241.9275
  0
ARC
  8
0_00
  6
CONTINUOUS
 62
4
 10
705.1149
 20
310.8268
 40
0.2900
 50
0.0000
 51
141.6204
  0
ARC
  8
0_00
  6
CONTINUOUS
 62
4
 10
701.7049
 20
311.3406
 40
0.3000
 50
180.0000
 51
300.0000
  0
ARC
  8
0_00
  6
CONTINUOUS
 62
4
 10
703.5549
 20
312.0623
 40
2.1500
 50
248.1552
 51
291.8448
  0
ARC
  8
0_00
  6
CONTINUOUS
 62
4
 10
703.5549
 20
312.0623
 40
1.7000
 50
38.3796
 51
61.9275
  0
ARC
  8
0_00
  6
CONTINUOUS
 62
4
 10
703.5549
 20
312.0623
 40
3.2500
 50
61.8554
 51
118.6854
  0
ARC
  8
0_00
  6
CONTINUOUS
 62
4
 10
704.8049
 20
314.3990
 40
0.6000
 50
0.0000
 51
61.8554
  0
ARC
  8
0_00
  6
CONTINUOUS
 62
4
 10
701.7550
 20
315.3521
 40
0.5000
 50
180.0000
 51
298.6854
  0
ARC
  8
0_00
  6
CONTINUOUS
 62
4
 10
703.5549
 20
312.0623
 40
1.7000
 50
118.0725
 51
150.0000
  0
ARC
  8
0_00
  6
CONTINUOUS
 62
4
 10
705.1149
 20
313.2979
 40
0.2900
 50
218.3796
 51
360.0000
  0
ARC
  8
0_00
  6
CONTINUOUS
 62
4
 10
701.7049
 20
312.7840
 40
0.3000
 50
60.0000
 51
180.0000
  0
ARC
  8
0_00
  6
CONTINUOUS
 62
4
 10
703.5549
 20
312.0623
 40
2.1500
 50
68.1552
 51
111.8448
  0
ARC
  8
0_00
  6
CONTINUOUS
 62
4
 10
738.2550
 20
307.5623
 40
0.5000
 50
270.0000
 51
360.0000
  0
ARC
  8
0_00
  6
CONTINUOUS
 62
4
 10
701.8549
 20
308.7198
 40
0.5000
 50
63.0423
 51
180.0000
  0
ARC
  8
0_00
  6
CONTINUOUS
 62
4
 10
701.8549
 20
307.5623
 40
0.5000
 50
180.0000
 51
270.0000
  0
ARC
  8
0_00
  6
CONTINUOUS
 62
4
 10
730.6049
 20
348.6123
 40
3.2000
 50
0.0000
 51
90.0000
  0
ARC
  8
0_00
  6
CONTINUOUS
 62
4
 10
730.6049
 20
311.5123
 40
3.2000
 50
270.0000
 51
360.0000
  0
ARC
  8
0_00
  6
CONTINUOUS
 62
2
 10
741.0549
 20
356.0623
 40
5.0000
 50
0.0000
 51
90.0000
  0
ARC
  8
0_00
  6
CONTINUOUS
 62
2
 10
699.0549
 20
356.0623
 40
5.0000
 50
90.0000
 51
180.0000
  0
ARC
  8
0_00
  6
CONTINUOUS
 62
2
 10
699.0549
 20
304.0623
 40
5.0000
 50
180.0000
 51
270.0000
  0
ARC
  8
0_00
  6
CONTINUOUS
 62
2
 10
741.0549
 20
304.0623
 40
5.0000
 50
270.0000
 51
360.0000
  0
ARC
  8
0_00
  6
CONTINUOUS
 62
3
 10
1089.6760
 20
72.2363
 40
0.5362
 50
270.0000
 51
450.0000
  0
ARC
  8
0_00
  6
CONTINUOUS
 62
3
 10
1088.1842
 20
77.0626
 40
0.6532
 50
0.0000
 51
180.0000
  0
ARC
  8
0_00
  6
CONTINUOUS
 62
3
 10
1089.1886
 20
83.4001
 40
1.9500
 50
333.9999
 51
450.0000
  0
CIRCLE
  8
0_00
  6
CONTINUOUS
 62
3
 10
1090.0660
 20
87.3000
 40
1.5600
  0
ARC
  8
0_00
  6
CONTINUOUS
 62
3
 10
1088.2811
 20
77.0626
 40
0.4500
 50
0.0000
 51
180.0000
  0
ARC
  8
0_00
  6
CONTINUOUS
 62
3
 10
1088.2811
 20
77.0626
 40
0.1500
 50
0.0000
 51
180.0000
  0
ARC
  8
0_00
  6
CONTINUOUS
 62
3
 10
1089.6760
 20
72.1725
 40
0.3000
 50
270.0000
 51
450.0000
  0
CIRCLE
  8
0_00
  6
CONTINUOUS
 62
3
 10
1090.0660
 20
87.3000
 40
1.3244
  0
CIRCLE
  8
0_00
  6
CONTINUOUS
 62
3
 10
1090.0660
 20
87.3000
 40
1.0256
  0
CIRCLE
  8
0_00
  6
CONTINUOUS
 62
3
 10
1090.0660
 20
87.3000
 40
0.7027
  0
CIRCLE
  8
0_00
  6
CONTINUOUS
 62
3
 10
1090.0660
 20
87.3000
 40
0.3440
  0
CIRCLE
  8
0_00
  6
CONTINUOUS
 62
3
 10
1090.0660
 20
87.3000
 40
0.1699
  0
CIRCLE
  8
0_00
  6
CONTINUOUS
 62
4
 10
881.0410
 20
82.2001
 40
3.7500
  0
CIRCLE
  8
0_00
  6
CONTINUOUS
 62
4
 10
881.0410
 20
82.2001
 40
6.0000
  0
ARC
  8
0_00
  6
CONTINUOUS
 62
2
 10
1076.5550
 20
348.0623
 40
2.0500
 50
45.0000
 51
58.5444
  0
ARC
  8
0_00
  6
CONTINUOUS
 62
2
 10
1076.5550
 20
348.0623
 40
2.0500
 50
121.3667
 51
135.0000
  0
ARC
  8
0_00
  6
CONTINUOUS
 62
2
 10
1076.5550
 20
348.0623
 40
2.0500
 50
211.4556
 51
225.0000
  0
ARC
  8
0_00
  6
CONTINUOUS
 62
2
 10
1076.5550
 20
348.0623
 40
2.0500
 50
135.0000
 51
148.6333
  0
ARC
  8
0_00
  6
CONTINUOUS
 62
2
 10
1076.5550
 20
348.0623
 40
2.0500
 50
31.4556
 51
45.0000
  0
ARC
  8
0_00
  6
CONTINUOUS
 62
2
 10
1076.5550
 20
348.0623
 40
2.0500
 50
315.0000
 51
328.6334
  0
ARC
  8
0_00
  6
CONTINUOUS
 62
2
 10
1076.5550
 20
348.0623
 40
2.0500
 50
225.0000
 51
238.5444
  0
ARC
  8
0_00
  6
CONTINUOUS
 62
2
 10
1076.5550
 20
348.0623
 40
2.0500
 50
301.3667
 51
315.0000
  0
CIRCLE
  8
0_00
  6
CONTINUOUS
 62
2
 10
1076.5550
 20
348.0623
 40
3.5000
  0
ARC
  8
0_00
  6
CONTINUOUS
 62
2
 10
1076.5550
 20
312.0623
 40
2.0500
 50
45.0000
 51
58.5444
  0
ARC
  8
0_00
  6
CONTINUOUS
 62
2
 10
1076.5550
 20
312.0623
 40
2.0500
 50
121.3667
 51
135.0000
  0
ARC
  8
0_00
  6
CONTINUOUS
 62
2
 10
1076.5550
 20
312.0623
 40
2.0500
 50
211.4556
 51
225.0000
  0
ARC
  8
0_00
  6
CONTINUOUS
 62
2
 10
1076.5550
 20
312.0623
 40
2.0500
 50
135.0000
 51
148.6333
  0
ARC
  8
0_00
  6
CONTINUOUS
 62
2
 10
1076.5550
 20
312.0623
 40
2.0500
 50
31.4556
 51
45.0000
  0
ARC
  8
0_00
  6
CONTINUOUS
 62
2
 10
1076.5550
 20
312.0623
 40
2.0500
 50
315.0000
 51
328.6334
  0
ARC
  8
0_00
  6
CONTINUOUS
 62
2
 10
1076.5550
 20
312.0623
 40
2.0500
 50
225.0000
 51
238.5444
  0
ARC
  8
0_00
  6
CONTINUOUS
 62
2
 10
1076.5550
 20
312.0623
 40
2.0500
 50
301.3667
 51
315.0000
  0
CIRCLE
  8
0_00
  6
CONTINUOUS
 62
2
 10
1076.5550
 20
312.0623
 40
3.5000
  0
ARC
  8
0_00
  6
CONTINUOUS
 62
2
 10
1043.5550
 20
348.0623
 40
2.0500
 50
45.0000
 51
58.5444
  0
ARC
  8
0_00
  6
CONTINUOUS
 62
2
 10
1043.5550
 20
348.0623
 40
2.0500
 50
121.3667
 51
135.0000
  0
ARC
  8
0_00
  6
CONTINUOUS
 62
2
 10
1043.5550
 20
348.0623
 40
2.0500
 50
211.4556
 51
225.0000
  0
ARC
  8
0_00
  6
CONTINUOUS
 62
2
 10
1043.5550
 20
348.0623
 40
2.0500
 50
135.0000
 51
148.6333
  0
ARC
  8
0_00
  6
CONTINUOUS
 62
2
 10
1043.5550
 20
348.0623
 40
2.0500
 50
31.4556
 51
45.0000
  0
ARC
  8
0_00
  6
CONTINUOUS
 62
2
 10
1043.5550
 20
348.0623
 40
2.0500
 50
315.0000
 51
328.6334
  0
ARC
  8
0_00
  6
CONTINUOUS
 62
2
 10
1043.5550
 20
348.0623
 40
2.0500
 50
225.0000
 51
238.5444
  0
ARC
  8
0_00
  6
CONTINUOUS
 62
2
 10
1043.5550
 20
348.0623
 40
2.0500
 50
301.3667
 51
315.0000
  0
CIRCLE
  8
0_00
  6
CONTINUOUS
 62
2
 10
1043.5550
 20
348.0623
 40
3.5000
  0
ARC
  8
0_00
  6
CONTINUOUS
 62
2
 10
1043.5550
 20
312.0623
 40
2.0500
 50
45.0000
 51
58.5444
  0
ARC
  8
0_00
  6
CONTINUOUS
 62
2
 10
1043.5550
 20
312.0623
 40
2.0500
 50
121.3667
 51
135.0000
  0
ARC
  8
0_00
  6
CONTINUOUS
 62
2
 10
1043.5550
 20
312.0623
 40
2.0500
 50
211.4556
 51
225.0000
  0
ARC
  8
0_00
  6
CONTINUOUS
 62
2
 10
1043.5550
 20
312.0623
 40
2.0500
 50
135.0000
 51
148.6333
  0
ARC
  8
0_00
  6
CONTINUOUS
 62
2
 10
1043.5550
 20
312.0623
 40
2.0500
 50
31.4556
 51
45.0000
  0
ARC
  8
0_00
  6
CONTINUOUS
 62
2
 10
1043.5550
 20
312.0623
 40
2.0500
 50
315.0000
 51
328.6334
  0
ARC
  8
0_00
  6
CONTINUOUS
 62
2
 10
1043.5550
 20
312.0623
 40
2.0500
 50
225.0000
 51
238.5444
  0
ARC
  8
0_00
  6
CONTINUOUS
 62
2
 10
1043.5550
 20
312.0623
 40
2.0500
 50
301.3667
 51
315.0000
  0
CIRCLE
  8
0_00
  6
CONTINUOUS
 62
2
 10
1043.5550
 20
312.0623
 40
3.5000
  0
ARC
  8
0_00
  6
CONTINUOUS
 62
2
 10
974.5550
 20
330.0623
 40
2.0500
 50
45.0000
 51
58.5444
  0
ARC
  8
0_00
  6
CONTINUOUS
 62
2
 10
974.5550
 20
330.0623
 40
2.0500
 50
121.3667
 51
135.0000
  0
ARC
  8
0_00
  6
CONTINUOUS
 62
2
 10
974.5550
 20
330.0623
 40
2.0500
 50
211.4556
 51
225.0000
  0
ARC
  8
0_00
  6
CONTINUOUS
 62
2
 10
974.5550
 20
330.0623
 40
2.0500
 50
135.0000
 51
148.6333
  0
ARC
  8
0_00
  6
CONTINUOUS
 62
2
 10
974.5550
 20
330.0623
 40
2.0500
 50
31.4556
 51
45.0000
  0
ARC
  8
0_00
  6
CONTINUOUS
 62
2
 10
974.5550
 20
330.0623
 40
2.0500
 50
315.0000
 51
328.6334
  0
ARC
  8
0_00
  6
CONTINUOUS
 62
2
 10
974.5550
 20
330.0623
 40
2.0500
 50
225.0000
 51
238.5444
  0
ARC
  8
0_00
  6
CONTINUOUS
 62
2
 10
974.5550
 20
330.0623
 40
2.0500
 50
301.3667
 51
315.0000
  0
CIRCLE
  8
0_00
  6
CONTINUOUS
 62
2
 10
974.5550
 20
330.0623
 40
3.5000
  0
ARC
  8
0_00
  6
DASHED
 62
2
 10
299.8032
 20
313.2267
 40
6.1000
 50
129.6019
 51
230.3981
  0
ARC
  8
0_00
  6
DASHED
 62
2
 10
342.6032
 20
313.2267
 40
6.1000
 50
309.6019
 51
410.3981
  0
ARC
  8
0_00
  6
DASHED
 62
2
 10
299.8032
 20
273.2267
 40
6.1000
 50
129.6019
 51
230.3981
  0
ARC
  8
0_00
  6
DASHED
 62
2
 10
342.6032
 20
273.2267
 40
6.1000
 50
309.6019
 51
410.3981
  0
TEXT
  8
0_00
 62
7
 10
1077.6892
 20
535.2888
 40
6.00
 41
1.00
 50
0.0000
  1
外観姿図（１：３０）
  0
TEXT
  8
0_00
 62
7
 10
370.6573
 20
625.5442
 40
7.50
 41
1.00
 50
0.0000
  1
標準手すり直線格子セット
  0
TEXT
  8
0_00
 62
7
 10
370.6573
 20
531.0621
 40
7.50
 41
1.00
 50
0.0000
  1
間柱
  0
TEXT
  8
0_00
 62
2
 10
221.2032
 20
771.5720
 40
12.00
 41
1.00
 50
0.0000
  1
屋外側
  0
TEXT
  8
0_00
 62
2
 10
392.4032
 20
771.5720
 40
12.00
 41
1.00
 50
0.0000
  1
建物側
  0
TEXT
  8
15_0F
 62
7
 10
117.0000
 20
458.2133
 40
7.50
 41
1.00
 50
90.0000
  1
３０１≦Ｈ（手すり高さ寸法）≦１２００
  0
TEXT
  8
15_0F
 62
7
 10
138.5000
 20
569.4133
 40
7.50
 41
1.00
 50
90.0000
  1
Ｈ１
  0
TEXT
  8
15_0F
 62
7
 10
138.5000
 20
326.4267
 40
7.50
 41
1.00
 50
90.0000
  1
３５≦ｇ［１００］≦１００
  0
TEXT
  8
0_00
 62
7
 10
370.6573
 20
744.4545
 40
7.50
 41
1.00
 50
0.0000
  1
Ｋ型笠木カバー
  0
TEXT
  8
15_0F
 62
7
 10
824.1611
 20
70.2000
 40
7.50
 41
1.00
 50
0.0000
  1
１
  0
TEXT
  8
15_0F
 62
7
 10
852.6611
 20
70.2000
 40
7.50
 41
1.00
 50
0.0000
  1
３
  0
TEXT
  8
15_0F
 62
7
 10
704.3110
 20
74.7000
 40
7.50
 41
1.00
 50
0.0000
  1
納まり図
  0
TEXT
  8
15_0F
 62
7
 10
508.1110
 20
41.7000
 40
7.50
 41
1.00
 50
0.0000
  1
ＲＣ造
  0
TEXT
  8
15_0F
 62
7
 10
497.3110
 20
71.7000
 40
7.50
 41
1.00
 50
0.0000
  1
低・中・高層
  0
TEXT
  8
15_0F
 62
7
 10
576.0610
 20
71.7000
 40
7.50
 41
1.00
 50
0.0000
  1
アルミ手すり
  0
TEXT
  8
15_0F
 62
7
 10
578.2610
 20
41.7000
 40
7.50
 41
1.00
 50
0.0000
  1
Ｋ、Ｄ型
  0
TEXT
  8
15_0F
 62
7
 10
631.2310
 20
45.1501
 40
7.50
 41
1.00
 50
0.0000
  1
床支持標準手すり［直線部］（直線格子）先付工法納まり図
  0
TEXT
  8
15_0F
 62
7
 10
608.6523
 20
743.5648
 40
7.50
 41
1.00
 50
0.0000
  1
Ｄ型笠木カバー
  0
TEXT
  8
15_0F
 62
7
 10
547.7043
 20
807.4340
 40
7.50
 41
1.00
 50
0.0000
  1
［Ｄ型］
  0
TEXT
  8
15_0F
 62
7
 10
307.2338
 20
807.4340
 40
7.50
 41
1.00
 50
0.0000
  1
［Ｋ型］
  0
TEXT
  8
0_00
 62
7
 10
880.4926
 20
712.6138
 40
6.75
 41
0.75
 50
0.0000
  1
A
  0
TEXT
  8
0_00
 62
7
 10
880.4926
 20
593.7986
 40
6.75
 41
0.75
 50
0.0000
  1
A
  0
TEXT
  8
0_00
 62
7
 10
833.7046
 20
600.5277
 40
7.50
 41
1.00
 50
0.0000
  1
Ｂ
  0
TEXT
  8
0_00
 62
7
 10
977.7125
 20
666.0916
 40
7.50
 41
1.00
 50
0.0000
  1
Ｂ
  0
TEXT
  8
15_0F
 62
7
 10
204.6905
 20
100.2001
 40
7.50
 41
1.00
 50
0.0000
  1
１）Ｈ、Ｈ１、Ａ、Ｌ、ＬＣは発注寸法とする。
  0
TEXT
  8
0_00
 62
7
 10
204.6905
 20
85.2001
 40
7.50
 41
1.00
 50
0.0000
  1
２）［　］内寸法は標準寸法とする。
  0
TEXT
  8
0_00
 62
7
 10
384.0324
 20
339.9819
 40
7.50
 41
1.00
 50
0.0000
  1
間柱金具
  0
TEXT
  8
0_00
 62
7
 10
383.9476
 20
261.2211
 40
7.50
 41
1.00
 50
0.0000
  1
現場溶接
  0
TEXT
  8
0_00
 62
7
 10
372.2207
 20
142.6339
 40
7.50
 41
1.00
 50
0.0000
  1
アンカー（別途手配）
  0
TEXT
  8
0_00
 62
7
 10
171.4906
 20
351.3393
 40
7.50
 41
1.00
 50
0.0000
  1
コーキング処理（別途手配）
  0
TEXT
  8
0_00
 62
7
 10
761.6408
 20
288.7915
 40
7.50
 41
1.00
 50
0.0000
  1
間柱金具
  0
TEXT
  8
0_00
 62
7
 10
583.8856
 20
373.9140
 40
7.50
 41
1.00
 50
0.0000
  1
コーキング処理（別途手配）
  0
TEXT
  8
0_00
 62
2
 10
1130.1793
 20
176.8623
 40
12.00
 41
1.00
 50
0.0000
  1
屋外側
  0
TEXT
  8
0_00
 62
2
 10
1130.1793
 20
471.2623
 40
12.00
 41
1.00
 50
0.0000
  1
建物側
  0
TEXT
  8
0_00
 62
7
 10
416.9689
 20
325.6785
 40
7.50
 41
1.00
 50
0.0000
  1
下穴（φ３．５）現場溶接
  0
TEXT
  8
0_00
 62
7
 10
70.2905
 20
40.2001
 40
7.50
 41
1.00
 50
0.0000
  1
適用製品
  0
TEXT
  8
0_00
 62
7
 10
130.2905
 20
40.2001
 40
7.50
 41
1.00
 50
0.0000
  1
適用日付
  0
TEXT
  8
0_00
 62
7
 10
178.5905
 20
100.2001
 40
7.50
 41
1.00
 50
0.0000
  1
記事
  0
TEXT
  8
0_00
 62
7
 10
472.5611
 20
85.2001
 40
7.50
 41
1.00
 50
0.0000
  1
階層仕様
  0
TEXT
  8
0_00
 62
7
 10
472.5611
 20
55.2000
 40
7.50
 41
1.00
 50
0.0000
  1
適用躯体
  0
TEXT
  8
0_00
 62
7
 10
630.0610
 20
85.2001
 40
7.50
 41
1.00
 50
0.0000
  1
名　称
  0
TEXT
  8
0_00
 62
7
 10
630.0610
 20
55.2000
 40
7.50
 41
1.00
 50
0.0000
  1
図　名
  0
TEXT
  8
0_00
 62
7
 10
814.9368
 20
100.2458
 40
7.50
 41
1.00
 50
0.0000
  1
Ｎｏ．
  0
TEXT
  8
0_00
 62
7
 10
1123.5610
 20
100.2001
 40
7.50
 41
1.00
 50
0.0000
  1
適　　　　　　　　用
  0
TEXT
  8
0_00
 62
7
 10
1078.4111
 20
100.2001
 40
7.50
 41
1.00
 50
0.0000
  1
個数
  0
TEXT
  8
0_00
 62
7
 10
1023.2110
 20
100.2001
 40
7.50
 41
1.00
 50
0.0000
  1
材　　質
  0
TEXT
  8
0_00
 62
7
 10
926.1610
 20
100.2001
 40
7.50
 41
1.00
 50
0.0000
  1
部　　　品　　　名
  0
TEXT
  8
0_00
 62
7
 10
895.9360
 20
100.2001
 40
7.50
 41
1.00
 50
0.0000
  1
品番
  0
TEXT
  8
0_00
 62
7
 10
850.8611
 20
100.2001
 40
7.50
 41
1.00
 50
0.0000
  1
図　　番
  0
TEXT
  8
0_00
 62
7
 10
816.6610
 20
85.2001
 40
7.50
 41
1.00
 50
0.0000
  1
尺度
  0
TEXT
  8
0_00
 62
7
 10
816.6610
 20
55.2000
 40
7.50
 41
1.00
 50
0.0000
  1
日付
  0
TEXT
  8
0_00
 62
7
 10
928.3942
 20
85.2001
 40
7.50
 41
1.00
 50
0.0000
  1
承認
  0
TEXT
  8
0_00
 62
7
 10
970.5611
 20
85.2001
 40
7.50
 41
1.00
 50
0.0000
  1
検図
  0
TEXT
  8
0_00
 62
7
 10
1006.8610
 20
85.2001
 40
7.50
 41
1.00
 50
0.0000
  1
設計
  0
TEXT
  8
0_00
 62
7
 10
1044.2110
 20
85.2001
 40
7.50
 41
1.00
 50
0.0000
  1
製図
  0
TEXT
  8
0_00
 62
7
 10
1074.5110
 20
55.2000
 40
7.50
 41
1.00
 50
0.0000
  1
図番
  0
TEXT
  8
0_00
 62
2
 10
1103.9219
 20
74.2350
 40
12.00
 41
1.00
 50
0.0000
  1
文化シヤッター株式会社
  0
TEXT
  8
0_00
 62
7
 10
200.7905
 20
862.9501
 40
7.50
 41
1.00
 50
180.0000
  1
図番
  0
TEXT
  8
0_00
 62
7
 10
799.0510
 20
854.0169
 40
6.00
 41
1.00
 50
0.0000
  1
ＮＯ
  0
TEXT
  8
0_00
 62
7
 10
825.2111
 20
853.9501
 40
7.50
 41
1.00
 50
0.0000
  1
個　数
  0
TEXT
  8
0_00
 62
7
 10
870.3611
 20
853.9501
 40
7.50
 41
1.00
 50
0.0000
  1
日　　付
  0
TEXT
  8
0_00
 62
7
 10
984.2111
 20
853.9501
 40
7.50
 41
1.00
 50
0.0000
  1
訂　　　正　　　記　　　事
  0
TEXT
  8
0_00
 62
7
 10
838.4111
 20
70.2000
 40
6.75
 41
0.75
 50
0.0000
  1
:
  0
TEXT
  8
0_00
 62
7
 10
1137.8712
 20
26.7000
 40
6.00
 41
1.00
 50
0.0000
  1
ＪＩＳ　Ａ－３
  0
TEXT
  8
0_00
 62
7
 10
1179.4986
 20
26.6983
 40
6.00
 41
1.00
 50
0.0000
  1
（２９７×４２０）
  0
TEXT
  8
0_00
 62
7
 10
1153.1111
 20
853.9501
 40
7.50
 41
1.00
 50
0.0000
  1
担　当
  0
TEXT
  8
0_00
 62
7
 10
1189.1111
 20
853.9501
 40
7.50
 41
1.00
 50
0.0000
  1
承　認
  0
TEXT
  8
0_00
 62
7
 10
551.3111
 20
85.2001
 40
7.50
 41
1.00
 50
0.0000
  1
機種名
  0
TEXT
  8
0_00
 62
7
 10
551.3111
 20
55.2000
 40
7.50
 41
1.00
 50
0.0000
  1
型　式
  0
TEXT
  8
0_00
 62
7
 10
733.9816
 20
763.0000
 40
7.50
 41
1.00
 50
0.0000
  1
ＬＣ
  0
TEXT
  8
0_00
 62
7
 10
801.7483
 20
763.0000
 40
7.50
 41
1.00
 50
0.0000
  1
Ｌ
  0
TEXT
  8
0_00
 62
7
 10
872.6816
 20
763.0000
 40
7.50
 41
1.00
 50
0.0000
  1
２５０≦Ｌ≦１８２０
  0
TEXT
  8
0_00
 62
7
 10
1008.4149
 20
763.0000
 40
7.50
 41
1.00
 50
0.0000
  1
Ｌ
  0
TEXT
  8
0_00
 62
7
 10
1068.9816
 20
763.0000
 40
7.50
 41
1.00
 50
0.0000
  1
ＬＣ
  0
TEXT
  8
0_00
 62
7
 10
1157.0000
 20
656.0942
 40
6.75
 41
0.75
 50
90.0000
  1
H
  0
TEXT
  8
0_00
 62
7
 10
1137.0000
 20
599.4943
 40
6.75
 41
0.75
 50
90.0000
  1
g
  0
TEXT
  8
0_00
 62
7
 10
1137.0000
 20
656.4943
 40
6.75
 41
0.75
 50
90.0000
  1
H1
  0
TEXT
  8
0_00
 62
7
 10
904.2316
 20
743.0000
 40
6.75
 41
0.75
 50
0.0000
  1
127
  0
TEXT
  8
0_00
 62
7
 10
1077.6892
 20
535.2888
 40
6.00
 41
1.00
 50
0.0000
  1
外観姿図（１：３０）
  0
TEXT
  8
0_00
 62
7
 10
157.0000
 20
433.5267
 40
6.75
 41
0.75
 50
90.0000
  1
35
  0
TEXT
  8
0_00
 62
7
 10
121.4709
 20
167.1533
 40
7.50
 41
1.00
 50
0.0000
  1
Ａ－Ａ矢視図
  0
TEXT
  8
0_00
 62
7
 10
557.6547
 20
170.4410
 40
7.50
 41
1.00
 50
0.0000
  1
Ｂ－Ｂ矢視図
  0
TEXT
  8
0_00
 62
7
 10
825.2550
 20
503.0000
 40
7.50
 41
1.00
 50
0.0000
  1
２５０≦Ｌ（柱スパン寸法）≦１８２０
  0
TEXT
  8
0_00
 62
7
 10
537.0000
 20
322.8623
 40
6.75
 41
0.75
 50
90.0000
  1
50
  0
TEXT
  8
0_00
 62
7
 10
857.0001
 20
359.6703
 40
6.75
 41
0.75
 50
90.0000
  1
25
  0
TEXT
  8
0_00
 62
7
 10
831.0549
 20
463.0000
 40
6.75
 41
0.75
 50
0.0000
  1
20
  0
TEXT
  8
0_00
 62
7
 10
1085.5550
 20
483.0000
 40
6.75
 41
0.75
 50
0.0000
  1
33
  0
TEXT
  8
0_00
 62
7
 10
1157.0000
 20
322.8623
 40
6.75
 41
0.75
 50
90.0000
  1
36
  0
TEXT
  8
0_00
 62
7
 10
628.0549
 20
483.0000
 40
7.50
 41
1.00
 50
0.0000
  1
（５３．５～１１７）
  0
TEXT
  8
0_00
 62
7
 10
712.8549
 20
483.0000
 40
7.50
 41
1.00
 50
0.0000
  1
４０
  0
TEXT
  8
0_00
 62
7
 10
740.0549
 20
483.0000
 40
7.50
 41
1.00
 50
0.0000
  1
（５３．５～１１７）
  0
TEXT
  8
0_00
 62
7
 10
157.0000
 20
699.3000
 40
6.75
 41
0.75
 50
90.0000
  1
47
  0
TEXT
  8
0_00
 62
7
 10
314.0032
 20
778.3721
 40
6.75
 41
0.75
 50
0.0000
  1
60
  0
TEXT
  8
15_0F
 62
7
 10
554.7540
 20
774.4742
 40
6.75
 41
0.75
 50
0.0000
  1
80
  0
TEXT
  8
0_00
 62
7
 10
477.0000
 20
704.2452
 40
6.75
 41
0.75
 50
90.0000
  1
37
  0
TEXT
  8
0_00
 62
7
 10
117.0000
 20
233.6267
 40
7.50
 41
1.00
 50
90.0000
  1
Ａ（埋込寸法）≧１００
  0
TEXT
  8
0_00
 62
7
 10
557.0000
 20
322.8623
 40
6.75
 41
0.75
 50
90.0000
  1
45
  0
TEXT
  8
13_0D
 62
7
 10
138.5000
 20
250.2267
 40
6.75
 41
0.75
 50
90.0000
  1
(100)
  0
TEXT
  8
13_0D
 62
7
 10
158.5000
 20
233.8267
 40
6.75
 41
0.75
 50
90.0000
  1
(50)
  0
POINT
  8
0_00
 62
2
 10
321.2032
 20
449.0267
  0
POINT
  8
0_00
 62
2
 10
321.2032
 20
436.0267
  0
POINT
  8
0_00
 62
2
 10
321.2032
 20
449.0267
  0
POINT
  8
0_00
 62
2
 10
321.2032
 20
436.0267
  0
POINT
  8
0_00
 62
2
 10
812.0550
 20
330.0623
  0
POINT
  8
0_00
 62
4
 10
307.9032
 20
687.6000
  0
POINT
  8
0_00
 62
4
 10
307.5032
 20
686.0000
  0
POINT
  8
0_00
 62
2
 10
293.7448
 20
694.6000
  0
POINT
  8
0_00
 62
2
 10
296.2032
 20
313.2267
  0
POINT
  8
0_00
 62
2
 10
346.2032
 20
313.2267
  0
POINT
  8
0_00
 62
2
 10
24.0905
 20
14.9991
  0
POINT
  8
0_00
 62
2
 10
24.0905
 20
14.9991
  0
POINT
  8
0_00
 62
2
 10
84.6905
 20
59.7001
  0
POINT
  8
0_00
 62
2
 10
84.6905
 20
74.7001
  0
POINT
  8
0_00
 62
2
 10
84.6905
 20
89.7001
  0
POINT
  8
0_00
 62
2
 10
84.6905
 20
104.7001
  0
POINT
  8
0_00
 62
2
 10
518.9110
 20
76.2000
  0
POINT
  8
0_00
 62
2
 10
518.9110
 20
46.2000
  0
POINT
  8
0_00
 62
2
 10
718.7110
 20
79.2000
  0
POINT
  8
0_00
 62
2
 10
718.7110
 20
49.2000
  0
POINT
  8
0_00
 62
2
 10
1097.7610
 20
52.2000
  0
POINT
  8
0_00
 62
2
 10
1014.0610
 20
59.7001
  0
POINT
  8
0_00
 62
2
 10
144.6905
 20
59.7001
  0
POINT
  8
0_00
 62
2
 10
144.6905
 20
74.7001
  0
POINT
  8
0_00
 62
2
 10
144.6905
 20
89.7001
  0
POINT
  8
0_00
 62
2
 10
144.6905
 20
104.7001
  0
POINT
  8
0_00
 62
2
 10
856.2610
 20
74.7000
  0
POINT
  8
0_00
 62
2
 10
827.7610
 20
74.7000
  0
POINT
  8
0_00
 62
2
 10
204.6905
 20
104.7001
  0
POINT
  8
0_00
 62
2
 10
204.6905
 20
89.7001
  0
POINT
  8
0_00
 62
2
 10
204.6905
 20
74.7001
  0
POINT
  8
0_00
 62
2
 10
204.6905
 20
59.7001
  0
POINT
  8
0_00
 62
2
 10
204.6905
 20
44.7001
  0
POINT
  8
0_00
 62
2
 10
1051.4110
 20
59.7001
  0
POINT
  8
0_00
 62
2
 10
84.6905
 20
44.7001
  0
POINT
  8
0_00
 62
2
 10
144.6905
 20
44.7001
  0
POINT
  8
0_00
 62
2
 10
174.6905
 20
858.4501
  0
POINT
  8
0_00
 62
2
 10
862.6360
 20
49.2000
  0
POINT
  8
0_00
 62
2
 10
597.6610
 20
76.2000
  0
POINT
  8
0_00
 62
2
 10
597.6610
 20
46.2000
  0
POINT
  8
0_00
 62
2
 10
1076.5550
 20
348.0623
  0
POINT
  8
0_00
 62
2
 10
1076.5550
 20
312.0623
  0
POINT
  8
0_00
 62
2
 10
1043.5550
 20
348.0623
  0
POINT
  8
0_00
 62
2
 10
1043.5550
 20
312.0623
  0
POINT
  8
0_00
 62
2
 10
974.5550
 20
330.0623
  0
POINT
  8
0_00
 62
2
 10
296.2031
 20
313.2267
  0
POINT
  8
0_00
 62
2
 10
346.2032
 20
313.2267
  0
POINT
  8
0_00
 62
2
 10
296.2031
 20
273.2267
  0
POINT
  8
0_00
 62
2
 10
346.2032
 20
273.2267
  0
ENDSEC
  0
EOF
