999
  
  0
SECTION
  2
HEADER
  9
$EXTMIN
 10
0
 20
0
  9
$EXTMAX
 10
1260
 20
888
  9
$LTSCALE
 40
3.00
  9
$PDMODE
 70
33
  9
$PDSIZE
 40
1.80
  0
ENDSEC
  0
SECTION
  2
TABLES
  0
TABLE
  2
LTYPE
 70
9
  0
LTYPE
  2
CONTINUOUS
 70
64
  3
実線
 72
65
 73
0
 40
0.00
  0
LTYPE
  2
DASHED
 70
64
  3
__  __  __  __  __  __  __ 
 72
65
 73
2
 40
1.00
 49
0.50
 49
-0.50
  0
LTYPE
  2
HIDDEN1
 70
64
  3
____    ____    ____    ___
 72
65
 73
2
 40
2.20
 49
1.20
 49
-1.00
  0
LTYPE
  2
HIDDEN2
 70
64
  3
______  ______  ______  ___
 72
65
 73
2
 40
4.50
 49
3.50
 49
-1.00
  0
LTYPE
  2
CENTER1
 70
64
  3
_______ _ _______ _ _______
 72
65
 73
4
 40
20.00
 49
17.00
 49
-1.00
 49
1.00
 49
-1.00
  0
LTYPE
  2
CENTER2
 70
64
  3
___________  __  __________
 72
65
 73
4
 40
40.00
 49
34.00
 49
-2.00
 49
2.00
 49
-2.00
  0
LTYPE
  2
PHANTOM1
 70
64
  3
______ _ _ ______ _ _ _____
 72
65
 73
6
 40
20.00
 49
15.00
 49
-1.00
 49
1.00
 49
-1.00
 49
1.00
 49
-1.00
  0
LTYPE
  2
PHANTOM2
 70
64
  3
__________  _  _  _________
 72
65
 73
6
 40
40.00
 49
30.00
 49
-2.00
 49
2.00
 49
-2.00
 49
2.00
 49
-2.00
  0
LTYPE
  2
DOT
 70
64
  3
 .  .  .  .  .  .  .  .  . 
 72
65
 73
2
 40
1.00
 49
0.00
 49
-1.00
  0
ENDTAB
  0
TABLE
  2
STYLE
 70
1
  0
STYLE
  2
STANDARD
 70
64
 40
0.0
 41
1.0
 42
0.0
 50
0.0
 71
0
  3
ROMANS
  4
BIGFONT
  0
ENDTAB
  0
TABLE
  2
LAYER
 70
5
  0
LAYER
  2
0_00
 70
64
 62
7
  6
CONTINUOUS
  0
LAYER
  2
3_03
 70
64
 62
7
  6
CONTINUOUS
  0
LAYER
  2
12_0C
 70
64
 62
7
  6
CONTINUOUS
  0
LAYER
  2
14_0E
 70
64
 62
7
  6
CONTINUOUS
  0
LAYER
  2
15_0F
 70
64
 62
7
  6
CONTINUOUS
  0
ENDTAB
  0
ENDSEC
  0
SECTION
  2
ENTITIES
  0
LINE
  8
0_00
  6
CONTINUOUS
 62
7
 10
636.6008
 20
851.7001
 11
636.6008
 21
112.2001
  0
LINE
  8
0_00
  6
CONTINUOUS
 62
4
 10
106.7311
 20
620.8578
 11
545.8678
 21
620.8578
  0
LINE
  8
0_00
  6
CENTER1
 62
3
 10
189.7994
 20
789.0673
 11
189.7994
 21
611.1876
  0
LINE
  8
0_00
  6
CENTER1
 62
3
 10
462.7994
 20
789.0673
 11
462.7994
 21
611.1876
  0
LINE
  8
0_00
  6
CONTINUOUS
 62
4
 10
201.0494
 20
620.8578
 11
201.0494
 21
638.8578
  0
LINE
  8
0_00
  6
CONTINUOUS
 62
4
 10
201.0494
 20
638.8578
 11
199.5494
 21
640.3578
  0
LINE
  8
0_00
  6
CONTINUOUS
 62
4
 10
178.5494
 20
620.8578
 11
178.5494
 21
638.8578
  0
LINE
  8
0_00
  6
CONTINUOUS
 62
4
 10
178.5494
 20
638.8578
 11
180.0494
 21
640.3578
  0
LINE
  8
0_00
  6
CONTINUOUS
 62
4
 10
180.0494
 20
640.3578
 11
199.5494
 21
640.3578
  0
LINE
  8
0_00
  6
CONTINUOUS
 62
4
 10
201.0494
 20
638.8578
 11
178.5494
 21
638.8578
  0
LINE
  8
0_00
  6
CONTINUOUS
 62
4
 10
106.7311
 20
785.8577
 11
545.8678
 21
785.8577
  0
LINE
  8
0_00
  6
CONTINUOUS
 62
4
 10
106.7311
 20
778.8077
 11
545.8678
 21
778.8077
  0
LINE
  8
0_00
  6
CONTINUOUS
 62
4
 10
474.0494
 20
620.8578
 11
474.0494
 21
638.8578
  0
LINE
  8
0_00
  6
CONTINUOUS
 62
4
 10
474.0494
 20
638.8578
 11
472.5494
 21
640.3578
  0
LINE
  8
0_00
  6
CONTINUOUS
 62
4
 10
451.5494
 20
620.8578
 11
451.5494
 21
638.8578
  0
LINE
  8
0_00
  6
CONTINUOUS
 62
4
 10
451.5494
 20
638.8578
 11
453.0494
 21
640.3578
  0
LINE
  8
0_00
  6
CONTINUOUS
 62
4
 10
453.0494
 20
640.3578
 11
472.5494
 21
640.3578
  0
LINE
  8
0_00
  6
CONTINUOUS
 62
4
 10
474.0494
 20
638.8578
 11
451.5494
 21
638.8578
  0
LINE
  8
0_00
  6
CONTINUOUS
 62
4
 10
192.7994
 20
647.8578
 11
459.7994
 21
647.8578
  0
LINE
  8
0_00
  6
CONTINUOUS
 62
4
 10
465.7994
 20
647.8578
 11
545.8678
 21
647.8578
  0
LINE
  8
0_00
  6
CONTINUOUS
 62
4
 10
186.7994
 20
647.8578
 11
106.7311
 21
647.8578
  0
LINE
  8
0_00
  6
CONTINUOUS
 62
4
 10
192.7994
 20
653.1078
 11
459.7994
 21
653.1078
  0
LINE
  8
0_00
  6
CONTINUOUS
 62
4
 10
465.7994
 20
653.1078
 11
545.8678
 21
653.1078
  0
LINE
  8
0_00
  6
CONTINUOUS
 62
4
 10
186.7994
 20
653.1078
 11
106.7311
 21
653.1078
  0
LINE
  8
0_00
  6
CONTINUOUS
 62
4
 10
448.6244
 20
778.8077
 11
448.6244
 21
653.1078
  0
LINE
  8
0_00
  6
CONTINUOUS
 62
4
 10
451.6244
 20
778.8077
 11
451.6244
 21
653.1078
  0
LINE
  8
0_00
  6
CONTINUOUS
 62
4
 10
429.5744
 20
778.8077
 11
429.5744
 21
653.1078
  0
LINE
  8
0_00
  6
CONTINUOUS
 62
4
 10
432.5744
 20
778.8077
 11
432.5744
 21
653.1078
  0
LINE
  8
0_00
  6
CONTINUOUS
 62
4
 10
410.5244
 20
778.8077
 11
410.5244
 21
653.1078
  0
LINE
  8
0_00
  6
CONTINUOUS
 62
4
 10
413.5244
 20
778.8077
 11
413.5244
 21
653.1078
  0
LINE
  8
0_00
  6
CONTINUOUS
 62
4
 10
391.4744
 20
778.8077
 11
391.4744
 21
653.1078
  0
LINE
  8
0_00
  6
CONTINUOUS
 62
4
 10
394.4744
 20
778.8077
 11
394.4744
 21
653.1078
  0
LINE
  8
0_00
  6
CONTINUOUS
 62
4
 10
372.4244
 20
778.8077
 11
372.4244
 21
653.1078
  0
LINE
  8
0_00
  6
CONTINUOUS
 62
4
 10
375.4244
 20
778.8077
 11
375.4244
 21
653.1078
  0
LINE
  8
0_00
  6
CONTINUOUS
 62
4
 10
353.3744
 20
778.8077
 11
353.3744
 21
653.1078
  0
LINE
  8
0_00
  6
CONTINUOUS
 62
4
 10
356.3744
 20
778.8077
 11
356.3744
 21
653.1078
  0
LINE
  8
0_00
  6
CONTINUOUS
 62
4
 10
334.3244
 20
778.8077
 11
334.3244
 21
653.1078
  0
LINE
  8
0_00
  6
CONTINUOUS
 62
4
 10
337.3244
 20
778.8077
 11
337.3244
 21
653.1078
  0
LINE
  8
0_00
  6
CONTINUOUS
 62
4
 10
315.2744
 20
778.8077
 11
315.2744
 21
653.1078
  0
LINE
  8
0_00
  6
CONTINUOUS
 62
4
 10
318.2744
 20
778.8077
 11
318.2744
 21
653.1078
  0
LINE
  8
0_00
  6
CONTINUOUS
 62
4
 10
296.2244
 20
778.8077
 11
296.2244
 21
653.1078
  0
LINE
  8
0_00
  6
CONTINUOUS
 62
4
 10
299.2244
 20
778.8077
 11
299.2244
 21
653.1078
  0
LINE
  8
0_00
  6
CONTINUOUS
 62
4
 10
277.1744
 20
778.8077
 11
277.1744
 21
653.1078
  0
LINE
  8
0_00
  6
CONTINUOUS
 62
4
 10
280.1744
 20
778.8077
 11
280.1744
 21
653.1078
  0
LINE
  8
0_00
  6
CONTINUOUS
 62
4
 10
258.1244
 20
778.8077
 11
258.1244
 21
653.1078
  0
LINE
  8
0_00
  6
CONTINUOUS
 62
4
 10
261.1244
 20
778.8077
 11
261.1244
 21
653.1078
  0
LINE
  8
0_00
  6
CONTINUOUS
 62
4
 10
239.0744
 20
778.8077
 11
239.0744
 21
653.1078
  0
LINE
  8
0_00
  6
CONTINUOUS
 62
4
 10
242.0744
 20
778.8077
 11
242.0744
 21
653.1078
  0
LINE
  8
0_00
  6
CONTINUOUS
 62
4
 10
220.0244
 20
778.8077
 11
220.0244
 21
653.1078
  0
LINE
  8
0_00
  6
CONTINUOUS
 62
4
 10
223.0244
 20
778.8077
 11
223.0244
 21
653.1078
  0
LINE
  8
0_00
  6
CONTINUOUS
 62
4
 10
200.9744
 20
778.8077
 11
200.9744
 21
653.1078
  0
LINE
  8
0_00
  6
CONTINUOUS
 62
4
 10
203.9744
 20
778.8077
 11
203.9744
 21
653.1078
  0
LINE
  8
0_00
  6
CONTINUOUS
 62
4
 10
476.9745
 20
778.8077
 11
476.9745
 21
653.1078
  0
LINE
  8
0_00
  6
CONTINUOUS
 62
4
 10
473.9744
 20
778.8077
 11
473.9744
 21
653.1078
  0
LINE
  8
0_00
  6
CONTINUOUS
 62
4
 10
496.0244
 20
778.8077
 11
496.0244
 21
653.1078
  0
LINE
  8
0_00
  6
CONTINUOUS
 62
4
 10
493.0244
 20
778.8077
 11
493.0244
 21
653.1078
  0
LINE
  8
0_00
  6
CONTINUOUS
 62
4
 10
515.0744
 20
778.8077
 11
515.0744
 21
653.1078
  0
LINE
  8
0_00
  6
CONTINUOUS
 62
4
 10
512.0744
 20
778.8077
 11
512.0744
 21
653.1078
  0
LINE
  8
0_00
  6
CONTINUOUS
 62
4
 10
121.4744
 20
778.8077
 11
121.4744
 21
653.1078
  0
LINE
  8
0_00
  6
CONTINUOUS
 62
4
 10
118.4744
 20
778.8077
 11
118.4744
 21
653.1078
  0
LINE
  8
0_00
  6
CONTINUOUS
 62
4
 10
140.5244
 20
778.8077
 11
140.5244
 21
653.1078
  0
LINE
  8
0_00
  6
CONTINUOUS
 62
4
 10
137.5244
 20
778.8077
 11
137.5244
 21
653.1078
  0
LINE
  8
0_00
  6
CONTINUOUS
 62
4
 10
159.5744
 20
778.8077
 11
159.5744
 21
653.1078
  0
LINE
  8
0_00
  6
CONTINUOUS
 62
4
 10
156.5744
 20
778.8077
 11
156.5744
 21
653.1078
  0
LINE
  8
0_00
  6
CONTINUOUS
 62
4
 10
178.6244
 20
778.8077
 11
178.6244
 21
653.1078
  0
LINE
  8
0_00
  6
CONTINUOUS
 62
4
 10
175.6244
 20
778.8077
 11
175.6244
 21
653.1078
  0
LINE
  8
0_00
  6
CONTINUOUS
 62
4
 10
534.1244
 20
778.8077
 11
534.1244
 21
653.1078
  0
LINE
  8
0_00
  6
CONTINUOUS
 62
4
 10
531.1244
 20
778.8077
 11
531.1244
 21
653.1078
  0
LINE
  8
0_00
  6
CONTINUOUS
 62
4
 10
208.5494
 20
633.6078
 11
208.5494
 21
628.3578
  0
LINE
  8
0_00
  6
CONTINUOUS
 62
4
 10
444.0494
 20
633.6078
 11
444.0494
 21
628.3578
  0
LINE
  8
0_00
  6
CONTINUOUS
 62
4
 10
208.5494
 20
628.3578
 11
444.0494
 21
628.3578
  0
LINE
  8
0_00
  6
CONTINUOUS
 62
4
 10
208.5494
 20
633.6078
 11
444.0494
 21
633.6078
  0
LINE
  8
0_00
  6
CONTINUOUS
 62
4
 10
413.5244
 20
647.8578
 11
413.5244
 21
633.6078
  0
LINE
  8
0_00
  6
CONTINUOUS
 62
4
 10
410.5244
 20
647.8578
 11
410.5244
 21
633.6078
  0
LINE
  8
0_00
  6
CONTINUOUS
 62
4
 10
375.4244
 20
647.8578
 11
375.4244
 21
633.6078
  0
LINE
  8
0_00
  6
CONTINUOUS
 62
4
 10
372.4244
 20
647.8578
 11
372.4244
 21
633.6078
  0
LINE
  8
0_00
  6
CONTINUOUS
 62
4
 10
337.3244
 20
647.8578
 11
337.3244
 21
633.6078
  0
LINE
  8
0_00
  6
CONTINUOUS
 62
4
 10
334.3244
 20
647.8578
 11
334.3244
 21
633.6078
  0
LINE
  8
0_00
  6
CONTINUOUS
 62
4
 10
299.2244
 20
647.8578
 11
299.2244
 21
633.6078
  0
LINE
  8
0_00
  6
CONTINUOUS
 62
4
 10
296.2244
 20
647.8578
 11
296.2244
 21
633.6078
  0
LINE
  8
0_00
  6
CONTINUOUS
 62
4
 10
261.1244
 20
647.8578
 11
261.1244
 21
633.6078
  0
LINE
  8
0_00
  6
CONTINUOUS
 62
4
 10
258.1244
 20
647.8578
 11
258.1244
 21
633.6078
  0
LINE
  8
0_00
  6
CONTINUOUS
 62
4
 10
223.0244
 20
647.8578
 11
223.0244
 21
633.6078
  0
LINE
  8
0_00
  6
CONTINUOUS
 62
4
 10
220.0244
 20
647.8578
 11
220.0244
 21
633.6078
  0
LINE
  8
3_03
  6
CONTINUOUS
 62
2
 10
221.5244
 20
650.8076
 11
221.4748
 21
650.8266
  0
LINE
  8
3_03
  6
CONTINUOUS
 62
2
 10
221.5244
 20
650.8076
 11
221.5740
 21
650.8266
  0
LINE
  8
3_03
  6
CONTINUOUS
 62
2
 10
221.4748
 20
650.8266
 11
221.3472
 21
650.9498
  0
LINE
  8
3_03
  6
CONTINUOUS
 62
2
 10
221.5741
 20
650.8266
 11
221.5740
 21
650.8268
  0
LINE
  8
3_03
  6
CONTINUOUS
 62
2
 10
221.5740
 20
650.8268
 11
221.7015
 21
650.9500
  0
LINE
  8
3_03
  6
CONTINUOUS
 62
2
 10
221.4246
 20
650.7077
 11
221.4055
 21
650.7575
  0
LINE
  8
3_03
  6
CONTINUOUS
 62
2
 10
221.4246
 20
650.7077
 11
221.4055
 21
650.6582
  0
LINE
  8
3_03
  6
CONTINUOUS
 62
2
 10
221.4055
 20
650.7575
 11
221.2822
 21
650.8851
  0
LINE
  8
3_03
  6
CONTINUOUS
 62
2
 10
221.4055
 20
650.6581
 11
221.4054
 21
650.6582
  0
LINE
  8
3_03
  6
CONTINUOUS
 62
2
 10
221.4054
 20
650.6582
 11
221.2822
 21
650.5306
  0
LINE
  8
3_03
  6
CONTINUOUS
 62
2
 10
221.6242
 20
650.7077
 11
221.6433
 21
650.6581
  0
LINE
  8
3_03
  6
CONTINUOUS
 62
2
 10
221.6242
 20
650.7077
 11
221.6433
 21
650.7574
  0
LINE
  8
3_03
  6
CONTINUOUS
 62
2
 10
221.6433
 20
650.6581
 11
221.7665
 21
650.5306
  0
LINE
  8
3_03
  6
CONTINUOUS
 62
2
 10
221.6433
 20
650.7575
 11
221.6434
 21
650.7573
  0
LINE
  8
3_03
  6
CONTINUOUS
 62
2
 10
221.6434
 20
650.7573
 11
221.7666
 21
650.8849
  0
LINE
  8
3_03
  6
CONTINUOUS
 62
2
 10
221.5244
 20
650.6079
 11
221.5741
 21
650.5889
  0
LINE
  8
3_03
  6
CONTINUOUS
 62
2
 10
221.5244
 20
650.6079
 11
221.4748
 21
650.5889
  0
LINE
  8
3_03
  6
CONTINUOUS
 62
2
 10
221.5741
 20
650.5889
 11
221.7016
 21
650.4657
  0
LINE
  8
3_03
  6
CONTINUOUS
 62
2
 10
221.4748
 20
650.5889
 11
221.4749
 21
650.5888
  0
LINE
  8
3_03
  6
CONTINUOUS
 62
2
 10
221.4749
 20
650.5888
 11
221.3472
 21
650.4656
  0
LINE
  8
3_03
  6
CONTINUOUS
 62
2
 10
278.6744
 20
650.8076
 11
278.6247
 21
650.8266
  0
LINE
  8
3_03
  6
CONTINUOUS
 62
2
 10
278.6744
 20
650.8076
 11
278.7240
 21
650.8266
  0
LINE
  8
3_03
  6
CONTINUOUS
 62
2
 10
278.6247
 20
650.8266
 11
278.4972
 21
650.9498
  0
LINE
  8
3_03
  6
CONTINUOUS
 62
2
 10
278.7241
 20
650.8266
 11
278.7240
 21
650.8268
  0
LINE
  8
3_03
  6
CONTINUOUS
 62
2
 10
278.7240
 20
650.8268
 11
278.8515
 21
650.9500
  0
LINE
  8
3_03
  6
CONTINUOUS
 62
2
 10
278.5746
 20
650.7077
 11
278.5555
 21
650.7575
  0
LINE
  8
3_03
  6
CONTINUOUS
 62
2
 10
278.5746
 20
650.7077
 11
278.5555
 21
650.6582
  0
LINE
  8
3_03
  6
CONTINUOUS
 62
2
 10
278.5555
 20
650.7575
 11
278.4323
 21
650.8851
  0
LINE
  8
3_03
  6
CONTINUOUS
 62
2
 10
278.5555
 20
650.6581
 11
278.5554
 21
650.6582
  0
LINE
  8
3_03
  6
CONTINUOUS
 62
2
 10
278.5554
 20
650.6582
 11
278.4322
 21
650.5306
  0
LINE
  8
3_03
  6
CONTINUOUS
 62
2
 10
278.7742
 20
650.7077
 11
278.7933
 21
650.6581
  0
LINE
  8
3_03
  6
CONTINUOUS
 62
2
 10
278.7742
 20
650.7077
 11
278.7933
 21
650.7574
  0
LINE
  8
3_03
  6
CONTINUOUS
 62
2
 10
278.7933
 20
650.6581
 11
278.9165
 21
650.5306
  0
LINE
  8
3_03
  6
CONTINUOUS
 62
2
 10
278.7933
 20
650.7575
 11
278.7934
 21
650.7573
  0
LINE
  8
3_03
  6
CONTINUOUS
 62
2
 10
278.7934
 20
650.7573
 11
278.9166
 21
650.8849
  0
LINE
  8
3_03
  6
CONTINUOUS
 62
2
 10
278.6744
 20
650.6079
 11
278.7241
 21
650.5889
  0
LINE
  8
3_03
  6
CONTINUOUS
 62
2
 10
278.6744
 20
650.6079
 11
278.6248
 21
650.5889
  0
LINE
  8
3_03
  6
CONTINUOUS
 62
2
 10
278.7241
 20
650.5889
 11
278.8516
 21
650.4657
  0
LINE
  8
3_03
  6
CONTINUOUS
 62
2
 10
278.6247
 20
650.5889
 11
278.6248
 21
650.5888
  0
LINE
  8
3_03
  6
CONTINUOUS
 62
2
 10
278.6248
 20
650.5888
 11
278.4972
 21
650.4656
  0
LINE
  8
3_03
  6
CONTINUOUS
 62
2
 10
335.8244
 20
650.8076
 11
335.7747
 21
650.8266
  0
LINE
  8
3_03
  6
CONTINUOUS
 62
2
 10
335.8244
 20
650.8076
 11
335.8740
 21
650.8266
  0
LINE
  8
3_03
  6
CONTINUOUS
 62
2
 10
335.7747
 20
650.8266
 11
335.6472
 21
650.9498
  0
LINE
  8
3_03
  6
CONTINUOUS
 62
2
 10
335.8741
 20
650.8266
 11
335.8740
 21
650.8268
  0
LINE
  8
3_03
  6
CONTINUOUS
 62
2
 10
335.8740
 20
650.8268
 11
336.0015
 21
650.9500
  0
LINE
  8
3_03
  6
CONTINUOUS
 62
2
 10
335.7246
 20
650.7077
 11
335.7055
 21
650.7575
  0
LINE
  8
3_03
  6
CONTINUOUS
 62
2
 10
335.7246
 20
650.7077
 11
335.7055
 21
650.6582
  0
LINE
  8
3_03
  6
CONTINUOUS
 62
2
 10
335.7055
 20
650.7575
 11
335.5823
 21
650.8851
  0
LINE
  8
3_03
  6
CONTINUOUS
 62
2
 10
335.7055
 20
650.6581
 11
335.7054
 21
650.6582
  0
LINE
  8
3_03
  6
CONTINUOUS
 62
2
 10
335.7054
 20
650.6582
 11
335.5822
 21
650.5306
  0
LINE
  8
3_03
  6
CONTINUOUS
 62
2
 10
335.9242
 20
650.7077
 11
335.9433
 21
650.6581
  0
LINE
  8
3_03
  6
CONTINUOUS
 62
2
 10
335.9242
 20
650.7077
 11
335.9433
 21
650.7574
  0
LINE
  8
3_03
  6
CONTINUOUS
 62
2
 10
335.9433
 20
650.6581
 11
336.0665
 21
650.5306
  0
LINE
  8
3_03
  6
CONTINUOUS
 62
2
 10
335.9433
 20
650.7575
 11
335.9434
 21
650.7573
  0
LINE
  8
3_03
  6
CONTINUOUS
 62
2
 10
335.9434
 20
650.7573
 11
336.0665
 21
650.8849
  0
LINE
  8
3_03
  6
CONTINUOUS
 62
2
 10
335.8244
 20
650.6079
 11
335.8741
 21
650.5889
  0
LINE
  8
3_03
  6
CONTINUOUS
 62
2
 10
335.8244
 20
650.6079
 11
335.7748
 21
650.5889
  0
LINE
  8
3_03
  6
CONTINUOUS
 62
2
 10
335.8741
 20
650.5889
 11
336.0016
 21
650.4657
  0
LINE
  8
3_03
  6
CONTINUOUS
 62
2
 10
335.7747
 20
650.5889
 11
335.7748
 21
650.5888
  0
LINE
  8
3_03
  6
CONTINUOUS
 62
2
 10
335.7748
 20
650.5888
 11
335.6472
 21
650.4656
  0
LINE
  8
3_03
  6
CONTINUOUS
 62
2
 10
392.9744
 20
650.8076
 11
392.9247
 21
650.8266
  0
LINE
  8
3_03
  6
CONTINUOUS
 62
2
 10
392.9744
 20
650.8076
 11
393.0240
 21
650.8266
  0
LINE
  8
3_03
  6
CONTINUOUS
 62
2
 10
392.9247
 20
650.8266
 11
392.7972
 21
650.9498
  0
LINE
  8
3_03
  6
CONTINUOUS
 62
2
 10
393.0240
 20
650.8266
 11
393.0240
 21
650.8268
  0
LINE
  8
3_03
  6
CONTINUOUS
 62
2
 10
393.0240
 20
650.8268
 11
393.1515
 21
650.9500
  0
LINE
  8
3_03
  6
CONTINUOUS
 62
2
 10
392.8746
 20
650.7077
 11
392.8555
 21
650.7575
  0
LINE
  8
3_03
  6
CONTINUOUS
 62
2
 10
392.8746
 20
650.7077
 11
392.8555
 21
650.6582
  0
LINE
  8
3_03
  6
CONTINUOUS
 62
2
 10
392.8555
 20
650.7575
 11
392.7323
 21
650.8851
  0
LINE
  8
3_03
  6
CONTINUOUS
 62
2
 10
392.8555
 20
650.6581
 11
392.8554
 21
650.6582
  0
LINE
  8
3_03
  6
CONTINUOUS
 62
2
 10
392.8554
 20
650.6582
 11
392.7323
 21
650.5306
  0
LINE
  8
3_03
  6
CONTINUOUS
 62
2
 10
393.0742
 20
650.7077
 11
393.0933
 21
650.6581
  0
LINE
  8
3_03
  6
CONTINUOUS
 62
2
 10
393.0742
 20
650.7077
 11
393.0932
 21
650.7574
  0
LINE
  8
3_03
  6
CONTINUOUS
 62
2
 10
393.0933
 20
650.6581
 11
393.2165
 21
650.5306
  0
LINE
  8
3_03
  6
CONTINUOUS
 62
2
 10
393.0933
 20
650.7575
 11
393.0934
 21
650.7573
  0
LINE
  8
3_03
  6
CONTINUOUS
 62
2
 10
393.0934
 20
650.7573
 11
393.2166
 21
650.8849
  0
LINE
  8
3_03
  6
CONTINUOUS
 62
2
 10
392.9744
 20
650.6079
 11
393.0240
 21
650.5889
  0
LINE
  8
3_03
  6
CONTINUOUS
 62
2
 10
392.9744
 20
650.6079
 11
392.9248
 21
650.5889
  0
LINE
  8
3_03
  6
CONTINUOUS
 62
2
 10
393.0240
 20
650.5889
 11
393.1516
 21
650.4657
  0
LINE
  8
3_03
  6
CONTINUOUS
 62
2
 10
392.9247
 20
650.5889
 11
392.9249
 21
650.5888
  0
LINE
  8
3_03
  6
CONTINUOUS
 62
2
 10
392.9249
 20
650.5888
 11
392.7972
 21
650.4656
  0
LINE
  8
3_03
  6
CONTINUOUS
 62
2
 10
431.0744
 20
650.8076
 11
431.0247
 21
650.8266
  0
LINE
  8
3_03
  6
CONTINUOUS
 62
2
 10
431.0744
 20
650.8076
 11
431.1240
 21
650.8266
  0
LINE
  8
3_03
  6
CONTINUOUS
 62
2
 10
431.0247
 20
650.8266
 11
430.8972
 21
650.9498
  0
LINE
  8
3_03
  6
CONTINUOUS
 62
2
 10
431.1241
 20
650.8266
 11
431.1240
 21
650.8268
  0
LINE
  8
3_03
  6
CONTINUOUS
 62
2
 10
431.1240
 20
650.8268
 11
431.2515
 21
650.9500
  0
LINE
  8
3_03
  6
CONTINUOUS
 62
2
 10
430.9746
 20
650.7077
 11
430.9555
 21
650.7575
  0
LINE
  8
3_03
  6
CONTINUOUS
 62
2
 10
430.9746
 20
650.7077
 11
430.9555
 21
650.6582
  0
LINE
  8
3_03
  6
CONTINUOUS
 62
2
 10
430.9555
 20
650.7575
 11
430.8323
 21
650.8851
  0
LINE
  8
3_03
  6
CONTINUOUS
 62
2
 10
430.9555
 20
650.6581
 11
430.9555
 21
650.6582
  0
LINE
  8
3_03
  6
CONTINUOUS
 62
2
 10
430.9555
 20
650.6582
 11
430.8323
 21
650.5306
  0
LINE
  8
3_03
  6
CONTINUOUS
 62
2
 10
431.1742
 20
650.7077
 11
431.1933
 21
650.6581
  0
LINE
  8
3_03
  6
CONTINUOUS
 62
2
 10
431.1742
 20
650.7077
 11
431.1932
 21
650.7574
  0
LINE
  8
3_03
  6
CONTINUOUS
 62
2
 10
431.1933
 20
650.6581
 11
431.3165
 21
650.5306
  0
LINE
  8
3_03
  6
CONTINUOUS
 62
2
 10
431.1933
 20
650.7575
 11
431.1934
 21
650.7573
  0
LINE
  8
3_03
  6
CONTINUOUS
 62
2
 10
431.1934
 20
650.7573
 11
431.3166
 21
650.8849
  0
LINE
  8
3_03
  6
CONTINUOUS
 62
2
 10
431.0744
 20
650.6079
 11
431.1241
 21
650.5889
  0
LINE
  8
3_03
  6
CONTINUOUS
 62
2
 10
431.0744
 20
650.6079
 11
431.0248
 21
650.5889
  0
LINE
  8
3_03
  6
CONTINUOUS
 62
2
 10
431.1241
 20
650.5889
 11
431.2516
 21
650.4657
  0
LINE
  8
3_03
  6
CONTINUOUS
 62
2
 10
431.0247
 20
650.5889
 11
431.0248
 21
650.5888
  0
LINE
  8
3_03
  6
CONTINUOUS
 62
2
 10
431.0248
 20
650.5888
 11
430.8972
 21
650.4656
  0
LINE
  8
0_00
  6
CONTINUOUS
 62
4
 10
171.0494
 20
633.6078
 11
171.0494
 21
628.3578
  0
LINE
  8
0_00
  6
CONTINUOUS
 62
4
 10
171.0494
 20
628.3578
 11
106.7311
 21
628.3578
  0
LINE
  8
0_00
  6
CONTINUOUS
 62
4
 10
171.0494
 20
633.6078
 11
106.7311
 21
633.6078
  0
LINE
  8
0_00
  6
CONTINUOUS
 62
4
 10
481.5494
 20
633.6078
 11
481.5494
 21
628.3578
  0
LINE
  8
0_00
  6
CONTINUOUS
 62
4
 10
481.5494
 20
628.3578
 11
545.8678
 21
628.3578
  0
LINE
  8
0_00
  6
CONTINUOUS
 62
4
 10
481.5494
 20
633.6078
 11
545.8678
 21
633.6078
  0
LINE
  8
0_00
  6
CONTINUOUS
 62
4
 10
192.7994
 20
778.8077
 11
192.7994
 21
640.3578
  0
LINE
  8
0_00
  6
CONTINUOUS
 62
4
 10
186.7994
 20
778.8077
 11
186.7994
 21
640.3578
  0
LINE
  8
0_00
  6
CONTINUOUS
 62
4
 10
465.7994
 20
778.8077
 11
465.7994
 21
640.3578
  0
LINE
  8
0_00
  6
CONTINUOUS
 62
4
 10
459.7994
 20
778.8077
 11
459.7994
 21
640.3578
  0
LINE
  8
0_00
  6
CONTINUOUS
 62
4
 10
242.0744
 20
647.8578
 11
242.0744
 21
633.6078
  0
LINE
  8
0_00
  6
CONTINUOUS
 62
4
 10
239.0744
 20
647.8578
 11
239.0744
 21
633.6078
  0
LINE
  8
0_00
  6
CONTINUOUS
 62
4
 10
280.1744
 20
647.8578
 11
280.1744
 21
633.6078
  0
LINE
  8
0_00
  6
CONTINUOUS
 62
4
 10
277.1744
 20
647.8578
 11
277.1744
 21
633.6078
  0
LINE
  8
0_00
  6
CONTINUOUS
 62
4
 10
318.2744
 20
647.8578
 11
318.2744
 21
633.6078
  0
LINE
  8
0_00
  6
CONTINUOUS
 62
4
 10
315.2744
 20
647.8578
 11
315.2744
 21
633.6078
  0
LINE
  8
0_00
  6
CONTINUOUS
 62
4
 10
356.3744
 20
647.8578
 11
356.3744
 21
633.6078
  0
LINE
  8
0_00
  6
CONTINUOUS
 62
4
 10
353.3744
 20
647.8578
 11
353.3744
 21
633.6078
  0
LINE
  8
0_00
  6
CONTINUOUS
 62
4
 10
394.4744
 20
647.8578
 11
394.4744
 21
633.6078
  0
LINE
  8
0_00
  6
CONTINUOUS
 62
4
 10
391.4744
 20
647.8578
 11
391.4744
 21
633.6078
  0
LINE
  8
0_00
  6
CONTINUOUS
 62
4
 10
432.5744
 20
647.8578
 11
432.5744
 21
633.6078
  0
LINE
  8
0_00
  6
CONTINUOUS
 62
4
 10
429.5744
 20
647.8578
 11
429.5744
 21
633.6078
  0
LINE
  8
0_00
  6
CONTINUOUS
 62
4
 10
534.1244
 20
647.8578
 11
534.1244
 21
633.6078
  0
LINE
  8
0_00
  6
CONTINUOUS
 62
4
 10
531.1244
 20
647.8578
 11
531.1244
 21
633.6078
  0
LINE
  8
0_00
  6
CONTINUOUS
 62
4
 10
496.0244
 20
647.8578
 11
496.0244
 21
633.6078
  0
LINE
  8
0_00
  6
CONTINUOUS
 62
4
 10
493.0244
 20
647.8578
 11
493.0244
 21
633.6078
  0
LINE
  8
3_03
  6
CONTINUOUS
 62
2
 10
494.5244
 20
650.8076
 11
494.4747
 21
650.8266
  0
LINE
  8
3_03
  6
CONTINUOUS
 62
2
 10
494.5244
 20
650.8076
 11
494.5740
 21
650.8266
  0
LINE
  8
3_03
  6
CONTINUOUS
 62
2
 10
494.4747
 20
650.8266
 11
494.3472
 21
650.9498
  0
LINE
  8
3_03
  6
CONTINUOUS
 62
2
 10
494.5741
 20
650.8266
 11
494.5740
 21
650.8268
  0
LINE
  8
3_03
  6
CONTINUOUS
 62
2
 10
494.5740
 20
650.8268
 11
494.7015
 21
650.9500
  0
LINE
  8
3_03
  6
CONTINUOUS
 62
2
 10
494.4245
 20
650.7077
 11
494.4055
 21
650.7575
  0
LINE
  8
3_03
  6
CONTINUOUS
 62
2
 10
494.4245
 20
650.7077
 11
494.4055
 21
650.6582
  0
LINE
  8
3_03
  6
CONTINUOUS
 62
2
 10
494.4055
 20
650.7575
 11
494.2823
 21
650.8851
  0
LINE
  8
3_03
  6
CONTINUOUS
 62
2
 10
494.4055
 20
650.6581
 11
494.4055
 21
650.6582
  0
LINE
  8
3_03
  6
CONTINUOUS
 62
2
 10
494.4055
 20
650.6582
 11
494.2822
 21
650.5306
  0
LINE
  8
3_03
  6
CONTINUOUS
 62
2
 10
494.6242
 20
650.7077
 11
494.6433
 21
650.6581
  0
LINE
  8
3_03
  6
CONTINUOUS
 62
2
 10
494.6242
 20
650.7077
 11
494.6433
 21
650.7574
  0
LINE
  8
3_03
  6
CONTINUOUS
 62
2
 10
494.6433
 20
650.6581
 11
494.7664
 21
650.5306
  0
LINE
  8
3_03
  6
CONTINUOUS
 62
2
 10
494.6433
 20
650.7575
 11
494.6434
 21
650.7573
  0
LINE
  8
3_03
  6
CONTINUOUS
 62
2
 10
494.6434
 20
650.7573
 11
494.7665
 21
650.8849
  0
LINE
  8
3_03
  6
CONTINUOUS
 62
2
 10
494.5244
 20
650.6079
 11
494.5741
 21
650.5889
  0
LINE
  8
3_03
  6
CONTINUOUS
 62
2
 10
494.5244
 20
650.6079
 11
494.4748
 21
650.5889
  0
LINE
  8
3_03
  6
CONTINUOUS
 62
2
 10
494.5741
 20
650.5889
 11
494.7016
 21
650.4657
  0
LINE
  8
3_03
  6
CONTINUOUS
 62
2
 10
494.4747
 20
650.5889
 11
494.4749
 21
650.5888
  0
LINE
  8
3_03
  6
CONTINUOUS
 62
2
 10
494.4749
 20
650.5888
 11
494.3472
 21
650.4656
  0
LINE
  8
0_00
  6
CONTINUOUS
 62
4
 10
515.0744
 20
647.8578
 11
515.0744
 21
633.6078
  0
LINE
  8
0_00
  6
CONTINUOUS
 62
4
 10
512.0744
 20
647.8578
 11
512.0744
 21
633.6078
  0
LINE
  8
0_00
  6
CONTINUOUS
 62
4
 10
140.5244
 20
647.8578
 11
140.5244
 21
633.6078
  0
LINE
  8
0_00
  6
CONTINUOUS
 62
4
 10
137.5244
 20
647.8578
 11
137.5244
 21
633.6078
  0
LINE
  8
3_03
  6
CONTINUOUS
 62
2
 10
158.0744
 20
650.8076
 11
158.0247
 21
650.8266
  0
LINE
  8
3_03
  6
CONTINUOUS
 62
2
 10
158.0744
 20
650.8076
 11
158.1240
 21
650.8266
  0
LINE
  8
3_03
  6
CONTINUOUS
 62
2
 10
158.0247
 20
650.8266
 11
157.8972
 21
650.9498
  0
LINE
  8
3_03
  6
CONTINUOUS
 62
2
 10
158.1240
 20
650.8266
 11
158.1240
 21
650.8268
  0
LINE
  8
3_03
  6
CONTINUOUS
 62
2
 10
158.1240
 20
650.8268
 11
158.2515
 21
650.9500
  0
LINE
  8
3_03
  6
CONTINUOUS
 62
2
 10
157.9746
 20
650.7077
 11
157.9555
 21
650.7575
  0
LINE
  8
3_03
  6
CONTINUOUS
 62
2
 10
157.9746
 20
650.7077
 11
157.9555
 21
650.6582
  0
LINE
  8
3_03
  6
CONTINUOUS
 62
2
 10
157.9555
 20
650.7575
 11
157.8323
 21
650.8851
  0
LINE
  8
3_03
  6
CONTINUOUS
 62
2
 10
157.9555
 20
650.6581
 11
157.9554
 21
650.6582
  0
LINE
  8
3_03
  6
CONTINUOUS
 62
2
 10
157.9554
 20
650.6582
 11
157.8322
 21
650.5306
  0
LINE
  8
3_03
  6
CONTINUOUS
 62
2
 10
158.1742
 20
650.7077
 11
158.1933
 21
650.6581
  0
LINE
  8
3_03
  6
CONTINUOUS
 62
2
 10
158.1742
 20
650.7077
 11
158.1933
 21
650.7574
  0
LINE
  8
3_03
  6
CONTINUOUS
 62
2
 10
158.1933
 20
650.6581
 11
158.3165
 21
650.5306
  0
LINE
  8
3_03
  6
CONTINUOUS
 62
2
 10
158.1933
 20
650.7575
 11
158.1934
 21
650.7573
  0
LINE
  8
3_03
  6
CONTINUOUS
 62
2
 10
158.1934
 20
650.7573
 11
158.3165
 21
650.8849
  0
LINE
  8
3_03
  6
CONTINUOUS
 62
2
 10
158.0744
 20
650.6079
 11
158.1240
 21
650.5889
  0
LINE
  8
3_03
  6
CONTINUOUS
 62
2
 10
158.0744
 20
650.6079
 11
158.0248
 21
650.5889
  0
LINE
  8
3_03
  6
CONTINUOUS
 62
2
 10
158.1240
 20
650.5889
 11
158.2516
 21
650.4657
  0
LINE
  8
3_03
  6
CONTINUOUS
 62
2
 10
158.0247
 20
650.5889
 11
158.0248
 21
650.5888
  0
LINE
  8
3_03
  6
CONTINUOUS
 62
2
 10
158.0248
 20
650.5888
 11
157.8972
 21
650.4656
  0
LINE
  8
0_00
  6
CONTINUOUS
 62
4
 10
121.4744
 20
647.8578
 11
121.4744
 21
633.6078
  0
LINE
  8
0_00
  6
CONTINUOUS
 62
4
 10
118.4744
 20
647.8578
 11
118.4744
 21
633.6078
  0
LINE
  8
0_00
  6
CONTINUOUS
 62
4
 10
159.5744
 20
647.8578
 11
159.5744
 21
633.6078
  0
LINE
  8
0_00
  6
CONTINUOUS
 62
4
 10
156.5744
 20
647.8578
 11
156.5744
 21
633.6078
  0
LINE
  8
3_03
  6
CONTINUOUS
 62
2
 10
119.9744
 20
650.8076
 11
119.9247
 21
650.8266
  0
LINE
  8
3_03
  6
CONTINUOUS
 62
2
 10
119.9744
 20
650.8076
 11
120.0240
 21
650.8266
  0
LINE
  8
3_03
  6
CONTINUOUS
 62
2
 10
119.9247
 20
650.8266
 11
119.7972
 21
650.9498
  0
LINE
  8
3_03
  6
CONTINUOUS
 62
2
 10
120.0240
 20
650.8266
 11
120.0240
 21
650.8268
  0
LINE
  8
3_03
  6
CONTINUOUS
 62
2
 10
120.0240
 20
650.8268
 11
120.1515
 21
650.9500
  0
LINE
  8
3_03
  6
CONTINUOUS
 62
2
 10
119.8746
 20
650.7077
 11
119.8555
 21
650.7575
  0
LINE
  8
3_03
  6
CONTINUOUS
 62
2
 10
119.8746
 20
650.7077
 11
119.8555
 21
650.6582
  0
LINE
  8
3_03
  6
CONTINUOUS
 62
2
 10
119.8555
 20
650.7575
 11
119.7323
 21
650.8851
  0
LINE
  8
3_03
  6
CONTINUOUS
 62
2
 10
119.8555
 20
650.6581
 11
119.8554
 21
650.6582
  0
LINE
  8
3_03
  6
CONTINUOUS
 62
2
 10
119.8554
 20
650.6582
 11
119.7323
 21
650.5306
  0
LINE
  8
3_03
  6
CONTINUOUS
 62
2
 10
120.0742
 20
650.7077
 11
120.0933
 21
650.6581
  0
LINE
  8
3_03
  6
CONTINUOUS
 62
2
 10
120.0742
 20
650.7077
 11
120.0933
 21
650.7574
  0
LINE
  8
3_03
  6
CONTINUOUS
 62
2
 10
120.0933
 20
650.6581
 11
120.2165
 21
650.5306
  0
LINE
  8
3_03
  6
CONTINUOUS
 62
2
 10
120.0933
 20
650.7575
 11
120.0934
 21
650.7573
  0
LINE
  8
3_03
  6
CONTINUOUS
 62
2
 10
120.0934
 20
650.7573
 11
120.2165
 21
650.8849
  0
LINE
  8
3_03
  6
CONTINUOUS
 62
2
 10
119.9744
 20
650.6079
 11
120.0240
 21
650.5889
  0
LINE
  8
3_03
  6
CONTINUOUS
 62
2
 10
119.9744
 20
650.6079
 11
119.9248
 21
650.5889
  0
LINE
  8
3_03
  6
CONTINUOUS
 62
2
 10
120.0240
 20
650.5889
 11
120.1516
 21
650.4657
  0
LINE
  8
3_03
  6
CONTINUOUS
 62
2
 10
119.9247
 20
650.5889
 11
119.9249
 21
650.5888
  0
LINE
  8
3_03
  6
CONTINUOUS
 62
2
 10
119.9249
 20
650.5888
 11
119.7972
 21
650.4656
  0
LINE
  8
0_00
  6
CENTER1
 62
6
 10
176.1103
 20
468.8826
 11
176.1103
 21
147.2195
  0
LINE
  8
0_00
  6
CONTINUOUS
 62
4
 10
82.5801
 20
175.2111
 11
270.6262
 21
175.2111
  0
LINE
  8
0_00
  6
CONTINUOUS
 62
4
 10
201.1103
 20
457.2149
 11
201.1103
 21
309.2111
  0
LINE
  8
0_00
  6
CONTINUOUS
 62
4
 10
151.1103
 20
457.2149
 11
151.1103
 21
309.2111
  0
LINE
  8
0_00
  6
CONTINUOUS
 62
4
 10
163.6103
 20
389.4611
 11
163.6103
 21
457.2149
  0
LINE
  8
0_00
  6
CONTINUOUS
 62
4
 10
188.6103
 20
389.4611
 11
188.6103
 21
457.2149
  0
LINE
  8
0_00
  6
CONTINUOUS
 62
4
 10
251.1103
 20
295.2111
 11
241.1103
 21
305.2111
  0
LINE
  8
0_00
  6
CONTINUOUS
 62
4
 10
101.1103
 20
175.2111
 11
101.1103
 21
295.2111
  0
LINE
  8
0_00
  6
CONTINUOUS
 62
4
 10
101.1103
 20
295.2111
 11
111.1103
 21
305.2111
  0
LINE
  8
0_00
  6
CONTINUOUS
 62
4
 10
111.1103
 20
305.2111
 11
163.6103
 21
305.2111
  0
LINE
  8
0_00
  6
CONTINUOUS
 62
4
 10
188.6103
 20
305.2111
 11
241.1103
 21
305.2111
  0
LINE
  8
0_00
  6
CONTINUOUS
 62
4
 10
251.1103
 20
295.2111
 11
188.6103
 21
295.2111
  0
LINE
  8
0_00
  6
CONTINUOUS
 62
4
 10
163.6103
 20
295.2111
 11
101.1103
 21
295.2111
  0
LINE
  8
0_00
  6
CONTINUOUS
 62
4
 10
176.3103
 20
388.7111
 11
188.4103
 21
388.7111
  0
LINE
  8
0_00
  6
CONTINUOUS
 62
4
 10
188.4103
 20
388.7111
 11
188.8103
 21
390.2111
  0
LINE
  8
0_00
  6
CONTINUOUS
 62
4
 10
188.8103
 20
390.2111
 11
193.9103
 21
390.2111
  0
LINE
  8
0_00
  6
CONTINUOUS
 62
4
 10
194.3103
 20
390.2111
 11
196.6103
 21
390.2111
  0
LINE
  8
0_00
  6
CONTINUOUS
 62
4
 10
198.6103
 20
388.2111
 11
198.6103
 21
356.7111
  0
LINE
  8
0_00
  6
CONTINUOUS
 62
4
 10
197.1103
 20
355.2111
 11
196.4103
 21
355.2111
  0
LINE
  8
0_00
  6
CONTINUOUS
 62
4
 10
196.1103
 20
355.5110
 11
196.1103
 21
356.4111
  0
LINE
  8
0_00
  6
CONTINUOUS
 62
4
 10
196.4103
 20
356.7111
 11
197.1075
 21
356.7111
  0
LINE
  8
0_00
  6
CONTINUOUS
 62
4
 10
196.8131
 20
388.7111
 11
190.3469
 21
388.7111
  0
LINE
  8
0_00
  6
CONTINUOUS
 62
4
 10
189.8638
 20
388.3399
 11
189.5627
 21
387.2111
  0
LINE
  8
0_00
  6
CONTINUOUS
 62
4
 10
181.1103
 20
386.9111
 11
176.1103
 21
386.9111
  0
LINE
  8
0_00
  6
CONTINUOUS
 62
4
 10
189.5627
 20
387.2111
 11
181.1103
 21
386.9111
  0
LINE
  8
0_00
  6
CONTINUOUS
 62
4
 10
176.1103
 20
388.5110
 11
176.3103
 21
388.7111
  0
LINE
  8
0_00
  6
CONTINUOUS
 62
4
 10
193.9103
 20
390.2111
 11
194.1103
 21
390.0110
  0
LINE
  8
0_00
  6
CONTINUOUS
 62
4
 10
194.1103
 20
390.0110
 11
194.3103
 21
390.2111
  0
LINE
  8
0_00
  6
CONTINUOUS
 62
4
 10
175.9103
 20
388.7111
 11
163.8103
 21
388.7111
  0
LINE
  8
0_00
  6
CONTINUOUS
 62
4
 10
163.8103
 20
388.7111
 11
163.4103
 21
390.2111
  0
LINE
  8
0_00
  6
CONTINUOUS
 62
4
 10
163.4103
 20
390.2111
 11
158.3103
 21
390.2111
  0
LINE
  8
0_00
  6
CONTINUOUS
 62
4
 10
157.9103
 20
390.2111
 11
155.6103
 21
390.2111
  0
LINE
  8
0_00
  6
CONTINUOUS
 62
4
 10
155.4075
 20
388.7111
 11
161.8737
 21
388.7111
  0
LINE
  8
0_00
  6
CONTINUOUS
 62
4
 10
162.3569
 20
388.3399
 11
162.6579
 21
387.2111
  0
LINE
  8
0_00
  6
CONTINUOUS
 62
4
 10
171.1103
 20
386.9111
 11
176.1103
 21
386.9111
  0
LINE
  8
0_00
  6
CONTINUOUS
 62
4
 10
162.6579
 20
387.2111
 11
171.1103
 21
386.9111
  0
LINE
  8
0_00
  6
CONTINUOUS
 62
4
 10
176.1103
 20
388.5110
 11
175.9103
 21
388.7111
  0
LINE
  8
0_00
  6
CONTINUOUS
 62
4
 10
158.3103
 20
390.2111
 11
158.1103
 21
390.0110
  0
LINE
  8
0_00
  6
CONTINUOUS
 62
4
 10
197.4075
 20
357.0139
 11
197.1131
 21
388.4138
  0
LINE
  8
0_00
  6
CONTINUOUS
 62
4
 10
153.6103
 20
388.2111
 11
153.6103
 21
356.7111
  0
LINE
  8
0_00
  6
CONTINUOUS
 62
4
 10
155.1103
 20
355.2111
 11
155.8103
 21
355.2111
  0
LINE
  8
0_00
  6
CONTINUOUS
 62
4
 10
156.1103
 20
355.5110
 11
156.1103
 21
356.4111
  0
LINE
  8
0_00
  6
CONTINUOUS
 62
4
 10
155.8103
 20
356.7111
 11
155.1132
 21
356.7111
  0
LINE
  8
0_00
  6
CONTINUOUS
 62
4
 10
154.8132
 20
357.0139
 11
155.1075
 21
388.4138
  0
LINE
  8
0_00
  6
CONTINUOUS
 62
4
 10
158.1103
 20
390.0110
 11
157.9103
 21
390.2111
  0
LINE
  8
0_00
  6
CONTINUOUS
 62
4
 10
163.8103
 20
360.2111
 11
188.4103
 21
360.2111
  0
LINE
  8
0_00
  6
CONTINUOUS
 62
4
 10
195.3103
 20
358.2110
 11
190.4103
 21
358.2110
  0
LINE
  8
0_00
  6
CONTINUOUS
 62
4
 10
189.8103
 20
358.2110
 11
183.4103
 21
358.2110
  0
LINE
  8
0_00
  6
CONTINUOUS
 62
4
 10
182.8103
 20
358.2110
 11
176.4103
 21
358.2110
  0
LINE
  8
0_00
  6
CONTINUOUS
 62
4
 10
175.8103
 20
358.2110
 11
169.4103
 21
358.2110
  0
LINE
  8
0_00
  6
CONTINUOUS
 62
4
 10
168.8103
 20
358.2110
 11
162.4103
 21
358.2110
  0
LINE
  8
0_00
  6
CONTINUOUS
 62
4
 10
161.8103
 20
358.2110
 11
156.9103
 21
358.2110
  0
LINE
  8
0_00
  6
CONTINUOUS
 62
4
 10
155.2103
 20
356.7111
 11
156.9103
 21
356.7111
  0
LINE
  8
0_00
  6
CONTINUOUS
 62
4
 10
155.6103
 20
376.2389
 11
155.6103
 21
374.5110
  0
LINE
  8
0_00
  6
CONTINUOUS
 62
4
 10
155.6103
 20
370.7111
 11
155.6103
 21
373.9111
  0
LINE
  8
0_00
  6
CONTINUOUS
 62
4
 10
158.1103
 20
369.2111
 11
158.1103
 21
380.7110
  0
LINE
  8
0_00
  6
CONTINUOUS
 62
4
 10
156.9103
 20
356.7111
 11
156.9103
 21
358.2110
  0
LINE
  8
0_00
  6
CONTINUOUS
 62
4
 10
157.8465
 20
380.7110
 11
158.1103
 21
380.7110
  0
LINE
  8
0_00
  6
CONTINUOUS
 62
4
 10
155.6103
 20
373.9111
 11
155.9103
 21
374.2111
  0
LINE
  8
0_00
  6
CONTINUOUS
 62
4
 10
155.9103
 20
374.2111
 11
155.6103
 21
374.5110
  0
LINE
  8
0_00
  6
CONTINUOUS
 62
4
 10
157.2655
 20
369.2111
 11
158.1103
 21
369.2111
  0
LINE
  8
0_00
  6
CONTINUOUS
 62
4
 10
176.4103
 20
358.2110
 11
176.1103
 21
358.5111
  0
LINE
  8
0_00
  6
CONTINUOUS
 62
4
 10
175.8103
 20
358.2110
 11
176.1103
 21
358.5111
  0
LINE
  8
0_00
  6
CONTINUOUS
 62
4
 10
194.4371
 20
360.9111
 11
188.6103
 21
360.9111
  0
LINE
  8
0_00
  6
CONTINUOUS
 62
4
 10
188.4103
 20
360.2111
 11
188.6103
 21
360.9111
  0
LINE
  8
0_00
  6
CONTINUOUS
 62
4
 10
162.4103
 20
358.2110
 11
162.1103
 21
358.5111
  0
LINE
  8
0_00
  6
CONTINUOUS
 62
4
 10
161.8103
 20
358.2110
 11
162.1103
 21
358.5111
  0
LINE
  8
0_00
  6
CONTINUOUS
 62
4
 10
183.4103
 20
358.2110
 11
183.1103
 21
358.5111
  0
LINE
  8
0_00
  6
CONTINUOUS
 62
4
 10
182.8103
 20
358.2110
 11
183.1103
 21
358.5111
  0
LINE
  8
0_00
  6
CONTINUOUS
 62
4
 10
189.8103
 20
358.2110
 11
190.1103
 21
358.5111
  0
LINE
  8
0_00
  6
CONTINUOUS
 62
4
 10
190.4103
 20
358.2110
 11
190.1103
 21
358.5111
  0
LINE
  8
0_00
  6
CONTINUOUS
 62
4
 10
168.8103
 20
358.2110
 11
169.1103
 21
358.5111
  0
LINE
  8
0_00
  6
CONTINUOUS
 62
4
 10
169.4103
 20
358.2110
 11
169.1103
 21
358.5111
  0
LINE
  8
0_00
  6
CONTINUOUS
 62
4
 10
157.7836
 20
360.9111
 11
163.6103
 21
360.9111
  0
LINE
  8
0_00
  6
CONTINUOUS
 62
4
 10
163.8103
 20
360.2111
 11
163.6103
 21
360.9111
  0
LINE
  8
0_00
  6
CONTINUOUS
 62
4
 10
154.9103
 20
357.0111
 11
154.9103
 21
357.7685
  0
LINE
  8
0_00
  6
CONTINUOUS
 62
4
 10
197.0103
 20
356.7111
 11
195.3103
 21
356.7111
  0
LINE
  8
0_00
  6
CONTINUOUS
 62
4
 10
196.6103
 20
376.2389
 11
196.6103
 21
374.5110
  0
LINE
  8
0_00
  6
CONTINUOUS
 62
4
 10
196.6103
 20
370.7111
 11
196.6103
 21
373.9111
  0
LINE
  8
0_00
  6
CONTINUOUS
 62
4
 10
194.1103
 20
369.2111
 11
194.1103
 21
380.7110
  0
LINE
  8
0_00
  6
CONTINUOUS
 62
4
 10
195.3103
 20
356.7111
 11
195.3103
 21
358.2110
  0
LINE
  8
0_00
  6
CONTINUOUS
 62
4
 10
194.3742
 20
380.7110
 11
194.1103
 21
380.7110
  0
LINE
  8
0_00
  6
CONTINUOUS
 62
4
 10
196.6103
 20
373.9111
 11
196.3103
 21
374.2111
  0
LINE
  8
0_00
  6
CONTINUOUS
 62
4
 10
196.3103
 20
374.2111
 11
196.6103
 21
374.5110
  0
LINE
  8
0_00
  6
CONTINUOUS
 62
4
 10
194.9552
 20
369.2111
 11
194.1103
 21
369.2111
  0
LINE
  8
0_00
  6
CONTINUOUS
 62
4
 10
197.3103
 20
357.0111
 11
197.3103
 21
357.7685
  0
LINE
  8
12_0C
  6
CONTINUOUS
 62
2
 10
153.6103
 20
370.2110
 11
153.6103
 21
378.2111
  0
LINE
  8
12_0C
  6
CONTINUOUS
 62
2
 10
153.2103
 20
370.2110
 11
153.2103
 21
378.2111
  0
LINE
  8
12_0C
  6
CONTINUOUS
 62
2
 10
153.6103
 20
378.2111
 11
153.2103
 21
378.2111
  0
LINE
  8
12_0C
  6
CONTINUOUS
 62
2
 10
153.6103
 20
370.2110
 11
153.2103
 21
370.2110
  0
LINE
  8
0_00
  6
CONTINUOUS
 62
2
 10
154.9556
 20
372.2111
 11
155.6103
 21
372.2111
  0
LINE
  8
0_00
  6
CONTINUOUS
 62
2
 10
158.1103
 20
372.2111
 11
164.7903
 21
372.2111
  0
LINE
  8
12_0C
  6
CONTINUOUS
 62
2
 10
154.9608
 20
372.7611
 11
155.6103
 21
372.7611
  0
LINE
  8
12_0C
  6
CONTINUOUS
 62
2
 10
158.1103
 20
372.7611
 11
169.6103
 21
372.7611
  0
LINE
  8
12_0C
  6
CONTINUOUS
 62
2
 10
169.6103
 20
372.7611
 11
169.6103
 21
375.6611
  0
LINE
  8
12_0C
  6
CONTINUOUS
 62
2
 10
164.7903
 20
372.2111
 11
169.6103
 21
372.7611
  0
LINE
  8
0_00
  6
CONTINUOUS
 62
2
 10
154.9931
 20
376.2111
 11
155.6103
 21
376.2111
  0
LINE
  8
0_00
  6
CONTINUOUS
 62
2
 10
158.1103
 20
376.2111
 11
164.7903
 21
376.2111
  0
LINE
  8
12_0C
  6
CONTINUOUS
 62
2
 10
154.9880
 20
375.6611
 11
155.6103
 21
375.6611
  0
LINE
  8
12_0C
  6
CONTINUOUS
 62
2
 10
158.1103
 20
375.6611
 11
169.6103
 21
375.6611
  0
LINE
  8
12_0C
  6
CONTINUOUS
 62
2
 10
164.7903
 20
376.2111
 11
169.6103
 21
375.6611
  0
LINE
  8
12_0C
  6
CONTINUOUS
 62
2
 10
198.6103
 20
370.2110
 11
198.6103
 21
378.2111
  0
LINE
  8
12_0C
  6
CONTINUOUS
 62
2
 10
199.0103
 20
370.2110
 11
199.0103
 21
378.2111
  0
LINE
  8
12_0C
  6
CONTINUOUS
 62
2
 10
198.6103
 20
378.2111
 11
199.0103
 21
378.2111
  0
LINE
  8
12_0C
  6
CONTINUOUS
 62
2
 10
198.6103
 20
370.2110
 11
199.0103
 21
370.2110
  0
LINE
  8
0_00
  6
CONTINUOUS
 62
2
 10
197.2650
 20
372.2111
 11
196.6103
 21
372.2111
  0
LINE
  8
0_00
  6
CONTINUOUS
 62
2
 10
194.1103
 20
372.2111
 11
187.4303
 21
372.2111
  0
LINE
  8
12_0C
  6
CONTINUOUS
 62
2
 10
197.2599
 20
372.7611
 11
196.6103
 21
372.7611
  0
LINE
  8
12_0C
  6
CONTINUOUS
 62
2
 10
194.1103
 20
372.7611
 11
182.6103
 21
372.7611
  0
LINE
  8
12_0C
  6
CONTINUOUS
 62
2
 10
182.6103
 20
372.7611
 11
182.6103
 21
375.6611
  0
LINE
  8
12_0C
  6
CONTINUOUS
 62
2
 10
187.4303
 20
372.2111
 11
182.6103
 21
372.7611
  0
LINE
  8
0_00
  6
CONTINUOUS
 62
2
 10
197.2275
 20
376.2111
 11
196.6103
 21
376.2111
  0
LINE
  8
0_00
  6
CONTINUOUS
 62
2
 10
194.1103
 20
376.2111
 11
187.4303
 21
376.2111
  0
LINE
  8
12_0C
  6
CONTINUOUS
 62
2
 10
197.2327
 20
375.6611
 11
196.6103
 21
375.6611
  0
LINE
  8
12_0C
  6
CONTINUOUS
 62
2
 10
194.1103
 20
375.6611
 11
182.6103
 21
375.6611
  0
LINE
  8
12_0C
  6
CONTINUOUS
 62
2
 10
187.4303
 20
376.2111
 11
182.6103
 21
375.6611
  0
LINE
  8
0_00
  6
CONTINUOUS
 62
4
 10
176.3103
 20
258.7111
 11
188.4103
 21
258.7111
  0
LINE
  8
0_00
  6
CONTINUOUS
 62
4
 10
188.4103
 20
258.7111
 11
188.8103
 21
260.2111
  0
LINE
  8
0_00
  6
CONTINUOUS
 62
4
 10
188.8103
 20
260.2111
 11
193.9103
 21
260.2111
  0
LINE
  8
0_00
  6
CONTINUOUS
 62
4
 10
194.3103
 20
260.2111
 11
196.6103
 21
260.2111
  0
LINE
  8
0_00
  6
CONTINUOUS
 62
4
 10
198.6103
 20
258.2111
 11
198.6103
 21
226.7111
  0
LINE
  8
0_00
  6
CONTINUOUS
 62
4
 10
197.1103
 20
225.2111
 11
196.4103
 21
225.2111
  0
LINE
  8
0_00
  6
CONTINUOUS
 62
4
 10
196.1103
 20
225.5111
 11
196.1103
 21
226.4111
  0
LINE
  8
0_00
  6
CONTINUOUS
 62
4
 10
196.4103
 20
226.7111
 11
197.1075
 21
226.7111
  0
LINE
  8
0_00
  6
CONTINUOUS
 62
4
 10
196.8131
 20
258.7111
 11
190.3469
 21
258.7111
  0
LINE
  8
0_00
  6
CONTINUOUS
 62
4
 10
189.8638
 20
258.3399
 11
189.5627
 21
257.2111
  0
LINE
  8
0_00
  6
CONTINUOUS
 62
4
 10
181.1103
 20
256.9111
 11
176.1103
 21
256.9111
  0
LINE
  8
0_00
  6
CONTINUOUS
 62
4
 10
189.5627
 20
257.2111
 11
181.1103
 21
256.9111
  0
LINE
  8
0_00
  6
CONTINUOUS
 62
4
 10
176.1103
 20
258.5110
 11
176.3103
 21
258.7111
  0
LINE
  8
0_00
  6
CONTINUOUS
 62
4
 10
193.9103
 20
260.2111
 11
194.1103
 21
260.0110
  0
LINE
  8
0_00
  6
CONTINUOUS
 62
4
 10
194.1103
 20
260.0110
 11
194.3103
 21
260.2111
  0
LINE
  8
0_00
  6
CONTINUOUS
 62
4
 10
175.9103
 20
258.7111
 11
163.8103
 21
258.7111
  0
LINE
  8
0_00
  6
CONTINUOUS
 62
4
 10
163.8103
 20
258.7111
 11
163.4103
 21
260.2111
  0
LINE
  8
0_00
  6
CONTINUOUS
 62
4
 10
163.4103
 20
260.2111
 11
158.3103
 21
260.2111
  0
LINE
  8
0_00
  6
CONTINUOUS
 62
4
 10
157.9103
 20
260.2111
 11
155.6103
 21
260.2111
  0
LINE
  8
0_00
  6
CONTINUOUS
 62
4
 10
155.4075
 20
258.7111
 11
161.8737
 21
258.7111
  0
LINE
  8
0_00
  6
CONTINUOUS
 62
4
 10
162.3569
 20
258.3399
 11
162.6579
 21
257.2111
  0
LINE
  8
0_00
  6
CONTINUOUS
 62
4
 10
171.1103
 20
256.9111
 11
176.1103
 21
256.9111
  0
LINE
  8
0_00
  6
CONTINUOUS
 62
4
 10
162.6579
 20
257.2111
 11
171.1103
 21
256.9111
  0
LINE
  8
0_00
  6
CONTINUOUS
 62
4
 10
176.1103
 20
258.5110
 11
175.9103
 21
258.7111
  0
LINE
  8
0_00
  6
CONTINUOUS
 62
4
 10
158.3103
 20
260.2111
 11
158.1103
 21
260.0110
  0
LINE
  8
0_00
  6
CONTINUOUS
 62
4
 10
197.4075
 20
227.0139
 11
197.1131
 21
258.4139
  0
LINE
  8
0_00
  6
CONTINUOUS
 62
4
 10
153.6103
 20
258.2111
 11
153.6103
 21
226.7111
  0
LINE
  8
0_00
  6
CONTINUOUS
 62
4
 10
155.1103
 20
225.2111
 11
155.8103
 21
225.2111
  0
LINE
  8
0_00
  6
CONTINUOUS
 62
4
 10
156.1103
 20
225.5111
 11
156.1103
 21
226.4111
  0
LINE
  8
0_00
  6
CONTINUOUS
 62
4
 10
155.8103
 20
226.7111
 11
155.1132
 21
226.7111
  0
LINE
  8
0_00
  6
CONTINUOUS
 62
4
 10
154.8132
 20
227.0139
 11
155.1075
 21
258.4139
  0
LINE
  8
0_00
  6
CONTINUOUS
 62
4
 10
158.1103
 20
260.0110
 11
157.9103
 21
260.2111
  0
LINE
  8
0_00
  6
CONTINUOUS
 62
4
 10
188.6103
 20
358.2110
 11
188.6103
 21
259.4611
  0
LINE
  8
0_00
  6
CONTINUOUS
 62
4
 10
163.6103
 20
358.2110
 11
163.6103
 21
259.4611
  0
LINE
  8
0_00
  6
CONTINUOUS
 62
4
 10
188.6103
 20
259.4611
 11
163.6103
 21
259.4611
  0
LINE
  8
0_00
  6
CONTINUOUS
 62
2
 10
151.1103
 20
309.2111
 11
163.6103
 21
309.2111
  0
LINE
  8
0_00
  6
CONTINUOUS
 62
2
 10
188.6103
 20
309.2111
 11
201.1103
 21
309.2111
  0
LINE
  8
0_00
  6
CONTINUOUS
 62
2
 10
197.1103
 20
305.2111
 11
201.1103
 21
309.2111
  0
LINE
  8
0_00
  6
CONTINUOUS
 62
2
 10
191.4535
 20
305.2111
 11
195.4535
 21
309.2111
  0
LINE
  8
0_00
  6
CONTINUOUS
 62
2
 10
188.6103
 20
308.0248
 11
189.7966
 21
309.2111
  0
LINE
  8
0_00
  6
CONTINUOUS
 62
2
 10
202.7672
 20
305.2111
 11
203.4171
 21
305.8610
  0
LINE
  8
0_00
  6
CONTINUOUS
 62
2
 10
195.4535
 20
309.2111
 11
199.4535
 21
305.2111
  0
LINE
  8
0_00
  6
CONTINUOUS
 62
2
 10
189.7966
 20
309.2111
 11
193.7966
 21
305.2111
  0
LINE
  8
0_00
  6
CONTINUOUS
 62
2
 10
155.1103
 20
305.2111
 11
151.1103
 21
309.2111
  0
LINE
  8
0_00
  6
CONTINUOUS
 62
2
 10
160.7672
 20
305.2111
 11
156.7672
 21
309.2111
  0
LINE
  8
0_00
  6
CONTINUOUS
 62
2
 10
163.6103
 20
308.0248
 11
162.4240
 21
309.2111
  0
LINE
  8
0_00
  6
CONTINUOUS
 62
2
 10
149.4535
 20
305.2111
 11
148.8035
 21
305.8610
  0
LINE
  8
0_00
  6
CONTINUOUS
 62
2
 10
153.9387
 20
309.2111
 11
149.9388
 21
305.2111
  0
LINE
  8
0_00
  6
CONTINUOUS
 62
2
 10
159.5956
 20
309.2111
 11
155.5956
 21
305.2111
  0
LINE
  8
0_00
  6
CONTINUOUS
 62
2
 10
163.6103
 20
307.5689
 11
161.2524
 21
305.2111
  0
LINE
  8
0_00
  6
CONTINUOUS
 62
4
 10
188.6103
 20
389.4611
 11
163.6103
 21
389.4611
  0
LINE
  8
12_0C
  6
CONTINUOUS
 62
2
 10
172.6103
 20
361.1811
 11
172.6103
 21
360.2111
  0
LINE
  8
12_0C
  6
CONTINUOUS
 62
2
 10
172.6103
 20
385.9411
 11
172.6103
 21
386.9111
  0
LINE
  8
12_0C
  6
CONTINUOUS
 62
2
 10
179.6103
 20
385.9411
 11
179.6103
 21
386.9111
  0
LINE
  8
0_00
  6
CONTINUOUS
 62
2
 10
179.6103
 20
386.9111
 11
172.6103
 21
386.9111
  0
LINE
  8
12_0C
  6
CONTINUOUS
 62
2
 10
172.6103
 20
255.9411
 11
172.6103
 21
256.9111
  0
LINE
  8
12_0C
  6
CONTINUOUS
 62
2
 10
179.6103
 20
255.9411
 11
179.6103
 21
256.9111
  0
LINE
  8
0_00
  6
CONTINUOUS
 62
2
 10
179.6103
 20
256.9111
 11
172.6103
 21
256.9111
  0
LINE
  8
0_00
  6
CONTINUOUS
 62
4
 10
190.6103
 20
388.7111
 11
190.6103
 21
376.2111
  0
LINE
  8
0_00
  6
CONTINUOUS
 62
4
 10
190.6103
 20
372.2111
 11
190.6103
 21
360.9111
  0
LINE
  8
0_00
  6
CONTINUOUS
 62
4
 10
196.1103
 20
388.7111
 11
196.1103
 21
378.6369
  0
LINE
  8
0_00
  6
CONTINUOUS
 62
4
 10
190.6103
 20
386.5111
 11
179.6103
 21
386.5111
  0
LINE
  8
0_00
  6
CONTINUOUS
 62
4
 10
172.6103
 20
386.5111
 11
161.6103
 21
386.5111
  0
LINE
  8
0_00
  6
CONTINUOUS
 62
4
 10
161.6103
 20
388.7111
 11
161.6103
 21
376.2111
  0
LINE
  8
0_00
  6
CONTINUOUS
 62
4
 10
161.6103
 20
372.2111
 11
161.6103
 21
360.9111
  0
LINE
  8
0_00
  6
CONTINUOUS
 62
4
 10
156.1103
 20
388.7111
 11
156.1103
 21
378.6369
  0
LINE
  8
0_00
  6
CONTINUOUS
 62
4
 10
161.6103
 20
362.5110
 11
173.8060
 21
362.5110
  0
LINE
  8
0_00
  6
CONTINUOUS
 62
4
 10
178.4147
 20
362.5110
 11
190.6103
 21
362.5110
  0
LINE
  8
3_03
  6
CONTINUOUS
 62
2
 10
176.1103
 20
381.6766
 11
175.7793
 21
381.8037
  0
LINE
  8
3_03
  6
CONTINUOUS
 62
2
 10
176.1103
 20
381.6766
 11
176.4410
 21
381.8035
  0
LINE
  8
3_03
  6
CONTINUOUS
 62
2
 10
175.7793
 20
381.8037
 11
174.9289
 21
382.6249
  0
LINE
  8
3_03
  6
CONTINUOUS
 62
2
 10
176.4413
 20
381.8037
 11
176.4407
 21
381.8043
  0
LINE
  8
3_03
  6
CONTINUOUS
 62
2
 10
176.4407
 20
381.8043
 11
177.2910
 21
382.6254
  0
LINE
  8
3_03
  6
CONTINUOUS
 62
2
 10
175.4448
 20
381.0111
 11
175.3177
 21
381.3421
  0
LINE
  8
3_03
  6
CONTINUOUS
 62
2
 10
175.4448
 20
381.0111
 11
175.3179
 21
380.6804
  0
LINE
  8
3_03
  6
CONTINUOUS
 62
2
 10
175.3177
 20
381.3421
 11
174.4961
 21
382.1929
  0
LINE
  8
3_03
  6
CONTINUOUS
 62
2
 10
175.3177
 20
380.6800
 11
175.3171
 21
380.6807
  0
LINE
  8
3_03
  6
CONTINUOUS
 62
2
 10
175.3171
 20
380.6807
 11
174.4960
 21
379.8304
  0
LINE
  8
3_03
  6
CONTINUOUS
 62
2
 10
176.7758
 20
381.0111
 11
176.9029
 21
380.6800
  0
LINE
  8
3_03
  6
CONTINUOUS
 62
2
 10
176.7758
 20
381.0111
 11
176.9028
 21
381.3417
  0
LINE
  8
3_03
  6
CONTINUOUS
 62
2
 10
176.9029
 20
380.6800
 11
177.7241
 21
379.8297
  0
LINE
  8
3_03
  6
CONTINUOUS
 62
2
 10
176.9029
 20
381.3421
 11
176.9036
 21
381.3414
  0
LINE
  8
3_03
  6
CONTINUOUS
 62
2
 10
176.9036
 20
381.3414
 11
177.7246
 21
382.1917
  0
LINE
  8
3_03
  6
CONTINUOUS
 62
2
 10
176.1103
 20
380.3456
 11
176.4413
 21
380.2185
  0
LINE
  8
3_03
  6
CONTINUOUS
 62
2
 10
176.1103
 20
380.3456
 11
175.7797
 21
380.2186
  0
LINE
  8
3_03
  6
CONTINUOUS
 62
2
 10
176.4413
 20
380.2185
 11
177.2917
 21
379.3973
  0
LINE
  8
3_03
  6
CONTINUOUS
 62
2
 10
175.7793
 20
380.2185
 11
175.7799
 21
380.2178
  0
LINE
  8
3_03
  6
CONTINUOUS
 62
2
 10
175.7799
 20
380.2178
 11
174.9292
 21
379.3962
  0
LINE
  8
3_03
  6
CONTINUOUS
 62
2
 10
176.1103
 20
368.6766
 11
175.7793
 21
368.8036
  0
LINE
  8
3_03
  6
CONTINUOUS
 62
2
 10
176.1103
 20
368.6766
 11
176.4410
 21
368.8035
  0
LINE
  8
3_03
  6
CONTINUOUS
 62
2
 10
175.7793
 20
368.8036
 11
174.9289
 21
369.6248
  0
LINE
  8
3_03
  6
CONTINUOUS
 62
2
 10
176.4413
 20
368.8036
 11
176.4407
 21
368.8043
  0
LINE
  8
3_03
  6
CONTINUOUS
 62
2
 10
176.4407
 20
368.8043
 11
177.2910
 21
369.6254
  0
LINE
  8
3_03
  6
CONTINUOUS
 62
2
 10
175.4448
 20
368.0110
 11
175.3177
 21
368.3421
  0
LINE
  8
3_03
  6
CONTINUOUS
 62
2
 10
175.4448
 20
368.0110
 11
175.3179
 21
367.6804
  0
LINE
  8
3_03
  6
CONTINUOUS
 62
2
 10
175.3177
 20
368.3421
 11
174.4961
 21
369.1929
  0
LINE
  8
3_03
  6
CONTINUOUS
 62
2
 10
175.3177
 20
367.6800
 11
175.3171
 21
367.6807
  0
LINE
  8
3_03
  6
CONTINUOUS
 62
2
 10
175.3171
 20
367.6807
 11
174.4960
 21
366.8304
  0
LINE
  8
3_03
  6
CONTINUOUS
 62
2
 10
176.7758
 20
368.0110
 11
176.9029
 21
367.6800
  0
LINE
  8
3_03
  6
CONTINUOUS
 62
2
 10
176.7758
 20
368.0110
 11
176.9028
 21
368.3417
  0
LINE
  8
3_03
  6
CONTINUOUS
 62
2
 10
176.9029
 20
367.6800
 11
177.7241
 21
366.8296
  0
LINE
  8
3_03
  6
CONTINUOUS
 62
2
 10
176.9029
 20
368.3421
 11
176.9036
 21
368.3414
  0
LINE
  8
3_03
  6
CONTINUOUS
 62
2
 10
176.9036
 20
368.3414
 11
177.7246
 21
369.1917
  0
LINE
  8
3_03
  6
CONTINUOUS
 62
2
 10
176.1103
 20
367.3456
 11
176.4413
 21
367.2185
  0
LINE
  8
3_03
  6
CONTINUOUS
 62
2
 10
176.1103
 20
367.3456
 11
175.7797
 21
367.2186
  0
LINE
  8
3_03
  6
CONTINUOUS
 62
2
 10
176.4413
 20
367.2185
 11
177.2917
 21
366.3973
  0
LINE
  8
3_03
  6
CONTINUOUS
 62
2
 10
175.7793
 20
367.2185
 11
175.7799
 21
367.2178
  0
LINE
  8
3_03
  6
CONTINUOUS
 62
2
 10
175.7799
 20
367.2178
 11
174.9292
 21
366.3962
  0
LINE
  8
12_0C
  6
CONTINUOUS
 62
2
 10
198.1103
 20
390.2111
 11
190.1103
 21
390.2111
  0
LINE
  8
12_0C
  6
CONTINUOUS
 62
2
 10
198.1103
 20
390.6111
 11
190.1103
 21
390.6111
  0
LINE
  8
12_0C
  6
CONTINUOUS
 62
2
 10
190.1103
 20
390.2111
 11
190.1103
 21
390.6111
  0
LINE
  8
12_0C
  6
CONTINUOUS
 62
2
 10
198.1103
 20
390.2111
 11
198.1103
 21
390.6111
  0
LINE
  8
12_0C
  6
CONTINUOUS
 62
2
 10
154.1103
 20
390.2111
 11
162.1103
 21
390.2111
  0
LINE
  8
12_0C
  6
CONTINUOUS
 62
2
 10
154.1103
 20
390.6111
 11
162.1103
 21
390.6111
  0
LINE
  8
12_0C
  6
CONTINUOUS
 62
2
 10
162.1103
 20
390.2111
 11
162.1103
 21
390.6111
  0
LINE
  8
12_0C
  6
CONTINUOUS
 62
2
 10
154.1103
 20
390.2111
 11
154.1103
 21
390.6111
  0
LINE
  8
0_00
  6
CONTINUOUS
 62
4
 10
196.4103
 20
225.2111
 11
155.8103
 21
225.2111
  0
LINE
  8
12_0C
  6
CONTINUOUS
 62
2
 10
154.1103
 20
260.2111
 11
162.1103
 21
260.2111
  0
LINE
  8
12_0C
  6
CONTINUOUS
 62
2
 10
154.1103
 20
260.6110
 11
162.1103
 21
260.6110
  0
LINE
  8
12_0C
  6
CONTINUOUS
 62
2
 10
162.1103
 20
260.2111
 11
162.1103
 21
260.6110
  0
LINE
  8
12_0C
  6
CONTINUOUS
 62
2
 10
154.1103
 20
260.2111
 11
154.1103
 21
260.6110
  0
LINE
  8
12_0C
  6
CONTINUOUS
 62
2
 10
198.1103
 20
260.2111
 11
190.1103
 21
260.2111
  0
LINE
  8
12_0C
  6
CONTINUOUS
 62
2
 10
198.1103
 20
260.6110
 11
190.1103
 21
260.6110
  0
LINE
  8
12_0C
  6
CONTINUOUS
 62
2
 10
190.1103
 20
260.2111
 11
190.1103
 21
260.6110
  0
LINE
  8
12_0C
  6
CONTINUOUS
 62
2
 10
198.1103
 20
260.2111
 11
198.1103
 21
260.6110
  0
LINE
  8
0_00
  6
CENTER1
 62
6
 10
816.9485
 20
609.5747
 11
816.9485
 21
197.0125
  0
LINE
  8
0_00
  6
CONTINUOUS
 62
4
 10
793.2484
 20
222.8630
 11
840.6485
 21
222.8630
  0
LINE
  8
0_00
  6
CONTINUOUS
 62
4
 10
836.9485
 20
579.1111
 11
836.9485
 21
222.8630
  0
LINE
  8
0_00
  6
CONTINUOUS
 62
4
 10
796.9484
 20
579.1111
 11
796.9484
 21
222.8630
  0
LINE
  8
0_00
  6
CONTINUOUS
 62
4
 10
888.9021
 20
568.8166
 11
836.9485
 21
516.8631
  0
LINE
  8
0_00
  6
CONTINUOUS
 62
4
 10
796.9484
 20
476.8630
 11
668.1942
 21
348.1088
  0
LINE
  8
0_00
  6
CONTINUOUS
 62
4
 10
843.9214
 20
573.3335
 11
836.9485
 21
566.3605
  0
LINE
  8
0_00
  6
CONTINUOUS
 62
4
 10
796.9484
 20
526.3606
 11
668.1942
 21
397.6063
  0
LINE
  8
0_00
  6
CONTINUOUS
 62
4
 10
796.4485
 20
346.8631
 11
796.4485
 21
222.8630
  0
LINE
  8
0_00
  6
CONTINUOUS
 62
4
 10
837.4485
 20
222.8630
 11
837.4485
 21
346.8631
  0
LINE
  8
0_00
  6
CONTINUOUS
 62
4
 10
793.2484
 20
346.8631
 11
796.9484
 21
346.8631
  0
LINE
  8
0_00
  6
CONTINUOUS
 62
4
 10
836.9485
 20
346.8631
 11
840.6485
 21
346.8631
  0
LINE
  8
0_00
  6
CONTINUOUS
 62
4
 10
840.6485
 20
346.8631
 11
840.6485
 21
222.8630
  0
LINE
  8
0_00
  6
CONTINUOUS
 62
4
 10
793.2484
 20
346.8631
 11
793.2484
 21
222.8630
  0
LINE
  8
0_00
  6
CONTINUOUS
 62
4
 10
796.6985
 20
221.3631
 11
837.1985
 21
221.3631
  0
LINE
  8
0_00
  6
CONTINUOUS
 62
4
 10
837.1985
 20
222.8630
 11
837.1985
 21
221.3631
  0
LINE
  8
0_00
  6
CONTINUOUS
 62
4
 10
796.6985
 20
222.8630
 11
796.6985
 21
221.3631
  0
LINE
  8
0_00
  6
CONTINUOUS
 62
2
 10
813.7484
 20
221.3631
 11
820.1484
 21
221.3631
  0
LINE
  8
0_00
  6
CONTINUOUS
 62
2
 10
814.6485
 20
220.4631
 11
819.2484
 21
220.4631
  0
LINE
  8
0_00
  6
CENTER1
 62
6
 10
778.8396
 20
247.3631
 11
853.5586
 21
247.3631
  0
LINE
  8
0_00
  6
CENTER1
 62
6
 10
778.8396
 20
322.3631
 11
853.5586
 21
322.3631
  0
LINE
  8
0_00
  6
DASHED
 62
2
 10
833.6984
 20
336.8630
 11
833.6984
 21
226.0631
  0
LINE
  8
0_00
  6
CONTINUOUS
 62
4
 10
842.6484
 20
314.8630
 11
847.4557
 21
314.8630
  0
LINE
  8
0_00
  6
CONTINUOUS
 62
4
 10
842.6484
 20
318.6158
 11
847.4557
 21
318.6158
  0
LINE
  8
0_00
  6
CONTINUOUS
 62
4
 10
848.1485
 20
316.7394
 11
848.1485
 21
327.9867
  0
LINE
  8
0_00
  6
CONTINUOUS
 62
4
 10
842.6484
 20
329.8631
 11
847.4557
 21
329.8631
  0
LINE
  8
0_00
  6
CONTINUOUS
 62
4
 10
842.6484
 20
326.1103
 11
847.4557
 21
326.1103
  0
LINE
  8
0_00
  6
CONTINUOUS
 62
4
 10
842.6484
 20
330.0630
 11
840.6485
 21
330.0630
  0
LINE
  8
0_00
  6
CONTINUOUS
 62
4
 10
840.6485
 20
330.0630
 11
840.6485
 21
314.6631
  0
LINE
  8
0_00
  6
CONTINUOUS
 62
4
 10
840.6485
 20
314.6631
 11
842.6484
 21
314.6631
  0
LINE
  8
0_00
  6
CONTINUOUS
 62
4
 10
842.6484
 20
314.6631
 11
842.6484
 21
330.0630
  0
LINE
  8
0_00
  6
CONTINUOUS
 62
4
 10
842.6484
 20
319.7964
 11
840.6485
 21
324.9297
  0
LINE
  8
0_00
  6
DASHED
 62
2
 10
840.6485
 20
318.3631
 11
823.8484
 21
318.3631
  0
LINE
  8
0_00
  6
DASHED
 62
2
 10
840.6485
 20
318.9881
 11
823.2234
 21
318.9881
  0
LINE
  8
0_00
  6
DASHED
 62
2
 10
823.8484
 20
318.3631
 11
823.8484
 21
326.3630
  0
LINE
  8
0_00
  6
DASHED
 62
2
 10
840.6485
 20
318.3631
 11
840.6485
 21
326.3630
  0
LINE
  8
0_00
  6
DASHED
 62
2
 10
840.6485
 20
326.3630
 11
823.8484
 21
326.3630
  0
LINE
  8
0_00
  6
DASHED
 62
2
 10
840.6485
 20
325.7381
 11
823.2234
 21
325.7381
  0
LINE
  8
0_00
  6
DASHED
 62
2
 10
822.6485
 20
319.5630
 11
822.6485
 21
325.1631
  0
LINE
  8
0_00
  6
DASHED
 62
2
 10
823.8484
 20
318.3631
 11
822.6485
 21
319.5630
  0
LINE
  8
0_00
  6
DASHED
 62
2
 10
823.8484
 20
326.3630
 11
822.6485
 21
325.1631
  0
LINE
  8
0_00
  6
DASHED
 62
2
 10
831.3984
 20
336.8630
 11
833.6984
 21
336.8630
  0
LINE
  8
0_00
  6
CONTINUOUS
 62
4
 10
842.6484
 20
239.8631
 11
847.4557
 21
239.8631
  0
LINE
  8
0_00
  6
CONTINUOUS
 62
4
 10
842.6484
 20
243.6158
 11
847.4557
 21
243.6158
  0
LINE
  8
0_00
  6
CONTINUOUS
 62
4
 10
848.1485
 20
241.7394
 11
848.1485
 21
252.9867
  0
LINE
  8
0_00
  6
CONTINUOUS
 62
4
 10
842.6484
 20
254.8630
 11
847.4557
 21
254.8630
  0
LINE
  8
0_00
  6
CONTINUOUS
 62
4
 10
842.6484
 20
251.1103
 11
847.4557
 21
251.1103
  0
LINE
  8
0_00
  6
CONTINUOUS
 62
4
 10
842.6484
 20
255.0631
 11
840.6485
 21
255.0631
  0
LINE
  8
0_00
  6
CONTINUOUS
 62
4
 10
840.6485
 20
255.0631
 11
840.6485
 21
239.6631
  0
LINE
  8
0_00
  6
CONTINUOUS
 62
4
 10
840.6485
 20
239.6631
 11
842.6484
 21
239.6631
  0
LINE
  8
0_00
  6
CONTINUOUS
 62
4
 10
842.6484
 20
239.6631
 11
842.6484
 21
255.0631
  0
LINE
  8
0_00
  6
CONTINUOUS
 62
4
 10
842.6484
 20
244.7964
 11
840.6485
 21
249.9297
  0
LINE
  8
0_00
  6
DASHED
 62
2
 10
840.6485
 20
243.3631
 11
823.8484
 21
243.3631
  0
LINE
  8
0_00
  6
DASHED
 62
2
 10
840.6485
 20
243.9880
 11
823.2234
 21
243.9880
  0
LINE
  8
0_00
  6
DASHED
 62
2
 10
823.8484
 20
243.3631
 11
823.8484
 21
251.3630
  0
LINE
  8
0_00
  6
DASHED
 62
2
 10
840.6485
 20
243.3631
 11
840.6485
 21
251.3630
  0
LINE
  8
0_00
  6
DASHED
 62
2
 10
840.6485
 20
251.3630
 11
823.8484
 21
251.3630
  0
LINE
  8
0_00
  6
DASHED
 62
2
 10
840.6485
 20
250.7381
 11
823.2234
 21
250.7381
  0
LINE
  8
0_00
  6
DASHED
 62
2
 10
822.6485
 20
244.5631
 11
822.6485
 21
250.1630
  0
LINE
  8
0_00
  6
DASHED
 62
2
 10
823.8484
 20
243.3631
 11
822.6485
 21
244.5631
  0
LINE
  8
0_00
  6
DASHED
 62
2
 10
823.8484
 20
251.3630
 11
822.6485
 21
250.1630
  0
LINE
  8
0_00
  6
CONTINUOUS
 62
4
 10
791.2484
 20
314.8630
 11
786.4413
 21
314.8630
  0
LINE
  8
0_00
  6
CONTINUOUS
 62
4
 10
791.2484
 20
318.6158
 11
786.4413
 21
318.6158
  0
LINE
  8
0_00
  6
CONTINUOUS
 62
4
 10
785.7484
 20
316.7394
 11
785.7484
 21
327.9867
  0
LINE
  8
0_00
  6
CONTINUOUS
 62
4
 10
791.2484
 20
329.8631
 11
786.4413
 21
329.8631
  0
LINE
  8
0_00
  6
CONTINUOUS
 62
4
 10
791.2484
 20
326.1103
 11
786.4413
 21
326.1103
  0
LINE
  8
0_00
  6
CONTINUOUS
 62
4
 10
791.2484
 20
330.0630
 11
793.2484
 21
330.0630
  0
LINE
  8
0_00
  6
CONTINUOUS
 62
4
 10
793.2484
 20
330.0630
 11
793.2484
 21
314.6631
  0
LINE
  8
0_00
  6
CONTINUOUS
 62
4
 10
793.2484
 20
314.6631
 11
791.2484
 21
314.6631
  0
LINE
  8
0_00
  6
CONTINUOUS
 62
4
 10
791.2484
 20
314.6631
 11
791.2484
 21
330.0630
  0
LINE
  8
0_00
  6
CONTINUOUS
 62
4
 10
791.2484
 20
319.7964
 11
793.2484
 21
324.9297
  0
LINE
  8
0_00
  6
DASHED
 62
2
 10
793.2484
 20
318.3631
 11
810.0484
 21
318.3631
  0
LINE
  8
0_00
  6
DASHED
 62
2
 10
793.2484
 20
318.9881
 11
810.6735
 21
318.9881
  0
LINE
  8
0_00
  6
DASHED
 62
2
 10
810.0484
 20
318.3631
 11
810.0484
 21
326.3630
  0
LINE
  8
0_00
  6
DASHED
 62
2
 10
793.2484
 20
318.3631
 11
793.2484
 21
326.3630
  0
LINE
  8
0_00
  6
DASHED
 62
2
 10
793.2484
 20
326.3630
 11
810.0484
 21
326.3630
  0
LINE
  8
0_00
  6
DASHED
 62
2
 10
793.2484
 20
325.7381
 11
810.6735
 21
325.7381
  0
LINE
  8
0_00
  6
DASHED
 62
2
 10
811.2484
 20
319.5630
 11
811.2484
 21
325.1631
  0
LINE
  8
0_00
  6
DASHED
 62
2
 10
810.0484
 20
318.3631
 11
811.2484
 21
319.5630
  0
LINE
  8
0_00
  6
DASHED
 62
2
 10
810.0484
 20
326.3630
 11
811.2484
 21
325.1631
  0
LINE
  8
0_00
  6
CONTINUOUS
 62
4
 10
791.2484
 20
239.8631
 11
786.4413
 21
239.8631
  0
LINE
  8
0_00
  6
CONTINUOUS
 62
4
 10
791.2484
 20
243.6158
 11
786.4413
 21
243.6158
  0
LINE
  8
0_00
  6
CONTINUOUS
 62
4
 10
785.7484
 20
241.7394
 11
785.7484
 21
252.9867
  0
LINE
  8
0_00
  6
CONTINUOUS
 62
4
 10
791.2484
 20
254.8630
 11
786.4413
 21
254.8630
  0
LINE
  8
0_00
  6
CONTINUOUS
 62
4
 10
791.2484
 20
251.1103
 11
786.4413
 21
251.1103
  0
LINE
  8
0_00
  6
CONTINUOUS
 62
4
 10
791.2484
 20
255.0631
 11
793.2484
 21
255.0631
  0
LINE
  8
0_00
  6
CONTINUOUS
 62
4
 10
793.2484
 20
255.0631
 11
793.2484
 21
239.6631
  0
LINE
  8
0_00
  6
CONTINUOUS
 62
4
 10
793.2484
 20
239.6631
 11
791.2484
 21
239.6631
  0
LINE
  8
0_00
  6
CONTINUOUS
 62
4
 10
791.2484
 20
239.6631
 11
791.2484
 21
255.0631
  0
LINE
  8
0_00
  6
CONTINUOUS
 62
4
 10
791.2484
 20
244.7964
 11
793.2484
 21
249.9297
  0
LINE
  8
0_00
  6
DASHED
 62
2
 10
793.2484
 20
243.3631
 11
810.0484
 21
243.3631
  0
LINE
  8
0_00
  6
DASHED
 62
2
 10
793.2484
 20
243.9880
 11
810.6735
 21
243.9880
  0
LINE
  8
0_00
  6
DASHED
 62
2
 10
810.0484
 20
243.3631
 11
810.0484
 21
251.3630
  0
LINE
  8
0_00
  6
DASHED
 62
2
 10
793.2484
 20
243.3631
 11
793.2484
 21
251.3630
  0
LINE
  8
0_00
  6
DASHED
 62
2
 10
793.2484
 20
251.3630
 11
810.0484
 21
251.3630
  0
LINE
  8
0_00
  6
DASHED
 62
2
 10
793.2484
 20
250.7381
 11
810.6735
 21
250.7381
  0
LINE
  8
0_00
  6
DASHED
 62
2
 10
811.2484
 20
244.5631
 11
811.2484
 21
250.1630
  0
LINE
  8
0_00
  6
DASHED
 62
2
 10
810.0484
 20
243.3631
 11
811.2484
 21
244.5631
  0
LINE
  8
0_00
  6
DASHED
 62
2
 10
810.0484
 20
251.3630
 11
811.2484
 21
250.1630
  0
LINE
  8
0_00
  6
CONTINUOUS
 62
4
 10
836.9485
 20
416.8631
 11
915.2981
 21
495.2127
  0
LINE
  8
0_00
  6
CONTINUOUS
 62
4
 10
668.1942
 20
248.1088
 11
796.9484
 21
376.8631
  0
LINE
  8
0_00
  6
DASHED
 62
2
 10
796.9484
 20
376.8631
 11
836.9485
 21
416.8631
  0
LINE
  8
0_00
  6
CONTINUOUS
 62
4
 10
731.9485
 20
461.3605
 11
731.9485
 21
579.1111
  0
LINE
  8
0_00
  6
CONTINUOUS
 62
4
 10
711.9484
 20
441.3605
 11
711.9484
 21
579.1111
  0
LINE
  8
0_00
  6
CONTINUOUS
 62
4
 10
1048.3115
 20
346.8631
 11
1110.3115
 21
346.8631
  0
LINE
  8
0_00
  6
CONTINUOUS
 62
4
 10
1110.3115
 20
170.5393
 11
1110.3115
 21
531.6454
  0
LINE
  8
0_00
  6
CONTINUOUS
 62
4
 10
1120.3115
 20
531.6454
 11
1120.3115
 21
170.5393
  0
LINE
  8
0_00
  6
CONTINUOUS
 62
4
 10
1120.3115
 20
267.4875
 11
1199.1072
 21
267.4875
  0
LINE
  8
0_00
  6
CONTINUOUS
 62
4
 10
1120.3115
 20
487.4875
 11
1199.1072
 21
487.4875
  0
LINE
  8
0_00
  6
CONTINUOUS
 62
4
 10
1110.3115
 20
222.8630
 11
1048.3115
 21
222.8630
  0
LINE
  8
0_00
  6
CONTINUOUS
 62
4
 10
1048.3115
 20
346.8631
 11
1048.3115
 21
222.8630
  0
LINE
  8
0_00
  6
CENTER1
 62
6
 10
1061.9767
 20
321.3631
 11
1086.3388
 21
321.3631
  0
LINE
  8
12_0C
  6
CONTINUOUS
 62
4
 10
1076.0044
 20
324.6857
 11
1077.1341
 21
323.5559
  0
LINE
  8
12_0C
  6
CONTINUOUS
 62
4
 10
1071.6187
 20
324.6857
 11
1070.4889
 21
323.5559
  0
LINE
  8
12_0C
  6
CONTINUOUS
 62
4
 10
1072.7401
 20
323.6027
 11
1071.6187
 21
324.6857
  0
LINE
  8
12_0C
  6
CONTINUOUS
 62
4
 10
1074.8829
 20
323.6027
 11
1076.0044
 21
324.6857
  0
LINE
  8
12_0C
  6
CONTINUOUS
 62
4
 10
1073.8115
 20
323.2752
 11
1072.7401
 21
323.6027
  0
LINE
  8
12_0C
  6
CONTINUOUS
 62
4
 10
1073.8115
 20
323.2752
 11
1074.8829
 21
323.6027
  0
LINE
  8
12_0C
  6
CONTINUOUS
 62
4
 10
1071.5717
 20
320.2916
 11
1070.4889
 21
319.1702
  0
LINE
  8
12_0C
  6
CONTINUOUS
 62
4
 10
1071.5717
 20
322.4345
 11
1070.4889
 21
323.5559
  0
LINE
  8
12_0C
  6
CONTINUOUS
 62
4
 10
1071.8994
 20
321.3631
 11
1071.5717
 21
320.2916
  0
LINE
  8
12_0C
  6
CONTINUOUS
 62
4
 10
1071.8994
 20
321.3631
 11
1071.5717
 21
322.4345
  0
LINE
  8
12_0C
  6
CONTINUOUS
 62
4
 10
1070.4889
 20
319.1702
 11
1071.6187
 21
318.0405
  0
LINE
  8
12_0C
  6
CONTINUOUS
 62
4
 10
1077.1341
 20
319.1702
 11
1076.0044
 21
318.0405
  0
LINE
  8
12_0C
  6
CONTINUOUS
 62
4
 10
1076.0513
 20
320.2916
 11
1077.1341
 21
319.1702
  0
LINE
  8
12_0C
  6
CONTINUOUS
 62
4
 10
1076.0513
 20
322.4345
 11
1077.1341
 21
323.5559
  0
LINE
  8
12_0C
  6
CONTINUOUS
 62
4
 10
1075.7237
 20
321.3631
 11
1076.0513
 21
320.2916
  0
LINE
  8
12_0C
  6
CONTINUOUS
 62
4
 10
1075.7237
 20
321.3631
 11
1076.0513
 21
322.4345
  0
LINE
  8
12_0C
  6
CONTINUOUS
 62
4
 10
1072.7401
 20
319.1234
 11
1071.6187
 21
318.0405
  0
LINE
  8
12_0C
  6
CONTINUOUS
 62
4
 10
1074.8829
 20
319.1234
 11
1076.0044
 21
318.0405
  0
LINE
  8
12_0C
  6
CONTINUOUS
 62
4
 10
1073.8115
 20
319.4510
 11
1072.7401
 21
319.1234
  0
LINE
  8
12_0C
  6
CONTINUOUS
 62
4
 10
1073.8115
 20
319.4510
 11
1074.8829
 21
319.1234
  0
LINE
  8
0_00
  6
CONTINUOUS
 62
4
 10
1078.3115
 20
332.3631
 11
1078.3115
 21
327.6113
  0
LINE
  8
0_00
  6
CONTINUOUS
 62
4
 10
1078.3115
 20
316.1149
 11
1078.3115
 21
315.1149
  0
LINE
  8
0_00
  6
CONTINUOUS
 62
4
 10
1069.3116
 20
312.3630
 11
1069.3116
 21
315.1149
  0
LINE
  8
0_00
  6
CONTINUOUS
 62
4
 10
1069.3116
 20
327.6113
 11
1069.3116
 21
332.3631
  0
LINE
  8
0_00
  6
CENTER1
 62
6
 10
1061.9767
 20
246.3631
 11
1086.3388
 21
246.3631
  0
LINE
  8
12_0C
  6
CONTINUOUS
 62
4
 10
1076.0044
 20
243.0405
 11
1077.1341
 21
244.1702
  0
LINE
  8
12_0C
  6
CONTINUOUS
 62
4
 10
1071.6187
 20
243.0405
 11
1070.4889
 21
244.1702
  0
LINE
  8
12_0C
  6
CONTINUOUS
 62
4
 10
1072.7401
 20
244.1234
 11
1071.6187
 21
243.0405
  0
LINE
  8
12_0C
  6
CONTINUOUS
 62
4
 10
1074.8829
 20
244.1234
 11
1076.0044
 21
243.0405
  0
LINE
  8
12_0C
  6
CONTINUOUS
 62
4
 10
1073.8115
 20
244.4510
 11
1072.7401
 21
244.1234
  0
LINE
  8
12_0C
  6
CONTINUOUS
 62
4
 10
1073.8115
 20
244.4510
 11
1074.8829
 21
244.1234
  0
LINE
  8
12_0C
  6
CONTINUOUS
 62
4
 10
1071.5717
 20
247.4345
 11
1070.4889
 21
248.5559
  0
LINE
  8
12_0C
  6
CONTINUOUS
 62
4
 10
1071.5717
 20
245.2916
 11
1070.4889
 21
244.1702
  0
LINE
  8
12_0C
  6
CONTINUOUS
 62
4
 10
1071.8994
 20
246.3631
 11
1071.5717
 21
247.4345
  0
LINE
  8
12_0C
  6
CONTINUOUS
 62
4
 10
1071.8994
 20
246.3631
 11
1071.5717
 21
245.2916
  0
LINE
  8
12_0C
  6
CONTINUOUS
 62
4
 10
1070.4889
 20
248.5559
 11
1071.6187
 21
249.6856
  0
LINE
  8
12_0C
  6
CONTINUOUS
 62
4
 10
1077.1341
 20
248.5559
 11
1076.0044
 21
249.6856
  0
LINE
  8
12_0C
  6
CONTINUOUS
 62
4
 10
1076.0513
 20
247.4345
 11
1077.1341
 21
248.5559
  0
LINE
  8
12_0C
  6
CONTINUOUS
 62
4
 10
1076.0513
 20
245.2916
 11
1077.1341
 21
244.1702
  0
LINE
  8
12_0C
  6
CONTINUOUS
 62
4
 10
1075.7237
 20
246.3631
 11
1076.0513
 21
247.4345
  0
LINE
  8
12_0C
  6
CONTINUOUS
 62
4
 10
1075.7237
 20
246.3631
 11
1076.0513
 21
245.2916
  0
LINE
  8
12_0C
  6
CONTINUOUS
 62
4
 10
1072.7401
 20
248.6027
 11
1071.6187
 21
249.6856
  0
LINE
  8
12_0C
  6
CONTINUOUS
 62
4
 10
1074.8829
 20
248.6027
 11
1076.0044
 21
249.6856
  0
LINE
  8
12_0C
  6
CONTINUOUS
 62
4
 10
1073.8115
 20
248.2752
 11
1072.7401
 21
248.6027
  0
LINE
  8
12_0C
  6
CONTINUOUS
 62
4
 10
1073.8115
 20
248.2752
 11
1074.8829
 21
248.6027
  0
LINE
  8
0_00
  6
CONTINUOUS
 62
4
 10
1078.3115
 20
237.3631
 11
1078.3115
 21
240.1149
  0
LINE
  8
0_00
  6
CONTINUOUS
 62
4
 10
1078.3115
 20
252.6113
 11
1078.3115
 21
257.3630
  0
LINE
  8
0_00
  6
CONTINUOUS
 62
4
 10
1069.3116
 20
257.3630
 11
1069.3116
 21
252.6113
  0
LINE
  8
0_00
  6
CONTINUOUS
 62
4
 10
1069.3116
 20
240.1149
 11
1069.3116
 21
237.3631
  0
LINE
  8
0_00
  6
CONTINUOUS
 62
4
 10
1048.8116
 20
346.8631
 11
1048.8116
 21
579.1111
  0
LINE
  8
0_00
  6
CONTINUOUS
 62
4
 10
1098.8115
 20
346.8631
 11
1098.8115
 21
579.1111
  0
LINE
  8
0_00
  6
CONTINUOUS
 62
4
 10
1048.5615
 20
222.8630
 11
1048.5615
 21
221.3631
  0
LINE
  8
0_00
  6
CONTINUOUS
 62
4
 10
1099.0615
 20
222.8630
 11
1099.0615
 21
221.3631
  0
LINE
  8
0_00
  6
CONTINUOUS
 62
4
 10
1048.5615
 20
221.3631
 11
1099.0615
 21
221.3631
  0
LINE
  8
0_00
  6
CONTINUOUS
 62
2
 10
1070.6115
 20
221.3631
 11
1077.0114
 21
221.3631
  0
LINE
  8
0_00
  6
CONTINUOUS
 62
2
 10
1071.5115
 20
220.4631
 11
1076.1116
 21
220.4631
  0
LINE
  8
0_00
  6
DASHED
 62
2
 10
1059.8115
 20
336.8630
 11
1059.8115
 21
222.8630
  0
LINE
  8
0_00
  6
DASHED
 62
2
 10
1087.8115
 20
222.8630
 11
1087.8115
 21
336.8630
  0
LINE
  8
0_00
  6
DASHED
 62
2
 10
1059.8115
 20
336.8630
 11
1087.8115
 21
336.8630
  0
LINE
  8
15_0F
  6
CONTINUOUS
 62
6
 10
1048.8116
 20
410.1945
 11
1098.8115
 21
410.1945
  0
LINE
  8
15_0F
  6
CONTINUOUS
 62
6
 10
1048.8116
 20
410.1945
 11
1056.1476
 21
408.6351
  0
LINE
  8
15_0F
  6
CONTINUOUS
 62
6
 10
1048.8116
 20
410.1945
 11
1056.1476
 21
411.7538
  0
LINE
  8
15_0F
  6
CONTINUOUS
 62
6
 10
1098.8115
 20
410.1945
 11
1091.4754
 21
411.7538
  0
LINE
  8
15_0F
  6
CONTINUOUS
 62
6
 10
1098.8115
 20
410.1945
 11
1091.4754
 21
408.6351
  0
LINE
  8
15_0F
  6
CONTINUOUS
 62
6
 10
1098.8115
 20
410.1945
 11
1110.3115
 21
410.1945
  0
LINE
  8
15_0F
  6
CONTINUOUS
 62
6
 10
1136.2248
 20
410.1945
 11
1110.3115
 21
410.1945
  0
LINE
  8
15_0F
  6
CONTINUOUS
 62
6
 10
1110.3115
 20
410.1945
 11
1117.6476
 21
408.6351
  0
LINE
  8
15_0F
  6
CONTINUOUS
 62
6
 10
1110.3115
 20
410.1945
 11
1117.6476
 21
411.7538
  0
LINE
  8
0_00
  6
CENTER1
 62
6
 10
1073.8115
 20
609.5747
 11
1073.8115
 21
425.7950
  0
LINE
  8
0_00
  6
CENTER1
 62
6
 10
1073.8115
 20
404.1552
 11
1073.8115
 21
197.0125
  0
LINE
  8
0_00
  6
PHANTOM1
 62
2
 10
796.9484
 20
476.8630
 11
836.9485
 21
516.8631
  0
LINE
  8
0_00
  6
CONTINUOUS
 62
6
 10
1104.3604
 20
313.2016
 11
1127.8667
 21
353.9156
  0
LINE
  8
0_00
  6
CONTINUOUS
 62
6
 10
1104.3604
 20
313.2016
 11
1109.3790
 21
318.7752
  0
LINE
  8
0_00
  6
CONTINUOUS
 62
6
 10
1104.3604
 20
313.2016
 11
1106.6782
 21
320.3345
  0
LINE
  8
0_00
  6
CONTINUOUS
 62
6
 10
1127.8667
 20
353.9156
 11
1210.9030
 21
353.9156
  0
LINE
  8
0_00
  6
CONTINUOUS
 62
6
 10
1110.3115
 20
262.0248
 11
1131.6446
 21
298.9750
  0
LINE
  8
0_00
  6
CONTINUOUS
 62
6
 10
1110.3115
 20
262.0248
 11
1115.3299
 21
267.5984
  0
LINE
  8
0_00
  6
CONTINUOUS
 62
6
 10
1110.3115
 20
262.0248
 11
1112.6291
 21
269.1577
  0
LINE
  8
0_00
  6
CONTINUOUS
 62
6
 10
1131.6446
 20
298.9750
 11
1198.2447
 21
298.9750
  0
LINE
  8
0_00
  6
CONTINUOUS
 62
6
 10
1071.0304
 20
323.9952
 11
1039.0265
 21
379.4275
  0
LINE
  8
0_00
  6
CONTINUOUS
 62
6
 10
1071.0304
 20
323.9952
 11
1068.7128
 21
331.1281
  0
LINE
  8
0_00
  6
CONTINUOUS
 62
6
 10
1071.0304
 20
323.9952
 11
1066.0119
 21
329.5688
  0
LINE
  8
0_00
  6
CONTINUOUS
 62
6
 10
1039.0265
 20
379.4275
 11
965.2264
 21
379.4275
  0
LINE
  8
0_00
  6
CONTINUOUS
 62
6
 10
1052.9898
 20
355.3180
 11
1008.9633
 21
355.3180
  0
LINE
  8
0_00
  6
CONTINUOUS
 62
6
 10
834.2768
 20
271.0211
 11
851.6706
 21
301.1480
  0
LINE
  8
0_00
  6
CONTINUOUS
 62
6
 10
834.2768
 20
271.0211
 11
839.2952
 21
276.5946
  0
LINE
  8
0_00
  6
CONTINUOUS
 62
6
 10
834.2768
 20
271.0211
 11
836.5944
 21
278.1540
  0
LINE
  8
0_00
  6
CONTINUOUS
 62
6
 10
851.6706
 20
301.1480
 11
903.8706
 21
301.1480
  0
LINE
  8
0_00
  6
CONTINUOUS
 62
4
 10
958.3675
 20
698.9533
 11
1187.8677
 21
698.9533
  0
LINE
  8
0_00
  6
CONTINUOUS
 62
4
 10
958.3675
 20
698.9533
 11
958.3675
 21
630.6096
  0
LINE
  8
0_00
  6
CONTINUOUS
 62
4
 10
1187.8677
 20
698.9533
 11
1187.8677
 21
630.6096
  0
LINE
  8
0_00
  6
CONTINUOUS
 62
4
 10
1187.8677
 20
676.1721
 11
958.3675
 21
676.1721
  0
LINE
  8
0_00
  6
CONTINUOUS
 62
4
 10
1187.8677
 20
653.3908
 11
958.3675
 21
653.3908
  0
LINE
  8
0_00
  6
CONTINUOUS
 62
4
 10
1034.3050
 20
698.9533
 11
1034.3050
 21
630.6096
  0
LINE
  8
0_00
  6
CONTINUOUS
 62
2
 10
1034.3050
 20
676.1721
 11
958.3675
 21
698.9533
  0
LINE
  8
0_00
  6
CONTINUOUS
 62
4
 10
967.9154
 20
704.5414
 11
997.7535
 21
704.5414
  0
LINE
  8
0_00
  6
CONTINUOUS
 62
4
 10
1187.8677
 20
630.6096
 11
958.3675
 21
630.6096
  0
LINE
  8
0_00
  6
CONTINUOUS
 62
4
 10
1111.0864
 20
698.9533
 11
1111.0864
 21
630.6096
  0
LINE
  8
0_00
  6
DASHED
 62
2
 10
831.3984
 20
314.8630
 11
825.6201
 21
314.8630
  0
LINE
  8
0_00
  6
DASHED
 62
2
 10
831.3984
 20
318.6158
 11
825.6201
 21
318.6158
  0
LINE
  8
0_00
  6
DASHED
 62
2
 10
831.3984
 20
314.8630
 11
831.3984
 21
329.8631
  0
LINE
  8
0_00
  6
DASHED
 62
2
 10
824.8984
 20
316.7394
 11
824.8984
 21
327.9867
  0
LINE
  8
0_00
  6
DASHED
 62
2
 10
831.3984
 20
329.8631
 11
825.6201
 21
329.8631
  0
LINE
  8
0_00
  6
DASHED
 62
2
 10
831.3984
 20
326.1103
 11
825.6201
 21
326.1103
  0
LINE
  8
0_00
  6
DASHED
 62
2
 10
831.3984
 20
239.8631
 11
825.6201
 21
239.8631
  0
LINE
  8
0_00
  6
DASHED
 62
2
 10
831.3984
 20
243.6158
 11
825.6201
 21
243.6158
  0
LINE
  8
0_00
  6
DASHED
 62
2
 10
831.3984
 20
239.8631
 11
831.3984
 21
254.8630
  0
LINE
  8
0_00
  6
DASHED
 62
2
 10
824.8984
 20
241.7394
 11
824.8984
 21
252.9867
  0
LINE
  8
0_00
  6
DASHED
 62
2
 10
831.3984
 20
254.8630
 11
825.6201
 21
254.8630
  0
LINE
  8
0_00
  6
DASHED
 62
2
 10
831.3984
 20
251.1103
 11
825.6201
 21
251.1103
  0
LINE
  8
0_00
  6
DASHED
 62
2
 10
802.4984
 20
314.8630
 11
808.2767
 21
314.8630
  0
LINE
  8
0_00
  6
DASHED
 62
2
 10
802.4984
 20
318.6158
 11
808.2767
 21
318.6158
  0
LINE
  8
0_00
  6
DASHED
 62
2
 10
802.4984
 20
314.8630
 11
802.4984
 21
329.8631
  0
LINE
  8
0_00
  6
DASHED
 62
2
 10
808.9984
 20
316.7394
 11
808.9984
 21
327.9867
  0
LINE
  8
0_00
  6
DASHED
 62
2
 10
802.4984
 20
329.8631
 11
808.2767
 21
329.8631
  0
LINE
  8
0_00
  6
DASHED
 62
2
 10
802.4984
 20
326.1103
 11
808.2767
 21
326.1103
  0
LINE
  8
0_00
  6
DASHED
 62
2
 10
802.4984
 20
239.8631
 11
808.2767
 21
239.8631
  0
LINE
  8
0_00
  6
DASHED
 62
2
 10
802.4984
 20
243.6158
 11
808.2767
 21
243.6158
  0
LINE
  8
0_00
  6
DASHED
 62
2
 10
802.4984
 20
239.8631
 11
802.4984
 21
254.8630
  0
LINE
  8
0_00
  6
DASHED
 62
2
 10
808.9984
 20
241.7394
 11
808.9984
 21
252.9867
  0
LINE
  8
0_00
  6
DASHED
 62
2
 10
802.4984
 20
254.8630
 11
808.2767
 21
254.8630
  0
LINE
  8
0_00
  6
DASHED
 62
2
 10
802.4984
 20
251.1103
 11
808.2767
 21
251.1103
  0
LINE
  8
0_00
  6
CONTINUOUS
 62
4
 10
1081.3115
 20
321.3631
 11
1077.5587
 21
327.8631
  0
LINE
  8
0_00
  6
CONTINUOUS
 62
4
 10
1077.5587
 20
327.8631
 11
1070.0643
 21
327.8631
  0
LINE
  8
0_00
  6
CONTINUOUS
 62
4
 10
1070.0643
 20
327.8631
 11
1066.3116
 21
321.3631
  0
LINE
  8
0_00
  6
CONTINUOUS
 62
4
 10
1066.3116
 20
321.3631
 11
1070.0643
 21
314.8630
  0
LINE
  8
0_00
  6
CONTINUOUS
 62
4
 10
1070.0643
 20
314.8630
 11
1077.5587
 21
314.8630
  0
LINE
  8
0_00
  6
CONTINUOUS
 62
4
 10
1077.5587
 20
314.8630
 11
1081.3115
 21
321.3631
  0
LINE
  8
0_00
  6
CONTINUOUS
 62
4
 10
1081.3115
 20
246.3631
 11
1077.5587
 21
239.8631
  0
LINE
  8
0_00
  6
CONTINUOUS
 62
4
 10
1077.5587
 20
239.8631
 11
1070.0643
 21
239.8631
  0
LINE
  8
0_00
  6
CONTINUOUS
 62
4
 10
1070.0643
 20
239.8631
 11
1066.3116
 21
246.3631
  0
LINE
  8
0_00
  6
CONTINUOUS
 62
4
 10
1066.3116
 20
246.3631
 11
1070.0643
 21
252.8630
  0
LINE
  8
0_00
  6
CONTINUOUS
 62
4
 10
1070.0643
 20
252.8630
 11
1077.5587
 21
252.8630
  0
LINE
  8
0_00
  6
CONTINUOUS
 62
4
 10
1077.5587
 20
252.8630
 11
1081.3115
 21
246.3631
  0
LINE
  8
15_0F
  6
CONTINUOUS
 62
6
 10
823.2473
 20
396.8631
 11
940.9310
 21
396.8631
  0
LINE
  8
15_0F
  6
CONTINUOUS
 62
6
 10
845.1485
 20
221.3631
 11
940.9310
 21
221.3631
  0
LINE
  8
15_0F
  6
CONTINUOUS
 62
6
 10
936.4310
 20
221.3631
 11
936.4310
 21
396.8631
  0
LINE
  8
15_0F
  6
CONTINUOUS
 62
6
 10
936.4310
 20
221.3631
 11
937.9904
 21
228.6992
  0
LINE
  8
15_0F
  6
CONTINUOUS
 62
6
 10
936.4310
 20
221.3631
 11
934.8717
 21
228.6992
  0
LINE
  8
15_0F
  6
CONTINUOUS
 62
6
 10
936.4310
 20
396.8631
 11
934.8717
 21
389.5269
  0
LINE
  8
15_0F
  6
CONTINUOUS
 62
6
 10
936.4310
 20
396.8631
 11
937.9904
 21
389.5269
  0
LINE
  8
15_0F
  6
CONTINUOUS
 62
6
 10
823.2473
 20
496.8631
 11
940.9310
 21
496.8631
  0
LINE
  8
15_0F
  6
CONTINUOUS
 62
6
 10
936.4310
 20
396.8631
 11
936.4310
 21
496.8631
  0
LINE
  8
15_0F
  6
CONTINUOUS
 62
6
 10
936.4310
 20
396.8631
 11
937.9904
 21
404.1991
  0
LINE
  8
15_0F
  6
CONTINUOUS
 62
6
 10
936.4310
 20
396.8631
 11
934.8717
 21
404.1991
  0
LINE
  8
15_0F
  6
CONTINUOUS
 62
6
 10
936.4310
 20
496.8631
 11
934.8717
 21
489.5269
  0
LINE
  8
15_0F
  6
CONTINUOUS
 62
6
 10
936.4310
 20
496.8631
 11
937.9904
 21
489.5269
  0
LINE
  8
15_0F
  6
CONTINUOUS
 62
6
 10
845.1485
 20
346.8631
 11
920.9311
 21
346.8631
  0
LINE
  8
15_0F
  6
CONTINUOUS
 62
6
 10
916.4310
 20
396.8631
 11
916.4310
 21
346.8631
  0
LINE
  8
15_0F
  6
CONTINUOUS
 62
6
 10
916.4310
 20
396.8631
 11
914.8717
 21
389.5269
  0
LINE
  8
15_0F
  6
CONTINUOUS
 62
6
 10
916.4310
 20
396.8631
 11
917.9903
 21
389.5269
  0
LINE
  8
15_0F
  6
CONTINUOUS
 62
6
 10
916.4310
 20
346.8631
 11
917.9903
 21
354.1992
  0
LINE
  8
15_0F
  6
CONTINUOUS
 62
6
 10
916.4310
 20
346.8631
 11
914.8717
 21
354.1992
  0
LINE
  8
15_0F
  6
CONTINUOUS
 62
6
 10
1073.8115
 20
430.1945
 11
1110.3115
 21
430.1945
  0
LINE
  8
15_0F
  6
CONTINUOUS
 62
6
 10
1003.1310
 20
430.1945
 11
1073.8115
 21
430.1945
  0
LINE
  8
15_0F
  6
CONTINUOUS
 62
6
 10
1073.8115
 20
430.1945
 11
1066.4754
 21
431.7538
  0
LINE
  8
15_0F
  6
CONTINUOUS
 62
6
 10
1073.8115
 20
430.1945
 11
1066.4754
 21
428.6351
  0
LINE
  8
15_0F
  6
CONTINUOUS
 62
6
 10
1125.3116
 20
430.1945
 11
1110.3115
 21
430.1945
  0
LINE
  8
15_0F
  6
CONTINUOUS
 62
6
 10
1110.3115
 20
430.1945
 11
1117.6476
 21
428.6351
  0
LINE
  8
15_0F
  6
CONTINUOUS
 62
6
 10
1110.3115
 20
430.1945
 11
1117.6476
 21
431.7538
  0
LINE
  8
0_00
  6
DASHED
 62
2
 10
831.3984
 20
225.1631
 11
802.4984
 21
225.1631
  0
LINE
  8
0_00
  6
DASHED
 62
2
 10
831.3984
 20
336.8630
 11
831.3984
 21
225.1631
  0
LINE
  8
0_00
  6
DASHED
 62
2
 10
800.1985
 20
336.8630
 11
800.1985
 21
226.0631
  0
LINE
  8
0_00
  6
DASHED
 62
2
 10
802.4984
 20
336.8630
 11
802.4984
 21
225.1631
  0
LINE
  8
0_00
  6
DASHED
 62
2
 10
802.4984
 20
336.8630
 11
800.1985
 21
336.8630
  0
LINE
  8
0_00
  6
CONTINUOUS
 62
6
 10
315.0710
 20
599.0831
 11
367.2710
 21
599.0831
  0
LINE
  8
0_00
  6
CONTINUOUS
 62
6
 10
298.1693
 20
628.3578
 11
315.0710
 21
599.0831
  0
LINE
  8
0_00
  6
CONTINUOUS
 62
6
 10
298.1693
 20
628.3578
 11
300.4869
 21
621.2249
  0
LINE
  8
0_00
  6
CONTINUOUS
 62
6
 10
298.1693
 20
628.3578
 11
303.1878
 21
622.7842
  0
LINE
  8
0_00
  6
CONTINUOUS
 62
6
 10
188.1769
 20
225.2111
 11
204.6370
 21
196.7013
  0
LINE
  8
0_00
  6
CONTINUOUS
 62
6
 10
188.1769
 20
225.2111
 11
190.4945
 21
218.0782
  0
LINE
  8
0_00
  6
CONTINUOUS
 62
6
 10
188.1769
 20
225.2111
 11
193.1954
 21
219.6375
  0
LINE
  8
0_00
  6
CONTINUOUS
 62
6
 10
204.6370
 20
196.7013
 11
256.8370
 21
196.7013
  0
LINE
  8
0_00
  6
CONTINUOUS
 62
4
 10
251.1103
 20
175.2111
 11
251.1103
 21
189.0669
  0
LINE
  8
0_00
  6
CONTINUOUS
 62
4
 10
251.1103
 20
213.6665
 11
251.1103
 21
295.2111
  0
LINE
  8
0_00
  6
CONTINUOUS
 62
4
 10
348.3939
 20
335.7064
 11
612.0641
 21
335.7064
  0
LINE
  8
0_00
  6
CENTER1
 62
6
 10
381.4915
 20
527.5196
 11
381.4915
 21
325.9129
  0
LINE
  8
0_00
  6
CONTINUOUS
 62
4
 10
348.3939
 20
413.7064
 11
420.4915
 21
413.7064
  0
LINE
  8
0_00
  6
CONTINUOUS
 62
4
 10
426.4915
 20
407.7064
 11
348.3939
 21
407.7064
  0
LINE
  8
0_00
  6
CONTINUOUS
 62
2
 10
369.4914
 20
416.1064
 11
393.4915
 21
416.1064
  0
LINE
  8
0_00
  6
CONTINUOUS
 62
4
 10
369.4914
 20
416.1064
 11
369.4914
 21
516.1601
  0
LINE
  8
0_00
  6
CONTINUOUS
 62
4
 10
393.4915
 20
416.1064
 11
393.4915
 21
516.1601
  0
LINE
  8
0_00
  6
CONTINUOUS
 62
4
 10
393.4915
 20
443.7064
 11
612.0641
 21
443.7064
  0
LINE
  8
0_00
  6
CONTINUOUS
 62
4
 10
393.4915
 20
464.7064
 11
612.0641
 21
464.7064
  0
LINE
  8
0_00
  6
CONTINUOUS
 62
4
 10
455.5914
 20
386.7064
 11
612.0641
 21
386.7064
  0
LINE
  8
0_00
  6
CONTINUOUS
 62
4
 10
455.5914
 20
365.7064
 11
612.0641
 21
365.7064
  0
LINE
  8
0_00
  6
CONTINUOUS
 62
4
 10
456.4915
 20
386.7064
 11
456.4915
 21
365.7064
  0
LINE
  8
0_00
  6
CONTINUOUS
 62
4
 10
455.5914
 20
386.7064
 11
455.5914
 21
365.7064
  0
LINE
  8
0_00
  6
CENTER1
 62
6
 10
508.3914
 20
527.5196
 11
508.3914
 21
371.6223
  0
LINE
  8
0_00
  6
CENTER1
 62
6
 10
584.5914
 20
527.5196
 11
584.5914
 21
371.6223
  0
LINE
  8
0_00
  6
CONTINUOUS
 62
4
 10
426.1915
 20
516.1601
 11
426.1915
 21
464.7064
  0
LINE
  8
0_00
  6
CONTINUOUS
 62
4
 10
438.1915
 20
516.1601
 11
438.1915
 21
464.7064
  0
LINE
  8
0_00
  6
CONTINUOUS
 62
4
 10
502.3915
 20
516.1601
 11
502.3915
 21
464.7064
  0
LINE
  8
0_00
  6
CONTINUOUS
 62
4
 10
514.3915
 20
516.1601
 11
514.3915
 21
464.7064
  0
LINE
  8
0_00
  6
CONTINUOUS
 62
4
 10
578.5914
 20
516.1601
 11
578.5914
 21
464.7064
  0
LINE
  8
0_00
  6
CONTINUOUS
 62
4
 10
590.5914
 20
516.1601
 11
590.5914
 21
464.7064
  0
LINE
  8
0_00
  6
CONTINUOUS
 62
4
 10
514.3915
 20
443.7064
 11
514.3915
 21
386.7064
  0
LINE
  8
0_00
  6
CONTINUOUS
 62
4
 10
502.3915
 20
443.7064
 11
502.3915
 21
386.7064
  0
LINE
  8
12_0C
  6
CONTINUOUS
 62
2
 10
513.4915
 20
445.6264
 11
513.4915
 21
445.1764
  0
LINE
  8
12_0C
  6
CONTINUOUS
 62
2
 10
513.1915
 20
445.6264
 11
513.1915
 21
445.1764
  0
LINE
  8
12_0C
  6
CONTINUOUS
 62
2
 10
511.0915
 20
445.6264
 11
511.0915
 21
445.1764
  0
LINE
  8
12_0C
  6
CONTINUOUS
 62
2
 10
511.3915
 20
445.6264
 11
511.3915
 21
445.1764
  0
LINE
  8
0_00
  6
DASHED
 62
2
 10
612.0641
 20
459.0064
 11
456.4915
 21
459.0064
  0
LINE
  8
0_00
  6
DASHED
 62
2
 10
456.4915
 20
444.6064
 11
456.4915
 21
459.0064
  0
LINE
  8
3_03
  6
CONTINUOUS
 62
2
 10
508.3914
 20
455.5057
 11
508.1928
 21
455.5820
  0
LINE
  8
3_03
  6
CONTINUOUS
 62
2
 10
508.3914
 20
455.5057
 11
508.5899
 21
455.5819
  0
LINE
  8
3_03
  6
CONTINUOUS
 62
2
 10
508.1928
 20
455.5820
 11
507.6826
 21
456.0747
  0
LINE
  8
3_03
  6
CONTINUOUS
 62
2
 10
508.5901
 20
455.5820
 11
508.5897
 21
455.5823
  0
LINE
  8
3_03
  6
CONTINUOUS
 62
2
 10
508.5897
 20
455.5823
 11
509.0999
 21
456.0750
  0
LINE
  8
3_03
  6
CONTINUOUS
 62
2
 10
507.9922
 20
455.1064
 11
507.9159
 21
455.3050
  0
LINE
  8
3_03
  6
CONTINUOUS
 62
2
 10
507.9922
 20
455.1064
 11
507.9160
 21
454.9080
  0
LINE
  8
3_03
  6
CONTINUOUS
 62
2
 10
507.9159
 20
455.3050
 11
507.4229
 21
455.8155
  0
LINE
  8
3_03
  6
CONTINUOUS
 62
2
 10
507.9159
 20
454.9078
 11
507.9155
 21
454.9082
  0
LINE
  8
3_03
  6
CONTINUOUS
 62
2
 10
507.9155
 20
454.9082
 11
507.4229
 21
454.3980
  0
LINE
  8
3_03
  6
CONTINUOUS
 62
2
 10
508.7908
 20
455.1064
 11
508.8670
 21
454.9078
  0
LINE
  8
3_03
  6
CONTINUOUS
 62
2
 10
508.7908
 20
455.1064
 11
508.8669
 21
455.3048
  0
LINE
  8
3_03
  6
CONTINUOUS
 62
2
 10
508.8670
 20
454.9078
 11
509.3598
 21
454.3976
  0
LINE
  8
3_03
  6
CONTINUOUS
 62
2
 10
508.8670
 20
455.3050
 11
508.8674
 21
455.3046
  0
LINE
  8
3_03
  6
CONTINUOUS
 62
2
 10
508.8674
 20
455.3046
 11
509.3600
 21
455.8148
  0
LINE
  8
3_03
  6
CONTINUOUS
 62
2
 10
508.3914
 20
454.7071
 11
508.5901
 21
454.6308
  0
LINE
  8
3_03
  6
CONTINUOUS
 62
2
 10
508.3914
 20
454.7071
 11
508.1931
 21
454.6309
  0
LINE
  8
3_03
  6
CONTINUOUS
 62
2
 10
508.5901
 20
454.6308
 11
509.1003
 21
454.1381
  0
LINE
  8
3_03
  6
CONTINUOUS
 62
2
 10
508.1928
 20
454.6308
 11
508.1933
 21
454.6305
  0
LINE
  8
3_03
  6
CONTINUOUS
 62
2
 10
508.1933
 20
454.6305
 11
507.6828
 21
454.1375
  0
LINE
  8
0_00
  6
CONTINUOUS
 62
4
 10
348.3939
 20
464.7064
 11
369.4914
 21
464.7064
  0
LINE
  8
0_00
  6
CONTINUOUS
 62
4
 10
369.4914
 20
443.7064
 11
348.3939
 21
443.7064
  0
LINE
  8
0_00
  6
CONTINUOUS
 62
2
 10
394.1944
 20
413.7064
 11
394.7002
 21
414.2122
  0
LINE
  8
0_00
  6
CONTINUOUS
 62
2
 10
390.8003
 20
413.7064
 11
393.2003
 21
416.1064
  0
LINE
  8
0_00
  6
CONTINUOUS
 62
2
 10
387.4062
 20
413.7064
 11
389.8062
 21
416.1064
  0
LINE
  8
0_00
  6
CONTINUOUS
 62
2
 10
384.0121
 20
413.7064
 11
386.4120
 21
416.1064
  0
LINE
  8
0_00
  6
CONTINUOUS
 62
2
 10
380.6180
 20
413.7064
 11
383.0180
 21
416.1064
  0
LINE
  8
0_00
  6
CONTINUOUS
 62
2
 10
377.2238
 20
413.7064
 11
379.6238
 21
416.1064
  0
LINE
  8
0_00
  6
CONTINUOUS
 62
2
 10
373.8298
 20
413.7064
 11
376.2297
 21
416.1064
  0
LINE
  8
0_00
  6
CONTINUOUS
 62
2
 10
370.4356
 20
413.7064
 11
372.8356
 21
416.1064
  0
LINE
  8
0_00
  6
CONTINUOUS
 62
2
 10
390.0973
 20
416.1064
 11
392.4973
 21
413.7064
  0
LINE
  8
0_00
  6
CONTINUOUS
 62
2
 10
386.7032
 20
416.1064
 11
389.1032
 21
413.7064
  0
LINE
  8
0_00
  6
CONTINUOUS
 62
2
 10
383.3091
 20
416.1064
 11
385.7091
 21
413.7064
  0
LINE
  8
0_00
  6
CONTINUOUS
 62
2
 10
379.9150
 20
416.1064
 11
382.3150
 21
413.7064
  0
LINE
  8
0_00
  6
CONTINUOUS
 62
2
 10
376.5209
 20
416.1064
 11
378.9209
 21
413.7064
  0
LINE
  8
0_00
  6
CONTINUOUS
 62
2
 10
373.1268
 20
416.1064
 11
375.5268
 21
413.7064
  0
LINE
  8
0_00
  6
CONTINUOUS
 62
2
 10
369.7327
 20
416.1064
 11
372.1327
 21
413.7064
  0
LINE
  8
0_00
  6
CONTINUOUS
 62
2
 10
368.2534
 20
414.1916
 11
368.7385
 21
413.7064
  0
LINE
  8
0_00
  6
CONTINUOUS
 62
4
 10
590.5914
 20
443.7064
 11
590.5914
 21
386.7064
  0
LINE
  8
0_00
  6
CONTINUOUS
 62
4
 10
578.5914
 20
443.7064
 11
578.5914
 21
386.7064
  0
LINE
  8
12_0C
  6
CONTINUOUS
 62
2
 10
589.6914
 20
445.6264
 11
589.6914
 21
445.1764
  0
LINE
  8
12_0C
  6
CONTINUOUS
 62
2
 10
589.3915
 20
445.6264
 11
589.3915
 21
445.1764
  0
LINE
  8
12_0C
  6
CONTINUOUS
 62
2
 10
587.2915
 20
445.6264
 11
587.2915
 21
445.1764
  0
LINE
  8
12_0C
  6
CONTINUOUS
 62
2
 10
587.5914
 20
445.6264
 11
587.5914
 21
445.1764
  0
LINE
  8
12_0C
  6
CONTINUOUS
 62
2
 10
476.8915
 20
386.7064
 11
472.0914
 21
386.7064
  0
LINE
  8
12_0C
  6
CONTINUOUS
 62
2
 10
476.8915
 20
386.9464
 11
472.0914
 21
386.9464
  0
LINE
  8
12_0C
  6
CONTINUOUS
 62
2
 10
472.0914
 20
386.7064
 11
472.0914
 21
386.9464
  0
LINE
  8
12_0C
  6
CONTINUOUS
 62
2
 10
476.8915
 20
386.7064
 11
476.8915
 21
386.9464
  0
LINE
  8
0_00
  6
CONTINUOUS
 62
6
 10
455.0514
 20
381.8200
 11
455.0514
 21
380.5528
  0
LINE
  8
0_00
  6
CONTINUOUS
 62
6
 10
455.4115
 20
383.1064
 11
455.5914
 21
383.1064
  0
LINE
  8
0_00
  6
CONTINUOUS
 62
6
 10
455.4115
 20
379.2664
 11
455.5914
 21
379.2664
  0
LINE
  8
0_00
  6
CONTINUOUS
 62
6
 10
455.4115
 20
383.1064
 11
455.4115
 21
379.2664
  0
LINE
  8
0_00
  6
CONTINUOUS
 62
6
 10
455.1661
 20
382.4520
 11
455.4115
 21
383.1064
  0
LINE
  8
0_00
  6
CONTINUOUS
 62
6
 10
455.1661
 20
379.9208
 11
455.4115
 21
379.2664
  0
LINE
  8
0_00
  6
CONTINUOUS
 62
6
 10
455.5914
 20
379.2664
 11
455.5914
 21
383.1064
  0
LINE
  8
0_00
  6
CONTINUOUS
 62
6
 10
455.0514
 20
374.0200
 11
455.0514
 21
372.7528
  0
LINE
  8
0_00
  6
CONTINUOUS
 62
6
 10
455.4115
 20
375.3064
 11
455.5914
 21
375.3064
  0
LINE
  8
0_00
  6
CONTINUOUS
 62
6
 10
455.4115
 20
371.4664
 11
455.5914
 21
371.4664
  0
LINE
  8
0_00
  6
CONTINUOUS
 62
6
 10
455.4115
 20
375.3064
 11
455.4115
 21
371.4664
  0
LINE
  8
0_00
  6
CONTINUOUS
 62
6
 10
455.1661
 20
374.6521
 11
455.4115
 21
375.3064
  0
LINE
  8
0_00
  6
CONTINUOUS
 62
6
 10
455.1661
 20
372.1208
 11
455.4115
 21
371.4664
  0
LINE
  8
0_00
  6
CONTINUOUS
 62
6
 10
455.5914
 20
371.4664
 11
455.5914
 21
375.3064
  0
LINE
  8
0_00
  6
DASHED
 62
2
 10
456.4915
 20
444.6064
 11
612.0641
 21
444.6064
  0
LINE
  8
0_00
  6
CONTINUOUS
 62
4
 10
426.4915
 20
407.7064
 11
420.4915
 21
413.7064
  0
LINE
  8
0_00
  6
CONTINUOUS
 62
6
 10
466.8714
 20
623.9972
 11
481.2556
 21
599.0831
  0
LINE
  8
0_00
  6
CONTINUOUS
 62
6
 10
466.8714
 20
623.9972
 11
469.1890
 21
616.8642
  0
LINE
  8
0_00
  6
CONTINUOUS
 62
6
 10
466.8714
 20
623.9972
 11
471.8899
 21
618.4236
  0
LINE
  8
0_00
  6
CONTINUOUS
 62
6
 10
481.2556
 20
599.0831
 11
555.0555
 21
599.0831
  0
LINE
  8
0_00
  6
CONTINUOUS
 62
6
 10
209.8672
 20
599.6917
 11
228.6627
 21
567.1370
  0
LINE
  8
0_00
  6
CONTINUOUS
 62
6
 10
209.8672
 20
599.6917
 11
212.1848
 21
592.5589
  0
LINE
  8
0_00
  6
CONTINUOUS
 62
6
 10
209.8672
 20
599.6917
 11
214.8857
 21
594.1181
  0
LINE
  8
0_00
  6
CONTINUOUS
 62
6
 10
228.6627
 20
567.1370
 11
252.0627
 21
567.1370
  0
LINE
  8
0_00
  6
CONTINUOUS
 62
6
 10
508.2060
 20
452.7136
 11
531.3788
 21
412.5772
  0
LINE
  8
0_00
  6
CONTINUOUS
 62
6
 10
508.2060
 20
452.7136
 11
510.5236
 21
445.5807
  0
LINE
  8
0_00
  6
CONTINUOUS
 62
6
 10
508.2060
 20
452.7136
 11
513.2245
 21
447.1400
  0
LINE
  8
0_00
  6
CONTINUOUS
 62
6
 10
531.3788
 20
412.5772
 11
569.1788
 21
412.5772
  0
LINE
  8
0_00
  6
CONTINUOUS
 62
2
 10
490.5009
 20
529.0646
 11
490.5009
 21
244.2988
  0
LINE
  8
0_00
  6
CONTINUOUS
 62
2
 10
490.5009
 20
244.2988
 11
473.8298
 21
244.2988
  0
LINE
  8
0_00
  6
CONTINUOUS
 62
2
 10
473.8298
 20
244.2988
 11
481.1659
 21
242.7395
  0
LINE
  8
0_00
  6
CONTINUOUS
 62
2
 10
473.8298
 20
244.2988
 11
481.1659
 21
245.8582
  0
LINE
  8
0_00
  6
CONTINUOUS
 62
2
 10
490.5009
 20
529.0646
 11
473.8298
 21
529.0646
  0
LINE
  8
0_00
  6
CONTINUOUS
 62
2
 10
473.8298
 20
529.0646
 11
481.1659
 21
527.5052
  0
LINE
  8
0_00
  6
CONTINUOUS
 62
2
 10
473.8298
 20
529.0646
 11
481.1659
 21
530.6239
  0
LINE
  8
0_00
  6
CONTINUOUS
 62
6
 10
455.0514
 20
372.9194
 11
440.5150
 21
347.7414
  0
LINE
  8
0_00
  6
CONTINUOUS
 62
6
 10
455.0514
 20
372.9194
 11
450.0330
 21
367.3458
  0
LINE
  8
0_00
  6
CONTINUOUS
 62
6
 10
455.0514
 20
372.9194
 11
452.7338
 21
365.7865
  0
LINE
  8
0_00
  6
CONTINUOUS
 62
6
 10
440.5150
 20
347.7414
 11
388.3150
 21
347.7414
  0
LINE
  8
0_00
  6
CONTINUOUS
 62
4
 10
426.4915
 20
335.7064
 11
426.4915
 21
343.7005
  0
LINE
  8
0_00
  6
CONTINUOUS
 62
4
 10
426.4915
 20
362.2618
 11
426.4915
 21
407.7064
  0
LINE
  8
0_00
  6
CONTINUOUS
 62
3
 10
547.4110
 20
97.2001
 11
547.4110
 21
37.2000
  0
LINE
  8
0_00
  6
CONTINUOUS
 62
7
 10
54.6905
 20
112.2001
 11
1218.5110
 21
112.2001
  0
LINE
  8
0_00
  6
CONTINUOUS
 62
3
 10
1218.5110
 20
851.7001
 11
1218.5110
 21
865.2001
  0
LINE
  8
0_00
  6
CONTINUOUS
 62
7
 10
1218.5110
 20
37.2000
 11
1218.5110
 21
851.7001
  0
LINE
  8
0_00
  6
CONTINUOUS
 62
3
 10
54.6905
 20
851.7001
 11
54.6905
 21
865.2001
  0
LINE
  8
0_00
  6
CONTINUOUS
 62
7
 10
54.6905
 20
37.2000
 11
54.6905
 21
851.7001
  0
LINE
  8
0_00
  6
CONTINUOUS
 62
7
 10
54.6905
 20
851.7001
 11
1218.5110
 21
851.7001
  0
LINE
  8
0_00
  6
CONTINUOUS
 62
7
 10
54.6905
 20
37.2000
 11
1218.5110
 21
37.2000
  0
LINE
  8
0_00
  6
CONTINUOUS
 62
3
 10
39.6905
 20
22.2000
 11
39.6905
 21
865.2001
  0
LINE
  8
0_00
  6
CONTINUOUS
 62
3
 10
1233.5110
 20
22.2000
 11
1233.5110
 21
865.2001
  0
LINE
  8
0_00
  6
CONTINUOUS
 62
3
 10
39.6905
 20
865.2001
 11
1233.5110
 21
865.2001
  0
LINE
  8
0_00
  6
CONTINUOUS
 62
3
 10
1070.6111
 20
37.2000
 11
1070.6111
 21
112.2001
  0
LINE
  8
0_00
  6
CONTINUOUS
 62
3
 10
54.6905
 20
97.2001
 11
812.7610
 21
97.2001
  0
LINE
  8
0_00
  6
CONTINUOUS
 62
7
 10
812.7610
 20
97.2001
 11
1218.5110
 21
97.2001
  0
LINE
  8
0_00
  6
CONTINUOUS
 62
3
 10
1070.6111
 20
67.2000
 11
1218.5110
 21
67.2000
  0
LINE
  8
0_00
  6
CONTINUOUS
 62
3
 10
1100.6111
 20
112.2001
 11
1100.6111
 21
97.2001
  0
LINE
  8
0_00
  6
CONTINUOUS
 62
3
 10
812.7610
 20
37.2000
 11
812.7610
 21
97.2001
  0
LINE
  8
0_00
  6
CONTINUOUS
 62
7
 10
812.7610
 20
97.2001
 11
812.7610
 21
112.2001
  0
LINE
  8
0_00
  6
CONTINUOUS
 62
3
 10
836.7610
 20
97.2001
 11
836.7610
 21
112.2001
  0
LINE
  8
0_00
  6
CONTINUOUS
 62
3
 10
912.5110
 20
37.2000
 11
912.5110
 21
112.2001
  0
LINE
  8
0_00
  6
CONTINUOUS
 62
3
 10
1004.6111
 20
97.2001
 11
1004.6111
 21
112.2001
  0
LINE
  8
0_00
  6
CONTINUOUS
 62
3
 10
1032.2110
 20
37.2000
 11
1032.2110
 21
97.2001
  0
LINE
  8
0_00
  6
CONTINUOUS
 62
3
 10
995.9110
 20
37.2000
 11
995.9110
 21
97.2001
  0
LINE
  8
0_00
  6
CONTINUOUS
 62
3
 10
959.6110
 20
37.2000
 11
959.6110
 21
97.2001
  0
LINE
  8
0_00
  6
CONTINUOUS
 62
3
 10
468.6610
 20
37.2000
 11
468.6610
 21
112.2001
  0
LINE
  8
0_00
  6
CONTINUOUS
 62
3
 10
626.1610
 20
37.2000
 11
626.1610
 21
97.2001
  0
LINE
  8
0_00
  6
CONTINUOUS
 62
3
 10
54.6905
 20
82.2001
 11
468.6610
 21
82.2001
  0
LINE
  8
0_00
  6
CONTINUOUS
 62
3
 10
54.6905
 20
67.2000
 11
912.5110
 21
67.2000
  0
LINE
  8
0_00
  6
CONTINUOUS
 62
3
 10
174.6905
 20
52.2000
 11
468.6610
 21
52.2000
  0
LINE
  8
0_00
  6
CONTINUOUS
 62
7
 10
54.6905
 20
52.2000
 11
174.6905
 21
52.2000
  0
LINE
  8
0_00
  6
CONTINUOUS
 62
3
 10
818.0110
 20
851.7001
 11
818.0110
 21
865.2001
  0
LINE
  8
0_00
  6
CONTINUOUS
 62
3
 10
788.0110
 20
851.7001
 11
788.0110
 21
865.2001
  0
LINE
  8
0_00
  6
CONTINUOUS
 62
3
 10
204.6905
 20
851.7001
 11
204.6905
 21
865.2001
  0
LINE
  8
0_00
  6
CONTINUOUS
 62
3
 10
854.0110
 20
851.7001
 11
854.0110
 21
865.2001
  0
LINE
  8
0_00
  6
CONTINUOUS
 62
3
 10
915.5110
 20
851.7001
 11
915.5110
 21
865.2001
  0
LINE
  8
0_00
  6
CONTINUOUS
 62
3
 10
1146.5110
 20
851.7001
 11
1146.5110
 21
865.2001
  0
LINE
  8
0_00
  6
CONTINUOUS
 62
3
 10
114.6905
 20
112.2001
 11
114.6905
 21
37.2000
  0
LINE
  8
0_00
  6
CONTINUOUS
 62
7
 10
174.6905
 20
112.2001
 11
174.6905
 21
37.2000
  0
LINE
  8
0_00
  6
CONTINUOUS
 62
3
 10
869.7610
 20
67.2000
 11
869.7610
 21
97.2001
  0
LINE
  8
0_00
  6
CONTINUOUS
 62
3
 10
893.7610
 20
112.2001
 11
893.7610
 21
97.2001
  0
LINE
  8
0_00
  6
CONTINUOUS
 62
3
 10
912.5110
 20
82.2001
 11
1070.6111
 21
82.2001
  0
LINE
  8
0_00
  6
CONTINUOUS
 62
3
 10
1076.6111
 20
71.7000
 11
1078.5610
 21
71.7000
  0
LINE
  8
0_00
  6
CONTINUOUS
 62
3
 10
1078.5610
 20
71.7000
 11
1078.5610
 21
91.2000
  0
LINE
  8
0_00
  6
CONTINUOUS
 62
3
 10
1078.5610
 20
91.2000
 11
1076.6111
 21
91.2000
  0
LINE
  8
0_00
  6
CONTINUOUS
 62
3
 10
1076.6111
 20
71.7000
 11
1076.6111
 21
91.2000
  0
LINE
  8
0_00
  6
CONTINUOUS
 62
3
 10
1079.3410
 20
71.7000
 11
1081.2911
 21
71.7000
  0
LINE
  8
0_00
  6
CONTINUOUS
 62
3
 10
1081.2911
 20
71.7000
 11
1081.2911
 21
91.2000
  0
LINE
  8
0_00
  6
CONTINUOUS
 62
3
 10
1081.2911
 20
91.2000
 11
1079.3410
 21
91.2000
  0
LINE
  8
0_00
  6
CONTINUOUS
 62
3
 10
1079.3410
 20
71.7000
 11
1079.3410
 21
91.2000
  0
LINE
  8
0_00
  6
CONTINUOUS
 62
3
 10
1082.0711
 20
71.7000
 11
1084.0210
 21
71.7000
  0
LINE
  8
0_00
  6
CONTINUOUS
 62
3
 10
1084.0210
 20
71.7000
 11
1084.0210
 21
91.2000
  0
LINE
  8
0_00
  6
CONTINUOUS
 62
3
 10
1084.0210
 20
91.2000
 11
1082.0711
 21
91.2000
  0
LINE
  8
0_00
  6
CONTINUOUS
 62
3
 10
1082.0711
 20
71.7000
 11
1082.0711
 21
91.2000
  0
LINE
  8
0_00
  6
CONTINUOUS
 62
3
 10
1084.8010
 20
71.7000
 11
1086.7511
 21
71.7000
  0
LINE
  8
0_00
  6
CONTINUOUS
 62
3
 10
1086.7511
 20
91.2000
 11
1084.8010
 21
91.2000
  0
LINE
  8
0_00
  6
CONTINUOUS
 62
3
 10
1084.8010
 20
71.7000
 11
1084.8010
 21
91.2000
  0
LINE
  8
0_00
  6
CONTINUOUS
 62
3
 10
1092.4061
 20
71.7000
 11
1100.0110
 21
71.7000
  0
LINE
  8
0_00
  6
CONTINUOUS
 62
3
 10
1100.0110
 20
71.7000
 11
1100.0110
 21
73.4550
  0
LINE
  8
0_00
  6
CONTINUOUS
 62
3
 10
1100.0110
 20
73.4550
 11
1092.4061
 21
73.4550
  0
LINE
  8
0_00
  6
CONTINUOUS
 62
3
 10
1092.4061
 20
73.4550
 11
1092.4061
 21
71.7000
  0
LINE
  8
0_00
  6
CONTINUOUS
 62
3
 10
1092.4061
 20
74.2350
 11
1100.0110
 21
74.2350
  0
LINE
  8
0_00
  6
CONTINUOUS
 62
3
 10
1100.0110
 20
74.2350
 11
1100.0110
 21
75.9900
  0
LINE
  8
0_00
  6
CONTINUOUS
 62
3
 10
1100.0110
 20
75.9900
 11
1092.4061
 21
75.9900
  0
LINE
  8
0_00
  6
CONTINUOUS
 62
3
 10
1092.4061
 20
75.9900
 11
1092.4061
 21
74.2350
  0
LINE
  8
0_00
  6
CONTINUOUS
 62
3
 10
1092.4061
 20
76.7700
 11
1100.0110
 21
76.7700
  0
LINE
  8
0_00
  6
CONTINUOUS
 62
3
 10
1100.0110
 20
76.7700
 11
1100.0110
 21
78.5250
  0
LINE
  8
0_00
  6
CONTINUOUS
 62
3
 10
1100.0110
 20
78.5250
 11
1092.4061
 21
78.5250
  0
LINE
  8
0_00
  6
CONTINUOUS
 62
3
 10
1092.4061
 20
78.5250
 11
1092.4061
 21
76.7700
  0
LINE
  8
0_00
  6
CONTINUOUS
 62
3
 10
1092.4061
 20
79.3050
 11
1100.0110
 21
79.3050
  0
LINE
  8
0_00
  6
CONTINUOUS
 62
3
 10
1100.0110
 20
79.3050
 11
1100.0110
 21
81.0600
  0
LINE
  8
0_00
  6
CONTINUOUS
 62
3
 10
1100.0110
 20
81.0600
 11
1092.4061
 21
81.0600
  0
LINE
  8
0_00
  6
CONTINUOUS
 62
3
 10
1092.4061
 20
81.0600
 11
1092.4061
 21
79.3050
  0
LINE
  8
0_00
  6
CONTINUOUS
 62
3
 10
1092.4061
 20
81.8401
 11
1100.0110
 21
81.8401
  0
LINE
  8
0_00
  6
CONTINUOUS
 62
3
 10
1100.0110
 20
81.8401
 11
1100.0110
 21
83.5950
  0
LINE
  8
0_00
  6
CONTINUOUS
 62
3
 10
1100.0110
 20
83.5950
 11
1092.4061
 21
83.5950
  0
LINE
  8
0_00
  6
CONTINUOUS
 62
3
 10
1092.4061
 20
83.5950
 11
1092.4061
 21
81.8401
  0
LINE
  8
0_00
  6
CONTINUOUS
 62
3
 10
1092.4061
 20
84.3751
 11
1100.0110
 21
84.3751
  0
LINE
  8
0_00
  6
CONTINUOUS
 62
3
 10
1100.0110
 20
84.3751
 11
1100.0110
 21
86.1300
  0
LINE
  8
0_00
  6
CONTINUOUS
 62
3
 10
1100.0110
 20
86.1300
 11
1092.4061
 21
86.1300
  0
LINE
  8
0_00
  6
CONTINUOUS
 62
3
 10
1092.4061
 20
86.1300
 11
1092.4061
 21
84.3751
  0
LINE
  8
0_00
  6
CONTINUOUS
 62
3
 10
1092.4061
 20
86.9101
 11
1100.0110
 21
86.9101
  0
LINE
  8
0_00
  6
CONTINUOUS
 62
3
 10
1100.0110
 20
86.9101
 11
1100.0110
 21
88.6650
  0
LINE
  8
0_00
  6
CONTINUOUS
 62
3
 10
1100.0110
 20
88.6650
 11
1092.4061
 21
88.6650
  0
LINE
  8
0_00
  6
CONTINUOUS
 62
3
 10
1092.4061
 20
88.6650
 11
1092.4061
 21
86.9101
  0
LINE
  8
0_00
  6
CONTINUOUS
 62
3
 10
1092.4061
 20
89.4451
 11
1100.0110
 21
89.4451
  0
LINE
  8
0_00
  6
CONTINUOUS
 62
3
 10
1100.0110
 20
89.4451
 11
1100.0110
 21
91.2000
  0
LINE
  8
0_00
  6
CONTINUOUS
 62
3
 10
1100.0110
 20
91.2000
 11
1092.4061
 21
91.2000
  0
LINE
  8
0_00
  6
CONTINUOUS
 62
3
 10
1092.4061
 20
91.2000
 11
1092.4061
 21
89.4451
  0
LINE
  8
0_00
  6
CONTINUOUS
 62
3
 10
1087.5311
 20
71.7000
 11
1087.5311
 21
77.0626
  0
LINE
  8
0_00
  6
CONTINUOUS
 62
3
 10
1088.8375
 20
72.7725
 11
1088.8375
 21
77.0626
  0
LINE
  8
0_00
  6
CONTINUOUS
 62
3
 10
1087.5311
 20
71.7000
 11
1089.6760
 21
71.7000
  0
LINE
  8
0_00
  6
CONTINUOUS
 62
3
 10
1088.8375
 20
72.7725
 11
1089.6760
 21
72.7725
  0
LINE
  8
0_00
  6
CONTINUOUS
 62
3
 10
1089.6050
 20
79.8056
 11
1090.4561
 21
78.1351
  0
LINE
  8
0_00
  6
CONTINUOUS
 62
3
 10
1090.9410
 20
82.5453
 11
1089.6047
 21
79.8055
  0
LINE
  8
0_00
  6
CONTINUOUS
 62
3
 10
1086.7511
 20
85.3501
 11
1086.7511
 21
91.2000
  0
LINE
  8
0_00
  6
CONTINUOUS
 62
3
 10
1086.7511
 20
85.3501
 11
1089.1886
 21
85.3501
  0
LINE
  8
0_00
  6
CONTINUOUS
 62
3
 10
1086.7511
 20
84.1801
 11
1087.8333
 21
84.1801
  0
LINE
  8
0_00
  6
CONTINUOUS
 62
3
 10
1086.7511
 20
78.1351
 11
1090.4561
 21
78.1351
  0
LINE
  8
0_00
  6
CONTINUOUS
 62
3
 10
1086.7511
 20
81.9611
 11
1087.8334
 21
84.1801
  0
LINE
  8
0_00
  6
CONTINUOUS
 62
3
 10
1086.7511
 20
81.9613
 11
1086.7511
 21
84.1801
  0
LINE
  8
0_00
  6
CONTINUOUS
 62
3
 10
1086.7511
 20
78.1351
 11
1086.7511
 21
71.7000
  0
LINE
  8
0_00
  6
CONTINUOUS
 62
3
 10
1076.9110
 20
91.2000
 11
1076.9110
 21
71.7000
  0
LINE
  8
0_00
  6
CONTINUOUS
 62
3
 10
1077.2110
 20
91.2000
 11
1077.2110
 21
71.7000
  0
LINE
  8
0_00
  6
CONTINUOUS
 62
3
 10
1077.5110
 20
91.2000
 11
1077.5110
 21
71.7000
  0
LINE
  8
0_00
  6
CONTINUOUS
 62
3
 10
1077.8109
 20
91.2000
 11
1077.8109
 21
71.7000
  0
LINE
  8
0_00
  6
CONTINUOUS
 62
3
 10
1078.1111
 20
91.2000
 11
1078.1111
 21
71.7000
  0
LINE
  8
0_00
  6
CONTINUOUS
 62
3
 10
1079.6411
 20
91.2000
 11
1079.6411
 21
71.7000
  0
LINE
  8
0_00
  6
CONTINUOUS
 62
3
 10
1079.9410
 20
91.2000
 11
1079.9410
 21
71.7000
  0
LINE
  8
0_00
  6
CONTINUOUS
 62
3
 10
1080.2410
 20
91.2000
 11
1080.2410
 21
71.7000
  0
LINE
  8
0_00
  6
CONTINUOUS
 62
3
 10
1080.5410
 20
91.2000
 11
1080.5410
 21
71.7000
  0
LINE
  8
0_00
  6
CONTINUOUS
 62
3
 10
1080.8410
 20
91.2000
 11
1080.8410
 21
71.7000
  0
LINE
  8
0_00
  6
CONTINUOUS
 62
3
 10
1081.1411
 20
91.2000
 11
1081.1411
 21
71.7000
  0
LINE
  8
0_00
  6
CONTINUOUS
 62
3
 10
1082.3709
 20
91.2000
 11
1082.3709
 21
71.7000
  0
LINE
  8
0_00
  6
CONTINUOUS
 62
3
 10
1082.6711
 20
91.2000
 11
1082.6711
 21
71.7000
  0
LINE
  8
0_00
  6
CONTINUOUS
 62
3
 10
1082.9711
 20
91.2000
 11
1082.9711
 21
71.7000
  0
LINE
  8
0_00
  6
CONTINUOUS
 62
3
 10
1083.2710
 20
91.2000
 11
1083.2710
 21
71.7000
  0
LINE
  8
0_00
  6
CONTINUOUS
 62
3
 10
1083.5711
 20
91.2000
 11
1083.5711
 21
71.7000
  0
LINE
  8
0_00
  6
CONTINUOUS
 62
3
 10
1083.8709
 20
91.2000
 11
1083.8709
 21
71.7000
  0
LINE
  8
0_00
  6
CONTINUOUS
 62
3
 10
1092.4061
 20
72.0001
 11
1100.0110
 21
72.0001
  0
LINE
  8
0_00
  6
CONTINUOUS
 62
3
 10
1092.4061
 20
72.3001
 11
1100.0110
 21
72.3001
  0
LINE
  8
0_00
  6
CONTINUOUS
 62
3
 10
1092.4061
 20
72.6000
 11
1100.0110
 21
72.6000
  0
LINE
  8
0_00
  6
CONTINUOUS
 62
3
 10
1092.4061
 20
72.9000
 11
1100.0110
 21
72.9000
  0
LINE
  8
0_00
  6
CONTINUOUS
 62
3
 10
1092.4061
 20
73.2000
 11
1100.0110
 21
73.2000
  0
LINE
  8
0_00
  6
CONTINUOUS
 62
3
 10
1092.4061
 20
74.5351
 11
1100.0110
 21
74.5351
  0
LINE
  8
0_00
  6
CONTINUOUS
 62
3
 10
1092.4061
 20
74.8351
 11
1100.0110
 21
74.8351
  0
LINE
  8
0_00
  6
CONTINUOUS
 62
3
 10
1092.4061
 20
75.1350
 11
1100.0110
 21
75.1350
  0
LINE
  8
0_00
  6
CONTINUOUS
 62
3
 10
1092.4061
 20
75.4350
 11
1100.0110
 21
75.4350
  0
LINE
  8
0_00
  6
CONTINUOUS
 62
3
 10
1092.4061
 20
75.7350
 11
1100.0110
 21
75.7350
  0
LINE
  8
0_00
  6
CONTINUOUS
 62
3
 10
1092.4061
 20
77.0701
 11
1100.0110
 21
77.0701
  0
LINE
  8
0_00
  6
CONTINUOUS
 62
3
 10
1092.4061
 20
77.3701
 11
1100.0110
 21
77.3701
  0
LINE
  8
0_00
  6
CONTINUOUS
 62
3
 10
1092.4061
 20
77.6700
 11
1100.0110
 21
77.6700
  0
LINE
  8
0_00
  6
CONTINUOUS
 62
3
 10
1092.4061
 20
77.9700
 11
1100.0110
 21
77.9700
  0
LINE
  8
0_00
  6
CONTINUOUS
 62
3
 10
1092.4061
 20
78.2701
 11
1100.0110
 21
78.2701
  0
LINE
  8
0_00
  6
CONTINUOUS
 62
3
 10
1092.4061
 20
79.6051
 11
1100.0110
 21
79.6051
  0
LINE
  8
0_00
  6
CONTINUOUS
 62
3
 10
1092.4061
 20
79.9051
 11
1100.0110
 21
79.9051
  0
LINE
  8
0_00
  6
CONTINUOUS
 62
3
 10
1092.4061
 20
80.2050
 11
1100.0110
 21
80.2050
  0
LINE
  8
0_00
  6
CONTINUOUS
 62
3
 10
1092.4061
 20
80.5050
 11
1100.0110
 21
80.5050
  0
LINE
  8
0_00
  6
CONTINUOUS
 62
3
 10
1092.4061
 20
80.8051
 11
1100.0110
 21
80.8051
  0
LINE
  8
0_00
  6
CONTINUOUS
 62
3
 10
1092.4061
 20
82.1401
 11
1100.0110
 21
82.1401
  0
LINE
  8
0_00
  6
CONTINUOUS
 62
3
 10
1092.4061
 20
82.4401
 11
1100.0110
 21
82.4401
  0
LINE
  8
0_00
  6
CONTINUOUS
 62
3
 10
1092.4061
 20
82.7400
 11
1100.0110
 21
82.7400
  0
LINE
  8
0_00
  6
CONTINUOUS
 62
3
 10
1092.4061
 20
83.0400
 11
1100.0110
 21
83.0400
  0
LINE
  8
0_00
  6
CONTINUOUS
 62
3
 10
1092.4061
 20
83.3401
 11
1100.0110
 21
83.3401
  0
LINE
  8
0_00
  6
CONTINUOUS
 62
3
 10
1100.0110
 20
84.6751
 11
1092.4061
 21
84.6751
  0
LINE
  8
0_00
  6
CONTINUOUS
 62
3
 10
1100.0110
 20
84.9751
 11
1092.4061
 21
84.9751
  0
LINE
  8
0_00
  6
CONTINUOUS
 62
3
 10
1100.0110
 20
85.2750
 11
1092.4061
 21
85.2750
  0
LINE
  8
0_00
  6
CONTINUOUS
 62
3
 10
1100.0110
 20
85.5750
 11
1092.4061
 21
85.5750
  0
LINE
  8
0_00
  6
CONTINUOUS
 62
3
 10
1100.0110
 20
85.8751
 11
1092.4061
 21
85.8751
  0
LINE
  8
0_00
  6
CONTINUOUS
 62
3
 10
1092.4061
 20
87.2101
 11
1100.0110
 21
87.2101
  0
LINE
  8
0_00
  6
CONTINUOUS
 62
3
 10
1092.4061
 20
87.5101
 11
1100.0110
 21
87.5101
  0
LINE
  8
0_00
  6
CONTINUOUS
 62
3
 10
1092.4061
 20
87.8100
 11
1100.0110
 21
87.8100
  0
LINE
  8
0_00
  6
CONTINUOUS
 62
3
 10
1092.4061
 20
88.1100
 11
1100.0110
 21
88.1100
  0
LINE
  8
0_00
  6
CONTINUOUS
 62
3
 10
1092.4061
 20
88.4101
 11
1100.0110
 21
88.4101
  0
LINE
  8
0_00
  6
CONTINUOUS
 62
3
 10
1092.4061
 20
89.7451
 11
1100.0110
 21
89.7451
  0
LINE
  8
0_00
  6
CONTINUOUS
 62
3
 10
1092.4061
 20
90.0451
 11
1100.0110
 21
90.0451
  0
LINE
  8
0_00
  6
CONTINUOUS
 62
3
 10
1092.4061
 20
90.3450
 11
1100.0110
 21
90.3450
  0
LINE
  8
0_00
  6
CONTINUOUS
 62
3
 10
1092.4061
 20
90.6450
 11
1100.0110
 21
90.6450
  0
LINE
  8
0_00
  6
CONTINUOUS
 62
3
 10
1092.4061
 20
90.9451
 11
1100.0110
 21
90.9451
  0
LINE
  8
0_00
  6
CONTINUOUS
 62
3
 10
1085.1010
 20
91.2000
 11
1085.1010
 21
71.7000
  0
LINE
  8
0_00
  6
CONTINUOUS
 62
3
 10
1085.4011
 20
91.2000
 11
1085.4011
 21
71.7000
  0
LINE
  8
0_00
  6
CONTINUOUS
 62
3
 10
1085.7009
 20
91.2000
 11
1085.7009
 21
71.7000
  0
LINE
  8
0_00
  6
CONTINUOUS
 62
3
 10
1086.0008
 20
91.2000
 11
1086.0008
 21
71.7000
  0
LINE
  8
0_00
  6
CONTINUOUS
 62
3
 10
1086.3010
 20
91.2000
 11
1086.3010
 21
71.7000
  0
LINE
  8
0_00
  6
CONTINUOUS
 62
3
 10
1086.6010
 20
91.2000
 11
1086.6010
 21
71.7000
  0
LINE
  8
0_00
  6
CONTINUOUS
 62
3
 10
1087.8311
 20
71.7000
 11
1087.8311
 21
77.0626
  0
LINE
  8
0_00
  6
CONTINUOUS
 62
3
 10
1088.1312
 20
71.7000
 11
1088.1312
 21
77.0626
  0
LINE
  8
0_00
  6
CONTINUOUS
 62
3
 10
1088.4310
 20
71.7000
 11
1088.4310
 21
77.0626
  0
LINE
  8
0_00
  6
CONTINUOUS
 62
3
 10
1088.7309
 20
71.7000
 11
1088.7309
 21
77.0626
  0
LINE
  8
0_00
  6
CONTINUOUS
 62
3
 10
1088.8375
 20
72.4725
 11
1089.6760
 21
72.4725
  0
LINE
  8
0_00
  6
CONTINUOUS
 62
3
 10
1088.8375
 20
72.1725
 11
1089.6760
 21
72.1725
  0
LINE
  8
0_00
  6
CONTINUOUS
 62
3
 10
1088.8375
 20
71.8725
 11
1089.6760
 21
71.8725
  0
LINE
  8
0_00
  6
CONTINUOUS
 62
3
 10
1090.2825
 20
78.4758
 11
1086.7853
 21
78.4758
  0
LINE
  8
0_00
  6
CONTINUOUS
 62
3
 10
1090.1032
 20
78.8278
 11
1086.7853
 21
78.8278
  0
LINE
  8
0_00
  6
CONTINUOUS
 62
3
 10
1089.8939
 20
79.2384
 11
1086.7779
 21
79.2384
  0
LINE
  8
0_00
  6
CONTINUOUS
 62
3
 10
1089.7204
 20
79.5787
 11
1086.7744
 21
79.5787
  0
LINE
  8
0_00
  6
CONTINUOUS
 62
3
 10
1091.0859
 20
83.5262
 11
1089.1502
 21
79.5579
  0
LINE
  8
0_00
  6
CONTINUOUS
 62
3
 10
1090.9896
 20
84.0133
 11
1088.8107
 21
79.5458
  0
LINE
  8
0_00
  6
CONTINUOUS
 62
3
 10
1090.8083
 20
84.3258
 11
1088.4914
 21
79.5758
  0
LINE
  8
0_00
  6
CONTINUOUS
 62
3
 10
1090.6029
 20
84.5893
 11
1088.1454
 21
79.5508
  0
LINE
  8
0_00
  6
CONTINUOUS
 62
3
 10
1090.4008
 20
84.8596
 11
1087.8790
 21
79.6887
  0
LINE
  8
0_00
  6
CONTINUOUS
 62
3
 10
1090.1371
 20
85.0026
 11
1087.4908
 21
79.5774
  0
LINE
  8
0_00
  6
CONTINUOUS
 62
3
 10
1089.8761
 20
85.1521
 11
1087.1534
 21
79.5697
  0
LINE
  8
0_00
  6
CONTINUOUS
 62
3
 10
1089.5665
 20
85.2017
 11
1086.8386
 21
79.6087
  0
LINE
  8
0_00
  6
CONTINUOUS
 62
3
 10
1089.2498
 20
85.2367
 11
1086.7053
 21
80.0197
  0
LINE
  8
0_00
  6
CONTINUOUS
 62
3
 10
1088.9374
 20
85.2802
 11
1086.7329
 21
80.7607
  0
LINE
  8
0_00
  6
CONTINUOUS
 62
3
 10
1088.5957
 20
85.2643
 11
1086.6388
 21
81.2521
  0
LINE
  8
0_00
  6
CONTINUOUS
 62
3
 10
1087.9926
 20
84.4801
 11
1086.7511
 21
84.4801
  0
LINE
  8
0_00
  6
CONTINUOUS
 62
3
 10
1088.2355
 20
84.7801
 11
1086.7511
 21
84.7801
  0
LINE
  8
0_00
  6
CONTINUOUS
 62
3
 10
1088.3496
 20
85.0800
 11
1086.7511
 21
85.0800
  0
LINE
  8
0_00
  6
CONTINUOUS
 62
3
 10
796.2610
 20
852.4893
 11
809.7610
 21
852.4893
  0
LINE
  8
0_00
  6
CONTINUOUS
 62
3
 10
797.1685
 20
854.0609
 11
796.2610
 21
852.4893
  0
LINE
  8
0_00
  6
CONTINUOUS
 62
3
 10
800.8929
 20
860.5119
 11
803.0110
 21
864.1806
  0
LINE
  8
0_00
  6
CONTINUOUS
 62
3
 10
808.8538
 20
854.0609
 11
809.7610
 21
852.4893
  0
LINE
  8
0_00
  6
CONTINUOUS
 62
3
 10
805.1292
 20
860.5119
 11
803.0110
 21
864.1806
  0
LINE
  8
0_00
  6
CONTINUOUS
 62
3
 10
1218.5110
 20
154.2001
 11
1221.5110
 21
154.2001
  0
LINE
  8
0_00
  6
CONTINUOUS
 62
6
 10
1218.5110
 20
175.2001
 11
1221.5110
 21
175.2001
  0
LINE
  8
0_00
  6
CONTINUOUS
 62
6
 10
1218.5110
 20
196.2001
 11
1221.5110
 21
196.2001
  0
LINE
  8
0_00
  6
CONTINUOUS
 62
6
 10
1218.5110
 20
217.2001
 11
1221.5110
 21
217.2001
  0
LINE
  8
0_00
  6
CONTINUOUS
 62
6
 10
1218.5110
 20
238.2001
 11
1221.5110
 21
238.2001
  0
LINE
  8
0_00
  6
CONTINUOUS
 62
6
 10
1218.5110
 20
259.2001
 11
1221.5110
 21
259.2001
  0
LINE
  8
0_00
  6
CONTINUOUS
 62
6
 10
1218.5110
 20
280.2001
 11
1221.5110
 21
280.2001
  0
LINE
  8
0_00
  6
CONTINUOUS
 62
6
 10
1218.5110
 20
301.2001
 11
1221.5110
 21
301.2001
  0
LINE
  8
0_00
  6
CONTINUOUS
 62
6
 10
1218.5110
 20
322.2001
 11
1221.5110
 21
322.2001
  0
LINE
  8
0_00
  6
CONTINUOUS
 62
6
 10
1218.5110
 20
343.2001
 11
1221.5110
 21
343.2001
  0
LINE
  8
0_00
  6
CONTINUOUS
 62
6
 10
1218.5110
 20
364.2001
 11
1221.5110
 21
364.2001
  0
LINE
  8
0_00
  6
CONTINUOUS
 62
6
 10
1218.5110
 20
385.2001
 11
1221.5110
 21
385.2001
  0
LINE
  8
0_00
  6
CONTINUOUS
 62
6
 10
1218.5110
 20
406.2001
 11
1221.5110
 21
406.2001
  0
LINE
  8
0_00
  6
CONTINUOUS
 62
6
 10
1218.5110
 20
427.2001
 11
1221.5110
 21
427.2001
  0
LINE
  8
0_00
  6
CONTINUOUS
 62
6
 10
1218.5110
 20
448.2001
 11
1221.5110
 21
448.2001
  0
LINE
  8
0_00
  6
CONTINUOUS
 62
6
 10
1218.5110
 20
469.2001
 11
1221.5110
 21
469.2001
  0
LINE
  8
0_00
  6
CONTINUOUS
 62
6
 10
1218.5110
 20
490.2001
 11
1221.5110
 21
490.2001
  0
LINE
  8
0_00
  6
CONTINUOUS
 62
3
 10
1218.5110
 20
833.7001
 11
1221.5110
 21
833.7001
  0
LINE
  8
0_00
  6
CONTINUOUS
 62
3
 10
1218.5110
 20
815.7001
 11
1221.5110
 21
815.7001
  0
LINE
  8
0_00
  6
CONTINUOUS
 62
3
 10
1218.5110
 20
797.7001
 11
1221.5110
 21
797.7001
  0
LINE
  8
0_00
  6
CONTINUOUS
 62
3
 10
1218.5110
 20
779.7001
 11
1221.5110
 21
779.7001
  0
LINE
  8
0_00
  6
CONTINUOUS
 62
3
 10
1218.5110
 20
761.7001
 11
1221.5110
 21
761.7001
  0
LINE
  8
0_00
  6
CONTINUOUS
 62
3
 10
1218.5110
 20
743.7001
 11
1221.5110
 21
743.7001
  0
LINE
  8
0_00
  6
CONTINUOUS
 62
6
 10
1218.5110
 20
511.2001
 11
1221.5110
 21
511.2001
  0
LINE
  8
0_00
  6
CONTINUOUS
 62
6
 10
1218.5110
 20
532.2001
 11
1221.5110
 21
532.2001
  0
LINE
  8
0_00
  6
CONTINUOUS
 62
3
 10
1218.5110
 20
553.2001
 11
1221.5110
 21
553.2001
  0
LINE
  8
0_00
  6
CONTINUOUS
 62
3
 10
1218.5110
 20
574.2001
 11
1221.5110
 21
574.2001
  0
LINE
  8
0_00
  6
CONTINUOUS
 62
3
 10
1218.5110
 20
595.2001
 11
1221.5110
 21
595.2001
  0
LINE
  8
0_00
  6
CONTINUOUS
 62
3
 10
1218.5110
 20
616.2001
 11
1221.5110
 21
616.2001
  0
LINE
  8
0_00
  6
CONTINUOUS
 62
3
 10
1218.5110
 20
637.2000
 11
1221.5110
 21
637.2000
  0
LINE
  8
0_00
  6
CONTINUOUS
 62
3
 10
1218.5110
 20
658.2000
 11
1221.5110
 21
658.2000
  0
LINE
  8
0_00
  6
CONTINUOUS
 62
3
 10
1218.5110
 20
679.2000
 11
1221.5110
 21
679.2000
  0
LINE
  8
0_00
  6
CONTINUOUS
 62
3
 10
1218.5110
 20
700.2001
 11
1221.5110
 21
700.2001
  0
LINE
  8
0_00
  6
CONTINUOUS
 62
3
 10
1218.5110
 20
721.2001
 11
1221.5110
 21
721.2001
  0
LINE
  8
0_00
  6
CENTER1
 62
3
 10
881.0410
 20
73.2001
 11
881.0410
 21
91.2001
  0
LINE
  8
0_00
  6
CONTINUOUS
 62
4
 10
891.5411
 20
78.4501
 11
891.5411
 21
85.9501
  0
LINE
  8
0_00
  6
CONTINUOUS
 62
4
 10
905.0410
 20
76.2001
 11
905.0410
 21
88.2001
  0
LINE
  8
0_00
  6
CONTINUOUS
 62
4
 10
891.5411
 20
85.9501
 11
905.0410
 21
88.2001
  0
LINE
  8
0_00
  6
CONTINUOUS
 62
4
 10
891.5411
 20
78.4501
 11
905.0410
 21
76.2001
  0
LINE
  8
0_00
  6
CENTER1
 62
3
 10
872.0411
 20
82.2001
 11
907.3555
 21
82.2001
  0
LINE
  8
0_00
  6
CONTINUOUS
 62
3
 10
1191.5110
 20
37.2000
 11
1191.5110
 21
67.2000
  0
LINE
  8
0_00
  6
CONTINUOUS
 62
3
 10
39.6905
 20
22.2000
 11
1233.5110
 21
22.2000
  0
LINE
  8
0_00
  6
CONTINUOUS
 62
3
 10
1182.5110
 20
865.2001
 11
1182.5110
 21
851.7001
  0
LINE
  8
0_00
  6
CONTINUOUS
 62
3
 10
0.0000
 20
443.7000
 11
39.6905
 21
443.7000
  0
LINE
  8
0_00
  6
CONTINUOUS
 62
3
 10
626.1610
 20
22.2000
 11
626.1610
 21
0.0000
  0
LINE
  8
0_00
  6
CONTINUOUS
 62
3
 10
626.1610
 20
865.2001
 11
626.1610
 21
891.0000
  0
LINE
  8
0_00
  6
CONTINUOUS
 62
3
 10
1233.5110
 20
443.7000
 11
1260.0000
 21
443.7000
  0
LINE
  8
15_0F
  6
CONTINUOUS
 62
6
 10
1043.8116
 20
222.8630
 11
991.9310
 21
222.8630
  0
LINE
  8
15_0F
  6
CONTINUOUS
 62
6
 10
1044.0615
 20
221.3631
 11
991.9310
 21
221.3631
  0
LINE
  8
15_0F
  6
CONTINUOUS
 62
6
 10
996.4310
 20
221.3631
 11
996.4310
 21
222.8630
  0
LINE
  8
15_0F
  6
CONTINUOUS
 62
6
 10
1043.8116
 20
246.3631
 11
991.9310
 21
246.3631
  0
LINE
  8
15_0F
  6
CONTINUOUS
 62
6
 10
996.4310
 20
222.8630
 11
996.4310
 21
246.3631
  0
LINE
  8
15_0F
  6
CONTINUOUS
 62
6
 10
996.4310
 20
222.8630
 11
997.9904
 21
230.1992
  0
LINE
  8
15_0F
  6
CONTINUOUS
 62
6
 10
996.4310
 20
222.8630
 11
994.8717
 21
230.1992
  0
LINE
  8
15_0F
  6
CONTINUOUS
 62
6
 10
996.4310
 20
246.3631
 11
994.8717
 21
239.0269
  0
LINE
  8
15_0F
  6
CONTINUOUS
 62
6
 10
996.4310
 20
246.3631
 11
997.9904
 21
239.0269
  0
LINE
  8
15_0F
  6
CONTINUOUS
 62
6
 10
1043.8116
 20
321.3631
 11
991.9310
 21
321.3631
  0
LINE
  8
15_0F
  6
CONTINUOUS
 62
6
 10
996.4310
 20
246.3631
 11
996.4310
 21
321.3631
  0
LINE
  8
15_0F
  6
CONTINUOUS
 62
6
 10
996.4310
 20
246.3631
 11
997.9904
 21
253.6992
  0
LINE
  8
15_0F
  6
CONTINUOUS
 62
6
 10
996.4310
 20
246.3631
 11
994.8717
 21
253.6992
  0
LINE
  8
15_0F
  6
CONTINUOUS
 62
6
 10
996.4310
 20
321.3631
 11
994.8717
 21
314.0270
  0
LINE
  8
15_0F
  6
CONTINUOUS
 62
6
 10
996.4310
 20
321.3631
 11
997.9904
 21
314.0270
  0
LINE
  8
15_0F
  6
CONTINUOUS
 62
6
 10
996.4310
 20
173.1751
 11
996.4310
 21
221.3631
  0
LINE
  8
15_0F
  6
CONTINUOUS
 62
6
 10
996.4310
 20
221.3631
 11
994.8717
 21
214.0269
  0
LINE
  8
15_0F
  6
CONTINUOUS
 62
6
 10
996.4310
 20
221.3631
 11
997.9904
 21
214.0269
  0
LINE
  8
0_00
  6
CONTINUOUS
 62
6
 10
189.7994
 20
804.0672
 11
189.7994
 21
826.0000
  0
LINE
  8
0_00
  6
CONTINUOUS
 62
6
 10
103.3972
 20
820.0000
 11
189.7994
 21
820.0000
  0
LINE
  8
0_00
  6
CONTINUOUS
 62
6
 10
189.7994
 20
820.0000
 11
182.4633
 21
821.5594
  0
LINE
  8
0_00
  6
CONTINUOUS
 62
6
 10
189.7994
 20
820.0000
 11
182.4633
 21
818.4407
  0
LINE
  8
0_00
  6
CONTINUOUS
 62
6
 10
462.7994
 20
804.0672
 11
462.7994
 21
826.0000
  0
LINE
  8
0_00
  6
CONTINUOUS
 62
6
 10
189.7994
 20
820.0000
 11
462.7994
 21
820.0000
  0
LINE
  8
0_00
  6
CONTINUOUS
 62
6
 10
189.7994
 20
820.0000
 11
197.1355
 21
818.4407
  0
LINE
  8
0_00
  6
CONTINUOUS
 62
6
 10
189.7994
 20
820.0000
 11
197.1355
 21
821.5594
  0
LINE
  8
0_00
  6
CONTINUOUS
 62
6
 10
462.7994
 20
820.0000
 11
455.4633
 21
821.5594
  0
LINE
  8
0_00
  6
CONTINUOUS
 62
6
 10
462.7994
 20
820.0000
 11
455.4633
 21
818.4407
  0
LINE
  8
0_00
  6
CONTINUOUS
 62
6
 10
462.7994
 20
820.0000
 11
559.7607
 21
820.0000
  0
LINE
  8
0_00
  6
CONTINUOUS
 62
6
 10
462.7994
 20
820.0000
 11
470.1355
 21
818.4407
  0
LINE
  8
0_00
  6
CONTINUOUS
 62
6
 10
462.7994
 20
820.0000
 11
470.1355
 21
821.5594
  0
LINE
  8
0_00
  6
CONTINUOUS
 62
6
 10
320.0000
 20
175.2111
 11
320.0000
 21
225.2111
  0
LINE
  8
0_00
  6
CONTINUOUS
 62
6
 10
320.0000
 20
175.2111
 11
321.5593
 21
182.5472
  0
LINE
  8
0_00
  6
CONTINUOUS
 62
6
 10
320.0000
 20
175.2111
 11
318.4407
 21
182.5472
  0
LINE
  8
0_00
  6
CONTINUOUS
 62
6
 10
320.0000
 20
225.2111
 11
318.4407
 21
217.8750
  0
LINE
  8
0_00
  6
CONTINUOUS
 62
6
 10
320.0000
 20
225.2111
 11
321.5593
 21
217.8750
  0
LINE
  8
0_00
  6
CONTINUOUS
 62
6
 10
212.1103
 20
355.2111
 11
326.0000
 21
355.2111
  0
LINE
  8
0_00
  6
CONTINUOUS
 62
6
 10
320.0000
 20
225.2111
 11
320.0000
 21
355.2111
  0
LINE
  8
0_00
  6
CONTINUOUS
 62
6
 10
320.0000
 20
225.2111
 11
321.5593
 21
232.5471
  0
LINE
  8
0_00
  6
CONTINUOUS
 62
6
 10
320.0000
 20
225.2111
 11
318.4407
 21
232.5471
  0
LINE
  8
0_00
  6
CONTINUOUS
 62
6
 10
320.0000
 20
355.2111
 11
318.4407
 21
347.8750
  0
LINE
  8
0_00
  6
CONTINUOUS
 62
6
 10
320.0000
 20
355.2111
 11
321.5593
 21
347.8750
  0
LINE
  8
0_00
  6
CONTINUOUS
 62
6
 10
211.6103
 20
390.2111
 11
326.0000
 21
390.2111
  0
LINE
  8
0_00
  6
CONTINUOUS
 62
6
 10
320.0000
 20
355.2111
 11
320.0000
 21
390.2111
  0
LINE
  8
0_00
  6
CONTINUOUS
 62
6
 10
320.0000
 20
355.2111
 11
321.5593
 21
362.5472
  0
LINE
  8
0_00
  6
CONTINUOUS
 62
6
 10
320.0000
 20
355.2111
 11
318.4407
 21
362.5472
  0
LINE
  8
0_00
  6
CONTINUOUS
 62
6
 10
320.0000
 20
390.2111
 11
318.4407
 21
382.8749
  0
LINE
  8
0_00
  6
CONTINUOUS
 62
6
 10
320.0000
 20
390.2111
 11
321.5593
 21
382.8749
  0
LINE
  8
0_00
  6
CONTINUOUS
 62
6
 10
211.4103
 20
225.2111
 11
304.2414
 21
225.2111
  0
LINE
  8
0_00
  6
CONTINUOUS
 62
6
 10
317.2337
 20
225.2111
 11
326.0000
 21
225.2111
  0
LINE
  8
0_00
  6
CONTINUOUS
 62
6
 10
279.8160
 20
175.2111
 11
304.2414
 21
175.2111
  0
LINE
  8
0_00
  6
CONTINUOUS
 62
6
 10
317.2337
 20
175.2111
 11
326.0000
 21
175.2111
  0
LINE
  8
0_00
  6
CONTINUOUS
 62
6
 10
211.6103
 20
260.2111
 11
306.0000
 21
260.2111
  0
LINE
  8
0_00
  6
CONTINUOUS
 62
6
 10
212.1103
 20
225.2111
 11
306.0000
 21
225.2111
  0
LINE
  8
0_00
  6
CONTINUOUS
 62
6
 10
300.0000
 20
225.2111
 11
300.0000
 21
260.2111
  0
LINE
  8
0_00
  6
CONTINUOUS
 62
6
 10
300.0000
 20
225.2111
 11
301.5593
 21
232.5471
  0
LINE
  8
0_00
  6
CONTINUOUS
 62
6
 10
300.0000
 20
225.2111
 11
298.4407
 21
232.5471
  0
LINE
  8
0_00
  6
CONTINUOUS
 62
6
 10
300.0000
 20
260.2111
 11
298.4407
 21
252.8749
  0
LINE
  8
0_00
  6
CONTINUOUS
 62
6
 10
300.0000
 20
260.2111
 11
301.5593
 21
252.8749
  0
LINE
  8
0_00
  6
CONTINUOUS
 62
6
 10
163.6103
 20
320.0000
 11
188.6103
 21
320.0000
  0
LINE
  8
0_00
  6
CONTINUOUS
 62
6
 10
119.6000
 20
320.0000
 11
163.6103
 21
320.0000
  0
LINE
  8
0_00
  6
CONTINUOUS
 62
6
 10
163.6103
 20
320.0000
 11
156.2742
 21
321.5593
  0
LINE
  8
0_00
  6
CONTINUOUS
 62
6
 10
163.6103
 20
320.0000
 11
156.2742
 21
318.4407
  0
LINE
  8
0_00
  6
CONTINUOUS
 62
6
 10
206.6103
 20
320.0000
 11
188.6103
 21
320.0000
  0
LINE
  8
0_00
  6
CONTINUOUS
 62
6
 10
188.6103
 20
320.0000
 11
195.9464
 21
318.4407
  0
LINE
  8
0_00
  6
CONTINUOUS
 62
6
 10
188.6103
 20
320.0000
 11
195.9464
 21
321.5593
  0
LINE
  8
0_00
  6
CONTINUOUS
 62
4
 10
556.9862
 20
252.3744
 11
630.7862
 21
252.3744
  0
LINE
  8
0_00
  6
CONTINUOUS
 62
6
 10
508.3914
 20
497.5889
 11
584.5914
 21
497.5889
  0
LINE
  8
0_00
  6
CONTINUOUS
 62
6
 10
508.3914
 20
497.5889
 11
515.7275
 21
496.0296
  0
LINE
  8
0_00
  6
CONTINUOUS
 62
6
 10
508.3914
 20
497.5889
 11
515.7275
 21
499.1483
  0
LINE
  8
0_00
  6
CONTINUOUS
 62
6
 10
584.5914
 20
497.5889
 11
577.2554
 21
499.1483
  0
LINE
  8
0_00
  6
CONTINUOUS
 62
6
 10
584.5914
 20
497.5889
 11
577.2554
 21
496.0296
  0
LINE
  8
0_00
  6
CONTINUOUS
 62
6
 10
426.4915
 20
320.7064
 11
426.4915
 21
277.8130
  0
LINE
  8
0_00
  6
CONTINUOUS
 62
6
 10
455.5914
 20
350.7064
 11
455.5914
 21
277.8130
  0
LINE
  8
0_00
  6
CONTINUOUS
 62
6
 10
426.4915
 20
283.8130
 11
455.5914
 21
283.8130
  0
LINE
  8
0_00
  6
CONTINUOUS
 62
6
 10
456.4915
 20
350.7064
 11
456.4915
 21
277.8130
  0
LINE
  8
0_00
  6
CONTINUOUS
 62
6
 10
455.5914
 20
283.8130
 11
456.4915
 21
283.8130
  0
LINE
  8
0_00
  6
CONTINUOUS
 62
6
 10
456.4915
 20
283.8130
 11
612.0641
 21
283.8130
  0
LINE
  8
0_00
  6
CONTINUOUS
 62
6
 10
456.4915
 20
283.8130
 11
463.8276
 21
282.2537
  0
LINE
  8
0_00
  6
CONTINUOUS
 62
6
 10
456.4915
 20
283.8130
 11
463.8276
 21
285.3723
  0
LINE
  8
0_00
  6
CONTINUOUS
 62
6
 10
368.2915
 20
283.8130
 11
426.4915
 21
283.8130
  0
LINE
  8
0_00
  6
CONTINUOUS
 62
6
 10
426.4915
 20
283.8130
 11
419.1553
 21
285.3723
  0
LINE
  8
0_00
  6
CONTINUOUS
 62
6
 10
426.4915
 20
283.8130
 11
419.1553
 21
282.2537
  0
LINE
  8
0_00
  6
CONTINUOUS
 62
4
 10
226.3612
 20
140.7939
 11
271.3612
 21
140.7939
  0
LINE
  8
0_00
  6
CONTINUOUS
 62
6
 10
778.2484
 20
346.8631
 11
734.0000
 21
346.8631
  0
LINE
  8
0_00
  6
CONTINUOUS
 62
6
 10
778.2484
 20
222.8630
 11
734.0000
 21
222.8630
  0
LINE
  8
0_00
  6
CONTINUOUS
 62
6
 10
740.0000
 20
346.8631
 11
740.0000
 21
222.8630
  0
LINE
  8
0_00
  6
CONTINUOUS
 62
6
 10
740.0000
 20
346.8631
 11
738.4407
 21
339.5269
  0
LINE
  8
0_00
  6
CONTINUOUS
 62
6
 10
740.0000
 20
346.8631
 11
741.5593
 21
339.5269
  0
LINE
  8
0_00
  6
CONTINUOUS
 62
6
 10
740.0000
 20
222.8630
 11
741.5593
 21
230.1992
  0
LINE
  8
0_00
  6
CONTINUOUS
 62
6
 10
740.0000
 20
222.8630
 11
738.4407
 21
230.1992
  0
LINE
  8
0_00
  6
CONTINUOUS
 62
6
 10
793.2484
 20
207.8630
 11
793.2484
 21
134.0000
  0
LINE
  8
0_00
  6
CONTINUOUS
 62
6
 10
840.6485
 20
207.8630
 11
840.6485
 21
134.0000
  0
LINE
  8
0_00
  6
CONTINUOUS
 62
6
 10
793.2484
 20
140.0000
 11
840.6485
 21
140.0000
  0
LINE
  8
0_00
  6
CONTINUOUS
 62
6
 10
793.2484
 20
140.0000
 11
800.5845
 21
138.4407
  0
LINE
  8
0_00
  6
CONTINUOUS
 62
6
 10
793.2484
 20
140.0000
 11
800.5845
 21
141.5593
  0
LINE
  8
0_00
  6
CONTINUOUS
 62
6
 10
840.6485
 20
140.0000
 11
833.3123
 21
141.5593
  0
LINE
  8
0_00
  6
CONTINUOUS
 62
6
 10
840.6485
 20
140.0000
 11
833.3123
 21
138.4407
  0
LINE
  8
0_00
  6
CONTINUOUS
 62
6
 10
1048.3115
 20
207.8630
 11
1048.3115
 21
134.0000
  0
LINE
  8
0_00
  6
CONTINUOUS
 62
6
 10
1110.3115
 20
207.8630
 11
1110.3115
 21
134.0000
  0
LINE
  8
0_00
  6
CONTINUOUS
 62
6
 10
1048.3115
 20
140.0000
 11
1110.3115
 21
140.0000
  0
LINE
  8
0_00
  6
CONTINUOUS
 62
6
 10
1048.3115
 20
140.0000
 11
1055.6476
 21
138.4407
  0
LINE
  8
0_00
  6
CONTINUOUS
 62
6
 10
1048.3115
 20
140.0000
 11
1055.6476
 21
141.5593
  0
LINE
  8
0_00
  6
CONTINUOUS
 62
6
 10
1110.3115
 20
140.0000
 11
1102.9753
 21
141.5593
  0
LINE
  8
0_00
  6
CONTINUOUS
 62
6
 10
1110.3115
 20
140.0000
 11
1102.9753
 21
138.4407
  0
LINE
  8
0_00
  6
CONTINUOUS
 62
4
 10
336.8712
 20
556.1188
 11
475.4713
 21
556.1188
  0
LINE
  8
0_00
  6
CONTINUOUS
 62
4
 10
503.0361
 20
555.2018
 11
568.6365
 21
555.2018
  0
CIRCLE
  8
3_03
  6
CONTINUOUS
 62
2
 10
221.5244
 20
650.7077
 40
0.6000
  0
ARC
  8
3_03
  6
CONTINUOUS
 62
2
 10
221.5244
 20
650.7077
 40
0.3000
 50
36.1800
 51
53.8200
  0
ARC
  8
3_03
  6
CONTINUOUS
 62
2
 10
221.5244
 20
650.7077
 40
0.3000
 50
126.2068
 51
143.6799
  0
ARC
  8
3_03
  6
CONTINUOUS
 62
2
 10
221.5244
 20
650.7077
 40
0.3000
 50
216.1800
 51
233.7058
  0
ARC
  8
3_03
  6
CONTINUOUS
 62
2
 10
221.5244
 20
650.7077
 40
0.3000
 50
306.2068
 51
323.7932
  0
CIRCLE
  8
3_03
  6
CONTINUOUS
 62
2
 10
278.6744
 20
650.7077
 40
0.6000
  0
ARC
  8
3_03
  6
CONTINUOUS
 62
2
 10
278.6744
 20
650.7077
 40
0.3000
 50
36.1800
 51
53.8200
  0
ARC
  8
3_03
  6
CONTINUOUS
 62
2
 10
278.6744
 20
650.7077
 40
0.3000
 50
126.2068
 51
143.6799
  0
ARC
  8
3_03
  6
CONTINUOUS
 62
2
 10
278.6744
 20
650.7077
 40
0.3000
 50
216.1800
 51
233.7058
  0
ARC
  8
3_03
  6
CONTINUOUS
 62
2
 10
278.6744
 20
650.7077
 40
0.3000
 50
306.2068
 51
323.7932
  0
CIRCLE
  8
3_03
  6
CONTINUOUS
 62
2
 10
335.8244
 20
650.7077
 40
0.6000
  0
ARC
  8
3_03
  6
CONTINUOUS
 62
2
 10
335.8244
 20
650.7077
 40
0.3000
 50
36.1800
 51
53.8200
  0
ARC
  8
3_03
  6
CONTINUOUS
 62
2
 10
335.8244
 20
650.7077
 40
0.3000
 50
126.2068
 51
143.6799
  0
ARC
  8
3_03
  6
CONTINUOUS
 62
2
 10
335.8244
 20
650.7077
 40
0.3000
 50
216.1800
 51
233.7058
  0
ARC
  8
3_03
  6
CONTINUOUS
 62
2
 10
335.8244
 20
650.7077
 40
0.3000
 50
306.2068
 51
323.7932
  0
CIRCLE
  8
3_03
  6
CONTINUOUS
 62
2
 10
392.9744
 20
650.7077
 40
0.6000
  0
ARC
  8
3_03
  6
CONTINUOUS
 62
2
 10
392.9744
 20
650.7077
 40
0.3000
 50
36.1800
 51
53.8200
  0
ARC
  8
3_03
  6
CONTINUOUS
 62
2
 10
392.9744
 20
650.7077
 40
0.3000
 50
126.2068
 51
143.6799
  0
ARC
  8
3_03
  6
CONTINUOUS
 62
2
 10
392.9744
 20
650.7077
 40
0.3000
 50
216.1800
 51
233.7058
  0
ARC
  8
3_03
  6
CONTINUOUS
 62
2
 10
392.9744
 20
650.7077
 40
0.3000
 50
306.2068
 51
323.7932
  0
CIRCLE
  8
3_03
  6
CONTINUOUS
 62
2
 10
431.0744
 20
650.7077
 40
0.6000
  0
ARC
  8
3_03
  6
CONTINUOUS
 62
2
 10
431.0744
 20
650.7077
 40
0.3000
 50
36.1800
 51
53.8200
  0
ARC
  8
3_03
  6
CONTINUOUS
 62
2
 10
431.0744
 20
650.7077
 40
0.3000
 50
126.2068
 51
143.6799
  0
ARC
  8
3_03
  6
CONTINUOUS
 62
2
 10
431.0744
 20
650.7077
 40
0.3000
 50
216.1800
 51
233.7058
  0
ARC
  8
3_03
  6
CONTINUOUS
 62
2
 10
431.0744
 20
650.7077
 40
0.3000
 50
306.2068
 51
323.7932
  0
CIRCLE
  8
3_03
  6
CONTINUOUS
 62
2
 10
494.5244
 20
650.7077
 40
0.6000
  0
ARC
  8
3_03
  6
CONTINUOUS
 62
2
 10
494.5244
 20
650.7077
 40
0.3000
 50
36.1800
 51
53.8200
  0
ARC
  8
3_03
  6
CONTINUOUS
 62
2
 10
494.5244
 20
650.7077
 40
0.3000
 50
126.2068
 51
143.6799
  0
ARC
  8
3_03
  6
CONTINUOUS
 62
2
 10
494.5244
 20
650.7077
 40
0.3000
 50
216.1800
 51
233.7058
  0
ARC
  8
3_03
  6
CONTINUOUS
 62
2
 10
494.5244
 20
650.7077
 40
0.3000
 50
306.2068
 51
323.7932
  0
CIRCLE
  8
3_03
  6
CONTINUOUS
 62
2
 10
158.0744
 20
650.7077
 40
0.6000
  0
ARC
  8
3_03
  6
CONTINUOUS
 62
2
 10
158.0744
 20
650.7077
 40
0.3000
 50
36.1800
 51
53.8200
  0
ARC
  8
3_03
  6
CONTINUOUS
 62
2
 10
158.0744
 20
650.7077
 40
0.3000
 50
126.2068
 51
143.6799
  0
ARC
  8
3_03
  6
CONTINUOUS
 62
2
 10
158.0744
 20
650.7077
 40
0.3000
 50
216.1800
 51
233.7058
  0
ARC
  8
3_03
  6
CONTINUOUS
 62
2
 10
158.0744
 20
650.7077
 40
0.3000
 50
306.2068
 51
323.7932
  0
CIRCLE
  8
3_03
  6
CONTINUOUS
 62
2
 10
119.9744
 20
650.7077
 40
0.6000
  0
ARC
  8
3_03
  6
CONTINUOUS
 62
2
 10
119.9744
 20
650.7077
 40
0.3000
 50
36.1800
 51
53.8200
  0
ARC
  8
3_03
  6
CONTINUOUS
 62
2
 10
119.9744
 20
650.7077
 40
0.3000
 50
126.2068
 51
143.6799
  0
ARC
  8
3_03
  6
CONTINUOUS
 62
2
 10
119.9744
 20
650.7077
 40
0.3000
 50
216.1800
 51
233.7058
  0
ARC
  8
3_03
  6
CONTINUOUS
 62
2
 10
119.9744
 20
650.7077
 40
0.3000
 50
306.2068
 51
323.7932
  0
ARC
  8
0_00
  6
CONTINUOUS
 62
4
 10
196.6103
 20
388.2111
 40
2.0000
 50
0.0000
 51
90.0000
  0
ARC
  8
0_00
  6
CONTINUOUS
 62
4
 10
197.1103
 20
356.7111
 40
1.5000
 50
270.0000
 51
360.0000
  0
ARC
  8
0_00
  6
CONTINUOUS
 62
4
 10
196.4103
 20
355.5110
 40
0.3000
 50
180.0000
 51
270.0000
  0
ARC
  8
0_00
  6
CONTINUOUS
 62
4
 10
196.4103
 20
356.4111
 40
0.3000
 50
90.0000
 51
180.0000
  0
ARC
  8
0_00
  6
CONTINUOUS
 62
4
 10
190.3469
 20
388.2111
 40
0.5000
 50
90.0000
 51
165.0686
  0
ARC
  8
0_00
  6
CONTINUOUS
 62
4
 10
161.8737
 20
388.2111
 40
0.5000
 50
14.9314
 51
90.0000
  0
ARC
  8
0_00
  6
CONTINUOUS
 62
4
 10
196.8131
 20
388.4111
 40
0.3000
 50
0.5371
 51
90.0000
  0
ARC
  8
0_00
  6
CONTINUOUS
 62
4
 10
197.1075
 20
357.0111
 40
0.3000
 50
270.0000
 51
360.5371
  0
ARC
  8
0_00
  6
CONTINUOUS
 62
4
 10
155.6103
 20
388.2111
 40
2.0000
 50
90.0000
 51
180.0000
  0
ARC
  8
0_00
  6
CONTINUOUS
 62
4
 10
155.1103
 20
356.7111
 40
1.5000
 50
180.0000
 51
270.0000
  0
ARC
  8
0_00
  6
CONTINUOUS
 62
4
 10
155.8103
 20
355.5110
 40
0.3000
 50
270.0000
 51
360.0000
  0
ARC
  8
0_00
  6
CONTINUOUS
 62
4
 10
155.8103
 20
356.4111
 40
0.3000
 50
0.0000
 51
90.0000
  0
ARC
  8
0_00
  6
CONTINUOUS
 62
4
 10
155.4075
 20
388.4111
 40
0.3000
 50
90.0000
 51
179.4629
  0
ARC
  8
0_00
  6
CONTINUOUS
 62
4
 10
155.1132
 20
357.0111
 40
0.3000
 50
179.4629
 51
270.0000
  0
ARC
  8
14_0E
  6
CONTINUOUS
 62
4
 10
155.2103
 20
357.0111
 40
0.3000
 50
180.0000
 51
270.0000
  0
ARC
  8
0_00
  6
CONTINUOUS
 62
4
 10
157.8465
 20
380.1111
 40
0.6000
 50
90.0000
 51
134.1875
  0
ARC
  8
0_00
  6
CONTINUOUS
 62
4
 10
157.7836
 20
361.9111
 40
1.0000
 50
177.9744
 51
270.0000
  0
ARC
  8
0_00
  6
CONTINUOUS
 62
4
 10
161.6103
 20
376.2389
 40
6.0000
 50
134.1875
 51
180.0000
  0
ARC
  8
0_00
  6
CONTINUOUS
 62
4
 10
274.9103
 20
357.7685
 40
120.0000
 50
173.8083
 51
180.0000
  0
ARC
  8
0_00
  6
CONTINUOUS
 62
4
 10
274.9103
 20
357.7685
 40
118.2000
 50
174.4447
 51
177.9744
  0
ARC
  8
14_0E
  6
CONTINUOUS
 62
4
 10
197.0103
 20
357.0111
 40
0.3000
 50
270.0000
 51
360.0000
  0
ARC
  8
0_00
  6
CONTINUOUS
 62
4
 10
194.3742
 20
380.1111
 40
0.6000
 50
45.8125
 51
90.0000
  0
ARC
  8
0_00
  6
CONTINUOUS
 62
4
 10
194.4371
 20
361.9111
 40
1.0000
 50
270.0000
 51
362.0248
  0
ARC
  8
0_00
  6
CONTINUOUS
 62
4
 10
190.6103
 20
376.2389
 40
6.0000
 50
0.0000
 51
45.8125
  0
ARC
  8
0_00
  6
CONTINUOUS
 62
4
 10
77.3103
 20
357.7685
 40
120.0000
 50
0.0000
 51
6.1917
  0
ARC
  8
0_00
  6
CONTINUOUS
 62
4
 10
77.3103
 20
357.7685
 40
118.2000
 50
2.0256
 51
5.5553
  0
ARC
  8
12_0C
  6
CONTINUOUS
 62
2
 10
156.4708
 20
374.2111
 40
5.1605
 50
129.1846
 51
230.8154
  0
ARC
  8
12_0C
  6
CONTINUOUS
 62
2
 10
195.7498
 20
374.2111
 40
5.1605
 50
309.1846
 51
410.8154
  0
ARC
  8
0_00
  6
CONTINUOUS
 62
4
 10
196.6103
 20
258.2111
 40
2.0000
 50
0.0000
 51
90.0000
  0
ARC
  8
0_00
  6
CONTINUOUS
 62
4
 10
197.1103
 20
226.7111
 40
1.5000
 50
270.0000
 51
360.0000
  0
ARC
  8
0_00
  6
CONTINUOUS
 62
4
 10
196.4103
 20
225.5111
 40
0.3000
 50
180.0000
 51
270.0000
  0
ARC
  8
0_00
  6
CONTINUOUS
 62
4
 10
196.4103
 20
226.4111
 40
0.3000
 50
90.0000
 51
180.0000
  0
ARC
  8
0_00
  6
CONTINUOUS
 62
4
 10
190.3469
 20
258.2111
 40
0.5000
 50
90.0000
 51
165.0686
  0
ARC
  8
0_00
  6
CONTINUOUS
 62
4
 10
161.8737
 20
258.2111
 40
0.5000
 50
14.9314
 51
90.0000
  0
ARC
  8
0_00
  6
CONTINUOUS
 62
4
 10
196.8131
 20
258.4111
 40
0.3000
 50
0.5371
 51
90.0000
  0
ARC
  8
0_00
  6
CONTINUOUS
 62
4
 10
197.1075
 20
227.0111
 40
0.3000
 50
270.0000
 51
360.5371
  0
ARC
  8
0_00
  6
CONTINUOUS
 62
4
 10
155.6103
 20
258.2111
 40
2.0000
 50
90.0000
 51
180.0000
  0
ARC
  8
0_00
  6
CONTINUOUS
 62
4
 10
155.1103
 20
226.7111
 40
1.5000
 50
180.0000
 51
270.0000
  0
ARC
  8
0_00
  6
CONTINUOUS
 62
4
 10
155.8103
 20
225.5111
 40
0.3000
 50
270.0000
 51
360.0000
  0
ARC
  8
0_00
  6
CONTINUOUS
 62
4
 10
155.8103
 20
226.4111
 40
0.3000
 50
0.0000
 51
90.0000
  0
ARC
  8
0_00
  6
CONTINUOUS
 62
4
 10
155.4075
 20
258.4111
 40
0.3000
 50
90.0000
 51
179.4629
  0
ARC
  8
0_00
  6
CONTINUOUS
 62
4
 10
155.1132
 20
227.0111
 40
0.3000
 50
179.4629
 51
270.0000
  0
ARC
  8
0_00
  6
CONTINUOUS
 62
2
 10
206.0258
 20
310.1265
 40
5.0000
 50
190.5501
 51
259.4499
  0
ARC
  8
0_00
  6
CONTINUOUS
 62
2
 10
146.1949
 20
310.1265
 40
5.0000
 50
280.5501
 51
349.4499
  0
ARC
  8
12_0C
  6
CONTINUOUS
 62
2
 10
178.3103
 20
361.1811
 40
1.3000
 50
0.0000
 51
73.3778
  0
ARC
  8
12_0C
  6
CONTINUOUS
 62
2
 10
176.1103
 20
353.8111
 40
9.0000
 50
73.3790
 51
106.6667
  0
ARC
  8
12_0C
  6
CONTINUOUS
 62
2
 10
173.9103
 20
361.1811
 40
1.3000
 50
106.6222
 51
180.0000
  0
ARC
  8
12_0C
  6
CONTINUOUS
 62
2
 10
173.9103
 20
385.9411
 40
1.3000
 50
180.0000
 51
253.3778
  0
ARC
  8
12_0C
  6
CONTINUOUS
 62
2
 10
176.1103
 20
393.3111
 40
9.0000
 50
253.3790
 51
286.6667
  0
ARC
  8
12_0C
  6
CONTINUOUS
 62
2
 10
178.3103
 20
385.9411
 40
1.3000
 50
286.6222
 51
360.0000
  0
ARC
  8
12_0C
  6
CONTINUOUS
 62
2
 10
173.9103
 20
255.9411
 40
1.3000
 50
180.0000
 51
253.3778
  0
ARC
  8
12_0C
  6
CONTINUOUS
 62
2
 10
176.1103
 20
263.3111
 40
9.0000
 50
253.3790
 51
286.6667
  0
ARC
  8
12_0C
  6
CONTINUOUS
 62
2
 10
178.3103
 20
255.9411
 40
1.3000
 50
286.6222
 51
360.0000
  0
ARC
  8
3_03
  6
CONTINUOUS
 62
2
 10
176.1103
 20
381.0111
 40
4.0000
 50
118.7257
 51
421.2743
  0
ARC
  8
3_03
  6
CONTINUOUS
 62
2
 10
176.1103
 20
381.0111
 40
2.0000
 50
36.1800
 51
53.8200
  0
ARC
  8
3_03
  6
CONTINUOUS
 62
2
 10
176.1103
 20
381.0111
 40
2.0000
 50
126.2068
 51
143.6799
  0
ARC
  8
3_03
  6
CONTINUOUS
 62
2
 10
176.1103
 20
381.0111
 40
2.0000
 50
216.1800
 51
233.7058
  0
ARC
  8
3_03
  6
CONTINUOUS
 62
2
 10
176.1103
 20
381.0111
 40
2.0000
 50
306.2068
 51
323.7932
  0
CIRCLE
  8
3_03
  6
CONTINUOUS
 62
2
 10
176.1103
 20
368.0110
 40
4.0000
  0
ARC
  8
3_03
  6
CONTINUOUS
 62
2
 10
176.1103
 20
368.0110
 40
2.0000
 50
36.1800
 51
53.8200
  0
ARC
  8
3_03
  6
CONTINUOUS
 62
2
 10
176.1103
 20
368.0110
 40
2.0000
 50
126.2068
 51
143.6799
  0
ARC
  8
3_03
  6
CONTINUOUS
 62
2
 10
176.1103
 20
368.0110
 40
2.0000
 50
216.1800
 51
233.7058
  0
ARC
  8
3_03
  6
CONTINUOUS
 62
2
 10
176.1103
 20
368.0110
 40
2.0000
 50
306.2068
 51
323.7932
  0
ARC
  8
12_0C
  6
CONTINUOUS
 62
2
 10
194.1103
 20
387.3506
 40
5.1605
 50
39.1846
 51
140.8154
  0
ARC
  8
12_0C
  6
CONTINUOUS
 62
2
 10
158.1103
 20
387.3506
 40
5.1605
 50
39.1846
 51
140.8154
  0
CIRCLE
  8
0_00
  6
CONTINUOUS
 62
6
 10
176.1103
 20
251.0110
 40
2.3000
  0
CIRCLE
  8
0_00
  6
CONTINUOUS
 62
6
 10
176.1103
 20
238.0111
 40
2.3000
  0
ARC
  8
12_0C
  6
CONTINUOUS
 62
2
 10
158.1103
 20
257.3505
 40
5.1605
 50
39.1846
 51
140.8154
  0
ARC
  8
12_0C
  6
CONTINUOUS
 62
2
 10
194.1103
 20
257.3505
 40
5.1605
 50
39.1846
 51
140.8154
  0
ARC
  8
0_00
  6
CONTINUOUS
 62
2
 10
819.2484
 20
221.3631
 40
0.9000
 50
270.0000
 51
360.0000
  0
ARC
  8
0_00
  6
CONTINUOUS
 62
2
 10
814.6485
 20
221.3631
 40
0.9000
 50
180.0000
 51
270.0000
  0
ARC
  8
0_00
  6
CONTINUOUS
 62
4
 10
845.2612
 20
316.7394
 40
2.8874
 50
319.4686
 51
400.5314
  0
ARC
  8
0_00
  6
CONTINUOUS
 62
4
 10
845.2612
 20
327.9867
 40
2.8874
 50
319.4686
 51
400.5314
  0
ARC
  8
0_00
  6
CONTINUOUS
 62
4
 10
837.6683
 20
322.3631
 40
10.4801
 50
339.0499
 51
380.9501
  0
ARC
  8
0_00
  6
DASHED
 62
2
 10
830.4984
 20
226.0631
 40
3.2000
 50
270.0000
 51
360.0000
  0
ARC
  8
0_00
  6
CONTINUOUS
 62
4
 10
845.2612
 20
241.7394
 40
2.8874
 50
319.4686
 51
400.5314
  0
ARC
  8
0_00
  6
CONTINUOUS
 62
4
 10
845.2612
 20
252.9867
 40
2.8874
 50
319.4686
 51
400.5314
  0
ARC
  8
0_00
  6
CONTINUOUS
 62
4
 10
837.6683
 20
247.3631
 40
10.4801
 50
339.0499
 51
380.9501
  0
ARC
  8
0_00
  6
CONTINUOUS
 62
4
 10
788.6358
 20
316.7394
 40
2.8874
 50
139.4686
 51
220.5314
  0
ARC
  8
0_00
  6
CONTINUOUS
 62
4
 10
788.6358
 20
327.9867
 40
2.8874
 50
139.4686
 51
220.5314
  0
ARC
  8
0_00
  6
CONTINUOUS
 62
4
 10
796.2285
 20
322.3631
 40
10.4801
 50
159.0499
 51
200.9501
  0
ARC
  8
0_00
  6
CONTINUOUS
 62
4
 10
788.6358
 20
241.7394
 40
2.8874
 50
139.4686
 51
220.5314
  0
ARC
  8
0_00
  6
CONTINUOUS
 62
4
 10
788.6358
 20
252.9867
 40
2.8874
 50
139.4686
 51
220.5314
  0
ARC
  8
0_00
  6
CONTINUOUS
 62
4
 10
796.2285
 20
247.3631
 40
10.4801
 50
159.0499
 51
200.9501
  0
ARC
  8
0_00
  6
DASHED
 62
2
 10
803.3985
 20
226.0631
 40
3.2000
 50
180.0000
 51
270.0000
  0
ARC
  8
0_00
  6
CONTINUOUS
 62
4
 10
1073.8115
 20
332.3631
 40
4.5000
 50
0.0000
 51
180.0000
  0
ARC
  8
0_00
  6
CONTINUOUS
 62
4
 10
1073.8115
 20
312.3630
 40
4.5000
 50
180.0000
 51
360.0000
  0
ARC
  8
0_00
  6
CONTINUOUS
 62
4
 10
1073.8115
 20
237.3631
 40
4.5000
 50
180.0000
 51
360.0000
  0
ARC
  8
0_00
  6
CONTINUOUS
 62
4
 10
1073.8115
 20
257.3630
 40
4.5000
 50
0.0000
 51
180.0000
  0
ARC
  8
0_00
  6
CONTINUOUS
 62
2
 10
1076.1116
 20
221.3631
 40
0.9000
 50
270.0000
 51
360.0000
  0
ARC
  8
0_00
  6
CONTINUOUS
 62
2
 10
1071.5115
 20
221.3631
 40
0.9000
 50
180.0000
 51
270.0000
  0
ARC
  8
0_00
  6
DASHED
 62
2
 10
827.6986
 20
316.7394
 40
2.8001
 50
137.9250
 51
222.0750
  0
ARC
  8
0_00
  6
DASHED
 62
2
 10
827.6986
 20
327.9867
 40
2.8001
 50
137.9250
 51
222.0750
  0
ARC
  8
0_00
  6
DASHED
 62
2
 10
834.9877
 20
322.3631
 40
10.0892
 50
158.1974
 51
201.8026
  0
ARC
  8
0_00
  6
DASHED
 62
2
 10
827.6986
 20
241.7394
 40
2.8001
 50
137.9250
 51
222.0750
  0
ARC
  8
0_00
  6
DASHED
 62
2
 10
827.6986
 20
252.9867
 40
2.8001
 50
137.9250
 51
222.0750
  0
ARC
  8
0_00
  6
DASHED
 62
2
 10
834.9877
 20
247.3631
 40
10.0892
 50
158.1974
 51
201.8026
  0
ARC
  8
0_00
  6
DASHED
 62
2
 10
806.1983
 20
316.7394
 40
2.8001
 50
317.9250
 51
402.0750
  0
ARC
  8
0_00
  6
DASHED
 62
2
 10
806.1983
 20
327.9867
 40
2.8001
 50
317.9250
 51
402.0750
  0
ARC
  8
0_00
  6
DASHED
 62
2
 10
798.9092
 20
322.3631
 40
10.0892
 50
338.1974
 51
381.8026
  0
ARC
  8
0_00
  6
DASHED
 62
2
 10
806.1983
 20
241.7394
 40
2.8001
 50
317.9250
 51
402.0750
  0
ARC
  8
0_00
  6
DASHED
 62
2
 10
806.1983
 20
252.9867
 40
2.8001
 50
317.9250
 51
402.0750
  0
ARC
  8
0_00
  6
DASHED
 62
2
 10
798.9092
 20
247.3631
 40
10.0892
 50
338.1974
 51
381.8026
  0
CIRCLE
  8
0_00
  6
CONTINUOUS
 62
4
 10
1073.8115
 20
321.3631
 40
6.5000
  0
CIRCLE
  8
0_00
  6
CONTINUOUS
 62
4
 10
1073.8115
 20
321.3631
 40
7.7000
  0
CIRCLE
  8
0_00
  6
CONTINUOUS
 62
4
 10
1073.8115
 20
246.3631
 40
6.5000
  0
CIRCLE
  8
0_00
  6
CONTINUOUS
 62
4
 10
1073.8115
 20
246.3631
 40
7.7000
  0
ARC
  8
0_00
  6
CONTINUOUS
 62
2
 10
396.4407
 20
416.6557
 40
3.0000
 50
190.5501
 51
259.4499
  0
ARC
  8
0_00
  6
CONTINUOUS
 62
2
 10
366.5422
 20
416.6557
 40
3.0000
 50
280.5501
 51
349.4499
  0
CIRCLE
  8
3_03
  6
CONTINUOUS
 62
2
 10
508.3914
 20
455.1064
 40
2.4000
  0
ARC
  8
3_03
  6
CONTINUOUS
 62
2
 10
508.3914
 20
455.1064
 40
1.2000
 50
36.1800
 51
53.8200
  0
ARC
  8
3_03
  6
CONTINUOUS
 62
2
 10
508.3914
 20
455.1064
 40
1.2000
 50
126.2068
 51
143.6799
  0
ARC
  8
3_03
  6
CONTINUOUS
 62
2
 10
508.3914
 20
455.1064
 40
1.2000
 50
216.1800
 51
233.7058
  0
ARC
  8
3_03
  6
CONTINUOUS
 62
2
 10
508.3914
 20
455.1064
 40
1.2000
 50
306.2068
 51
323.7932
  0
ARC
  8
12_0C
  6
CONTINUOUS
 62
2
 10
474.4915
 20
384.9901
 40
3.0963
 50
39.1846
 51
140.8154
  0
ARC
  8
0_00
  6
CONTINUOUS
 62
6
 10
456.8514
 20
381.8200
 40
1.8000
 50
159.4440
 51
180.0000
  0
ARC
  8
0_00
  6
CONTINUOUS
 62
6
 10
456.8514
 20
380.5528
 40
1.8000
 50
180.0000
 51
200.5560
  0
ARC
  8
0_00
  6
CONTINUOUS
 62
6
 10
456.8514
 20
374.0200
 40
1.8000
 50
159.4440
 51
180.0000
  0
ARC
  8
0_00
  6
CONTINUOUS
 62
6
 10
456.8514
 20
372.7528
 40
1.8000
 50
180.0000
 51
200.5560
  0
CIRCLE
  8
0_00
  6
CONTINUOUS
 62
2
 10
192.3028
 20
636.6299
 40
40.9015
  0
ARC
  8
0_00
  6
CONTINUOUS
 62
3
 10
1089.6760
 20
72.2363
 40
0.5362
 50
270.0000
 51
450.0000
  0
ARC
  8
0_00
  6
CONTINUOUS
 62
3
 10
1088.1842
 20
77.0626
 40
0.6532
 50
0.0000
 51
180.0000
  0
ARC
  8
0_00
  6
CONTINUOUS
 62
3
 10
1089.1886
 20
83.4001
 40
1.9500
 50
333.9999
 51
450.0000
  0
CIRCLE
  8
0_00
  6
CONTINUOUS
 62
3
 10
1090.0660
 20
87.3000
 40
1.5600
  0
ARC
  8
0_00
  6
CONTINUOUS
 62
3
 10
1088.2811
 20
77.0626
 40
0.4500
 50
0.0000
 51
180.0000
  0
ARC
  8
0_00
  6
CONTINUOUS
 62
3
 10
1088.2811
 20
77.0626
 40
0.1500
 50
0.0000
 51
180.0000
  0
ARC
  8
0_00
  6
CONTINUOUS
 62
3
 10
1089.6760
 20
72.1725
 40
0.3000
 50
270.0000
 51
450.0000
  0
CIRCLE
  8
0_00
  6
CONTINUOUS
 62
3
 10
1090.0660
 20
87.3000
 40
1.3244
  0
CIRCLE
  8
0_00
  6
CONTINUOUS
 62
3
 10
1090.0660
 20
87.3000
 40
1.0256
  0
CIRCLE
  8
0_00
  6
CONTINUOUS
 62
3
 10
1090.0660
 20
87.3000
 40
0.7027
  0
CIRCLE
  8
0_00
  6
CONTINUOUS
 62
3
 10
1090.0660
 20
87.3000
 40
0.3440
  0
CIRCLE
  8
0_00
  6
CONTINUOUS
 62
3
 10
1090.0660
 20
87.3000
 40
0.1699
  0
CIRCLE
  8
0_00
  6
CONTINUOUS
 62
4
 10
881.0410
 20
82.2001
 40
3.7500
  0
CIRCLE
  8
0_00
  6
CONTINUOUS
 62
4
 10
881.0410
 20
82.2001
 40
6.0000
  0
ARC
  8
0_00
  6
CONTINUOUS
 62
3
 10
526.1765
 20
292.8386
 40
5.7719
 50
275.4212
 51
384.1064
  0
ARC
  8
0_00
  6
CONTINUOUS
 62
3
 10
534.2162
 20
292.7165
 40
5.6390
 50
153.3421
 51
265.8210
  0
ARC
  8
0_00
  6
CONTINUOUS
 62
3
 10
530.2988
 20
294.6831
 40
1.2558
 50
24.1064
 51
153.3421
  0
ARC
  8
0_00
  6
CONTINUOUS
 62
3
 10
231.6722
 20
105.8579
 40
5.7719
 50
275.4212
 51
384.1064
  0
ARC
  8
0_00
  6
CONTINUOUS
 62
3
 10
239.7119
 20
105.7358
 40
5.6390
 50
153.3421
 51
265.8210
  0
ARC
  8
0_00
  6
CONTINUOUS
 62
3
 10
235.7945
 20
107.7024
 40
1.2558
 50
24.1064
 51
153.3421
  0
TEXT
  8
15_0F
 62
7
 10
1070.2115
 20
411.6945
 40
6.75
 41
0.75
 50
0.0000
  1
A
  0
TEXT
  8
15_0F
 62
7
 10
1123.8116
 20
411.6945
 40
6.75
 41
0.75
 50
0.0000
  1
B
  0
TEXT
  8
0_00
 62
7
 10
1132.3667
 20
355.4156
 40
7.50
 41
1.00
 50
0.0000
  1
階段外付チャンネル
  0
TEXT
  8
0_00
 62
7
 10
1136.1446
 20
300.4749
 40
7.50
 41
1.00
 50
0.0000
  1
溶接（現場加工）
  0
TEXT
  8
0_00
 62
7
 10
1128.1945
 20
342.9383
 40
7.50
 41
1.00
 50
0.0000
  1
（溶接後、さび止め塗装）
  0
TEXT
  8
0_00
 62
7
 10
969.7265
 20
380.9275
 40
7.50
 41
1.00
 50
0.0000
  1
六角ボルト・ナット
  0
TEXT
  8
0_00
 62
7
 10
986.5265
 20
368.9275
 40
7.50
 41
1.00
 50
0.0000
  1
Ｍ８×２０
  0
TEXT
  8
0_00
 62
7
 10
1015.6898
 20
356.8180
 40
7.50
 41
1.00
 50
0.0000
  1
ばね座金
  0
TEXT
  8
0_00
 62
7
 10
1022.0899
 20
344.8180
 40
7.50
 41
1.00
 50
0.0000
  1
φ８
  0
TEXT
  8
0_00
 62
7
 10
856.1706
 20
302.6480
 40
7.50
 41
1.00
 50
0.0000
  1
階段外付金具
  0
TEXT
  8
0_00
 62
7
 10
989.0464
 20
660.2252
 40
7.50
 41
1.00
 50
0.0000
  1
間柱
  0
TEXT
  8
0_00
 62
7
 10
972.0465
 20
706.2674
 40
7.50
 41
1.00
 50
0.0000
  1
寸法表
  0
TEXT
  8
0_00
 62
7
 10
967.1764
 20
637.4439
 40
7.50
 41
1.00
 50
0.0000
  1
４０×６５方立柱
  0
TEXT
  8
0_00
 62
7
 10
1043.5356
 20
683.0064
 40
7.50
 41
1.00
 50
0.0000
  1
Ａ（柱見込寸法）
  0
TEXT
  8
0_00
 62
7
 10
1145.8320
 20
683.0064
 40
7.50
 41
1.00
 50
0.0000
  1
Ｂ
  0
TEXT
  8
0_00
 62
7
 10
1065.4058
 20
660.2252
 40
7.50
 41
1.00
 50
0.0000
  1
５０
  0
TEXT
  8
0_00
 62
7
 10
1134.8969
 20
660.2252
 40
7.50
 41
1.00
 50
0.0000
  1
１１．５
  0
TEXT
  8
0_00
 62
7
 10
1134.8969
 20
637.4439
 40
7.50
 41
1.00
 50
0.0000
  1
　４　　
  0
TEXT
  8
0_00
 62
7
 10
1065.4058
 20
637.4439
 40
7.50
 41
1.00
 50
0.0000
  1
６５
  0
TEXT
  8
15_0F
 62
7
 10
934.9310
 20
283.9130
 40
6.75
 41
0.75
 50
90.0000
  1
(175.5)
  0
TEXT
  8
15_0F
 62
7
 10
934.9310
 20
403.6631
 40
7.50
 41
1.00
 50
90.0000
  1
０≦ｇ［１００］≦１００
  0
TEXT
  8
15_0F
 62
7
 10
914.9310
 20
357.4631
 40
6.75
 41
0.75
 50
90.0000
  1
(50)
  0
TEXT
  8
15_0F
 62
7
 10
1007.6310
 20
431.6945
 40
6.75
 41
0.75
 50
0.0000
  1
36.5
  0
TEXT
  8
0_00
 62
7
 10
503.8361
 20
556.0018
 40
6.00
 41
1.00
 50
0.0000
  1
外観姿図（１：２０）
  0
TEXT
  8
0_00
 62
7
 10
319.5710
 20
601.4832
 40
7.50
 41
1.00
 50
0.0000
  1
潜止めセット
  0
TEXT
  8
0_00
 62
7
 10
209.1370
 20
199.1013
 40
7.50
 41
1.00
 50
0.0000
  1
胴縁キャップ
  0
TEXT
  8
0_00
 62
7
 10
485.7556
 20
601.4832
 40
7.50
 41
1.00
 50
0.0000
  1
根巻きコンクリート
  0
TEXT
  8
0_00
 62
7
 10
233.1627
 20
569.5370
 40
7.50
 41
1.00
 50
0.0000
  1
Ｂ部
  0
TEXT
  8
0_00
 62
7
 10
535.8787
 20
414.9772
 40
7.50
 41
1.00
 50
0.0000
  1
現場加工
  0
TEXT
  8
0_00
 62
7
 10
516.1370
 20
401.0348
 40
7.50
 41
1.00
 50
0.0000
  1
（下穴φ３．５）
  0
TEXT
  8
0_00
 62
7
 10
463.8615
 20
239.7102
 40
7.50
 41
1.00
 50
0.0000
  1
Ａ
  0
TEXT
  8
0_00
 62
7
 10
463.8615
 20
524.4760
 40
7.50
 41
1.00
 50
0.0000
  1
Ａ
  0
TEXT
  8
0_00
 62
7
 10
392.8149
 20
350.1414
 40
7.50
 41
1.00
 50
0.0000
  1
胴縁キャップ
  0
TEXT
  8
15_0F
 62
7
 10
824.1611
 20
70.2000
 40
7.50
 41
1.00
 50
0.0000
  1
１
  0
TEXT
  8
15_0F
 62
7
 10
852.6611
 20
70.2000
 40
7.50
 41
1.00
 50
0.0000
  1
３
  0
TEXT
  8
15_0F
 62
7
 10
704.3110
 20
74.7000
 40
7.50
 41
1.00
 50
0.0000
  1
納まり図
  0
TEXT
  8
15_0F
 62
7
 10
508.1110
 20
41.7000
 40
7.50
 41
1.00
 50
0.0000
  1
ＲＣ造
  0
TEXT
  8
15_0F
 62
7
 10
497.3110
 20
71.7000
 40
7.50
 41
1.00
 50
0.0000
  1
低・中・高層
  0
TEXT
  8
15_0F
 62
7
 10
576.0610
 20
71.7000
 40
7.50
 41
1.00
 50
0.0000
  1
アルミ手すり
  0
TEXT
  8
15_0F
 62
7
 10
578.2610
 20
41.7000
 40
7.50
 41
1.00
 50
0.0000
  1
Ｋ、Ｄ型
  0
TEXT
  8
15_0F
 62
7
 10
666.8710
 20
45.1501
 40
7.50
 41
1.00
 50
0.0000
  1
屋上部潜止め、階段外付部納まり図
  0
TEXT
  8
15_0F
 62
7
 10
204.6905
 20
100.2001
 40
7.50
 41
1.00
 50
0.0000
  1
１）ｈ、　は発注寸法とする。
  0
TEXT
  8
0_00
 62
7
 10
204.6905
 20
85.2001
 40
7.50
 41
1.00
 50
0.0000
  1
２）［　］内寸法は標準寸法とする。
  0
TEXT
  8
0_00
 62
7
 10
70.2905
 20
40.2001
 40
7.50
 41
1.00
 50
0.0000
  1
適用製品
  0
TEXT
  8
0_00
 62
7
 10
130.2905
 20
40.2001
 40
7.50
 41
1.00
 50
0.0000
  1
適用日付
  0
TEXT
  8
0_00
 62
7
 10
178.5905
 20
100.2001
 40
7.50
 41
1.00
 50
0.0000
  1
記事
  0
TEXT
  8
0_00
 62
7
 10
472.5611
 20
85.2001
 40
7.50
 41
1.00
 50
0.0000
  1
階層仕様
  0
TEXT
  8
0_00
 62
7
 10
472.5611
 20
55.2000
 40
7.50
 41
1.00
 50
0.0000
  1
適用躯体
  0
TEXT
  8
0_00
 62
7
 10
630.0610
 20
85.2001
 40
7.50
 41
1.00
 50
0.0000
  1
名　称
  0
TEXT
  8
0_00
 62
7
 10
630.0610
 20
55.2000
 40
7.50
 41
1.00
 50
0.0000
  1
図　名
  0
TEXT
  8
0_00
 62
7
 10
814.9368
 20
100.2458
 40
7.50
 41
1.00
 50
0.0000
  1
Ｎｏ．
  0
TEXT
  8
0_00
 62
7
 10
1123.5610
 20
100.2001
 40
7.50
 41
1.00
 50
0.0000
  1
適　　　　　　　　用
  0
TEXT
  8
0_00
 62
7
 10
1078.4111
 20
100.2001
 40
7.50
 41
1.00
 50
0.0000
  1
個数
  0
TEXT
  8
0_00
 62
7
 10
1023.2110
 20
100.2001
 40
7.50
 41
1.00
 50
0.0000
  1
材　　質
  0
TEXT
  8
0_00
 62
7
 10
926.1610
 20
100.2001
 40
7.50
 41
1.00
 50
0.0000
  1
部　　　品　　　名
  0
TEXT
  8
0_00
 62
7
 10
895.9360
 20
100.2001
 40
7.50
 41
1.00
 50
0.0000
  1
品番
  0
TEXT
  8
0_00
 62
7
 10
850.8611
 20
100.2001
 40
7.50
 41
1.00
 50
0.0000
  1
図　　番
  0
TEXT
  8
0_00
 62
7
 10
816.6610
 20
85.2001
 40
7.50
 41
1.00
 50
0.0000
  1
尺度
  0
TEXT
  8
0_00
 62
7
 10
816.6610
 20
55.2000
 40
7.50
 41
1.00
 50
0.0000
  1
日付
  0
TEXT
  8
0_00
 62
7
 10
928.3942
 20
85.2001
 40
7.50
 41
1.00
 50
0.0000
  1
承認
  0
TEXT
  8
0_00
 62
7
 10
970.5611
 20
85.2001
 40
7.50
 41
1.00
 50
0.0000
  1
検図
  0
TEXT
  8
0_00
 62
7
 10
1006.8610
 20
85.2001
 40
7.50
 41
1.00
 50
0.0000
  1
設計
  0
TEXT
  8
0_00
 62
7
 10
1044.2110
 20
85.2001
 40
7.50
 41
1.00
 50
0.0000
  1
製図
  0
TEXT
  8
0_00
 62
7
 10
1074.5110
 20
55.2000
 40
7.50
 41
1.00
 50
0.0000
  1
図番
  0
TEXT
  8
0_00
 62
2
 10
1103.9219
 20
74.2350
 40
12.00
 41
1.00
 50
0.0000
  1
文化シヤッター株式会社
  0
TEXT
  8
0_00
 62
7
 10
200.7905
 20
862.9501
 40
7.50
 41
1.00
 50
180.0000
  1
図番
  0
TEXT
  8
0_00
 62
7
 10
799.0510
 20
854.0169
 40
6.00
 41
1.00
 50
0.0000
  1
ＮＯ
  0
TEXT
  8
0_00
 62
7
 10
825.2111
 20
853.9501
 40
7.50
 41
1.00
 50
0.0000
  1
個　数
  0
TEXT
  8
0_00
 62
7
 10
870.3611
 20
853.9501
 40
7.50
 41
1.00
 50
0.0000
  1
日　　付
  0
TEXT
  8
0_00
 62
7
 10
984.2111
 20
853.9501
 40
7.50
 41
1.00
 50
0.0000
  1
訂　　　正　　　記　　　事
  0
TEXT
  8
0_00
 62
7
 10
838.4111
 20
70.2000
 40
6.75
 41
0.75
 50
0.0000
  1
:
  0
TEXT
  8
0_00
 62
7
 10
1137.8712
 20
26.7000
 40
6.00
 41
1.00
 50
0.0000
  1
ＪＩＳ　Ａ－３
  0
TEXT
  8
0_00
 62
7
 10
1179.4986
 20
26.6983
 40
6.00
 41
1.00
 50
0.0000
  1
（２９７×４２０）
  0
TEXT
  8
0_00
 62
7
 10
1153.1111
 20
853.9501
 40
7.50
 41
1.00
 50
0.0000
  1
担　当
  0
TEXT
  8
0_00
 62
7
 10
1189.1111
 20
853.9501
 40
7.50
 41
1.00
 50
0.0000
  1
承　認
  0
TEXT
  8
0_00
 62
7
 10
551.3111
 20
85.2001
 40
7.50
 41
1.00
 50
0.0000
  1
機種名
  0
TEXT
  8
0_00
 62
7
 10
551.3111
 20
55.2000
 40
7.50
 41
1.00
 50
0.0000
  1
型　式
  0
TEXT
  8
15_0F
 62
7
 10
993.4310
 20
179.1751
 40
6.75
 41
0.75
 50
90.0000
  1
1.5
  0
TEXT
  8
15_0F
 62
7
 10
989.6459
 20
220.2131
 40
6.75
 41
0.75
 50
90.0000
  1
23.5
  0
TEXT
  8
15_0F
 62
7
 10
994.9310
 20
276.6630
 40
6.75
 41
0.75
 50
90.0000
  1
75
  0
TEXT
  8
0_00
 62
7
 10
142.9983
 20
823.0000
 40
6.75
 41
0.75
 50
0.0000
  1
L
  0
TEXT
  8
0_00
 62
7
 10
261.4994
 20
823.0000
 40
7.50
 41
1.00
 50
0.0000
  1
２５０≦Ｌ（柱スパン寸法）≦１８２０
  0
TEXT
  8
0_00
 62
7
 10
507.6801
 20
823.0000
 40
7.50
 41
1.00
 50
0.0000
  1
Ｌ
  0
TEXT
  8
0_00
 62
7
 10
317.0000
 20
153.4111
 40
7.50
 41
1.00
 50
90.0000
  1
０≦ｇ２［１００］≦１００
  0
TEXT
  8
0_00
 62
7
 10
317.0000
 20
261.4111
 40
7.50
 41
1.00
 50
90.0000
  1
６０≦ｈ≦５００
  0
TEXT
  8
0_00
 62
7
 10
317.0000
 20
365.5110
 40
6.75
 41
0.75
 50
90.0000
  1
35
  0
TEXT
  8
0_00
 62
7
 10
297.0000
 20
235.5111
 40
6.75
 41
0.75
 50
90.0000
  1
35
  0
TEXT
  8
0_00
 62
7
 10
125.6000
 20
323.0000
 40
6.75
 41
0.75
 50
0.0000
  1
25
  0
TEXT
  8
0_00
 62
7
 10
557.8862
 20
253.2744
 40
7.50
 41
1.00
 50
0.0000
  1
Ｂ部詳細図（１：５）
  0
TEXT
  8
0_00
 62
7
 10
535.6915
 20
500.5890
 40
6.75
 41
0.75
 50
0.0000
  1
127
  0
TEXT
  8
0_00
 62
7
 10
374.2914
 20
286.8130
 40
7.50
 41
1.00
 50
0.0000
  1
（５～５５）
  0
TEXT
  8
0_00
 62
7
 10
445.2415
 20
259.8130
 40
6.75
 41
0.75
 50
0.0000
  1
1.5
  0
TEXT
  8
0_00
 62
7
 10
498.2778
 20
286.8130
 40
7.50
 41
1.00
 50
0.0000
  1
２３４≦　≦１７７０
  0
TEXT
  8
0_00
 62
7
 10
227.2612
 20
141.6939
 40
7.50
 41
1.00
 50
0.0000
  1
Ａ－Ａ矢視図
  0
TEXT
  8
0_00
 62
7
 10
737.0000
 20
274.0630
 40
6.75
 41
0.75
 50
90.0000
  1
124
  0
TEXT
  8
0_00
 62
7
 10
802.5484
 20
143.0000
 40
6.75
 41
0.75
 50
0.0000
  1
47.4
  0
TEXT
  8
0_00
 62
7
 10
1072.1115
 20
143.0000
 40
6.75
 41
0.75
 50
0.0000
  1
62
  0
TEXT
  8
0_00
 62
7
 10
337.7712
 20
557.0187
 40
7.50
 41
1.00
 50
0.0000
  1
二段手すりの場合はＬ≦１３６５とする。
  0
TEXT
  8
0_00
 62
7
 10
503.8361
 20
556.0018
 40
6.00
 41
1.00
 50
0.0000
  1
外観姿図（１：２０）
  0
POINT
  8
0_00
 62
2
 10
24.0905
 20
14.9991
  0
POINT
  8
0_00
 62
2
 10
24.0905
 20
14.9991
  0
POINT
  8
0_00
 62
2
 10
84.6905
 20
59.7001
  0
POINT
  8
0_00
 62
2
 10
84.6905
 20
74.7001
  0
POINT
  8
0_00
 62
2
 10
84.6905
 20
89.7001
  0
POINT
  8
0_00
 62
2
 10
84.6905
 20
104.7001
  0
POINT
  8
0_00
 62
2
 10
518.9110
 20
76.2000
  0
POINT
  8
0_00
 62
2
 10
518.9110
 20
46.2000
  0
POINT
  8
0_00
 62
2
 10
718.7110
 20
79.2000
  0
POINT
  8
0_00
 62
2
 10
718.7110
 20
49.2000
  0
POINT
  8
0_00
 62
2
 10
1097.7610
 20
52.2000
  0
POINT
  8
0_00
 62
2
 10
1014.0610
 20
59.7001
  0
POINT
  8
0_00
 62
2
 10
144.6905
 20
59.7001
  0
POINT
  8
0_00
 62
2
 10
144.6905
 20
74.7001
  0
POINT
  8
0_00
 62
2
 10
144.6905
 20
89.7001
  0
POINT
  8
0_00
 62
2
 10
144.6905
 20
104.7001
  0
POINT
  8
0_00
 62
2
 10
856.2610
 20
74.7000
  0
POINT
  8
0_00
 62
2
 10
827.7610
 20
74.7000
  0
POINT
  8
0_00
 62
2
 10
204.6905
 20
104.7001
  0
POINT
  8
0_00
 62
2
 10
204.6905
 20
89.7001
  0
POINT
  8
0_00
 62
2
 10
204.6905
 20
74.7001
  0
POINT
  8
0_00
 62
2
 10
204.6905
 20
59.7001
  0
POINT
  8
0_00
 62
2
 10
204.6905
 20
44.7001
  0
POINT
  8
0_00
 62
2
 10
1051.4110
 20
59.7001
  0
POINT
  8
0_00
 62
2
 10
84.6905
 20
44.7001
  0
POINT
  8
0_00
 62
2
 10
144.6905
 20
44.7001
  0
POINT
  8
0_00
 62
2
 10
174.6905
 20
858.4501
  0
POINT
  8
0_00
 62
2
 10
862.6360
 20
49.2000
  0
POINT
  8
0_00
 62
2
 10
597.6610
 20
76.2000
  0
POINT
  8
0_00
 62
2
 10
597.6610
 20
46.2000
  0
POINT
  8
0_00
 62
6
 10
455.5914
 20
283.8130
  0
ENDSEC
  0
EOF
