999
  
  0
SECTION
  2
HEADER
  9
$EXTMIN
 10
0
 20
0
  9
$EXTMAX
 10
4200
 20
2960
  9
$LTSCALE
 40
10.00
  9
$PDMODE
 70
33
  9
$PDSIZE
 40
6.00
  0
ENDSEC
  0
SECTION
  2
TABLES
  0
TABLE
  2
LTYPE
 70
9
  0
LTYPE
  2
CONTINUOUS
 70
64
  3
実線
 72
65
 73
0
 40
0.00
  0
LTYPE
  2
DASHED
 70
64
  3
__  __  __  __  __  __  __ 
 72
65
 73
2
 40
1.00
 49
0.50
 49
-0.50
  0
LTYPE
  2
HIDDEN1
 70
64
  3
____    ____    ____    ___
 72
65
 73
2
 40
2.20
 49
1.20
 49
-1.00
  0
LTYPE
  2
HIDDEN2
 70
64
  3
______  ______  ______  ___
 72
65
 73
2
 40
4.50
 49
3.50
 49
-1.00
  0
LTYPE
  2
CENTER1
 70
64
  3
_______ _ _______ _ _______
 72
65
 73
4
 40
20.00
 49
17.00
 49
-1.00
 49
1.00
 49
-1.00
  0
LTYPE
  2
CENTER2
 70
64
  3
___________  __  __________
 72
65
 73
4
 40
40.00
 49
34.00
 49
-2.00
 49
2.00
 49
-2.00
  0
LTYPE
  2
PHANTOM1
 70
64
  3
______ _ _ ______ _ _ _____
 72
65
 73
6
 40
20.00
 49
15.00
 49
-1.00
 49
1.00
 49
-1.00
 49
1.00
 49
-1.00
  0
LTYPE
  2
PHANTOM2
 70
64
  3
__________  _  _  _________
 72
65
 73
6
 40
40.00
 49
30.00
 49
-2.00
 49
2.00
 49
-2.00
 49
2.00
 49
-2.00
  0
LTYPE
  2
DOT
 70
64
  3
 .  .  .  .  .  .  .  .  . 
 72
65
 73
2
 40
1.00
 49
0.00
 49
-1.00
  0
ENDTAB
  0
TABLE
  2
STYLE
 70
1
  0
STYLE
  2
STANDARD
 70
64
 40
0.0
 41
1.0
 42
0.0
 50
0.0
 71
0
  3
ROMANS
  4
BIGFONT
  0
ENDTAB
  0
TABLE
  2
LAYER
 70
9
  0
LAYER
  2
0_00
 70
64
 62
7
  6
CONTINUOUS
  0
LAYER
  2
2_02
 70
64
 62
7
  6
CONTINUOUS
  0
LAYER
  2
3_03
 70
64
 62
7
  6
CONTINUOUS
  0
LAYER
  2
4_04
 70
64
 62
7
  6
CONTINUOUS
  0
LAYER
  2
10_0A
 70
64
 62
7
  6
CONTINUOUS
  0
LAYER
  2
11_0B
 70
64
 62
7
  6
CONTINUOUS
  0
LAYER
  2
12_0C
 70
64
 62
7
  6
CONTINUOUS
  0
LAYER
  2
15_0F
 70
64
 62
7
  6
CONTINUOUS
  0
LAYER
  2
32_20
 70
64
 62
7
  6
CONTINUOUS
  0
ENDTAB
  0
ENDSEC
  0
SECTION
  2
ENTITIES
  0
LINE
  8
0_00
  6
CONTINUOUS
 62
7
 10
2122.0026
 20
374.0002
 11
2122.0026
 21
2838.9999
  0
LINE
  8
0_00
  6
CENTER1
 62
6
 10
638.0745
 20
1102.4685
 11
2006.6187
 21
1102.4685
  0
LINE
  8
0_00
  6
CENTER1
 62
6
 10
638.0745
 20
1102.4685
 11
638.0745
 21
537.3809
  0
LINE
  8
0_00
  6
CONTINUOUS
 62
4
 10
713.0746
 20
1027.4684
 11
661.6604
 21
1078.8827
  0
LINE
  8
0_00
  6
CONTINUOUS
 62
4
 10
616.9784
 20
1123.5646
 11
563.0746
 21
1177.4685
  0
LINE
  8
0_00
  6
CENTER1
 62
6
 10
543.2772
 20
1197.2658
 11
563.0746
 21
1177.4685
  0
LINE
  8
0_00
  6
CENTER1
 62
6
 10
713.0746
 20
1027.4684
 11
741.7448
 21
998.7981
  0
LINE
  8
0_00
  6
CONTINUOUS
 62
6
 10
624.0369
 20
1125.4684
 11
564.7263
 21
1228.1974
  0
LINE
  8
0_00
  6
CONTINUOUS
 62
6
 10
624.0369
 20
1125.4684
 11
616.3113
 21
1149.2448
  0
LINE
  8
0_00
  6
CONTINUOUS
 62
6
 10
624.0369
 20
1125.4684
 11
607.3086
 21
1144.0470
  0
LINE
  8
0_00
  6
CONTINUOUS
 62
6
 10
564.7263
 20
1228.1974
 11
275.7263
 21
1228.1974
  0
LINE
  8
0_00
  6
CENTER1
 62
6
 10
638.0745
 20
2395.6210
 11
829.0746
 21
2395.6210
  0
LINE
  8
0_00
  6
CENTER1
 62
6
 10
638.0745
 20
2395.6210
 11
638.0745
 21
2227.6941
  0
LINE
  8
0_00
  6
CONTINUOUS
 62
4
 10
713.0746
 20
2320.6210
 11
678.8746
 21
2354.8209
  0
LINE
  8
0_00
  6
CONTINUOUS
 62
4
 10
599.1783
 20
2434.5171
 11
563.0746
 21
2470.6210
  0
LINE
  8
0_00
  6
CENTER1
 62
6
 10
544.6269
 20
2489.0686
 11
563.0746
 21
2470.6210
  0
LINE
  8
0_00
  6
CENTER1
 62
6
 10
713.0746
 20
2320.6210
 11
745.5628
 21
2288.1326
  0
LINE
  8
0_00
  6
CONTINUOUS
 62
4
 10
603.7745
 20
2436.4209
 11
678.8746
 21
2436.4209
  0
LINE
  8
0_00
  6
CONTINUOUS
 62
4
 10
597.2745
 20
2354.8209
 11
678.8746
 21
2354.8209
  0
LINE
  8
0_00
  6
CONTINUOUS
 62
4
 10
678.8746
 20
2436.4209
 11
678.8746
 21
2354.8209
  0
LINE
  8
0_00
  6
CONTINUOUS
 62
4
 10
597.2745
 20
2429.9210
 11
597.2745
 21
2354.8209
  0
LINE
  8
0_00
  6
CONTINUOUS
 62
6
 10
599.1783
 20
2434.5171
 11
678.8746
 21
2354.8209
  0
LINE
  8
0_00
  6
CONTINUOUS
 62
4
 10
678.8746
 20
2435.6209
 11
814.3195
 21
2435.6209
  0
LINE
  8
0_00
  6
CONTINUOUS
 62
4
 10
678.8746
 20
2355.6209
 11
814.3195
 21
2355.6209
  0
LINE
  8
0_00
  6
CONTINUOUS
 62
4
 10
678.0746
 20
2354.8209
 11
678.0746
 21
2241.8666
  0
LINE
  8
0_00
  6
CONTINUOUS
 62
4
 10
598.0745
 20
2354.8209
 11
598.0745
 21
2241.8666
  0
LINE
  8
0_00
  6
CONTINUOUS
 62
6
 10
626.8829
 20
2417.7052
 11
574.3244
 21
2508.7392
  0
LINE
  8
0_00
  6
CONTINUOUS
 62
6
 10
626.8829
 20
2417.7052
 11
619.1575
 21
2441.4815
  0
LINE
  8
0_00
  6
CONTINUOUS
 62
6
 10
626.8829
 20
2417.7052
 11
610.1546
 21
2436.2839
  0
LINE
  8
0_00
  6
CONTINUOUS
 62
6
 10
574.3244
 20
2508.7392
 11
248.6909
 21
2508.7392
  0
LINE
  8
0_00
  6
CONTINUOUS
 62
4
 10
1347.9691
 20
2550.5600
 11
2018.3800
 21
2550.5600
  0
LINE
  8
0_00
  6
CENTER1
 62
6
 10
1327.5691
 20
2566.6122
 11
1327.5691
 21
2276.4209
  0
LINE
  8
0_00
  6
CENTER1
 62
6
 10
1927.5691
 20
2566.6122
 11
1927.5691
 21
2219.4859
  0
LINE
  8
0_00
  6
CONTINUOUS
 62
4
 10
1917.5691
 20
2268.0594
 11
1917.5691
 21
2527.0598
  0
LINE
  8
0_00
  6
CONTINUOUS
 62
4
 10
1937.5691
 20
2527.0598
 11
1937.5691
 21
2268.0594
  0
LINE
  8
0_00
  6
CONTINUOUS
 62
4
 10
1937.5691
 20
2318.0595
 11
2018.3800
 21
2318.0595
  0
LINE
  8
0_00
  6
CONTINUOUS
 62
4
 10
1937.5691
 20
2300.5594
 11
2018.3800
 21
2300.5594
  0
LINE
  8
0_00
  6
CENTER1
 62
6
 10
1370.0690
 20
2566.6122
 11
1370.0690
 21
2399.4818
  0
LINE
  8
0_00
  6
CENTER1
 62
6
 10
1433.5689
 20
2566.6122
 11
1433.5689
 21
2394.0662
  0
LINE
  8
0_00
  6
CONTINUOUS
 62
4
 10
1375.0690
 20
2527.0598
 11
1375.0690
 21
2318.0595
  0
LINE
  8
0_00
  6
CONTINUOUS
 62
4
 10
1365.0690
 20
2527.0598
 11
1365.0690
 21
2318.0595
  0
LINE
  8
0_00
  6
CONTINUOUS
 62
4
 10
1438.5690
 20
2527.0598
 11
1438.5690
 21
2318.0595
  0
LINE
  8
0_00
  6
CONTINUOUS
 62
4
 10
1428.5690
 20
2527.0598
 11
1428.5690
 21
2318.0595
  0
LINE
  8
4_04
  6
CONTINUOUS
 62
4
 10
1316.0692
 20
2316.8095
 11
1316.0692
 21
2301.0594
  0
LINE
  8
4_04
  6
CONTINUOUS
 62
4
 10
1343.0690
 20
2318.0595
 11
1343.0690
 21
2300.5594
  0
LINE
  8
4_04
  6
CONTINUOUS
 62
4
 10
1317.0691
 20
2300.0595
 11
1342.0692
 21
2300.0595
  0
LINE
  8
4_04
  6
CONTINUOUS
 62
4
 10
1317.3192
 20
2318.0595
 11
1343.0690
 21
2318.0595
  0
LINE
  8
0_00
  6
CONTINUOUS
 62
4
 10
1460.5690
 20
2268.0594
 11
1460.5690
 21
2527.0598
  0
LINE
  8
0_00
  6
CONTINUOUS
 62
4
 10
1480.5690
 20
2527.0598
 11
1480.5690
 21
2268.0594
  0
LINE
  8
0_00
  6
CENTER1
 62
6
 10
1470.5690
 20
2566.6122
 11
1470.5690
 21
2219.4859
  0
LINE
  8
0_00
  6
CONTINUOUS
 62
4
 10
1704.0691
 20
2527.0598
 11
1704.0691
 21
2318.0595
  0
LINE
  8
0_00
  6
CONTINUOUS
 62
4
 10
1694.0692
 20
2527.0598
 11
1694.0692
 21
2318.0595
  0
LINE
  8
0_00
  6
CONTINUOUS
 62
4
 10
1767.5691
 20
2527.0598
 11
1767.5691
 21
2318.0595
  0
LINE
  8
0_00
  6
CONTINUOUS
 62
4
 10
1757.5691
 20
2527.0598
 11
1757.5691
 21
2318.0595
  0
LINE
  8
0_00
  6
CONTINUOUS
 62
4
 10
1831.0692
 20
2527.0598
 11
1831.0692
 21
2318.0595
  0
LINE
  8
0_00
  6
CONTINUOUS
 62
4
 10
1821.0692
 20
2527.0598
 11
1821.0692
 21
2318.0595
  0
LINE
  8
0_00
  6
CONTINUOUS
 62
4
 10
1894.5691
 20
2527.0598
 11
1894.5691
 21
2318.0595
  0
LINE
  8
0_00
  6
CONTINUOUS
 62
4
 10
1884.5691
 20
2527.0598
 11
1884.5691
 21
2318.0595
  0
LINE
  8
0_00
  6
CONTINUOUS
 62
4
 10
1630.5692
 20
2527.0598
 11
1630.5692
 21
2318.0595
  0
LINE
  8
0_00
  6
CONTINUOUS
 62
4
 10
1640.5690
 20
2527.0598
 11
1640.5690
 21
2318.0595
  0
LINE
  8
0_00
  6
CONTINUOUS
 62
4
 10
1567.0692
 20
2527.0598
 11
1567.0692
 21
2318.0595
  0
LINE
  8
0_00
  6
CONTINUOUS
 62
4
 10
1577.0691
 20
2527.0598
 11
1577.0691
 21
2318.0595
  0
LINE
  8
0_00
  6
CONTINUOUS
 62
4
 10
1503.5692
 20
2527.0598
 11
1503.5692
 21
2318.0595
  0
LINE
  8
0_00
  6
CONTINUOUS
 62
4
 10
1513.5690
 20
2527.0598
 11
1513.5690
 21
2318.0595
  0
LINE
  8
0_00
  6
CONTINUOUS
 62
4
 10
1960.5692
 20
2527.0598
 11
1960.5692
 21
2318.0595
  0
LINE
  8
0_00
  6
CONTINUOUS
 62
4
 10
1970.5690
 20
2527.0598
 11
1970.5690
 21
2318.0595
  0
LINE
  8
0_00
  6
CONTINUOUS
 62
4
 10
1343.0690
 20
2318.0595
 11
1460.5690
 21
2318.0595
  0
LINE
  8
0_00
  6
CONTINUOUS
 62
4
 10
1480.5690
 20
2318.0595
 11
1917.5691
 21
2318.0595
  0
LINE
  8
0_00
  6
CONTINUOUS
 62
4
 10
1343.0690
 20
2300.5594
 11
1460.5690
 21
2300.5594
  0
LINE
  8
0_00
  6
CONTINUOUS
 62
4
 10
1480.5690
 20
2300.5594
 11
1917.5691
 21
2300.5594
  0
LINE
  8
0_00
  6
CONTINUOUS
 62
4
 10
1290.0693
 20
2245.5594
 11
1290.0693
 21
2177.4583
  0
LINE
  8
0_00
  6
CONTINUOUS
 62
2
 10
1469.9310
 20
2305.1044
 11
1470.3656
 21
2304.6849
  0
LINE
  8
0_00
  6
CONTINUOUS
 62
2
 10
1470.3656
 20
2304.6849
 11
1470.5690
 21
2304.6107
  0
LINE
  8
0_00
  6
CONTINUOUS
 62
2
 10
1470.5690
 20
2304.6107
 11
1470.7616
 21
2304.6809
  0
LINE
  8
0_00
  6
CONTINUOUS
 62
2
 10
1470.7616
 20
2304.6809
 11
1471.2099
 21
2305.1028
  0
LINE
  8
0_00
  6
CONTINUOUS
 62
2
 10
1469.5241
 20
2304.6973
 11
1469.9435
 21
2304.2630
  0
LINE
  8
0_00
  6
CONTINUOUS
 62
2
 10
1469.9435
 20
2304.2630
 11
1470.0177
 21
2304.0594
  0
LINE
  8
0_00
  6
CONTINUOUS
 62
2
 10
1470.0177
 20
2304.0594
 11
1469.9477
 21
2303.8672
  0
LINE
  8
0_00
  6
CONTINUOUS
 62
2
 10
1469.9477
 20
2303.8672
 11
1469.5256
 21
2303.4187
  0
LINE
  8
0_00
  6
CONTINUOUS
 62
2
 10
1471.6141
 20
2303.4215
 11
1471.1948
 21
2303.8557
  0
LINE
  8
0_00
  6
CONTINUOUS
 62
2
 10
1471.1948
 20
2303.8557
 11
1471.1206
 21
2304.0594
  0
LINE
  8
0_00
  6
CONTINUOUS
 62
2
 10
1471.1206
 20
2304.0594
 11
1471.1906
 21
2304.2519
  0
LINE
  8
0_00
  6
CONTINUOUS
 62
2
 10
1471.1906
 20
2304.2519
 11
1471.6127
 21
2304.7000
  0
LINE
  8
0_00
  6
CONTINUOUS
 62
2
 10
1471.2070
 20
2303.0145
 11
1470.7727
 21
2303.4338
  0
LINE
  8
0_00
  6
CONTINUOUS
 62
2
 10
1470.7727
 20
2303.4338
 11
1470.5690
 21
2303.5081
  0
LINE
  8
0_00
  6
CONTINUOUS
 62
2
 10
1470.5690
 20
2303.5081
 11
1470.3766
 21
2303.4378
  0
LINE
  8
0_00
  6
CONTINUOUS
 62
2
 10
1470.3766
 20
2303.4378
 11
1469.9284
 21
2303.0159
  0
LINE
  8
0_00
  6
CONTINUOUS
 62
2
 10
1926.9312
 20
2305.1044
 11
1927.3656
 21
2304.6849
  0
LINE
  8
0_00
  6
CONTINUOUS
 62
2
 10
1927.3656
 20
2304.6849
 11
1927.5691
 21
2304.6107
  0
LINE
  8
0_00
  6
CONTINUOUS
 62
2
 10
1927.5691
 20
2304.6107
 11
1927.7615
 21
2304.6809
  0
LINE
  8
0_00
  6
CONTINUOUS
 62
2
 10
1927.7615
 20
2304.6809
 11
1928.2098
 21
2305.1028
  0
LINE
  8
0_00
  6
CONTINUOUS
 62
2
 10
1926.5242
 20
2304.6973
 11
1926.9435
 21
2304.2630
  0
LINE
  8
0_00
  6
CONTINUOUS
 62
2
 10
1926.9435
 20
2304.2630
 11
1927.0177
 21
2304.0594
  0
LINE
  8
0_00
  6
CONTINUOUS
 62
2
 10
1927.0177
 20
2304.0594
 11
1926.9476
 21
2303.8672
  0
LINE
  8
0_00
  6
CONTINUOUS
 62
2
 10
1926.9476
 20
2303.8672
 11
1926.5254
 21
2303.4187
  0
LINE
  8
0_00
  6
CONTINUOUS
 62
2
 10
1928.6140
 20
2303.4215
 11
1928.1947
 21
2303.8557
  0
LINE
  8
0_00
  6
CONTINUOUS
 62
2
 10
1928.1947
 20
2303.8557
 11
1928.1204
 21
2304.0594
  0
LINE
  8
0_00
  6
CONTINUOUS
 62
2
 10
1928.1204
 20
2304.0594
 11
1928.1905
 21
2304.2519
  0
LINE
  8
0_00
  6
CONTINUOUS
 62
2
 10
1928.1905
 20
2304.2519
 11
1928.6127
 21
2304.7000
  0
LINE
  8
0_00
  6
CONTINUOUS
 62
2
 10
1928.2071
 20
2303.0145
 11
1927.7725
 21
2303.4338
  0
LINE
  8
0_00
  6
CONTINUOUS
 62
2
 10
1927.7725
 20
2303.4338
 11
1927.5691
 21
2303.5081
  0
LINE
  8
0_00
  6
CONTINUOUS
 62
2
 10
1927.5691
 20
2303.5081
 11
1927.3766
 21
2303.4378
  0
LINE
  8
0_00
  6
CONTINUOUS
 62
2
 10
1927.3766
 20
2303.4378
 11
1926.9283
 21
2303.0159
  0
LINE
  8
0_00
  6
CONTINUOUS
 62
4
 10
1343.0690
 20
2060.3575
 11
2018.3800
 21
2060.3575
  0
LINE
  8
0_00
  6
CONTINUOUS
 62
4
 10
1343.0690
 20
2036.8576
 11
2018.3800
 21
2036.8576
  0
LINE
  8
3_03
  6
CONTINUOUS
 62
4
 10
1342.8191
 20
2060.7069
 11
1327.8874
 21
2060.7069
  0
LINE
  8
3_03
  6
CONTINUOUS
 62
4
 10
1312.5690
 20
2036.7075
 11
1342.8191
 21
2036.7075
  0
LINE
  8
3_03
  6
CONTINUOUS
 62
4
 10
1343.0690
 20
2036.9576
 11
1343.0690
 21
2060.4568
  0
LINE
  8
3_03
  6
CONTINUOUS
 62
4
 10
1312.3190
 20
2056.7194
 11
1312.3190
 21
2036.9576
  0
LINE
  8
0_00
  6
CENTER1
 62
6
 10
1327.5691
 20
2076.4096
 11
1327.5691
 21
1786.2184
  0
LINE
  8
0_00
  6
CENTER1
 62
6
 10
1927.5691
 20
2076.4096
 11
1927.5691
 21
1729.2834
  0
LINE
  8
0_00
  6
CONTINUOUS
 62
4
 10
1917.5691
 20
1777.8571
 11
1917.5691
 21
2036.8576
  0
LINE
  8
0_00
  6
CONTINUOUS
 62
4
 10
1937.5691
 20
2036.8576
 11
1937.5691
 21
1777.8571
  0
LINE
  8
0_00
  6
CONTINUOUS
 62
4
 10
1937.5691
 20
1827.8571
 11
2018.3800
 21
1827.8571
  0
LINE
  8
0_00
  6
CONTINUOUS
 62
4
 10
1937.5691
 20
1810.3571
 11
2018.3800
 21
1810.3571
  0
LINE
  8
0_00
  6
CENTER1
 62
6
 10
1370.0690
 20
2076.4096
 11
1370.0690
 21
1909.2795
  0
LINE
  8
0_00
  6
CENTER1
 62
6
 10
1433.5689
 20
2076.4096
 11
1433.5689
 21
1903.8635
  0
LINE
  8
0_00
  6
CONTINUOUS
 62
4
 10
1375.0690
 20
2036.8576
 11
1375.0690
 21
1827.8571
  0
LINE
  8
0_00
  6
CONTINUOUS
 62
4
 10
1365.0690
 20
2036.8576
 11
1365.0690
 21
1827.8571
  0
LINE
  8
0_00
  6
CONTINUOUS
 62
4
 10
1438.5690
 20
2036.8576
 11
1438.5690
 21
1827.8571
  0
LINE
  8
0_00
  6
CONTINUOUS
 62
4
 10
1428.5690
 20
2036.8576
 11
1428.5690
 21
1827.8571
  0
LINE
  8
4_04
  6
CONTINUOUS
 62
4
 10
1316.0692
 20
1826.6071
 11
1316.0692
 21
1810.8571
  0
LINE
  8
4_04
  6
CONTINUOUS
 62
4
 10
1343.0690
 20
1827.8571
 11
1343.0690
 21
1810.3571
  0
LINE
  8
4_04
  6
CONTINUOUS
 62
4
 10
1317.0691
 20
1809.8572
 11
1342.0692
 21
1809.8572
  0
LINE
  8
4_04
  6
CONTINUOUS
 62
4
 10
1317.3192
 20
1827.8571
 11
1343.0690
 21
1827.8571
  0
LINE
  8
0_00
  6
CONTINUOUS
 62
4
 10
1460.5690
 20
1777.8571
 11
1460.5690
 21
2036.8576
  0
LINE
  8
0_00
  6
CONTINUOUS
 62
4
 10
1480.5690
 20
2036.8576
 11
1480.5690
 21
1777.8571
  0
LINE
  8
0_00
  6
CENTER1
 62
6
 10
1470.5690
 20
2076.4096
 11
1470.5690
 21
1729.2834
  0
LINE
  8
0_00
  6
CONTINUOUS
 62
4
 10
1704.0691
 20
2036.8576
 11
1704.0691
 21
1827.8571
  0
LINE
  8
0_00
  6
CONTINUOUS
 62
4
 10
1694.0692
 20
2036.8576
 11
1694.0692
 21
1827.8571
  0
LINE
  8
0_00
  6
CONTINUOUS
 62
4
 10
1767.5691
 20
2036.8576
 11
1767.5691
 21
1827.8571
  0
LINE
  8
0_00
  6
CONTINUOUS
 62
4
 10
1757.5691
 20
2036.8576
 11
1757.5691
 21
1827.8571
  0
LINE
  8
0_00
  6
CONTINUOUS
 62
4
 10
1831.0692
 20
2036.8576
 11
1831.0692
 21
1827.8571
  0
LINE
  8
0_00
  6
CONTINUOUS
 62
4
 10
1821.0692
 20
2036.8576
 11
1821.0692
 21
1827.8571
  0
LINE
  8
0_00
  6
CONTINUOUS
 62
4
 10
1894.5691
 20
2036.8576
 11
1894.5691
 21
1827.8571
  0
LINE
  8
0_00
  6
CONTINUOUS
 62
4
 10
1884.5691
 20
2036.8576
 11
1884.5691
 21
1827.8571
  0
LINE
  8
0_00
  6
CONTINUOUS
 62
4
 10
1630.5692
 20
2036.8576
 11
1630.5692
 21
1827.8571
  0
LINE
  8
0_00
  6
CONTINUOUS
 62
4
 10
1640.5690
 20
2036.8576
 11
1640.5690
 21
1827.8571
  0
LINE
  8
0_00
  6
CONTINUOUS
 62
4
 10
1567.0692
 20
2036.8576
 11
1567.0692
 21
1827.8571
  0
LINE
  8
0_00
  6
CONTINUOUS
 62
4
 10
1577.0691
 20
2036.8576
 11
1577.0691
 21
1827.8571
  0
LINE
  8
0_00
  6
CONTINUOUS
 62
4
 10
1503.5692
 20
2036.8576
 11
1503.5692
 21
1827.8571
  0
LINE
  8
0_00
  6
CONTINUOUS
 62
4
 10
1513.5690
 20
2036.8576
 11
1513.5690
 21
1827.8571
  0
LINE
  8
0_00
  6
CONTINUOUS
 62
4
 10
1960.5692
 20
2036.8576
 11
1960.5692
 21
1827.8571
  0
LINE
  8
0_00
  6
CONTINUOUS
 62
4
 10
1970.5690
 20
2036.8576
 11
1970.5690
 21
1827.8571
  0
LINE
  8
0_00
  6
CONTINUOUS
 62
4
 10
1343.0690
 20
1827.8571
 11
1460.5690
 21
1827.8571
  0
LINE
  8
0_00
  6
CONTINUOUS
 62
4
 10
1480.5690
 20
1827.8571
 11
1917.5691
 21
1827.8571
  0
LINE
  8
0_00
  6
CONTINUOUS
 62
4
 10
1343.0690
 20
1810.3571
 11
1460.5690
 21
1810.3571
  0
LINE
  8
0_00
  6
CONTINUOUS
 62
4
 10
1480.5690
 20
1810.3571
 11
1917.5691
 21
1810.3571
  0
LINE
  8
0_00
  6
CONTINUOUS
 62
2
 10
1469.9310
 20
1814.9020
 11
1470.3656
 21
1814.4826
  0
LINE
  8
0_00
  6
CONTINUOUS
 62
2
 10
1470.3656
 20
1814.4826
 11
1470.5690
 21
1814.4083
  0
LINE
  8
0_00
  6
CONTINUOUS
 62
2
 10
1470.5690
 20
1814.4083
 11
1470.7616
 21
1814.4786
  0
LINE
  8
0_00
  6
CONTINUOUS
 62
2
 10
1470.7616
 20
1814.4786
 11
1471.2099
 21
1814.9007
  0
LINE
  8
0_00
  6
CONTINUOUS
 62
2
 10
1469.5241
 20
1814.4951
 11
1469.9435
 21
1814.0605
  0
LINE
  8
0_00
  6
CONTINUOUS
 62
2
 10
1469.9435
 20
1814.0605
 11
1470.0177
 21
1813.8571
  0
LINE
  8
0_00
  6
CONTINUOUS
 62
2
 10
1470.0177
 20
1813.8571
 11
1469.9477
 21
1813.6646
  0
LINE
  8
0_00
  6
CONTINUOUS
 62
2
 10
1469.9477
 20
1813.6646
 11
1469.5256
 21
1813.2164
  0
LINE
  8
0_00
  6
CONTINUOUS
 62
2
 10
1471.6141
 20
1813.2191
 11
1471.1948
 21
1813.6536
  0
LINE
  8
0_00
  6
CONTINUOUS
 62
2
 10
1471.1948
 20
1813.6536
 11
1471.1206
 21
1813.8571
  0
LINE
  8
0_00
  6
CONTINUOUS
 62
2
 10
1471.1206
 20
1813.8571
 11
1471.1906
 21
1814.0495
  0
LINE
  8
0_00
  6
CONTINUOUS
 62
2
 10
1471.1906
 20
1814.0495
 11
1471.6127
 21
1814.4977
  0
LINE
  8
0_00
  6
CONTINUOUS
 62
2
 10
1471.2070
 20
1812.8122
 11
1470.7727
 21
1813.2315
  0
LINE
  8
0_00
  6
CONTINUOUS
 62
2
 10
1470.7727
 20
1813.2315
 11
1470.5690
 21
1813.3057
  0
LINE
  8
0_00
  6
CONTINUOUS
 62
2
 10
1470.5690
 20
1813.3057
 11
1470.3766
 21
1813.2356
  0
LINE
  8
0_00
  6
CONTINUOUS
 62
2
 10
1470.3766
 20
1813.2356
 11
1469.9284
 21
1812.8136
  0
LINE
  8
0_00
  6
CONTINUOUS
 62
2
 10
1926.9312
 20
1814.9020
 11
1927.3656
 21
1814.4826
  0
LINE
  8
0_00
  6
CONTINUOUS
 62
2
 10
1927.3656
 20
1814.4826
 11
1927.5691
 21
1814.4083
  0
LINE
  8
0_00
  6
CONTINUOUS
 62
2
 10
1927.5691
 20
1814.4083
 11
1927.7615
 21
1814.4786
  0
LINE
  8
0_00
  6
CONTINUOUS
 62
2
 10
1927.7615
 20
1814.4786
 11
1928.2098
 21
1814.9007
  0
LINE
  8
0_00
  6
CONTINUOUS
 62
2
 10
1926.5242
 20
1814.4951
 11
1926.9435
 21
1814.0605
  0
LINE
  8
0_00
  6
CONTINUOUS
 62
2
 10
1926.9435
 20
1814.0605
 11
1927.0177
 21
1813.8571
  0
LINE
  8
0_00
  6
CONTINUOUS
 62
2
 10
1927.0177
 20
1813.8571
 11
1926.9476
 21
1813.6646
  0
LINE
  8
0_00
  6
CONTINUOUS
 62
2
 10
1926.9476
 20
1813.6646
 11
1926.5254
 21
1813.2164
  0
LINE
  8
0_00
  6
CONTINUOUS
 62
2
 10
1928.6140
 20
1813.2191
 11
1928.1947
 21
1813.6536
  0
LINE
  8
0_00
  6
CONTINUOUS
 62
2
 10
1928.1947
 20
1813.6536
 11
1928.1204
 21
1813.8571
  0
LINE
  8
0_00
  6
CONTINUOUS
 62
2
 10
1928.1204
 20
1813.8571
 11
1928.1905
 21
1814.0495
  0
LINE
  8
0_00
  6
CONTINUOUS
 62
2
 10
1928.1905
 20
1814.0495
 11
1928.6127
 21
1814.4977
  0
LINE
  8
0_00
  6
CONTINUOUS
 62
2
 10
1928.2071
 20
1812.8122
 11
1927.7725
 21
1813.2315
  0
LINE
  8
0_00
  6
CONTINUOUS
 62
2
 10
1927.7725
 20
1813.2315
 11
1927.5691
 21
1813.3057
  0
LINE
  8
0_00
  6
CONTINUOUS
 62
2
 10
1927.5691
 20
1813.3057
 11
1927.3766
 21
1813.2356
  0
LINE
  8
0_00
  6
CONTINUOUS
 62
2
 10
1927.3766
 20
1813.2356
 11
1926.9283
 21
1812.8136
  0
LINE
  8
32_20
  6
CONTINUOUS
 62
4
 10
1318.0638
 20
2531.5817
 11
1312.4333
 21
2531.5817
  0
LINE
  8
32_20
  6
CONTINUOUS
 62
4
 10
1327.5691
 20
2550.9322
 11
1347.9691
 21
2550.9322
  0
LINE
  8
32_20
  6
CONTINUOUS
 62
4
 10
1347.9691
 20
2550.9322
 11
1347.9691
 21
2531.5817
  0
LINE
  8
32_20
  6
CONTINUOUS
 62
4
 10
1347.9691
 20
2531.5817
 11
1337.0743
 21
2531.5817
  0
LINE
  8
32_20
  6
CONTINUOUS
 62
4
 10
1336.0638
 20
2531.5817
 11
1319.0744
 21
2531.5817
  0
LINE
  8
0_00
  6
CONTINUOUS
 62
4
 10
2018.3800
 20
2531.9940
 11
1347.9691
 21
2531.9940
  0
LINE
  8
0_00
  6
CONTINUOUS
 62
4
 10
1961.9829
 20
1072.4684
 11
870.9097
 21
1072.4684
  0
LINE
  8
0_00
  6
CONTINUOUS
 62
4
 10
868.2700
 20
1132.4685
 11
1961.9829
 21
1132.4685
  0
LINE
  8
11_0B
  6
CENTER1
 62
6
 10
850.0745
 20
1137.6538
 11
850.0745
 21
1065.6596
  0
LINE
  8
10_0A
  6
CONTINUOUS
 62
2
 10
860.0745
 20
1105.6786
 11
860.0745
 21
1103.1826
  0
LINE
  8
10_0A
  6
CONTINUOUS
 62
2
 10
859.8701
 20
1107.2314
 11
858.3928
 21
1112.7448
  0
LINE
  8
10_0A
  6
CONTINUOUS
 62
2
 10
840.2790
 20
1107.2314
 11
841.7563
 21
1112.7448
  0
LINE
  8
10_0A
  6
CONTINUOUS
 62
2
 10
840.0745
 20
1105.6786
 11
840.0745
 21
1103.3683
  0
LINE
  8
10_0A
  6
CONTINUOUS
 62
2
 10
859.3746
 20
1103.5774
 11
859.3746
 21
1105.6786
  0
LINE
  8
10_0A
  6
CONTINUOUS
 62
2
 10
859.1940
 20
1107.0502
 11
857.7166
 21
1112.5636
  0
LINE
  8
10_0A
  6
CONTINUOUS
 62
2
 10
855.4950
 20
1114.2684
 11
844.6542
 21
1114.2684
  0
LINE
  8
10_0A
  6
CONTINUOUS
 62
2
 10
842.4324
 20
1112.5636
 11
840.9551
 21
1107.0502
  0
LINE
  8
10_0A
  6
CONTINUOUS
 62
2
 10
845.0468
 20
1103.3185
 11
845.5746
 21
1103.6230
  0
LINE
  8
10_0A
  6
CONTINUOUS
 62
2
 10
845.5746
 20
1105.0302
 11
845.5746
 21
1103.6230
  0
LINE
  8
10_0A
  6
CONTINUOUS
 62
2
 10
844.3246
 20
1103.9941
 11
844.3246
 21
1104.4685
  0
LINE
  8
10_0A
  6
CONTINUOUS
 62
2
 10
842.8245
 20
1104.4685
 11
842.8245
 21
1103.9941
  0
LINE
  8
10_0A
  6
CONTINUOUS
 62
2
 10
842.0489
 20
1103.2185
 11
841.3245
 21
1103.2185
  0
LINE
  8
10_0A
  6
CONTINUOUS
 62
2
 10
841.3245
 20
1103.2185
 11
841.3245
 21
1102.4685
  0
LINE
  8
10_0A
  6
CONTINUOUS
 62
2
 10
860.0745
 20
1099.2583
 11
860.0745
 21
1101.7544
  0
LINE
  8
10_0A
  6
CONTINUOUS
 62
2
 10
859.8701
 20
1097.7054
 11
858.3928
 21
1092.1919
  0
LINE
  8
10_0A
  6
CONTINUOUS
 62
2
 10
840.2790
 20
1097.7054
 11
841.7563
 21
1092.1919
  0
LINE
  8
10_0A
  6
CONTINUOUS
 62
2
 10
840.0745
 20
1099.2583
 11
840.0745
 21
1101.5685
  0
LINE
  8
10_0A
  6
CONTINUOUS
 62
2
 10
859.3746
 20
1101.3593
 11
859.3746
 21
1099.2583
  0
LINE
  8
10_0A
  6
CONTINUOUS
 62
2
 10
859.1940
 20
1097.8867
 11
857.7166
 21
1092.3730
  0
LINE
  8
10_0A
  6
CONTINUOUS
 62
2
 10
855.4950
 20
1090.6683
 11
844.6542
 21
1090.6683
  0
LINE
  8
10_0A
  6
CONTINUOUS
 62
2
 10
842.4324
 20
1092.3730
 11
840.9551
 21
1097.8867
  0
LINE
  8
10_0A
  6
CONTINUOUS
 62
2
 10
845.0468
 20
1101.6183
 11
845.5746
 21
1101.3137
  0
LINE
  8
10_0A
  6
CONTINUOUS
 62
2
 10
845.5746
 20
1099.9066
 11
845.5746
 21
1101.3137
  0
LINE
  8
10_0A
  6
CONTINUOUS
 62
2
 10
844.3246
 20
1100.9428
 11
844.3246
 21
1100.4684
  0
LINE
  8
10_0A
  6
CONTINUOUS
 62
2
 10
842.8245
 20
1100.4684
 11
842.8245
 21
1100.9428
  0
LINE
  8
10_0A
  6
CONTINUOUS
 62
2
 10
842.0489
 20
1101.7185
 11
841.3245
 21
1101.7185
  0
LINE
  8
10_0A
  6
CONTINUOUS
 62
2
 10
841.3245
 20
1101.7185
 11
841.3245
 21
1102.4685
  0
LINE
  8
10_0A
  6
CONTINUOUS
 62
2
 10
844.3246
 20
1104.4685
 11
842.8245
 21
1104.4685
  0
LINE
  8
10_0A
  6
CONTINUOUS
 62
2
 10
842.8245
 20
1100.4684
 11
844.3246
 21
1100.4684
  0
LINE
  8
10_0A
  6
CONTINUOUS
 62
2
 10
840.0745
 20
1105.6786
 11
840.0745
 21
1103.1826
  0
LINE
  8
10_0A
  6
CONTINUOUS
 62
2
 10
840.0745
 20
1099.2583
 11
840.0745
 21
1101.7544
  0
LINE
  8
0_00
  6
CONTINUOUS
 62
4
 10
868.2700
 20
1132.4685
 11
868.0372
 21
1132.1592
  0
LINE
  8
0_00
  6
CONTINUOUS
 62
4
 10
868.0372
 20
1132.1592
 11
867.8049
 21
1131.8497
  0
LINE
  8
0_00
  6
CONTINUOUS
 62
4
 10
867.8049
 20
1131.8497
 11
867.5738
 21
1131.5406
  0
LINE
  8
0_00
  6
CONTINUOUS
 62
4
 10
867.5738
 20
1131.5406
 11
867.3443
 21
1131.2314
  0
LINE
  8
0_00
  6
CONTINUOUS
 62
4
 10
867.3443
 20
1131.2314
 11
867.1170
 21
1130.9223
  0
LINE
  8
0_00
  6
CONTINUOUS
 62
4
 10
867.1170
 20
1130.9223
 11
866.8924
 21
1130.6134
  0
LINE
  8
0_00
  6
CONTINUOUS
 62
4
 10
866.8924
 20
1130.6134
 11
866.6710
 21
1130.3047
  0
LINE
  8
0_00
  6
CONTINUOUS
 62
4
 10
866.6710
 20
1130.3047
 11
866.4535
 21
1129.9962
  0
LINE
  8
0_00
  6
CONTINUOUS
 62
4
 10
866.4535
 20
1129.9962
 11
866.2402
 21
1129.6877
  0
LINE
  8
0_00
  6
CONTINUOUS
 62
4
 10
866.2402
 20
1129.6877
 11
866.0318
 21
1129.3798
  0
LINE
  8
0_00
  6
CONTINUOUS
 62
4
 10
866.0318
 20
1129.3798
 11
865.8288
 21
1129.0720
  0
LINE
  8
0_00
  6
CONTINUOUS
 62
4
 10
865.8288
 20
1129.0720
 11
865.6318
 21
1128.7644
  0
LINE
  8
0_00
  6
CONTINUOUS
 62
4
 10
865.6318
 20
1128.7644
 11
865.4414
 21
1128.4572
  0
LINE
  8
0_00
  6
CONTINUOUS
 62
4
 10
865.4414
 20
1128.4572
 11
865.2579
 21
1128.1504
  0
LINE
  8
0_00
  6
CONTINUOUS
 62
4
 10
865.2579
 20
1128.1504
 11
865.0821
 21
1127.8441
  0
LINE
  8
0_00
  6
CONTINUOUS
 62
4
 10
865.0821
 20
1127.8441
 11
864.9144
 21
1127.5380
  0
LINE
  8
0_00
  6
CONTINUOUS
 62
4
 10
864.9144
 20
1127.5380
 11
864.7553
 21
1127.2324
  0
LINE
  8
0_00
  6
CONTINUOUS
 62
4
 10
864.7553
 20
1127.2324
 11
864.6055
 21
1126.9273
  0
LINE
  8
0_00
  6
CONTINUOUS
 62
4
 10
864.6055
 20
1126.9273
 11
864.4654
 21
1126.6227
  0
LINE
  8
0_00
  6
CONTINUOUS
 62
4
 10
864.4654
 20
1126.6227
 11
864.3356
 21
1126.3186
  0
LINE
  8
0_00
  6
CONTINUOUS
 62
4
 10
864.3356
 20
1126.3186
 11
864.2168
 21
1126.0151
  0
LINE
  8
0_00
  6
CONTINUOUS
 62
4
 10
864.2168
 20
1126.0151
 11
864.1092
 21
1125.7121
  0
LINE
  8
0_00
  6
CONTINUOUS
 62
4
 10
864.1092
 20
1125.7121
 11
864.0135
 21
1125.4098
  0
LINE
  8
0_00
  6
CONTINUOUS
 62
4
 10
864.0135
 20
1125.4098
 11
863.9304
 21
1125.1081
  0
LINE
  8
0_00
  6
CONTINUOUS
 62
4
 10
863.9304
 20
1125.1081
 11
863.8602
 21
1124.8070
  0
LINE
  8
0_00
  6
CONTINUOUS
 62
4
 10
863.8602
 20
1124.8070
 11
863.8036
 21
1124.5065
  0
LINE
  8
0_00
  6
CONTINUOUS
 62
4
 10
863.8036
 20
1124.5065
 11
863.7612
 21
1124.2069
  0
LINE
  8
0_00
  6
CONTINUOUS
 62
4
 10
863.7612
 20
1124.2069
 11
863.7332
 21
1123.9080
  0
LINE
  8
0_00
  6
CONTINUOUS
 62
4
 10
863.7332
 20
1123.9080
 11
863.7206
 21
1123.6098
  0
LINE
  8
0_00
  6
CONTINUOUS
 62
4
 10
863.7206
 20
1123.6098
 11
863.7236
 21
1123.3126
  0
LINE
  8
0_00
  6
CONTINUOUS
 62
4
 10
863.7236
 20
1123.3126
 11
863.7426
 21
1123.0159
  0
LINE
  8
0_00
  6
CONTINUOUS
 62
4
 10
863.7426
 20
1123.0159
 11
863.7768
 21
1122.7200
  0
LINE
  8
0_00
  6
CONTINUOUS
 62
4
 10
863.7768
 20
1122.7200
 11
863.8251
 21
1122.4240
  0
LINE
  8
0_00
  6
CONTINUOUS
 62
4
 10
863.8251
 20
1122.4240
 11
863.8864
 21
1122.1280
  0
LINE
  8
0_00
  6
CONTINUOUS
 62
4
 10
863.8864
 20
1122.1280
 11
863.9597
 21
1121.8317
  0
LINE
  8
0_00
  6
CONTINUOUS
 62
4
 10
863.9597
 20
1121.8317
 11
864.0437
 21
1121.5343
  0
LINE
  8
0_00
  6
CONTINUOUS
 62
4
 10
864.0437
 20
1121.5343
 11
864.1376
 21
1121.2363
  0
LINE
  8
0_00
  6
CONTINUOUS
 62
4
 10
864.1376
 20
1121.2363
 11
864.2400
 21
1120.9365
  0
LINE
  8
0_00
  6
CONTINUOUS
 62
4
 10
864.2400
 20
1120.9365
 11
864.3499
 21
1120.6353
  0
LINE
  8
0_00
  6
CONTINUOUS
 62
4
 10
864.3499
 20
1120.6353
 11
864.4666
 21
1120.3320
  0
LINE
  8
0_00
  6
CONTINUOUS
 62
4
 10
864.4666
 20
1120.3320
 11
864.5885
 21
1120.0265
  0
LINE
  8
0_00
  6
CONTINUOUS
 62
4
 10
864.5885
 20
1120.0265
 11
864.7147
 21
1119.7182
  0
LINE
  8
0_00
  6
CONTINUOUS
 62
4
 10
864.7147
 20
1119.7182
 11
864.8441
 21
1119.4070
  0
LINE
  8
0_00
  6
CONTINUOUS
 62
4
 10
864.8441
 20
1119.4070
 11
864.9757
 21
1119.0927
  0
LINE
  8
0_00
  6
CONTINUOUS
 62
4
 10
864.9757
 20
1119.0927
 11
865.1083
 21
1118.7746
  0
LINE
  8
0_00
  6
CONTINUOUS
 62
4
 10
865.1083
 20
1118.7746
 11
865.2410
 21
1118.4528
  0
LINE
  8
0_00
  6
CONTINUOUS
 62
4
 10
865.2410
 20
1118.4528
 11
865.3726
 21
1118.1266
  0
LINE
  8
0_00
  6
CONTINUOUS
 62
4
 10
865.3726
 20
1118.1266
 11
865.5019
 21
1117.7960
  0
LINE
  8
0_00
  6
CONTINUOUS
 62
4
 10
865.5019
 20
1117.7960
 11
865.6280
 21
1117.4606
  0
LINE
  8
0_00
  6
CONTINUOUS
 62
4
 10
865.6280
 20
1117.4606
 11
865.7497
 21
1117.1201
  0
LINE
  8
0_00
  6
CONTINUOUS
 62
4
 10
865.7497
 20
1117.1201
 11
865.8659
 21
1116.7741
  0
LINE
  8
0_00
  6
CONTINUOUS
 62
4
 10
865.8659
 20
1116.7741
 11
865.9756
 21
1116.4223
  0
LINE
  8
0_00
  6
CONTINUOUS
 62
4
 10
865.9756
 20
1116.4223
 11
866.0777
 21
1116.0645
  0
LINE
  8
0_00
  6
CONTINUOUS
 62
4
 10
866.0777
 20
1116.0645
 11
866.1710
 21
1115.7001
  0
LINE
  8
0_00
  6
CONTINUOUS
 62
4
 10
866.1710
 20
1115.7001
 11
866.2546
 21
1115.3292
  0
LINE
  8
0_00
  6
CONTINUOUS
 62
4
 10
866.2546
 20
1115.3292
 11
866.3274
 21
1114.9511
  0
LINE
  8
0_00
  6
CONTINUOUS
 62
4
 10
866.3274
 20
1114.9511
 11
866.3880
 21
1114.5657
  0
LINE
  8
0_00
  6
CONTINUOUS
 62
4
 10
866.3880
 20
1114.5657
 11
866.4358
 21
1114.1727
  0
LINE
  8
0_00
  6
CONTINUOUS
 62
4
 10
866.4358
 20
1114.1727
 11
866.4692
 21
1113.7718
  0
LINE
  8
0_00
  6
CONTINUOUS
 62
4
 10
866.4692
 20
1113.7718
 11
866.4875
 21
1113.3625
  0
LINE
  8
0_00
  6
CONTINUOUS
 62
4
 10
866.4875
 20
1113.3625
 11
866.4899
 21
1112.9447
  0
LINE
  8
0_00
  6
CONTINUOUS
 62
4
 10
866.4899
 20
1112.9447
 11
866.4770
 21
1112.5188
  0
LINE
  8
0_00
  6
CONTINUOUS
 62
4
 10
866.4770
 20
1112.5188
 11
866.4499
 21
1112.0849
  0
LINE
  8
0_00
  6
CONTINUOUS
 62
4
 10
866.4499
 20
1112.0849
 11
866.4098
 21
1111.6434
  0
LINE
  8
0_00
  6
CONTINUOUS
 62
4
 10
866.4098
 20
1111.6434
 11
866.3575
 21
1111.1949
  0
LINE
  8
0_00
  6
CONTINUOUS
 62
4
 10
866.3575
 20
1111.1949
 11
866.2943
 21
1110.7397
  0
LINE
  8
0_00
  6
CONTINUOUS
 62
4
 10
866.2943
 20
1110.7397
 11
866.2214
 21
1110.2781
  0
LINE
  8
0_00
  6
CONTINUOUS
 62
4
 10
866.2214
 20
1110.2781
 11
866.1395
 21
1109.8102
  0
LINE
  8
0_00
  6
CONTINUOUS
 62
4
 10
866.1395
 20
1109.8102
 11
866.0499
 21
1109.3365
  0
LINE
  8
0_00
  6
CONTINUOUS
 62
4
 10
866.0499
 20
1109.3365
 11
865.9536
 21
1108.8577
  0
LINE
  8
0_00
  6
CONTINUOUS
 62
4
 10
865.9536
 20
1108.8577
 11
865.8517
 21
1108.3740
  0
LINE
  8
0_00
  6
CONTINUOUS
 62
4
 10
865.8517
 20
1108.3740
 11
865.7453
 21
1107.8854
  0
LINE
  8
0_00
  6
CONTINUOUS
 62
4
 10
865.7453
 20
1107.8854
 11
865.6355
 21
1107.3928
  0
LINE
  8
0_00
  6
CONTINUOUS
 62
4
 10
865.6355
 20
1107.3928
 11
865.5233
 21
1106.8961
  0
LINE
  8
0_00
  6
CONTINUOUS
 62
4
 10
865.5233
 20
1106.8961
 11
865.4096
 21
1106.3960
  0
LINE
  8
0_00
  6
CONTINUOUS
 62
4
 10
865.4096
 20
1106.3960
 11
865.2959
 21
1105.8926
  0
LINE
  8
0_00
  6
CONTINUOUS
 62
4
 10
865.2959
 20
1105.8926
 11
865.1828
 21
1105.3863
  0
LINE
  8
0_00
  6
CONTINUOUS
 62
4
 10
865.1828
 20
1105.3863
 11
865.0717
 21
1104.8775
  0
LINE
  8
0_00
  6
CONTINUOUS
 62
4
 10
865.0717
 20
1104.8775
 11
864.9635
 21
1104.3668
  0
LINE
  8
0_00
  6
CONTINUOUS
 62
4
 10
864.9635
 20
1104.3668
 11
864.8595
 21
1103.8544
  0
LINE
  8
0_00
  6
CONTINUOUS
 62
4
 10
864.8595
 20
1103.8544
 11
864.7605
 21
1103.3406
  0
LINE
  8
0_00
  6
CONTINUOUS
 62
4
 10
864.7605
 20
1103.3406
 11
864.6678
 21
1102.8259
  0
LINE
  8
0_00
  6
CONTINUOUS
 62
4
 10
864.6678
 20
1102.8259
 11
864.5822
 21
1102.3103
  0
LINE
  8
0_00
  6
CONTINUOUS
 62
4
 10
864.5822
 20
1102.3103
 11
864.5049
 21
1101.7944
  0
LINE
  8
0_00
  6
CONTINUOUS
 62
4
 10
864.5049
 20
1101.7944
 11
864.4372
 21
1101.2788
  0
LINE
  8
0_00
  6
CONTINUOUS
 62
4
 10
864.4372
 20
1101.2788
 11
864.3799
 21
1100.7635
  0
LINE
  8
0_00
  6
CONTINUOUS
 62
4
 10
864.3799
 20
1100.7635
 11
864.3340
 21
1100.2489
  0
LINE
  8
0_00
  6
CONTINUOUS
 62
4
 10
864.3340
 20
1100.2489
 11
864.3008
 21
1099.7356
  0
LINE
  8
0_00
  6
CONTINUOUS
 62
4
 10
864.3008
 20
1099.7356
 11
864.2812
 21
1099.2238
  0
LINE
  8
0_00
  6
CONTINUOUS
 62
4
 10
864.2812
 20
1099.2238
 11
864.2764
 21
1098.7138
  0
LINE
  8
0_00
  6
CONTINUOUS
 62
4
 10
864.2764
 20
1098.7138
 11
864.2870
 21
1098.2061
  0
LINE
  8
0_00
  6
CONTINUOUS
 62
4
 10
864.2870
 20
1098.2061
 11
864.3125
 21
1097.7007
  0
LINE
  8
0_00
  6
CONTINUOUS
 62
4
 10
864.3125
 20
1097.7007
 11
864.3520
 21
1097.1979
  0
LINE
  8
0_00
  6
CONTINUOUS
 62
4
 10
864.3520
 20
1097.1979
 11
864.4041
 21
1096.6979
  0
LINE
  8
0_00
  6
CONTINUOUS
 62
4
 10
864.4041
 20
1096.6979
 11
864.4682
 21
1096.2007
  0
LINE
  8
0_00
  6
CONTINUOUS
 62
4
 10
864.4682
 20
1096.2007
 11
864.5432
 21
1095.7065
  0
LINE
  8
0_00
  6
CONTINUOUS
 62
4
 10
864.5432
 20
1095.7065
 11
864.6281
 21
1095.2155
  0
LINE
  8
0_00
  6
CONTINUOUS
 62
4
 10
864.6281
 20
1095.2155
 11
864.7219
 21
1094.7279
  0
LINE
  8
0_00
  6
CONTINUOUS
 62
4
 10
864.7219
 20
1094.7279
 11
864.8236
 21
1094.2439
  0
LINE
  8
0_00
  6
CONTINUOUS
 62
4
 10
864.8236
 20
1094.2439
 11
864.9322
 21
1093.7633
  0
LINE
  8
0_00
  6
CONTINUOUS
 62
4
 10
864.9322
 20
1093.7633
 11
865.0467
 21
1093.2867
  0
LINE
  8
0_00
  6
CONTINUOUS
 62
4
 10
865.0467
 20
1093.2867
 11
865.1662
 21
1092.8141
  0
LINE
  8
0_00
  6
CONTINUOUS
 62
4
 10
865.1662
 20
1092.8141
 11
865.2898
 21
1092.3457
  0
LINE
  8
0_00
  6
CONTINUOUS
 62
4
 10
865.2898
 20
1092.3457
 11
865.4162
 21
1091.8816
  0
LINE
  8
0_00
  6
CONTINUOUS
 62
4
 10
865.4162
 20
1091.8816
 11
865.5447
 21
1091.4218
  0
LINE
  8
0_00
  6
CONTINUOUS
 62
4
 10
865.5447
 20
1091.4218
 11
865.6743
 21
1090.9669
  0
LINE
  8
0_00
  6
CONTINUOUS
 62
4
 10
865.6743
 20
1090.9669
 11
865.8038
 21
1090.5165
  0
LINE
  8
0_00
  6
CONTINUOUS
 62
4
 10
865.8038
 20
1090.5165
 11
865.9323
 21
1090.0713
  0
LINE
  8
0_00
  6
CONTINUOUS
 62
4
 10
865.9323
 20
1090.0713
 11
866.0589
 21
1089.6310
  0
LINE
  8
0_00
  6
CONTINUOUS
 62
4
 10
866.0589
 20
1089.6310
 11
866.1826
 21
1089.1959
  0
LINE
  8
0_00
  6
CONTINUOUS
 62
4
 10
866.1826
 20
1089.1959
 11
866.3023
 21
1088.7664
  0
LINE
  8
0_00
  6
CONTINUOUS
 62
4
 10
866.3023
 20
1088.7664
 11
866.4171
 21
1088.3425
  0
LINE
  8
0_00
  6
CONTINUOUS
 62
4
 10
866.4171
 20
1088.3425
 11
866.5261
 21
1087.9242
  0
LINE
  8
0_00
  6
CONTINUOUS
 62
4
 10
866.5261
 20
1087.9242
 11
866.6281
 21
1087.5119
  0
LINE
  8
0_00
  6
CONTINUOUS
 62
4
 10
866.6281
 20
1087.5119
 11
866.7223
 21
1087.1057
  0
LINE
  8
0_00
  6
CONTINUOUS
 62
4
 10
866.7223
 20
1087.1057
 11
866.8076
 21
1086.7056
  0
LINE
  8
0_00
  6
CONTINUOUS
 62
4
 10
866.8076
 20
1086.7056
 11
866.8830
 21
1086.3119
  0
LINE
  8
0_00
  6
CONTINUOUS
 62
4
 10
866.8830
 20
1086.3119
 11
866.9476
 21
1085.9249
  0
LINE
  8
0_00
  6
CONTINUOUS
 62
4
 10
866.9476
 20
1085.9249
 11
867.0003
 21
1085.5444
  0
LINE
  8
0_00
  6
CONTINUOUS
 62
4
 10
867.0003
 20
1085.5444
 11
867.0403
 21
1085.1708
  0
LINE
  8
0_00
  6
CONTINUOUS
 62
4
 10
867.0403
 20
1085.1708
 11
867.0667
 21
1084.8042
  0
LINE
  8
0_00
  6
CONTINUOUS
 62
4
 10
867.0667
 20
1084.8042
 11
867.0804
 21
1084.4445
  0
LINE
  8
0_00
  6
CONTINUOUS
 62
4
 10
867.0804
 20
1084.4445
 11
867.0820
 21
1084.0917
  0
LINE
  8
0_00
  6
CONTINUOUS
 62
4
 10
867.0820
 20
1084.0917
 11
867.0725
 21
1083.7457
  0
LINE
  8
0_00
  6
CONTINUOUS
 62
4
 10
867.0725
 20
1083.7457
 11
867.0529
 21
1083.4064
  0
LINE
  8
0_00
  6
CONTINUOUS
 62
4
 10
867.0529
 20
1083.4064
 11
867.0242
 21
1083.0737
  0
LINE
  8
0_00
  6
CONTINUOUS
 62
4
 10
867.0242
 20
1083.0737
 11
866.9870
 21
1082.7476
  0
LINE
  8
0_00
  6
CONTINUOUS
 62
4
 10
866.9870
 20
1082.7476
 11
866.9424
 21
1082.4280
  0
LINE
  8
0_00
  6
CONTINUOUS
 62
4
 10
866.9424
 20
1082.4280
 11
866.8913
 21
1082.1147
  0
LINE
  8
0_00
  6
CONTINUOUS
 62
4
 10
866.8913
 20
1082.1147
 11
866.8346
 21
1081.8076
  0
LINE
  8
0_00
  6
CONTINUOUS
 62
4
 10
866.8346
 20
1081.8076
 11
866.7734
 21
1081.5070
  0
LINE
  8
0_00
  6
CONTINUOUS
 62
4
 10
866.7734
 20
1081.5070
 11
866.7083
 21
1081.2124
  0
LINE
  8
0_00
  6
CONTINUOUS
 62
4
 10
866.7083
 20
1081.2124
 11
866.6403
 21
1080.9240
  0
LINE
  8
0_00
  6
CONTINUOUS
 62
4
 10
866.6403
 20
1080.9240
 11
866.5705
 21
1080.6417
  0
LINE
  8
0_00
  6
CONTINUOUS
 62
4
 10
866.5705
 20
1080.6417
 11
866.4997
 21
1080.3652
  0
LINE
  8
0_00
  6
CONTINUOUS
 62
4
 10
866.4997
 20
1080.3652
 11
866.4287
 21
1080.0946
  0
LINE
  8
0_00
  6
CONTINUOUS
 62
4
 10
866.4287
 20
1080.0946
 11
866.3584
 21
1079.8297
  0
LINE
  8
0_00
  6
CONTINUOUS
 62
4
 10
866.3584
 20
1079.8297
 11
866.2900
 21
1079.5708
  0
LINE
  8
0_00
  6
CONTINUOUS
 62
4
 10
866.2900
 20
1079.5708
 11
866.2242
 21
1079.3172
  0
LINE
  8
0_00
  6
CONTINUOUS
 62
4
 10
866.2242
 20
1079.3172
 11
866.1619
 21
1079.0692
  0
LINE
  8
0_00
  6
CONTINUOUS
 62
4
 10
866.1619
 20
1079.0692
 11
866.1040
 21
1078.8270
  0
LINE
  8
0_00
  6
CONTINUOUS
 62
4
 10
866.1040
 20
1078.8270
 11
866.0516
 21
1078.5899
  0
LINE
  8
0_00
  6
CONTINUOUS
 62
4
 10
866.0516
 20
1078.5899
 11
866.0055
 21
1078.3582
  0
LINE
  8
0_00
  6
CONTINUOUS
 62
4
 10
866.0055
 20
1078.3582
 11
865.9665
 21
1078.1318
  0
LINE
  8
0_00
  6
CONTINUOUS
 62
4
 10
865.9665
 20
1078.1318
 11
865.9357
 21
1077.9106
  0
LINE
  8
0_00
  6
CONTINUOUS
 62
4
 10
865.9357
 20
1077.9106
 11
865.9138
 21
1077.6943
  0
LINE
  8
0_00
  6
CONTINUOUS
 62
4
 10
865.9138
 20
1077.6943
 11
865.9018
 21
1077.4833
  0
LINE
  8
0_00
  6
CONTINUOUS
 62
4
 10
865.9018
 20
1077.4833
 11
865.9007
 21
1077.2770
  0
LINE
  8
0_00
  6
CONTINUOUS
 62
4
 10
865.9007
 20
1077.2770
 11
865.9113
 21
1077.0756
  0
LINE
  8
0_00
  6
CONTINUOUS
 62
4
 10
865.9113
 20
1077.0756
 11
865.9348
 21
1076.8791
  0
LINE
  8
0_00
  6
CONTINUOUS
 62
4
 10
865.9348
 20
1076.8791
 11
865.9714
 21
1076.6874
  0
LINE
  8
0_00
  6
CONTINUOUS
 62
4
 10
865.9714
 20
1076.6874
 11
866.0213
 21
1076.4999
  0
LINE
  8
0_00
  6
CONTINUOUS
 62
4
 10
866.0213
 20
1076.4999
 11
866.0838
 21
1076.3171
  0
LINE
  8
0_00
  6
CONTINUOUS
 62
4
 10
866.0838
 20
1076.3171
 11
866.1585
 21
1076.1385
  0
LINE
  8
0_00
  6
CONTINUOUS
 62
4
 10
866.1585
 20
1076.1385
 11
866.2450
 21
1075.9640
  0
LINE
  8
0_00
  6
CONTINUOUS
 62
4
 10
866.2450
 20
1075.9640
 11
866.3428
 21
1075.7932
  0
LINE
  8
0_00
  6
CONTINUOUS
 62
4
 10
866.3428
 20
1075.7932
 11
866.4516
 21
1075.6264
  0
LINE
  8
0_00
  6
CONTINUOUS
 62
4
 10
866.4516
 20
1075.6264
 11
866.5707
 21
1075.4632
  0
LINE
  8
0_00
  6
CONTINUOUS
 62
4
 10
866.5707
 20
1075.4632
 11
866.6998
 21
1075.3034
  0
LINE
  8
0_00
  6
CONTINUOUS
 62
4
 10
866.6998
 20
1075.3034
 11
866.8384
 21
1075.1469
  0
LINE
  8
0_00
  6
CONTINUOUS
 62
4
 10
866.8384
 20
1075.1469
 11
866.9860
 21
1074.9937
  0
LINE
  8
0_00
  6
CONTINUOUS
 62
4
 10
866.9860
 20
1074.9937
 11
867.1423
 21
1074.8432
  0
LINE
  8
0_00
  6
CONTINUOUS
 62
4
 10
867.1423
 20
1074.8432
 11
867.3067
 21
1074.6957
  0
LINE
  8
0_00
  6
CONTINUOUS
 62
4
 10
867.3067
 20
1074.6957
 11
867.4789
 21
1074.5509
  0
LINE
  8
0_00
  6
CONTINUOUS
 62
4
 10
867.4789
 20
1074.5509
 11
867.6582
 21
1074.4086
  0
LINE
  8
0_00
  6
CONTINUOUS
 62
4
 10
867.6582
 20
1074.4086
 11
867.8443
 21
1074.2686
  0
LINE
  8
0_00
  6
CONTINUOUS
 62
4
 10
867.8443
 20
1074.2686
 11
868.0367
 21
1074.1308
  0
LINE
  8
0_00
  6
CONTINUOUS
 62
4
 10
868.0367
 20
1074.1308
 11
868.2350
 21
1073.9951
  0
LINE
  8
0_00
  6
CONTINUOUS
 62
4
 10
868.2350
 20
1073.9951
 11
868.4389
 21
1073.8612
  0
LINE
  8
0_00
  6
CONTINUOUS
 62
4
 10
868.4389
 20
1073.8612
 11
868.6476
 21
1073.7291
  0
LINE
  8
0_00
  6
CONTINUOUS
 62
4
 10
868.6476
 20
1073.7291
 11
868.8609
 21
1073.5986
  0
LINE
  8
0_00
  6
CONTINUOUS
 62
4
 10
868.8609
 20
1073.5986
 11
869.0783
 21
1073.4694
  0
LINE
  8
0_00
  6
CONTINUOUS
 62
4
 10
869.0783
 20
1073.4694
 11
869.2994
 21
1073.3415
  0
LINE
  8
0_00
  6
CONTINUOUS
 62
4
 10
869.2994
 20
1073.3415
 11
869.5235
 21
1073.2148
  0
LINE
  8
0_00
  6
CONTINUOUS
 62
4
 10
869.5235
 20
1073.2148
 11
869.7504
 21
1073.0890
  0
LINE
  8
0_00
  6
CONTINUOUS
 62
4
 10
869.7504
 20
1073.0890
 11
869.9796
 21
1072.9639
  0
LINE
  8
0_00
  6
CONTINUOUS
 62
4
 10
869.9796
 20
1072.9639
 11
870.2105
 21
1072.8396
  0
LINE
  8
0_00
  6
CONTINUOUS
 62
4
 10
870.2105
 20
1072.8396
 11
870.4428
 21
1072.7155
  0
LINE
  8
0_00
  6
CONTINUOUS
 62
4
 10
870.4428
 20
1072.7155
 11
870.6761
 21
1072.5919
  0
LINE
  8
0_00
  6
CONTINUOUS
 62
4
 10
870.6761
 20
1072.5919
 11
870.9097
 21
1072.4684
  0
LINE
  8
10_0A
  6
CONTINUOUS
 62
2
 10
733.0746
 20
1105.6786
 11
733.0746
 21
1103.1826
  0
LINE
  8
10_0A
  6
CONTINUOUS
 62
2
 10
732.8700
 20
1107.2314
 11
731.3927
 21
1112.7448
  0
LINE
  8
10_0A
  6
CONTINUOUS
 62
2
 10
713.2790
 20
1107.2314
 11
714.7563
 21
1112.7448
  0
LINE
  8
10_0A
  6
CONTINUOUS
 62
2
 10
713.0746
 20
1105.6786
 11
713.0746
 21
1103.3683
  0
LINE
  8
10_0A
  6
CONTINUOUS
 62
2
 10
732.3746
 20
1103.5774
 11
732.3746
 21
1105.6786
  0
LINE
  8
10_0A
  6
CONTINUOUS
 62
2
 10
732.1939
 20
1107.0502
 11
730.7166
 21
1112.5636
  0
LINE
  8
10_0A
  6
CONTINUOUS
 62
2
 10
728.4949
 20
1114.2684
 11
717.6541
 21
1114.2684
  0
LINE
  8
10_0A
  6
CONTINUOUS
 62
2
 10
715.4324
 20
1112.5636
 11
713.9552
 21
1107.0502
  0
LINE
  8
10_0A
  6
CONTINUOUS
 62
2
 10
718.0469
 20
1103.3185
 11
718.5745
 21
1103.6230
  0
LINE
  8
10_0A
  6
CONTINUOUS
 62
2
 10
718.5745
 20
1105.0302
 11
718.5745
 21
1103.6230
  0
LINE
  8
10_0A
  6
CONTINUOUS
 62
2
 10
717.3245
 20
1103.9941
 11
717.3245
 21
1104.4685
  0
LINE
  8
10_0A
  6
CONTINUOUS
 62
2
 10
715.8245
 20
1104.4685
 11
715.8245
 21
1103.9941
  0
LINE
  8
10_0A
  6
CONTINUOUS
 62
2
 10
715.0489
 20
1103.2185
 11
714.3246
 21
1103.2185
  0
LINE
  8
10_0A
  6
CONTINUOUS
 62
2
 10
714.3246
 20
1103.2185
 11
714.3246
 21
1102.4685
  0
LINE
  8
10_0A
  6
CONTINUOUS
 62
2
 10
733.0746
 20
1099.2583
 11
733.0746
 21
1101.7544
  0
LINE
  8
10_0A
  6
CONTINUOUS
 62
2
 10
732.8700
 20
1097.7054
 11
731.3927
 21
1092.1919
  0
LINE
  8
10_0A
  6
CONTINUOUS
 62
2
 10
713.2790
 20
1097.7054
 11
714.7563
 21
1092.1919
  0
LINE
  8
10_0A
  6
CONTINUOUS
 62
2
 10
713.0746
 20
1099.2583
 11
713.0746
 21
1101.5685
  0
LINE
  8
10_0A
  6
CONTINUOUS
 62
2
 10
732.3746
 20
1101.3593
 11
732.3746
 21
1099.2583
  0
LINE
  8
10_0A
  6
CONTINUOUS
 62
2
 10
732.1939
 20
1097.8867
 11
730.7166
 21
1092.3730
  0
LINE
  8
10_0A
  6
CONTINUOUS
 62
2
 10
728.4949
 20
1090.6683
 11
717.6541
 21
1090.6683
  0
LINE
  8
10_0A
  6
CONTINUOUS
 62
2
 10
715.4324
 20
1092.3730
 11
713.9552
 21
1097.8867
  0
LINE
  8
10_0A
  6
CONTINUOUS
 62
2
 10
718.0469
 20
1101.6183
 11
718.5745
 21
1101.3137
  0
LINE
  8
10_0A
  6
CONTINUOUS
 62
2
 10
718.5745
 20
1099.9066
 11
718.5745
 21
1101.3137
  0
LINE
  8
10_0A
  6
CONTINUOUS
 62
2
 10
717.3245
 20
1100.9428
 11
717.3245
 21
1100.4684
  0
LINE
  8
10_0A
  6
CONTINUOUS
 62
2
 10
715.8245
 20
1100.4684
 11
715.8245
 21
1100.9428
  0
LINE
  8
10_0A
  6
CONTINUOUS
 62
2
 10
715.0489
 20
1101.7185
 11
714.3246
 21
1101.7185
  0
LINE
  8
10_0A
  6
CONTINUOUS
 62
2
 10
714.3246
 20
1101.7185
 11
714.3246
 21
1102.4685
  0
LINE
  8
10_0A
  6
CONTINUOUS
 62
2
 10
717.3245
 20
1104.4685
 11
715.8245
 21
1104.4685
  0
LINE
  8
10_0A
  6
CONTINUOUS
 62
2
 10
715.8245
 20
1100.4684
 11
717.3245
 21
1100.4684
  0
LINE
  8
3_03
  6
CONTINUOUS
 62
4
 10
669.0746
 20
1124.9684
 11
669.0746
 21
1079.9684
  0
LINE
  8
3_03
  6
CONTINUOUS
 62
4
 10
660.5746
 20
1071.4685
 11
615.5745
 21
1071.4685
  0
LINE
  8
3_03
  6
CONTINUOUS
 62
4
 10
625.9716
 20
1115.5711
 11
669.0746
 21
1115.5711
  0
LINE
  8
3_03
  6
CONTINUOUS
 62
4
 10
626.0745
 20
1114.9684
 11
669.0746
 21
1114.9684
  0
LINE
  8
3_03
  6
CONTINUOUS
 62
4
 10
651.5746
 20
1089.9684
 11
669.0746
 21
1089.9684
  0
LINE
  8
3_03
  6
CONTINUOUS
 62
4
 10
651.6774
 20
1089.3655
 11
669.0746
 21
1089.3655
  0
LINE
  8
3_03
  6
CONTINUOUS
 62
4
 10
651.1774
 20
1088.8655
 11
651.1774
 21
1071.4685
  0
LINE
  8
3_03
  6
CONTINUOUS
 62
4
 10
650.5745
 20
1088.9684
 11
650.5745
 21
1071.4685
  0
LINE
  8
3_03
  6
CONTINUOUS
 62
4
 10
625.5746
 20
1114.4685
 11
625.5746
 21
1071.4685
  0
LINE
  8
3_03
  6
CONTINUOUS
 62
4
 10
624.9716
 20
1114.5713
 11
624.9716
 21
1071.4685
  0
LINE
  8
3_03
  6
CONTINUOUS
 62
4
 10
621.5745
 20
1125.4684
 11
668.5745
 21
1125.4684
  0
LINE
  8
3_03
  6
CONTINUOUS
 62
4
 10
663.0746
 20
1079.4685
 11
668.5745
 21
1079.4685
  0
LINE
  8
3_03
  6
CONTINUOUS
 62
4
 10
615.0745
 20
1118.9684
 11
615.0745
 21
1071.9685
  0
LINE
  8
3_03
  6
CONTINUOUS
 62
4
 10
661.0746
 20
1077.4684
 11
661.0746
 21
1071.9685
  0
LINE
  8
12_0C
  6
CONTINUOUS
 62
6
 10
698.4090
 20
1120.4684
 11
698.2819
 21
1120.7995
  0
LINE
  8
12_0C
  6
CONTINUOUS
 62
6
 10
698.4090
 20
1120.4684
 11
698.2820
 21
1120.1378
  0
LINE
  8
12_0C
  6
CONTINUOUS
 62
6
 10
698.2819
 20
1120.7995
 11
697.4608
 21
1121.6498
  0
LINE
  8
12_0C
  6
CONTINUOUS
 62
6
 10
698.2819
 20
1120.1374
 11
698.2813
 21
1120.1380
  0
LINE
  8
12_0C
  6
CONTINUOUS
 62
6
 10
698.2813
 20
1120.1380
 11
697.4602
 21
1119.2877
  0
LINE
  8
12_0C
  6
CONTINUOUS
 62
6
 10
699.0746
 20
1121.1340
 11
698.7435
 21
1121.2611
  0
LINE
  8
12_0C
  6
CONTINUOUS
 62
6
 10
699.0746
 20
1121.1340
 11
699.4052
 21
1121.2609
  0
LINE
  8
12_0C
  6
CONTINUOUS
 62
6
 10
698.7435
 20
1121.2611
 11
697.8926
 21
1122.0827
  0
LINE
  8
12_0C
  6
CONTINUOUS
 62
6
 10
699.4056
 20
1121.2611
 11
699.4048
 21
1121.2617
  0
LINE
  8
12_0C
  6
CONTINUOUS
 62
6
 10
699.4048
 20
1121.2617
 11
700.2552
 21
1122.0827
  0
LINE
  8
12_0C
  6
CONTINUOUS
 62
6
 10
699.0746
 20
1119.8029
 11
699.4056
 21
1119.6758
  0
LINE
  8
12_0C
  6
CONTINUOUS
 62
6
 10
699.0746
 20
1119.8029
 11
698.7438
 21
1119.6760
  0
LINE
  8
12_0C
  6
CONTINUOUS
 62
6
 10
699.4056
 20
1119.6758
 11
700.2560
 21
1118.8547
  0
LINE
  8
12_0C
  6
CONTINUOUS
 62
6
 10
698.7435
 20
1119.6758
 11
698.7442
 21
1119.6752
  0
LINE
  8
12_0C
  6
CONTINUOUS
 62
6
 10
698.7442
 20
1119.6752
 11
697.8939
 21
1118.8541
  0
LINE
  8
12_0C
  6
CONTINUOUS
 62
6
 10
699.7401
 20
1120.4684
 11
699.8672
 21
1120.1374
  0
LINE
  8
12_0C
  6
CONTINUOUS
 62
6
 10
699.7401
 20
1120.4684
 11
699.8670
 21
1120.7990
  0
LINE
  8
12_0C
  6
CONTINUOUS
 62
6
 10
699.8672
 20
1120.1374
 11
700.6883
 21
1119.2871
  0
LINE
  8
12_0C
  6
CONTINUOUS
 62
6
 10
699.8672
 20
1120.7995
 11
699.8678
 21
1120.7987
  0
LINE
  8
12_0C
  6
CONTINUOUS
 62
6
 10
699.8678
 20
1120.7987
 11
700.6893
 21
1121.6496
  0
LINE
  8
12_0C
  6
CONTINUOUS
 62
6
 10
698.4090
 20
1084.4685
 11
698.2819
 21
1084.7996
  0
LINE
  8
12_0C
  6
CONTINUOUS
 62
6
 10
698.4090
 20
1084.4685
 11
698.2820
 21
1084.1378
  0
LINE
  8
12_0C
  6
CONTINUOUS
 62
6
 10
698.2819
 20
1084.7996
 11
697.4608
 21
1085.6499
  0
LINE
  8
12_0C
  6
CONTINUOUS
 62
6
 10
698.2819
 20
1084.1374
 11
698.2813
 21
1084.1380
  0
LINE
  8
12_0C
  6
CONTINUOUS
 62
6
 10
698.2813
 20
1084.1380
 11
697.4602
 21
1083.2878
  0
LINE
  8
12_0C
  6
CONTINUOUS
 62
6
 10
699.0746
 20
1085.1340
 11
698.7435
 21
1085.2610
  0
LINE
  8
12_0C
  6
CONTINUOUS
 62
6
 10
699.0746
 20
1085.1340
 11
699.4052
 21
1085.2609
  0
LINE
  8
12_0C
  6
CONTINUOUS
 62
6
 10
698.7435
 20
1085.2610
 11
697.8926
 21
1086.0827
  0
LINE
  8
12_0C
  6
CONTINUOUS
 62
6
 10
699.4056
 20
1085.2610
 11
699.4048
 21
1085.2617
  0
LINE
  8
12_0C
  6
CONTINUOUS
 62
6
 10
699.4048
 20
1085.2617
 11
700.2552
 21
1086.0827
  0
LINE
  8
12_0C
  6
CONTINUOUS
 62
6
 10
699.0746
 20
1083.8029
 11
699.4056
 21
1083.6758
  0
LINE
  8
12_0C
  6
CONTINUOUS
 62
6
 10
699.0746
 20
1083.8029
 11
698.7438
 21
1083.6759
  0
LINE
  8
12_0C
  6
CONTINUOUS
 62
6
 10
699.4056
 20
1083.6758
 11
700.2560
 21
1082.8547
  0
LINE
  8
12_0C
  6
CONTINUOUS
 62
6
 10
698.7435
 20
1083.6758
 11
698.7442
 21
1083.6752
  0
LINE
  8
12_0C
  6
CONTINUOUS
 62
6
 10
698.7442
 20
1083.6752
 11
697.8939
 21
1082.8541
  0
LINE
  8
12_0C
  6
CONTINUOUS
 62
6
 10
699.7401
 20
1084.4685
 11
699.8672
 21
1084.1374
  0
LINE
  8
12_0C
  6
CONTINUOUS
 62
6
 10
699.7401
 20
1084.4685
 11
699.8670
 21
1084.7990
  0
LINE
  8
12_0C
  6
CONTINUOUS
 62
6
 10
699.8672
 20
1084.1374
 11
700.6883
 21
1083.2870
  0
LINE
  8
12_0C
  6
CONTINUOUS
 62
6
 10
699.8672
 20
1084.7996
 11
699.8678
 21
1084.7988
  0
LINE
  8
12_0C
  6
CONTINUOUS
 62
6
 10
699.8678
 20
1084.7988
 11
700.6893
 21
1085.6496
  0
LINE
  8
10_0A
  6
CONTINUOUS
 62
4
 10
863.8979
 20
1124.9684
 11
669.0746
 21
1124.9684
  0
LINE
  8
10_0A
  6
CONTINUOUS
 62
4
 10
866.3241
 20
1114.9684
 11
669.0746
 21
1114.9684
  0
LINE
  8
10_0A
  6
CONTINUOUS
 62
4
 10
865.9618
 20
1089.9684
 11
669.0746
 21
1089.9684
  0
LINE
  8
10_0A
  6
CONTINUOUS
 62
4
 10
866.3952
 20
1079.9684
 11
669.0746
 21
1079.9684
  0
LINE
  8
10_0A
  6
CONTINUOUS
 62
2
 10
634.8645
 20
1027.4684
 11
637.3604
 21
1027.4684
  0
LINE
  8
10_0A
  6
CONTINUOUS
 62
2
 10
633.3115
 20
1027.2639
 11
627.7981
 21
1025.7867
  0
LINE
  8
10_0A
  6
CONTINUOUS
 62
2
 10
633.3115
 20
1007.6729
 11
627.7981
 21
1009.1502
  0
LINE
  8
10_0A
  6
CONTINUOUS
 62
2
 10
634.8645
 20
1007.4684
 11
637.1746
 21
1007.4684
  0
LINE
  8
10_0A
  6
CONTINUOUS
 62
2
 10
636.9655
 20
1026.7683
 11
634.8645
 21
1026.7683
  0
LINE
  8
10_0A
  6
CONTINUOUS
 62
2
 10
633.4928
 20
1026.5878
 11
627.9792
 21
1025.1105
  0
LINE
  8
10_0A
  6
CONTINUOUS
 62
2
 10
626.2745
 20
1022.8889
 11
626.2745
 21
1012.0480
  0
LINE
  8
10_0A
  6
CONTINUOUS
 62
2
 10
627.9792
 20
1009.8264
 11
633.4928
 21
1008.3490
  0
LINE
  8
10_0A
  6
CONTINUOUS
 62
2
 10
637.2246
 20
1012.4406
 11
636.9199
 21
1012.9684
  0
LINE
  8
10_0A
  6
CONTINUOUS
 62
2
 10
635.5128
 20
1012.9684
 11
636.9199
 21
1012.9684
  0
LINE
  8
10_0A
  6
CONTINUOUS
 62
2
 10
636.5489
 20
1011.7184
 11
636.0746
 21
1011.7184
  0
LINE
  8
10_0A
  6
CONTINUOUS
 62
2
 10
636.0746
 20
1010.2185
 11
636.5489
 21
1010.2185
  0
LINE
  8
10_0A
  6
CONTINUOUS
 62
2
 10
637.3246
 20
1009.4428
 11
637.3246
 21
1008.7184
  0
LINE
  8
10_0A
  6
CONTINUOUS
 62
2
 10
637.3246
 20
1008.7184
 11
638.0745
 21
1008.7184
  0
LINE
  8
10_0A
  6
CONTINUOUS
 62
2
 10
641.2846
 20
1027.4684
 11
638.7886
 21
1027.4684
  0
LINE
  8
10_0A
  6
CONTINUOUS
 62
2
 10
642.8374
 20
1027.2639
 11
648.3511
 21
1025.7867
  0
LINE
  8
10_0A
  6
CONTINUOUS
 62
2
 10
642.8374
 20
1007.6729
 11
648.3511
 21
1009.1502
  0
LINE
  8
10_0A
  6
CONTINUOUS
 62
2
 10
641.2846
 20
1007.4684
 11
638.9745
 21
1007.4684
  0
LINE
  8
10_0A
  6
CONTINUOUS
 62
2
 10
639.1836
 20
1026.7683
 11
641.2846
 21
1026.7683
  0
LINE
  8
10_0A
  6
CONTINUOUS
 62
2
 10
642.6563
 20
1026.5878
 11
648.1698
 21
1025.1105
  0
LINE
  8
10_0A
  6
CONTINUOUS
 62
2
 10
649.8746
 20
1022.8889
 11
649.8746
 21
1012.0480
  0
LINE
  8
10_0A
  6
CONTINUOUS
 62
2
 10
648.1698
 20
1009.8264
 11
642.6563
 21
1008.3490
  0
LINE
  8
10_0A
  6
CONTINUOUS
 62
2
 10
638.9245
 20
1012.4406
 11
639.2292
 21
1012.9684
  0
LINE
  8
10_0A
  6
CONTINUOUS
 62
2
 10
640.6363
 20
1012.9684
 11
639.2292
 21
1012.9684
  0
LINE
  8
10_0A
  6
CONTINUOUS
 62
2
 10
639.6002
 20
1011.7184
 11
640.0745
 21
1011.7184
  0
LINE
  8
10_0A
  6
CONTINUOUS
 62
2
 10
640.0745
 20
1010.2185
 11
639.6002
 21
1010.2185
  0
LINE
  8
10_0A
  6
CONTINUOUS
 62
2
 10
638.8245
 20
1009.4428
 11
638.8245
 21
1008.7184
  0
LINE
  8
10_0A
  6
CONTINUOUS
 62
2
 10
638.8245
 20
1008.7184
 11
638.0745
 21
1008.7184
  0
LINE
  8
10_0A
  6
CONTINUOUS
 62
2
 10
636.0746
 20
1011.7184
 11
636.0746
 21
1010.2185
  0
LINE
  8
10_0A
  6
CONTINUOUS
 62
2
 10
640.0745
 20
1010.2185
 11
640.0745
 21
1011.7184
  0
LINE
  8
10_0A
  6
CONTINUOUS
 62
4
 10
615.5745
 20
1071.4685
 11
615.5745
 21
876.6451
  0
LINE
  8
10_0A
  6
CONTINUOUS
 62
4
 10
660.5746
 20
1071.4685
 11
660.5746
 21
874.1477
  0
LINE
  8
10_0A
  6
CONTINUOUS
 62
4
 10
625.5746
 20
1071.4685
 11
625.5746
 21
874.2156
  0
LINE
  8
10_0A
  6
CONTINUOUS
 62
4
 10
650.5745
 20
1071.4685
 11
650.5745
 21
874.5811
  0
LINE
  8
12_0C
  6
CONTINUOUS
 62
6
 10
655.4090
 20
1041.4684
 11
655.2820
 21
1041.7995
  0
LINE
  8
12_0C
  6
CONTINUOUS
 62
6
 10
655.4090
 20
1041.4684
 11
655.2821
 21
1041.1378
  0
LINE
  8
12_0C
  6
CONTINUOUS
 62
6
 10
655.2820
 20
1041.7995
 11
654.4608
 21
1042.6498
  0
LINE
  8
12_0C
  6
CONTINUOUS
 62
6
 10
655.2820
 20
1041.1375
 11
655.2813
 21
1041.1381
  0
LINE
  8
12_0C
  6
CONTINUOUS
 62
6
 10
655.2813
 20
1041.1381
 11
654.4601
 21
1040.2877
  0
LINE
  8
12_0C
  6
CONTINUOUS
 62
6
 10
656.0745
 20
1042.1340
 11
655.7435
 21
1042.2610
  0
LINE
  8
12_0C
  6
CONTINUOUS
 62
6
 10
656.0745
 20
1042.1340
 11
656.4053
 21
1042.2610
  0
LINE
  8
12_0C
  6
CONTINUOUS
 62
6
 10
655.7435
 20
1042.2610
 11
654.8927
 21
1043.0827
  0
LINE
  8
12_0C
  6
CONTINUOUS
 62
6
 10
656.4056
 20
1042.2610
 11
656.4049
 21
1042.2617
  0
LINE
  8
12_0C
  6
CONTINUOUS
 62
6
 10
656.4049
 20
1042.2617
 11
657.2552
 21
1043.0827
  0
LINE
  8
12_0C
  6
CONTINUOUS
 62
6
 10
656.0745
 20
1040.8029
 11
656.4056
 21
1040.6758
  0
LINE
  8
12_0C
  6
CONTINUOUS
 62
6
 10
656.0745
 20
1040.8029
 11
655.7439
 21
1040.6760
  0
LINE
  8
12_0C
  6
CONTINUOUS
 62
6
 10
656.4056
 20
1040.6758
 11
657.2559
 21
1039.8547
  0
LINE
  8
12_0C
  6
CONTINUOUS
 62
6
 10
655.7435
 20
1040.6758
 11
655.7442
 21
1040.6752
  0
LINE
  8
12_0C
  6
CONTINUOUS
 62
6
 10
655.7442
 20
1040.6752
 11
654.8939
 21
1039.8541
  0
LINE
  8
12_0C
  6
CONTINUOUS
 62
6
 10
656.7400
 20
1041.4684
 11
656.8671
 21
1041.1375
  0
LINE
  8
12_0C
  6
CONTINUOUS
 62
6
 10
656.7400
 20
1041.4684
 11
656.8671
 21
1041.7989
  0
LINE
  8
12_0C
  6
CONTINUOUS
 62
6
 10
656.8671
 20
1041.1375
 11
657.6883
 21
1040.2870
  0
LINE
  8
12_0C
  6
CONTINUOUS
 62
6
 10
656.8671
 20
1041.7995
 11
656.8678
 21
1041.7987
  0
LINE
  8
12_0C
  6
CONTINUOUS
 62
6
 10
656.8678
 20
1041.7987
 11
657.6893
 21
1042.6495
  0
LINE
  8
12_0C
  6
CONTINUOUS
 62
6
 10
619.4091
 20
1041.4684
 11
619.2819
 21
1041.7995
  0
LINE
  8
12_0C
  6
CONTINUOUS
 62
6
 10
619.4091
 20
1041.4684
 11
619.2820
 21
1041.1378
  0
LINE
  8
12_0C
  6
CONTINUOUS
 62
6
 10
619.2819
 20
1041.7995
 11
618.4608
 21
1042.6498
  0
LINE
  8
12_0C
  6
CONTINUOUS
 62
6
 10
619.2819
 20
1041.1375
 11
619.2813
 21
1041.1381
  0
LINE
  8
12_0C
  6
CONTINUOUS
 62
6
 10
619.2813
 20
1041.1381
 11
618.4602
 21
1040.2877
  0
LINE
  8
12_0C
  6
CONTINUOUS
 62
6
 10
620.0745
 20
1042.1340
 11
619.7435
 21
1042.2610
  0
LINE
  8
12_0C
  6
CONTINUOUS
 62
6
 10
620.0745
 20
1042.1340
 11
620.4052
 21
1042.2610
  0
LINE
  8
12_0C
  6
CONTINUOUS
 62
6
 10
619.7435
 20
1042.2610
 11
618.8926
 21
1043.0827
  0
LINE
  8
12_0C
  6
CONTINUOUS
 62
6
 10
620.4056
 20
1042.2610
 11
620.4049
 21
1042.2617
  0
LINE
  8
12_0C
  6
CONTINUOUS
 62
6
 10
620.4049
 20
1042.2617
 11
621.2552
 21
1043.0827
  0
LINE
  8
12_0C
  6
CONTINUOUS
 62
6
 10
620.0745
 20
1040.8029
 11
620.4056
 21
1040.6758
  0
LINE
  8
12_0C
  6
CONTINUOUS
 62
6
 10
620.0745
 20
1040.8029
 11
619.7438
 21
1040.6760
  0
LINE
  8
12_0C
  6
CONTINUOUS
 62
6
 10
620.4056
 20
1040.6758
 11
621.2560
 21
1039.8547
  0
LINE
  8
12_0C
  6
CONTINUOUS
 62
6
 10
619.7435
 20
1040.6758
 11
619.7442
 21
1040.6752
  0
LINE
  8
12_0C
  6
CONTINUOUS
 62
6
 10
619.7442
 20
1040.6752
 11
618.8939
 21
1039.8541
  0
LINE
  8
12_0C
  6
CONTINUOUS
 62
6
 10
620.7401
 20
1041.4684
 11
620.8672
 21
1041.1375
  0
LINE
  8
12_0C
  6
CONTINUOUS
 62
6
 10
620.7401
 20
1041.4684
 11
620.8670
 21
1041.7989
  0
LINE
  8
12_0C
  6
CONTINUOUS
 62
6
 10
620.8672
 20
1041.1375
 11
621.6883
 21
1040.2870
  0
LINE
  8
12_0C
  6
CONTINUOUS
 62
6
 10
620.8672
 20
1041.7995
 11
620.8678
 21
1041.7987
  0
LINE
  8
12_0C
  6
CONTINUOUS
 62
6
 10
620.8678
 20
1041.7987
 11
621.6893
 21
1042.6495
  0
LINE
  8
10_0A
  6
CONTINUOUS
 62
2
 10
634.8645
 20
900.4684
 11
637.3604
 21
900.4684
  0
LINE
  8
10_0A
  6
CONTINUOUS
 62
2
 10
633.3115
 20
900.2640
 11
627.7981
 21
898.7866
  0
LINE
  8
10_0A
  6
CONTINUOUS
 62
2
 10
633.3115
 20
880.6728
 11
627.7981
 21
882.1503
  0
LINE
  8
10_0A
  6
CONTINUOUS
 62
2
 10
634.8645
 20
880.4684
 11
637.1746
 21
880.4684
  0
LINE
  8
10_0A
  6
CONTINUOUS
 62
2
 10
636.9655
 20
899.7684
 11
634.8645
 21
899.7684
  0
LINE
  8
10_0A
  6
CONTINUOUS
 62
2
 10
633.4928
 20
899.5878
 11
627.9792
 21
898.1105
  0
LINE
  8
10_0A
  6
CONTINUOUS
 62
2
 10
626.2745
 20
895.8888
 11
626.2745
 21
885.0480
  0
LINE
  8
10_0A
  6
CONTINUOUS
 62
2
 10
627.9792
 20
882.8264
 11
633.4928
 21
881.3490
  0
LINE
  8
10_0A
  6
CONTINUOUS
 62
2
 10
637.2246
 20
885.4407
 11
636.9199
 21
885.9684
  0
LINE
  8
10_0A
  6
CONTINUOUS
 62
2
 10
635.5128
 20
885.9684
 11
636.9199
 21
885.9684
  0
LINE
  8
10_0A
  6
CONTINUOUS
 62
2
 10
636.5489
 20
884.7185
 11
636.0746
 21
884.7185
  0
LINE
  8
10_0A
  6
CONTINUOUS
 62
2
 10
636.0746
 20
883.2185
 11
636.5489
 21
883.2185
  0
LINE
  8
10_0A
  6
CONTINUOUS
 62
2
 10
637.3246
 20
882.4429
 11
637.3246
 21
881.7184
  0
LINE
  8
10_0A
  6
CONTINUOUS
 62
2
 10
637.3246
 20
881.7184
 11
638.0745
 21
881.7184
  0
LINE
  8
10_0A
  6
CONTINUOUS
 62
2
 10
641.2846
 20
900.4684
 11
638.7886
 21
900.4684
  0
LINE
  8
10_0A
  6
CONTINUOUS
 62
2
 10
642.8374
 20
900.2640
 11
648.3511
 21
898.7866
  0
LINE
  8
10_0A
  6
CONTINUOUS
 62
2
 10
642.8374
 20
880.6728
 11
648.3511
 21
882.1503
  0
LINE
  8
10_0A
  6
CONTINUOUS
 62
2
 10
641.2846
 20
880.4684
 11
638.9745
 21
880.4684
  0
LINE
  8
10_0A
  6
CONTINUOUS
 62
2
 10
639.1836
 20
899.7684
 11
641.2846
 21
899.7684
  0
LINE
  8
10_0A
  6
CONTINUOUS
 62
2
 10
642.6563
 20
899.5878
 11
648.1698
 21
898.1105
  0
LINE
  8
10_0A
  6
CONTINUOUS
 62
2
 10
649.8746
 20
895.8888
 11
649.8746
 21
885.0480
  0
LINE
  8
10_0A
  6
CONTINUOUS
 62
2
 10
648.1698
 20
882.8264
 11
642.6563
 21
881.3490
  0
LINE
  8
10_0A
  6
CONTINUOUS
 62
2
 10
638.9245
 20
885.4407
 11
639.2292
 21
885.9684
  0
LINE
  8
10_0A
  6
CONTINUOUS
 62
2
 10
640.6363
 20
885.9684
 11
639.2292
 21
885.9684
  0
LINE
  8
10_0A
  6
CONTINUOUS
 62
2
 10
639.6002
 20
884.7185
 11
640.0745
 21
884.7185
  0
LINE
  8
10_0A
  6
CONTINUOUS
 62
2
 10
640.0745
 20
883.2185
 11
639.6002
 21
883.2185
  0
LINE
  8
10_0A
  6
CONTINUOUS
 62
2
 10
638.8245
 20
882.4429
 11
638.8245
 21
881.7184
  0
LINE
  8
10_0A
  6
CONTINUOUS
 62
2
 10
638.8245
 20
881.7184
 11
638.0745
 21
881.7184
  0
LINE
  8
10_0A
  6
CONTINUOUS
 62
2
 10
636.0746
 20
884.7185
 11
636.0746
 21
883.2185
  0
LINE
  8
10_0A
  6
CONTINUOUS
 62
2
 10
640.0745
 20
883.2185
 11
640.0745
 21
884.7185
  0
LINE
  8
10_0A
  6
CONTINUOUS
 62
2
 10
634.8645
 20
880.4684
 11
637.3604
 21
880.4684
  0
LINE
  8
10_0A
  6
CONTINUOUS
 62
2
 10
641.2846
 20
880.4684
 11
638.7886
 21
880.4684
  0
LINE
  8
0_00
  6
CONTINUOUS
 62
4
 10
608.0746
 20
872.2730
 11
608.3839
 21
872.5057
  0
LINE
  8
0_00
  6
CONTINUOUS
 62
4
 10
608.3839
 20
872.5057
 11
608.6932
 21
872.7380
  0
LINE
  8
0_00
  6
CONTINUOUS
 62
4
 10
608.6932
 20
872.7380
 11
609.0024
 21
872.9691
  0
LINE
  8
0_00
  6
CONTINUOUS
 62
4
 10
609.0024
 20
872.9691
 11
609.3114
 21
873.1986
  0
LINE
  8
0_00
  6
CONTINUOUS
 62
4
 10
609.3114
 20
873.1986
 11
609.6206
 21
873.4260
  0
LINE
  8
0_00
  6
CONTINUOUS
 62
4
 10
609.6206
 20
873.4260
 11
609.9295
 21
873.6506
  0
LINE
  8
0_00
  6
CONTINUOUS
 62
4
 10
609.9295
 20
873.6506
 11
610.2383
 21
873.8720
  0
LINE
  8
0_00
  6
CONTINUOUS
 62
4
 10
610.2383
 20
873.8720
 11
610.5468
 21
874.0895
  0
LINE
  8
0_00
  6
CONTINUOUS
 62
4
 10
610.5468
 20
874.0895
 11
610.8551
 21
874.3028
  0
LINE
  8
0_00
  6
CONTINUOUS
 62
4
 10
610.8551
 20
874.3028
 11
611.1632
 21
874.5112
  0
LINE
  8
0_00
  6
CONTINUOUS
 62
4
 10
611.1632
 20
874.5112
 11
611.4711
 21
874.7141
  0
LINE
  8
0_00
  6
CONTINUOUS
 62
4
 10
611.4711
 20
874.7141
 11
611.7785
 21
874.9111
  0
LINE
  8
0_00
  6
CONTINUOUS
 62
4
 10
611.7785
 20
874.9111
 11
612.0856
 21
875.1015
  0
LINE
  8
0_00
  6
CONTINUOUS
 62
4
 10
612.0856
 20
875.1015
 11
612.3925
 21
875.2850
  0
LINE
  8
0_00
  6
CONTINUOUS
 62
4
 10
612.3925
 20
875.2850
 11
612.6989
 21
875.4609
  0
LINE
  8
0_00
  6
CONTINUOUS
 62
4
 10
612.6989
 20
875.4609
 11
613.0050
 21
875.6286
  0
LINE
  8
0_00
  6
CONTINUOUS
 62
4
 10
613.0050
 20
875.6286
 11
613.3105
 21
875.7877
  0
LINE
  8
0_00
  6
CONTINUOUS
 62
4
 10
613.3105
 20
875.7877
 11
613.6157
 21
875.9374
  0
LINE
  8
0_00
  6
CONTINUOUS
 62
4
 10
613.6157
 20
875.9374
 11
613.9203
 21
876.0775
  0
LINE
  8
0_00
  6
CONTINUOUS
 62
4
 10
613.9203
 20
876.0775
 11
614.2243
 21
876.2073
  0
LINE
  8
0_00
  6
CONTINUOUS
 62
4
 10
614.2243
 20
876.2073
 11
614.5279
 21
876.3262
  0
LINE
  8
0_00
  6
CONTINUOUS
 62
4
 10
614.5279
 20
876.3262
 11
614.8309
 21
876.4338
  0
LINE
  8
0_00
  6
CONTINUOUS
 62
4
 10
614.8309
 20
876.4338
 11
615.1332
 21
876.5294
  0
LINE
  8
0_00
  6
CONTINUOUS
 62
4
 10
615.1332
 20
876.5294
 11
615.4349
 21
876.6125
  0
LINE
  8
0_00
  6
CONTINUOUS
 62
4
 10
615.4349
 20
876.6125
 11
615.7360
 21
876.6827
  0
LINE
  8
0_00
  6
CONTINUOUS
 62
4
 10
615.7360
 20
876.6827
 11
616.0363
 21
876.7393
  0
LINE
  8
0_00
  6
CONTINUOUS
 62
4
 10
616.0363
 20
876.7393
 11
616.3360
 21
876.7818
  0
LINE
  8
0_00
  6
CONTINUOUS
 62
4
 10
616.3360
 20
876.7818
 11
616.6350
 21
876.8096
  0
LINE
  8
0_00
  6
CONTINUOUS
 62
4
 10
616.6350
 20
876.8096
 11
616.9331
 21
876.8224
  0
LINE
  8
0_00
  6
CONTINUOUS
 62
4
 10
616.9331
 20
876.8224
 11
617.2304
 21
876.8193
  0
LINE
  8
0_00
  6
CONTINUOUS
 62
4
 10
617.2304
 20
876.8193
 11
617.5271
 21
876.8003
  0
LINE
  8
0_00
  6
CONTINUOUS
 62
4
 10
617.5271
 20
876.8003
 11
617.8231
 21
876.7661
  0
LINE
  8
0_00
  6
CONTINUOUS
 62
4
 10
617.8231
 20
876.7661
 11
618.1190
 21
876.7178
  0
LINE
  8
0_00
  6
CONTINUOUS
 62
4
 10
618.1190
 20
876.7178
 11
618.4149
 21
876.6565
  0
LINE
  8
0_00
  6
CONTINUOUS
 62
4
 10
618.4149
 20
876.6565
 11
618.7114
 21
876.5833
  0
LINE
  8
0_00
  6
CONTINUOUS
 62
4
 10
618.7114
 20
876.5833
 11
619.0085
 21
876.4993
  0
LINE
  8
0_00
  6
CONTINUOUS
 62
4
 10
619.0085
 20
876.4993
 11
619.3067
 21
876.4055
  0
LINE
  8
0_00
  6
CONTINUOUS
 62
4
 10
619.3067
 20
876.4055
 11
619.6062
 21
876.3030
  0
LINE
  8
0_00
  6
CONTINUOUS
 62
4
 10
619.6062
 20
876.3030
 11
619.9076
 21
876.1930
  0
LINE
  8
0_00
  6
CONTINUOUS
 62
4
 10
619.9076
 20
876.1930
 11
620.2109
 21
876.0764
  0
LINE
  8
0_00
  6
CONTINUOUS
 62
4
 10
620.2109
 20
876.0764
 11
620.5165
 21
875.9545
  0
LINE
  8
0_00
  6
CONTINUOUS
 62
4
 10
620.5165
 20
875.9545
 11
620.8247
 21
875.8283
  0
LINE
  8
0_00
  6
CONTINUOUS
 62
4
 10
620.8247
 20
875.8283
 11
621.1358
 21
875.6989
  0
LINE
  8
0_00
  6
CONTINUOUS
 62
4
 10
621.1358
 20
875.6989
 11
621.4503
 21
875.5672
  0
LINE
  8
0_00
  6
CONTINUOUS
 62
4
 10
621.4503
 20
875.5672
 11
621.7683
 21
875.4346
  0
LINE
  8
0_00
  6
CONTINUOUS
 62
4
 10
621.7683
 20
875.4346
 11
622.0902
 21
875.3019
  0
LINE
  8
0_00
  6
CONTINUOUS
 62
4
 10
622.0902
 20
875.3019
 11
622.4163
 21
875.1704
  0
LINE
  8
0_00
  6
CONTINUOUS
 62
4
 10
622.4163
 20
875.1704
 11
622.7469
 21
875.0410
  0
LINE
  8
0_00
  6
CONTINUOUS
 62
4
 10
622.7469
 20
875.0410
 11
623.0822
 21
874.9149
  0
LINE
  8
0_00
  6
CONTINUOUS
 62
4
 10
623.0822
 20
874.9149
 11
623.4229
 21
874.7932
  0
LINE
  8
0_00
  6
CONTINUOUS
 62
4
 10
623.4229
 20
874.7932
 11
623.7689
 21
874.6770
  0
LINE
  8
0_00
  6
CONTINUOUS
 62
4
 10
623.7689
 20
874.6770
 11
624.1207
 21
874.5673
  0
LINE
  8
0_00
  6
CONTINUOUS
 62
4
 10
624.1207
 20
874.5673
 11
624.4786
 21
874.4652
  0
LINE
  8
0_00
  6
CONTINUOUS
 62
4
 10
624.4786
 20
874.4652
 11
624.8428
 21
874.3719
  0
LINE
  8
0_00
  6
CONTINUOUS
 62
4
 10
624.8428
 20
874.3719
 11
625.2138
 21
874.2883
  0
LINE
  8
0_00
  6
CONTINUOUS
 62
4
 10
625.2138
 20
874.2883
 11
625.5919
 21
874.2156
  0
LINE
  8
0_00
  6
CONTINUOUS
 62
4
 10
625.5919
 20
874.2156
 11
625.9772
 21
874.1549
  0
LINE
  8
0_00
  6
CONTINUOUS
 62
4
 10
625.9772
 20
874.1549
 11
626.3702
 21
874.1073
  0
LINE
  8
0_00
  6
CONTINUOUS
 62
4
 10
626.3702
 20
874.1073
 11
626.7712
 21
874.0737
  0
LINE
  8
0_00
  6
CONTINUOUS
 62
4
 10
626.7712
 20
874.0737
 11
627.1805
 21
874.0554
  0
LINE
  8
0_00
  6
CONTINUOUS
 62
4
 10
627.1805
 20
874.0554
 11
627.5983
 21
874.0531
  0
LINE
  8
0_00
  6
CONTINUOUS
 62
4
 10
627.5983
 20
874.0531
 11
628.0242
 21
874.0660
  0
LINE
  8
0_00
  6
CONTINUOUS
 62
4
 10
628.0242
 20
874.0660
 11
628.4581
 21
874.0931
  0
LINE
  8
0_00
  6
CONTINUOUS
 62
4
 10
628.4581
 20
874.0931
 11
628.8993
 21
874.1332
  0
LINE
  8
0_00
  6
CONTINUOUS
 62
4
 10
628.8993
 20
874.1332
 11
629.3480
 21
874.1855
  0
LINE
  8
0_00
  6
CONTINUOUS
 62
4
 10
629.3480
 20
874.1855
 11
629.8032
 21
874.2487
  0
LINE
  8
0_00
  6
CONTINUOUS
 62
4
 10
629.8032
 20
874.2487
 11
630.2650
 21
874.3216
  0
LINE
  8
0_00
  6
CONTINUOUS
 62
4
 10
630.2650
 20
874.3216
 11
630.7328
 21
874.4035
  0
LINE
  8
0_00
  6
CONTINUOUS
 62
4
 10
630.7328
 20
874.4035
 11
631.2064
 21
874.4930
  0
LINE
  8
0_00
  6
CONTINUOUS
 62
4
 10
631.2064
 20
874.4930
 11
631.6851
 21
874.5893
  0
LINE
  8
0_00
  6
CONTINUOUS
 62
4
 10
631.6851
 20
874.5893
 11
632.1690
 21
874.6912
  0
LINE
  8
0_00
  6
CONTINUOUS
 62
4
 10
632.1690
 20
874.6912
 11
632.6575
 21
874.7976
  0
LINE
  8
0_00
  6
CONTINUOUS
 62
4
 10
632.6575
 20
874.7976
 11
633.1503
 21
874.9075
  0
LINE
  8
0_00
  6
CONTINUOUS
 62
4
 10
633.1503
 20
874.9075
 11
633.6469
 21
875.0197
  0
LINE
  8
0_00
  6
CONTINUOUS
 62
4
 10
633.6469
 20
875.0197
 11
634.1471
 21
875.1333
  0
LINE
  8
0_00
  6
CONTINUOUS
 62
4
 10
634.1471
 20
875.1333
 11
634.6505
 21
875.2471
  0
LINE
  8
0_00
  6
CONTINUOUS
 62
4
 10
634.6505
 20
875.2471
 11
635.1566
 21
875.3601
  0
LINE
  8
0_00
  6
CONTINUOUS
 62
4
 10
635.1566
 20
875.3601
 11
635.6652
 21
875.4712
  0
LINE
  8
0_00
  6
CONTINUOUS
 62
4
 10
635.6652
 20
875.4712
 11
636.1760
 21
875.5793
  0
LINE
  8
0_00
  6
CONTINUOUS
 62
4
 10
636.1760
 20
875.5793
 11
636.6885
 21
875.6834
  0
LINE
  8
0_00
  6
CONTINUOUS
 62
4
 10
636.6885
 20
875.6834
 11
637.2023
 21
875.7824
  0
LINE
  8
0_00
  6
CONTINUOUS
 62
4
 10
637.2023
 20
875.7824
 11
637.7171
 21
875.8752
  0
LINE
  8
0_00
  6
CONTINUOUS
 62
4
 10
637.7171
 20
875.8752
 11
638.2326
 21
875.9607
  0
LINE
  8
0_00
  6
CONTINUOUS
 62
4
 10
638.2326
 20
875.9607
 11
638.7485
 21
876.0380
  0
LINE
  8
0_00
  6
CONTINUOUS
 62
4
 10
638.7485
 20
876.0380
 11
639.2641
 21
876.1058
  0
LINE
  8
0_00
  6
CONTINUOUS
 62
4
 10
639.2641
 20
876.1058
 11
639.7795
 21
876.1632
  0
LINE
  8
0_00
  6
CONTINUOUS
 62
4
 10
639.7795
 20
876.1632
 11
640.2939
 21
876.2090
  0
LINE
  8
0_00
  6
CONTINUOUS
 62
4
 10
640.2939
 20
876.2090
 11
640.8073
 21
876.2422
  0
LINE
  8
0_00
  6
CONTINUOUS
 62
4
 10
640.8073
 20
876.2422
 11
641.3192
 21
876.2617
  0
LINE
  8
0_00
  6
CONTINUOUS
 62
4
 10
641.3192
 20
876.2617
 11
641.8291
 21
876.2666
  0
LINE
  8
0_00
  6
CONTINUOUS
 62
4
 10
641.8291
 20
876.2666
 11
642.3369
 21
876.2559
  0
LINE
  8
0_00
  6
CONTINUOUS
 62
4
 10
642.3369
 20
876.2559
 11
642.8421
 21
876.2304
  0
LINE
  8
0_00
  6
CONTINUOUS
 62
4
 10
642.8421
 20
876.2304
 11
643.3450
 21
876.1909
  0
LINE
  8
0_00
  6
CONTINUOUS
 62
4
 10
643.3450
 20
876.1909
 11
643.8451
 21
876.1388
  0
LINE
  8
0_00
  6
CONTINUOUS
 62
4
 10
643.8451
 20
876.1388
 11
644.3423
 21
876.0748
  0
LINE
  8
0_00
  6
CONTINUOUS
 62
4
 10
644.3423
 20
876.0748
 11
644.8364
 21
875.9998
  0
LINE
  8
0_00
  6
CONTINUOUS
 62
4
 10
644.8364
 20
875.9998
 11
645.3274
 21
875.9149
  0
LINE
  8
0_00
  6
CONTINUOUS
 62
4
 10
645.3274
 20
875.9149
 11
645.8150
 21
875.8211
  0
LINE
  8
0_00
  6
CONTINUOUS
 62
4
 10
645.8150
 20
875.8211
 11
646.2990
 21
875.7194
  0
LINE
  8
0_00
  6
CONTINUOUS
 62
4
 10
646.2990
 20
875.7194
 11
646.7795
 21
875.6108
  0
LINE
  8
0_00
  6
CONTINUOUS
 62
4
 10
646.7795
 20
875.6108
 11
647.2562
 21
875.4962
  0
LINE
  8
0_00
  6
CONTINUOUS
 62
4
 10
647.2562
 20
875.4962
 11
647.7287
 21
875.3767
  0
LINE
  8
0_00
  6
CONTINUOUS
 62
4
 10
647.7287
 20
875.3767
 11
648.1973
 21
875.2531
  0
LINE
  8
0_00
  6
CONTINUOUS
 62
4
 10
648.1973
 20
875.2531
 11
648.6613
 21
875.1267
  0
LINE
  8
0_00
  6
CONTINUOUS
 62
4
 10
648.6613
 20
875.1267
 11
649.1211
 21
874.9982
  0
LINE
  8
0_00
  6
CONTINUOUS
 62
4
 10
649.1211
 20
874.9982
 11
649.5761
 21
874.8687
  0
LINE
  8
0_00
  6
CONTINUOUS
 62
4
 10
649.5761
 20
874.8687
 11
650.0265
 21
874.7392
  0
LINE
  8
0_00
  6
CONTINUOUS
 62
4
 10
650.0265
 20
874.7392
 11
650.4718
 21
874.6107
  0
LINE
  8
0_00
  6
CONTINUOUS
 62
4
 10
650.4718
 20
874.6107
 11
650.9119
 21
874.4840
  0
LINE
  8
0_00
  6
CONTINUOUS
 62
4
 10
650.9119
 20
874.4840
 11
651.3469
 21
874.3604
  0
LINE
  8
0_00
  6
CONTINUOUS
 62
4
 10
651.3469
 20
874.3604
 11
651.7765
 21
874.2406
  0
LINE
  8
0_00
  6
CONTINUOUS
 62
4
 10
651.7765
 20
874.2406
 11
652.2004
 21
874.1258
  0
LINE
  8
0_00
  6
CONTINUOUS
 62
4
 10
652.2004
 20
874.1258
 11
652.6188
 21
874.0169
  0
LINE
  8
0_00
  6
CONTINUOUS
 62
4
 10
652.6188
 20
874.0169
 11
653.0310
 21
873.9149
  0
LINE
  8
0_00
  6
CONTINUOUS
 62
4
 10
653.0310
 20
873.9149
 11
653.4372
 21
873.8207
  0
LINE
  8
0_00
  6
CONTINUOUS
 62
4
 10
653.4372
 20
873.8207
 11
653.8374
 21
873.7354
  0
LINE
  8
0_00
  6
CONTINUOUS
 62
4
 10
653.8374
 20
873.7354
 11
654.2310
 21
873.6600
  0
LINE
  8
0_00
  6
CONTINUOUS
 62
4
 10
654.2310
 20
873.6600
 11
654.6181
 21
873.5954
  0
LINE
  8
0_00
  6
CONTINUOUS
 62
4
 10
654.6181
 20
873.5954
 11
654.9986
 21
873.5426
  0
LINE
  8
0_00
  6
CONTINUOUS
 62
4
 10
654.9986
 20
873.5426
 11
655.3722
 21
873.5027
  0
LINE
  8
0_00
  6
CONTINUOUS
 62
4
 10
655.3722
 20
873.5027
 11
655.7388
 21
873.4761
  0
LINE
  8
0_00
  6
CONTINUOUS
 62
4
 10
655.7388
 20
873.4761
 11
656.0985
 21
873.4626
  0
LINE
  8
0_00
  6
CONTINUOUS
 62
4
 10
656.0985
 20
873.4626
 11
656.4512
 21
873.4609
  0
LINE
  8
0_00
  6
CONTINUOUS
 62
4
 10
656.4512
 20
873.4609
 11
656.7973
 21
873.4705
  0
LINE
  8
0_00
  6
CONTINUOUS
 62
4
 10
656.7973
 20
873.4705
 11
657.1365
 21
873.4900
  0
LINE
  8
0_00
  6
CONTINUOUS
 62
4
 10
657.1365
 20
873.4900
 11
657.4693
 21
873.5188
  0
LINE
  8
0_00
  6
CONTINUOUS
 62
4
 10
657.4693
 20
873.5188
 11
657.7954
 21
873.5560
  0
LINE
  8
0_00
  6
CONTINUOUS
 62
4
 10
657.7954
 20
873.5560
 11
658.1151
 21
873.6005
  0
LINE
  8
0_00
  6
CONTINUOUS
 62
4
 10
658.1151
 20
873.6005
 11
658.4283
 21
873.6516
  0
LINE
  8
0_00
  6
CONTINUOUS
 62
4
 10
658.4283
 20
873.6516
 11
658.7354
 21
873.7083
  0
LINE
  8
0_00
  6
CONTINUOUS
 62
4
 10
658.7354
 20
873.7083
 11
659.0359
 21
873.7695
  0
LINE
  8
0_00
  6
CONTINUOUS
 62
4
 10
659.0359
 20
873.7695
 11
659.3304
 21
873.8347
  0
LINE
  8
0_00
  6
CONTINUOUS
 62
4
 10
659.3304
 20
873.8347
 11
659.6189
 21
873.9025
  0
LINE
  8
0_00
  6
CONTINUOUS
 62
4
 10
659.6189
 20
873.9025
 11
659.9014
 21
873.9724
  0
LINE
  8
0_00
  6
CONTINUOUS
 62
4
 10
659.9014
 20
873.9724
 11
660.1777
 21
874.0433
  0
LINE
  8
0_00
  6
CONTINUOUS
 62
4
 10
660.1777
 20
874.0433
 11
660.4483
 21
874.1142
  0
LINE
  8
0_00
  6
CONTINUOUS
 62
4
 10
660.4483
 20
874.1142
 11
660.7130
 21
874.1845
  0
LINE
  8
0_00
  6
CONTINUOUS
 62
4
 10
660.7130
 20
874.1845
 11
660.9723
 21
874.2529
  0
LINE
  8
0_00
  6
CONTINUOUS
 62
4
 10
660.9723
 20
874.2529
 11
661.2257
 21
874.3187
  0
LINE
  8
0_00
  6
CONTINUOUS
 62
4
 10
661.2257
 20
874.3187
 11
661.4735
 21
874.3810
  0
LINE
  8
0_00
  6
CONTINUOUS
 62
4
 10
661.4735
 20
874.3810
 11
661.7160
 21
874.4389
  0
LINE
  8
0_00
  6
CONTINUOUS
 62
4
 10
661.7160
 20
874.4389
 11
661.9531
 21
874.4913
  0
LINE
  8
0_00
  6
CONTINUOUS
 62
4
 10
661.9531
 20
874.4913
 11
662.1848
 21
874.5375
  0
LINE
  8
0_00
  6
CONTINUOUS
 62
4
 10
662.1848
 20
874.5375
 11
662.4113
 21
874.5765
  0
LINE
  8
0_00
  6
CONTINUOUS
 62
4
 10
662.4113
 20
874.5765
 11
662.6324
 21
874.6073
  0
LINE
  8
0_00
  6
CONTINUOUS
 62
4
 10
662.6324
 20
874.6073
 11
662.8486
 21
874.6292
  0
LINE
  8
0_00
  6
CONTINUOUS
 62
4
 10
662.8486
 20
874.6292
 11
663.0598
 21
874.6412
  0
LINE
  8
0_00
  6
CONTINUOUS
 62
4
 10
663.0598
 20
874.6412
 11
663.2660
 21
874.6423
  0
LINE
  8
0_00
  6
CONTINUOUS
 62
4
 10
663.2660
 20
874.6423
 11
663.4673
 21
874.6315
  0
LINE
  8
0_00
  6
CONTINUOUS
 62
4
 10
663.4673
 20
874.6315
 11
663.6638
 21
874.6082
  0
LINE
  8
0_00
  6
CONTINUOUS
 62
4
 10
663.6638
 20
874.6082
 11
663.8557
 21
874.5715
  0
LINE
  8
0_00
  6
CONTINUOUS
 62
4
 10
663.8557
 20
874.5715
 11
664.0429
 21
874.5216
  0
LINE
  8
0_00
  6
CONTINUOUS
 62
4
 10
664.0429
 20
874.5216
 11
664.2258
 21
874.4592
  0
LINE
  8
0_00
  6
CONTINUOUS
 62
4
 10
664.2258
 20
874.4592
 11
664.4045
 21
874.3844
  0
LINE
  8
0_00
  6
CONTINUOUS
 62
4
 10
664.4045
 20
874.3844
 11
664.5791
 21
874.2979
  0
LINE
  8
0_00
  6
CONTINUOUS
 62
4
 10
664.5791
 20
874.2979
 11
664.7496
 21
874.2000
  0
LINE
  8
0_00
  6
CONTINUOUS
 62
4
 10
664.7496
 20
874.2000
 11
664.9165
 21
874.0913
  0
LINE
  8
0_00
  6
CONTINUOUS
 62
4
 10
664.9165
 20
874.0913
 11
665.0798
 21
873.9722
  0
LINE
  8
0_00
  6
CONTINUOUS
 62
4
 10
665.0798
 20
873.9722
 11
665.2395
 21
873.8432
  0
LINE
  8
0_00
  6
CONTINUOUS
 62
4
 10
665.2395
 20
873.8432
 11
665.3959
 21
873.7045
  0
LINE
  8
0_00
  6
CONTINUOUS
 62
4
 10
665.3959
 20
873.7045
 11
665.5492
 21
873.5569
  0
LINE
  8
0_00
  6
CONTINUOUS
 62
4
 10
665.5492
 20
873.5569
 11
665.6997
 21
873.4007
  0
LINE
  8
0_00
  6
CONTINUOUS
 62
4
 10
665.6997
 20
873.4007
 11
665.8472
 21
873.2363
  0
LINE
  8
0_00
  6
CONTINUOUS
 62
4
 10
665.8472
 20
873.2363
 11
665.9920
 21
873.0641
  0
LINE
  8
0_00
  6
CONTINUOUS
 62
4
 10
665.9920
 20
873.0641
 11
666.1343
 21
872.8848
  0
LINE
  8
0_00
  6
CONTINUOUS
 62
4
 10
666.1343
 20
872.8848
 11
666.2744
 21
872.6987
  0
LINE
  8
0_00
  6
CONTINUOUS
 62
4
 10
666.2744
 20
872.6987
 11
666.4121
 21
872.5062
  0
LINE
  8
0_00
  6
CONTINUOUS
 62
4
 10
666.4121
 20
872.5062
 11
666.5479
 21
872.3079
  0
LINE
  8
0_00
  6
CONTINUOUS
 62
4
 10
666.5479
 20
872.3079
 11
666.6817
 21
872.1040
  0
LINE
  8
0_00
  6
CONTINUOUS
 62
4
 10
666.6817
 20
872.1040
 11
666.8138
 21
871.8953
  0
LINE
  8
0_00
  6
CONTINUOUS
 62
4
 10
666.8138
 20
871.8953
 11
666.9444
 21
871.6819
  0
LINE
  8
0_00
  6
CONTINUOUS
 62
4
 10
666.9444
 20
871.6819
 11
667.0736
 21
871.4646
  0
LINE
  8
0_00
  6
CONTINUOUS
 62
4
 10
667.0736
 20
871.4646
 11
667.2014
 21
871.2436
  0
LINE
  8
0_00
  6
CONTINUOUS
 62
4
 10
667.2014
 20
871.2436
 11
667.3282
 21
871.0194
  0
LINE
  8
0_00
  6
CONTINUOUS
 62
4
 10
667.3282
 20
871.0194
 11
667.4541
 21
870.7925
  0
LINE
  8
0_00
  6
CONTINUOUS
 62
4
 10
667.4541
 20
870.7925
 11
667.5791
 21
870.5634
  0
LINE
  8
0_00
  6
CONTINUOUS
 62
4
 10
667.5791
 20
870.5634
 11
667.7034
 21
870.3324
  0
LINE
  8
0_00
  6
CONTINUOUS
 62
4
 10
667.7034
 20
870.3324
 11
667.8275
 21
870.1001
  0
LINE
  8
0_00
  6
CONTINUOUS
 62
4
 10
667.8275
 20
870.1001
 11
667.9510
 21
869.8669
  0
LINE
  8
0_00
  6
CONTINUOUS
 62
4
 10
667.9510
 20
869.8669
 11
668.0745
 21
869.6332
  0
LINE
  8
11_0B
  6
CENTER1
 62
6
 10
602.8891
 20
890.4684
 11
674.8833
 21
890.4684
  0
LINE
  8
0_00
  6
CONTINUOUS
 62
4
 10
608.0746
 20
872.2730
 11
608.0746
 21
575.0621
  0
LINE
  8
0_00
  6
CONTINUOUS
 62
4
 10
668.0745
 20
575.0621
 11
668.0745
 21
869.6332
  0
LINE
  8
0_00
  6
CONTINUOUS
 62
2
 10
1204.6198
 20
706.1913
 11
1204.6198
 21
563.5246
  0
LINE
  8
0_00
  6
CONTINUOUS
 62
7
 10
870.2864
 20
706.1913
 11
2014.6198
 21
706.1913
  0
LINE
  8
0_00
  6
CONTINUOUS
 62
7
 10
870.2864
 20
563.5246
 11
2014.6198
 21
563.5246
  0
LINE
  8
0_00
  6
CONTINUOUS
 62
7
 10
2014.6198
 20
706.1913
 11
2014.6198
 21
563.5246
  0
LINE
  8
0_00
  6
CONTINUOUS
 62
2
 10
1407.1198
 20
706.1913
 11
1407.1198
 21
563.5246
  0
LINE
  8
0_00
  6
CONTINUOUS
 62
2
 10
1609.6198
 20
706.1913
 11
1609.6198
 21
563.5246
  0
LINE
  8
0_00
  6
CONTINUOUS
 62
2
 10
1812.1198
 20
706.1913
 11
1812.1198
 21
563.5246
  0
LINE
  8
0_00
  6
CONTINUOUS
 62
2
 10
1198.6198
 20
706.1913
 11
1198.6198
 21
563.5246
  0
LINE
  8
0_00
  6
CONTINUOUS
 62
7
 10
870.2864
 20
706.1913
 11
870.2864
 21
563.5246
  0
LINE
  8
0_00
  6
CONTINUOUS
 62
2
 10
870.2864
 20
634.8579
 11
1198.6198
 21
634.8579
  0
LINE
  8
0_00
  6
CONTINUOUS
 62
2
 10
1204.6198
 20
634.8579
 11
2014.6198
 21
634.8579
  0
LINE
  8
0_00
  6
CENTER1
 62
6
 10
938.0746
 20
1204.1026
 11
938.0746
 21
995.8212
  0
LINE
  8
0_00
  6
CENTER1
 62
6
 10
536.4402
 20
802.4684
 11
744.7218
 21
802.4684
  0
LINE
  8
0_00
  6
CENTER1
 62
6
 10
1788.0745
 20
1204.1026
 11
1788.0745
 21
995.8212
  0
LINE
  8
11_0B
  6
CENTER1
 62
6
 10
723.0745
 20
1137.6538
 11
723.0745
 21
1065.6596
  0
LINE
  8
11_0B
  6
CENTER1
 62
6
 10
602.8891
 20
1017.4685
 11
674.8833
 21
1017.4685
  0
LINE
  8
0_00
  6
CENTER1
 62
6
 10
638.0745
 20
1905.4187
 11
829.0746
 21
1905.4187
  0
LINE
  8
0_00
  6
CENTER1
 62
6
 10
638.0745
 20
1905.4187
 11
638.0745
 21
1737.4916
  0
LINE
  8
2_02
  6
CONTINUOUS
 62
4
 10
669.0744
 20
1935.4185
 11
669.0744
 21
1874.9185
  0
LINE
  8
2_02
  6
CONTINUOUS
 62
4
 10
669.0744
 20
1874.9185
 11
668.5744
 21
1874.4186
  0
LINE
  8
2_02
  6
CONTINUOUS
 62
4
 10
608.0746
 20
1874.4186
 11
668.5744
 21
1874.4186
  0
LINE
  8
2_02
  6
CONTINUOUS
 62
4
 10
607.5746
 20
1929.4185
 11
607.5746
 21
1874.9185
  0
LINE
  8
2_02
  6
CONTINUOUS
 62
4
 10
614.0746
 20
1935.9186
 11
668.5744
 21
1935.9186
  0
LINE
  8
0_00
  6
CONTINUOUS
 62
4
 10
814.3195
 20
1875.4185
 11
669.0744
 21
1875.4185
  0
LINE
  8
0_00
  6
CONTINUOUS
 62
4
 10
669.0744
 20
1935.4185
 11
814.3195
 21
1935.4185
  0
LINE
  8
0_00
  6
CONTINUOUS
 62
4
 10
668.0745
 20
1766.7618
 11
668.0745
 21
1874.4186
  0
LINE
  8
0_00
  6
CONTINUOUS
 62
4
 10
608.0746
 20
1874.4186
 11
608.0746
 21
1766.7618
  0
LINE
  8
0_00
  6
CONTINUOUS
 62
6
 10
626.8829
 20
1927.5027
 11
574.3244
 21
2018.5367
  0
LINE
  8
0_00
  6
CONTINUOUS
 62
6
 10
626.8829
 20
1927.5027
 11
619.1575
 21
1951.2791
  0
LINE
  8
0_00
  6
CONTINUOUS
 62
6
 10
626.8829
 20
1927.5027
 11
610.1546
 21
1946.0814
  0
LINE
  8
0_00
  6
CONTINUOUS
 62
6
 10
574.3244
 20
2018.5367
 11
248.6909
 21
2018.5367
  0
LINE
  8
0_00
  6
CONTINUOUS
 62
6
 10
678.0746
 20
803.4685
 11
712.0301
 21
862.2812
  0
LINE
  8
0_00
  6
CONTINUOUS
 62
6
 10
678.0746
 20
803.4685
 11
694.8028
 21
822.0470
  0
LINE
  8
0_00
  6
CONTINUOUS
 62
6
 10
678.0746
 20
803.4685
 11
685.8000
 21
827.2448
  0
LINE
  8
0_00
  6
CONTINUOUS
 62
6
 10
712.0301
 20
862.2812
 11
886.0301
 21
862.2812
  0
LINE
  8
0_00
  6
CONTINUOUS
 62
6
 10
1314.6106
 20
2548.0316
 11
1290.5374
 21
2589.7272
  0
LINE
  8
0_00
  6
CONTINUOUS
 62
6
 10
1314.6106
 20
2548.0316
 11
1306.8852
 21
2571.8079
  0
LINE
  8
0_00
  6
CONTINUOUS
 62
6
 10
1314.6106
 20
2548.0316
 11
1297.8822
 21
2566.6101
  0
LINE
  8
0_00
  6
CONTINUOUS
 62
6
 10
1290.5374
 20
2589.7272
 11
944.7453
 21
2589.7272
  0
LINE
  8
0_00
  6
CONTINUOUS
 62
6
 10
1320.9778
 20
2300.0595
 11
1259.1708
 21
2193.0064
  0
LINE
  8
0_00
  6
CONTINUOUS
 62
6
 10
1320.9778
 20
2300.0595
 11
1304.2496
 21
2281.4807
  0
LINE
  8
0_00
  6
CONTINUOUS
 62
6
 10
1320.9778
 20
2300.0595
 11
1313.2523
 21
2276.2831
  0
LINE
  8
0_00
  6
CONTINUOUS
 62
6
 10
1259.1708
 20
2193.0064
 11
965.1708
 21
2193.0064
  0
LINE
  8
0_00
  6
CONTINUOUS
 62
6
 10
1259.1708
 20
1702.7821
 11
965.1708
 21
1702.7821
  0
LINE
  8
0_00
  6
CONTINUOUS
 62
6
 10
1320.9778
 20
1809.8351
 11
1259.1708
 21
1702.7821
  0
LINE
  8
0_00
  6
CONTINUOUS
 62
6
 10
1320.9778
 20
1809.8351
 11
1304.2496
 21
1791.2564
  0
LINE
  8
0_00
  6
CONTINUOUS
 62
6
 10
1320.9778
 20
1809.8351
 11
1313.2523
 21
1786.0587
  0
LINE
  8
0_00
  6
CONTINUOUS
 62
6
 10
1289.1356
 20
2101.9310
 11
947.1357
 21
2101.9310
  0
LINE
  8
0_00
  6
CONTINUOUS
 62
6
 10
1314.6106
 20
2057.8073
 11
1289.1356
 21
2101.9310
  0
LINE
  8
0_00
  6
CONTINUOUS
 62
6
 10
1314.6106
 20
2057.8073
 11
1306.8851
 21
2081.5836
  0
LINE
  8
0_00
  6
CONTINUOUS
 62
6
 10
1314.6106
 20
2057.8073
 11
1297.8822
 21
2076.3858
  0
LINE
  8
0_00
  6
CONTINUOUS
 62
4
 10
1446.5689
 20
2250.5594
 11
1494.5691
 21
2250.5594
  0
LINE
  8
0_00
  6
CONTINUOUS
 62
4
 10
1447.7283
 20
2255.3096
 11
1493.4099
 21
2255.3096
  0
LINE
  8
0_00
  6
CONTINUOUS
 62
4
 10
1458.5315
 20
2268.0594
 11
1482.6068
 21
2268.0594
  0
LINE
  8
0_00
  6
CONTINUOUS
 62
4
 10
1446.0690
 20
2251.3095
 11
1495.0690
 21
2251.3095
  0
LINE
  8
0_00
  6
CONTINUOUS
 62
4
 10
1494.5691
 20
2250.5594
 11
1495.0690
 21
2251.3095
  0
LINE
  8
0_00
  6
CONTINUOUS
 62
4
 10
1495.0690
 20
2251.3095
 11
1494.9071
 21
2253.9029
  0
LINE
  8
0_00
  6
CONTINUOUS
 62
4
 10
1483.9606
 20
2256.6922
 11
1483.1053
 21
2267.5984
  0
LINE
  8
0_00
  6
CONTINUOUS
 62
4
 10
1446.5689
 20
2250.5594
 11
1446.0690
 21
2251.3095
  0
LINE
  8
0_00
  6
CONTINUOUS
 62
4
 10
1446.0690
 20
2251.3095
 11
1446.2311
 21
2253.9029
  0
LINE
  8
0_00
  6
CONTINUOUS
 62
4
 10
1457.1776
 20
2256.6922
 11
1458.0328
 21
2267.5984
  0
LINE
  8
0_00
  6
CONTINUOUS
 62
2
 10
1447.5690
 20
2255.3096
 11
1447.5690
 21
2255.8093
  0
LINE
  8
0_00
  6
CONTINUOUS
 62
2
 10
1456.0690
 20
2255.3096
 11
1456.0690
 21
2255.8093
  0
LINE
  8
0_00
  6
CONTINUOUS
 62
2
 10
1456.0690
 20
2255.8093
 11
1447.5690
 21
2255.8093
  0
LINE
  8
0_00
  6
CONTINUOUS
 62
2
 10
1456.0690
 20
2255.3096
 11
1447.5690
 21
2255.3096
  0
LINE
  8
0_00
  6
CONTINUOUS
 62
2
 10
1455.3191
 20
2255.8093
 11
1448.3189
 21
2255.8093
  0
LINE
  8
0_00
  6
CONTINUOUS
 62
2
 10
1448.3189
 20
2256.0167
 11
1448.3189
 21
2255.8093
  0
LINE
  8
0_00
  6
CONTINUOUS
 62
2
 10
1455.3191
 20
2256.0167
 11
1448.3189
 21
2256.0167
  0
LINE
  8
0_00
  6
CONTINUOUS
 62
2
 10
1455.3191
 20
2256.0167
 11
1455.3191
 21
2255.8093
  0
LINE
  8
0_00
  6
CONTINUOUS
 62
2
 10
1493.5690
 20
2255.3096
 11
1493.5690
 21
2255.8093
  0
LINE
  8
0_00
  6
CONTINUOUS
 62
2
 10
1485.0690
 20
2255.3096
 11
1485.0690
 21
2255.8093
  0
LINE
  8
0_00
  6
CONTINUOUS
 62
2
 10
1485.0690
 20
2255.8093
 11
1493.5690
 21
2255.8093
  0
LINE
  8
0_00
  6
CONTINUOUS
 62
2
 10
1485.0690
 20
2255.3096
 11
1493.5690
 21
2255.3096
  0
LINE
  8
0_00
  6
CONTINUOUS
 62
2
 10
1485.8189
 20
2255.8093
 11
1492.8191
 21
2255.8093
  0
LINE
  8
0_00
  6
CONTINUOUS
 62
2
 10
1492.8191
 20
2256.0167
 11
1492.8191
 21
2255.8093
  0
LINE
  8
0_00
  6
CONTINUOUS
 62
2
 10
1485.8189
 20
2256.0167
 11
1492.8191
 21
2256.0167
  0
LINE
  8
0_00
  6
CONTINUOUS
 62
2
 10
1485.8189
 20
2256.0167
 11
1485.8189
 21
2255.8093
  0
LINE
  8
3_03
  6
CONTINUOUS
 62
2
 10
1470.5690
 20
2264.6422
 11
1470.4036
 21
2264.7055
  0
LINE
  8
3_03
  6
CONTINUOUS
 62
2
 10
1470.5690
 20
2264.6422
 11
1470.7344
 21
2264.7055
  0
LINE
  8
3_03
  6
CONTINUOUS
 62
2
 10
1470.4036
 20
2264.7055
 11
1469.9785
 21
2265.1163
  0
LINE
  8
3_03
  6
CONTINUOUS
 62
2
 10
1470.7346
 20
2264.7055
 11
1470.7343
 21
2264.7058
  0
LINE
  8
3_03
  6
CONTINUOUS
 62
2
 10
1470.7343
 20
2264.7058
 11
1471.1594
 21
2265.1166
  0
LINE
  8
3_03
  6
CONTINUOUS
 62
2
 10
1470.2364
 20
2264.3094
 11
1470.1727
 21
2264.4749
  0
LINE
  8
3_03
  6
CONTINUOUS
 62
2
 10
1470.2364
 20
2264.3094
 11
1470.1729
 21
2264.1441
  0
LINE
  8
3_03
  6
CONTINUOUS
 62
2
 10
1470.1727
 20
2264.4749
 11
1469.7620
 21
2264.9004
  0
LINE
  8
3_03
  6
CONTINUOUS
 62
2
 10
1470.1727
 20
2264.1438
 11
1470.1724
 21
2264.1444
  0
LINE
  8
3_03
  6
CONTINUOUS
 62
2
 10
1470.1724
 20
2264.1444
 11
1469.7618
 21
2263.7190
  0
LINE
  8
3_03
  6
CONTINUOUS
 62
2
 10
1470.9018
 20
2264.3094
 11
1470.9654
 21
2264.1438
  0
LINE
  8
3_03
  6
CONTINUOUS
 62
2
 10
1470.9018
 20
2264.3094
 11
1470.9653
 21
2264.4748
  0
LINE
  8
3_03
  6
CONTINUOUS
 62
2
 10
1470.9654
 20
2264.1438
 11
1471.3760
 21
2263.7186
  0
LINE
  8
3_03
  6
CONTINUOUS
 62
2
 10
1470.9654
 20
2264.4749
 11
1470.9657
 21
2264.4748
  0
LINE
  8
3_03
  6
CONTINUOUS
 62
2
 10
1470.9657
 20
2264.4748
 11
1471.3763
 21
2264.8997
  0
LINE
  8
3_03
  6
CONTINUOUS
 62
2
 10
1470.5690
 20
2263.9766
 11
1470.7346
 21
2263.9133
  0
LINE
  8
3_03
  6
CONTINUOUS
 62
2
 10
1470.5690
 20
2263.9766
 11
1470.4037
 21
2263.9133
  0
LINE
  8
3_03
  6
CONTINUOUS
 62
2
 10
1470.7346
 20
2263.9133
 11
1471.1598
 21
2263.5025
  0
LINE
  8
3_03
  6
CONTINUOUS
 62
2
 10
1470.4036
 20
2263.9133
 11
1470.4039
 21
2263.9130
  0
LINE
  8
3_03
  6
CONTINUOUS
 62
2
 10
1470.4039
 20
2263.9130
 11
1469.9786
 21
2263.5020
  0
LINE
  8
0_00
  6
CONTINUOUS
 62
6
 10
2018.3800
 20
2245.5594
 11
1290.0693
 21
2245.5594
  0
LINE
  8
0_00
  6
CONTINUOUS
 62
4
 10
1290.0693
 20
2245.5594
 11
1295.0691
 21
2250.5594
  0
LINE
  8
0_00
  6
CONTINUOUS
 62
4
 10
2018.3800
 20
2250.5594
 11
1295.0691
 21
2250.5594
  0
LINE
  8
0_00
  6
CONTINUOUS
 62
4
 10
1961.9829
 20
1177.4685
 11
563.0746
 21
1177.4685
  0
LINE
  8
0_00
  6
CONTINUOUS
 62
4
 10
1961.9829
 20
1167.4685
 11
573.0745
 21
1167.4685
  0
LINE
  8
0_00
  6
CONTINUOUS
 62
4
 10
1903.5692
 20
2250.5594
 11
1951.5691
 21
2250.5594
  0
LINE
  8
0_00
  6
CONTINUOUS
 62
4
 10
1904.7282
 20
2255.3096
 11
1950.4099
 21
2255.3096
  0
LINE
  8
0_00
  6
CONTINUOUS
 62
4
 10
1915.5313
 20
2268.0594
 11
1939.6068
 21
2268.0594
  0
LINE
  8
0_00
  6
CONTINUOUS
 62
4
 10
1903.0690
 20
2251.3095
 11
1952.0691
 21
2251.3095
  0
LINE
  8
0_00
  6
CONTINUOUS
 62
4
 10
1951.5691
 20
2250.5594
 11
1952.0691
 21
2251.3095
  0
LINE
  8
0_00
  6
CONTINUOUS
 62
4
 10
1952.0691
 20
2251.3095
 11
1951.9070
 21
2253.9029
  0
LINE
  8
0_00
  6
CONTINUOUS
 62
4
 10
1940.9607
 20
2256.6922
 11
1940.1053
 21
2267.5984
  0
LINE
  8
0_00
  6
CONTINUOUS
 62
4
 10
1903.5692
 20
2250.5594
 11
1903.0690
 21
2251.3095
  0
LINE
  8
0_00
  6
CONTINUOUS
 62
4
 10
1903.0690
 20
2251.3095
 11
1903.2312
 21
2253.9029
  0
LINE
  8
0_00
  6
CONTINUOUS
 62
4
 10
1914.1776
 20
2256.6922
 11
1915.0330
 21
2267.5984
  0
LINE
  8
0_00
  6
CONTINUOUS
 62
2
 10
1904.5691
 20
2255.3096
 11
1904.5691
 21
2255.8093
  0
LINE
  8
0_00
  6
CONTINUOUS
 62
2
 10
1913.0692
 20
2255.3096
 11
1913.0692
 21
2255.8093
  0
LINE
  8
0_00
  6
CONTINUOUS
 62
2
 10
1913.0692
 20
2255.8093
 11
1904.5691
 21
2255.8093
  0
LINE
  8
0_00
  6
CONTINUOUS
 62
2
 10
1913.0692
 20
2255.3096
 11
1904.5691
 21
2255.3096
  0
LINE
  8
0_00
  6
CONTINUOUS
 62
2
 10
1912.3190
 20
2255.8093
 11
1905.3192
 21
2255.8093
  0
LINE
  8
0_00
  6
CONTINUOUS
 62
2
 10
1905.3192
 20
2256.0167
 11
1905.3192
 21
2255.8093
  0
LINE
  8
0_00
  6
CONTINUOUS
 62
2
 10
1912.3190
 20
2256.0167
 11
1905.3192
 21
2256.0167
  0
LINE
  8
0_00
  6
CONTINUOUS
 62
2
 10
1912.3190
 20
2256.0167
 11
1912.3190
 21
2255.8093
  0
LINE
  8
0_00
  6
CONTINUOUS
 62
2
 10
1950.5692
 20
2255.3096
 11
1950.5692
 21
2255.8093
  0
LINE
  8
0_00
  6
CONTINUOUS
 62
2
 10
1942.0691
 20
2255.3096
 11
1942.0691
 21
2255.8093
  0
LINE
  8
0_00
  6
CONTINUOUS
 62
2
 10
1942.0691
 20
2255.8093
 11
1950.5692
 21
2255.8093
  0
LINE
  8
0_00
  6
CONTINUOUS
 62
2
 10
1942.0691
 20
2255.3096
 11
1950.5692
 21
2255.3096
  0
LINE
  8
0_00
  6
CONTINUOUS
 62
2
 10
1942.8192
 20
2255.8093
 11
1949.8190
 21
2255.8093
  0
LINE
  8
0_00
  6
CONTINUOUS
 62
2
 10
1949.8190
 20
2256.0167
 11
1949.8190
 21
2255.8093
  0
LINE
  8
0_00
  6
CONTINUOUS
 62
2
 10
1942.8192
 20
2256.0167
 11
1949.8190
 21
2256.0167
  0
LINE
  8
0_00
  6
CONTINUOUS
 62
2
 10
1942.8192
 20
2256.0167
 11
1942.8192
 21
2255.8093
  0
LINE
  8
3_03
  6
CONTINUOUS
 62
2
 10
1927.5691
 20
2264.6422
 11
1927.4036
 21
2264.7055
  0
LINE
  8
3_03
  6
CONTINUOUS
 62
2
 10
1927.5691
 20
2264.6422
 11
1927.7344
 21
2264.7055
  0
LINE
  8
3_03
  6
CONTINUOUS
 62
2
 10
1927.4036
 20
2264.7055
 11
1926.9785
 21
2265.1163
  0
LINE
  8
3_03
  6
CONTINUOUS
 62
2
 10
1927.7347
 20
2264.7055
 11
1927.7342
 21
2264.7058
  0
LINE
  8
3_03
  6
CONTINUOUS
 62
2
 10
1927.7342
 20
2264.7058
 11
1928.1595
 21
2265.1166
  0
LINE
  8
3_03
  6
CONTINUOUS
 62
2
 10
1927.2363
 20
2264.3094
 11
1927.1729
 21
2264.4749
  0
LINE
  8
3_03
  6
CONTINUOUS
 62
2
 10
1927.2363
 20
2264.3094
 11
1927.1729
 21
2264.1441
  0
LINE
  8
3_03
  6
CONTINUOUS
 62
2
 10
1927.1729
 20
2264.4749
 11
1926.7619
 21
2264.9004
  0
LINE
  8
3_03
  6
CONTINUOUS
 62
2
 10
1927.1729
 20
2264.1438
 11
1927.1725
 21
2264.1444
  0
LINE
  8
3_03
  6
CONTINUOUS
 62
2
 10
1927.1725
 20
2264.1444
 11
1926.7619
 21
2263.7190
  0
LINE
  8
3_03
  6
CONTINUOUS
 62
2
 10
1927.9019
 20
2264.3094
 11
1927.9654
 21
2264.1438
  0
LINE
  8
3_03
  6
CONTINUOUS
 62
2
 10
1927.9019
 20
2264.3094
 11
1927.9654
 21
2264.4748
  0
LINE
  8
3_03
  6
CONTINUOUS
 62
2
 10
1927.9654
 20
2264.1438
 11
1928.3760
 21
2263.7186
  0
LINE
  8
3_03
  6
CONTINUOUS
 62
2
 10
1927.9654
 20
2264.4749
 11
1927.9657
 21
2264.4748
  0
LINE
  8
3_03
  6
CONTINUOUS
 62
2
 10
1927.9657
 20
2264.4748
 11
1928.3762
 21
2264.8997
  0
LINE
  8
3_03
  6
CONTINUOUS
 62
2
 10
1927.5691
 20
2263.9766
 11
1927.7347
 21
2263.9133
  0
LINE
  8
3_03
  6
CONTINUOUS
 62
2
 10
1927.5691
 20
2263.9766
 11
1927.4037
 21
2263.9133
  0
LINE
  8
3_03
  6
CONTINUOUS
 62
2
 10
1927.7347
 20
2263.9133
 11
1928.1598
 21
2263.5025
  0
LINE
  8
3_03
  6
CONTINUOUS
 62
2
 10
1927.4036
 20
2263.9133
 11
1927.4039
 21
2263.9130
  0
LINE
  8
3_03
  6
CONTINUOUS
 62
2
 10
1927.4039
 20
2263.9130
 11
1926.9786
 21
2263.5020
  0
LINE
  8
0_00
  6
CONTINUOUS
 62
4
 10
1290.0693
 20
1755.3571
 11
1290.0693
 21
1687.2560
  0
LINE
  8
0_00
  6
CONTINUOUS
 62
4
 10
1446.5689
 20
1760.3571
 11
1494.5691
 21
1760.3571
  0
LINE
  8
0_00
  6
CONTINUOUS
 62
4
 10
1447.7283
 20
1765.1071
 11
1493.4099
 21
1765.1071
  0
LINE
  8
0_00
  6
CONTINUOUS
 62
4
 10
1458.5315
 20
1777.8571
 11
1482.6068
 21
1777.8571
  0
LINE
  8
0_00
  6
CONTINUOUS
 62
4
 10
1446.0690
 20
1761.1070
 11
1495.0690
 21
1761.1070
  0
LINE
  8
0_00
  6
CONTINUOUS
 62
4
 10
1494.5691
 20
1760.3571
 11
1495.0690
 21
1761.1070
  0
LINE
  8
0_00
  6
CONTINUOUS
 62
4
 10
1495.0690
 20
1761.1070
 11
1494.9071
 21
1763.7006
  0
LINE
  8
0_00
  6
CONTINUOUS
 62
4
 10
1483.9606
 20
1766.4897
 11
1483.1053
 21
1777.3961
  0
LINE
  8
0_00
  6
CONTINUOUS
 62
4
 10
1446.5689
 20
1760.3571
 11
1446.0690
 21
1761.1070
  0
LINE
  8
0_00
  6
CONTINUOUS
 62
4
 10
1446.0690
 20
1761.1070
 11
1446.2311
 21
1763.7006
  0
LINE
  8
0_00
  6
CONTINUOUS
 62
4
 10
1457.1776
 20
1766.4897
 11
1458.0328
 21
1777.3961
  0
LINE
  8
0_00
  6
CONTINUOUS
 62
2
 10
1447.5690
 20
1765.1071
 11
1447.5690
 21
1765.6071
  0
LINE
  8
0_00
  6
CONTINUOUS
 62
2
 10
1456.0690
 20
1765.1071
 11
1456.0690
 21
1765.6071
  0
LINE
  8
0_00
  6
CONTINUOUS
 62
2
 10
1456.0690
 20
1765.6071
 11
1447.5690
 21
1765.6071
  0
LINE
  8
0_00
  6
CONTINUOUS
 62
2
 10
1456.0690
 20
1765.1071
 11
1447.5690
 21
1765.1071
  0
LINE
  8
0_00
  6
CONTINUOUS
 62
2
 10
1455.3191
 20
1765.6071
 11
1448.3189
 21
1765.6071
  0
LINE
  8
0_00
  6
CONTINUOUS
 62
2
 10
1448.3189
 20
1765.8144
 11
1448.3189
 21
1765.6071
  0
LINE
  8
0_00
  6
CONTINUOUS
 62
2
 10
1455.3191
 20
1765.8144
 11
1448.3189
 21
1765.8144
  0
LINE
  8
0_00
  6
CONTINUOUS
 62
2
 10
1455.3191
 20
1765.8144
 11
1455.3191
 21
1765.6071
  0
LINE
  8
0_00
  6
CONTINUOUS
 62
2
 10
1493.5690
 20
1765.1071
 11
1493.5690
 21
1765.6071
  0
LINE
  8
0_00
  6
CONTINUOUS
 62
2
 10
1485.0690
 20
1765.1071
 11
1485.0690
 21
1765.6071
  0
LINE
  8
0_00
  6
CONTINUOUS
 62
2
 10
1485.0690
 20
1765.6071
 11
1493.5690
 21
1765.6071
  0
LINE
  8
0_00
  6
CONTINUOUS
 62
2
 10
1485.0690
 20
1765.1071
 11
1493.5690
 21
1765.1071
  0
LINE
  8
0_00
  6
CONTINUOUS
 62
2
 10
1485.8189
 20
1765.6071
 11
1492.8191
 21
1765.6071
  0
LINE
  8
0_00
  6
CONTINUOUS
 62
2
 10
1492.8191
 20
1765.8144
 11
1492.8191
 21
1765.6071
  0
LINE
  8
0_00
  6
CONTINUOUS
 62
2
 10
1485.8189
 20
1765.8144
 11
1492.8191
 21
1765.8144
  0
LINE
  8
0_00
  6
CONTINUOUS
 62
2
 10
1485.8189
 20
1765.8144
 11
1485.8189
 21
1765.6071
  0
LINE
  8
3_03
  6
CONTINUOUS
 62
2
 10
1470.5690
 20
1774.4398
 11
1470.4036
 21
1774.5033
  0
LINE
  8
3_03
  6
CONTINUOUS
 62
2
 10
1470.5690
 20
1774.4398
 11
1470.7344
 21
1774.5033
  0
LINE
  8
3_03
  6
CONTINUOUS
 62
2
 10
1470.4036
 20
1774.5033
 11
1469.9785
 21
1774.9139
  0
LINE
  8
3_03
  6
CONTINUOUS
 62
2
 10
1470.7346
 20
1774.5033
 11
1470.7343
 21
1774.5036
  0
LINE
  8
3_03
  6
CONTINUOUS
 62
2
 10
1470.7343
 20
1774.5036
 11
1471.1594
 21
1774.9141
  0
LINE
  8
3_03
  6
CONTINUOUS
 62
2
 10
1470.2364
 20
1774.1071
 11
1470.1727
 21
1774.2726
  0
LINE
  8
3_03
  6
CONTINUOUS
 62
2
 10
1470.2364
 20
1774.1071
 11
1470.1729
 21
1773.9418
  0
LINE
  8
3_03
  6
CONTINUOUS
 62
2
 10
1470.1727
 20
1774.2726
 11
1469.7620
 21
1774.6980
  0
LINE
  8
3_03
  6
CONTINUOUS
 62
2
 10
1470.1727
 20
1773.9417
 11
1470.1724
 21
1773.9418
  0
LINE
  8
3_03
  6
CONTINUOUS
 62
2
 10
1470.1724
 20
1773.9418
 11
1469.7618
 21
1773.5167
  0
LINE
  8
3_03
  6
CONTINUOUS
 62
2
 10
1470.9018
 20
1774.1071
 11
1470.9654
 21
1773.9417
  0
LINE
  8
3_03
  6
CONTINUOUS
 62
2
 10
1470.9018
 20
1774.1071
 11
1470.9653
 21
1774.2723
  0
LINE
  8
3_03
  6
CONTINUOUS
 62
2
 10
1470.9654
 20
1773.9417
 11
1471.3760
 21
1773.5164
  0
LINE
  8
3_03
  6
CONTINUOUS
 62
2
 10
1470.9654
 20
1774.2726
 11
1470.9657
 21
1774.2722
  0
LINE
  8
3_03
  6
CONTINUOUS
 62
2
 10
1470.9657
 20
1774.2722
 11
1471.3763
 21
1774.6974
  0
LINE
  8
3_03
  6
CONTINUOUS
 62
2
 10
1470.5690
 20
1773.7743
 11
1470.7346
 21
1773.7108
  0
LINE
  8
3_03
  6
CONTINUOUS
 62
2
 10
1470.5690
 20
1773.7743
 11
1470.4037
 21
1773.7109
  0
LINE
  8
3_03
  6
CONTINUOUS
 62
2
 10
1470.7346
 20
1773.7108
 11
1471.1598
 21
1773.3002
  0
LINE
  8
3_03
  6
CONTINUOUS
 62
2
 10
1470.4036
 20
1773.7108
 11
1470.4039
 21
1773.7105
  0
LINE
  8
3_03
  6
CONTINUOUS
 62
2
 10
1470.4039
 20
1773.7105
 11
1469.9786
 21
1773.2997
  0
LINE
  8
0_00
  6
CONTINUOUS
 62
6
 10
2018.3800
 20
1755.3571
 11
1290.0693
 21
1755.3571
  0
LINE
  8
0_00
  6
CONTINUOUS
 62
4
 10
1290.0693
 20
1755.3571
 11
1295.0691
 21
1760.3571
  0
LINE
  8
0_00
  6
CONTINUOUS
 62
4
 10
2018.3800
 20
1760.3571
 11
1295.0691
 21
1760.3571
  0
LINE
  8
0_00
  6
CONTINUOUS
 62
4
 10
1903.5692
 20
1760.3571
 11
1951.5691
 21
1760.3571
  0
LINE
  8
0_00
  6
CONTINUOUS
 62
4
 10
1904.7282
 20
1765.1071
 11
1950.4099
 21
1765.1071
  0
LINE
  8
0_00
  6
CONTINUOUS
 62
4
 10
1915.5313
 20
1777.8571
 11
1939.6068
 21
1777.8571
  0
LINE
  8
0_00
  6
CONTINUOUS
 62
4
 10
1903.0690
 20
1761.1070
 11
1952.0691
 21
1761.1070
  0
LINE
  8
0_00
  6
CONTINUOUS
 62
4
 10
1951.5691
 20
1760.3571
 11
1952.0691
 21
1761.1070
  0
LINE
  8
0_00
  6
CONTINUOUS
 62
4
 10
1952.0691
 20
1761.1070
 11
1951.9070
 21
1763.7006
  0
LINE
  8
0_00
  6
CONTINUOUS
 62
4
 10
1940.9607
 20
1766.4897
 11
1940.1053
 21
1777.3961
  0
LINE
  8
0_00
  6
CONTINUOUS
 62
4
 10
1903.5692
 20
1760.3571
 11
1903.0690
 21
1761.1070
  0
LINE
  8
0_00
  6
CONTINUOUS
 62
4
 10
1903.0690
 20
1761.1070
 11
1903.2312
 21
1763.7006
  0
LINE
  8
0_00
  6
CONTINUOUS
 62
4
 10
1914.1776
 20
1766.4897
 11
1915.0330
 21
1777.3961
  0
LINE
  8
0_00
  6
CONTINUOUS
 62
2
 10
1904.5691
 20
1765.1071
 11
1904.5691
 21
1765.6071
  0
LINE
  8
0_00
  6
CONTINUOUS
 62
2
 10
1913.0692
 20
1765.1071
 11
1913.0692
 21
1765.6071
  0
LINE
  8
0_00
  6
CONTINUOUS
 62
2
 10
1913.0692
 20
1765.6071
 11
1904.5691
 21
1765.6071
  0
LINE
  8
0_00
  6
CONTINUOUS
 62
2
 10
1913.0692
 20
1765.1071
 11
1904.5691
 21
1765.1071
  0
LINE
  8
0_00
  6
CONTINUOUS
 62
2
 10
1912.3190
 20
1765.6071
 11
1905.3192
 21
1765.6071
  0
LINE
  8
0_00
  6
CONTINUOUS
 62
2
 10
1905.3192
 20
1765.8144
 11
1905.3192
 21
1765.6071
  0
LINE
  8
0_00
  6
CONTINUOUS
 62
2
 10
1912.3190
 20
1765.8144
 11
1905.3192
 21
1765.8144
  0
LINE
  8
0_00
  6
CONTINUOUS
 62
2
 10
1912.3190
 20
1765.8144
 11
1912.3190
 21
1765.6071
  0
LINE
  8
0_00
  6
CONTINUOUS
 62
2
 10
1950.5692
 20
1765.1071
 11
1950.5692
 21
1765.6071
  0
LINE
  8
0_00
  6
CONTINUOUS
 62
2
 10
1942.0691
 20
1765.1071
 11
1942.0691
 21
1765.6071
  0
LINE
  8
0_00
  6
CONTINUOUS
 62
2
 10
1942.0691
 20
1765.6071
 11
1950.5692
 21
1765.6071
  0
LINE
  8
0_00
  6
CONTINUOUS
 62
2
 10
1942.0691
 20
1765.1071
 11
1950.5692
 21
1765.1071
  0
LINE
  8
0_00
  6
CONTINUOUS
 62
2
 10
1942.8192
 20
1765.6071
 11
1949.8190
 21
1765.6071
  0
LINE
  8
0_00
  6
CONTINUOUS
 62
2
 10
1949.8190
 20
1765.8144
 11
1949.8190
 21
1765.6071
  0
LINE
  8
0_00
  6
CONTINUOUS
 62
2
 10
1942.8192
 20
1765.8144
 11
1949.8190
 21
1765.8144
  0
LINE
  8
0_00
  6
CONTINUOUS
 62
2
 10
1942.8192
 20
1765.8144
 11
1942.8192
 21
1765.6071
  0
LINE
  8
3_03
  6
CONTINUOUS
 62
2
 10
1927.5691
 20
1774.4398
 11
1927.4036
 21
1774.5033
  0
LINE
  8
3_03
  6
CONTINUOUS
 62
2
 10
1927.5691
 20
1774.4398
 11
1927.7344
 21
1774.5033
  0
LINE
  8
3_03
  6
CONTINUOUS
 62
2
 10
1927.4036
 20
1774.5033
 11
1926.9785
 21
1774.9139
  0
LINE
  8
3_03
  6
CONTINUOUS
 62
2
 10
1927.7347
 20
1774.5033
 11
1927.7342
 21
1774.5036
  0
LINE
  8
3_03
  6
CONTINUOUS
 62
2
 10
1927.7342
 20
1774.5036
 11
1928.1595
 21
1774.9141
  0
LINE
  8
3_03
  6
CONTINUOUS
 62
2
 10
1927.2363
 20
1774.1071
 11
1927.1729
 21
1774.2726
  0
LINE
  8
3_03
  6
CONTINUOUS
 62
2
 10
1927.2363
 20
1774.1071
 11
1927.1729
 21
1773.9418
  0
LINE
  8
3_03
  6
CONTINUOUS
 62
2
 10
1927.1729
 20
1774.2726
 11
1926.7619
 21
1774.6980
  0
LINE
  8
3_03
  6
CONTINUOUS
 62
2
 10
1927.1729
 20
1773.9417
 11
1927.1725
 21
1773.9418
  0
LINE
  8
3_03
  6
CONTINUOUS
 62
2
 10
1927.1725
 20
1773.9418
 11
1926.7619
 21
1773.5167
  0
LINE
  8
3_03
  6
CONTINUOUS
 62
2
 10
1927.9019
 20
1774.1071
 11
1927.9654
 21
1773.9417
  0
LINE
  8
3_03
  6
CONTINUOUS
 62
2
 10
1927.9019
 20
1774.1071
 11
1927.9654
 21
1774.2723
  0
LINE
  8
3_03
  6
CONTINUOUS
 62
2
 10
1927.9654
 20
1773.9417
 11
1928.3760
 21
1773.5164
  0
LINE
  8
3_03
  6
CONTINUOUS
 62
2
 10
1927.9654
 20
1774.2726
 11
1927.9657
 21
1774.2722
  0
LINE
  8
3_03
  6
CONTINUOUS
 62
2
 10
1927.9657
 20
1774.2722
 11
1928.3762
 21
1774.6974
  0
LINE
  8
3_03
  6
CONTINUOUS
 62
2
 10
1927.5691
 20
1773.7743
 11
1927.7347
 21
1773.7108
  0
LINE
  8
3_03
  6
CONTINUOUS
 62
2
 10
1927.5691
 20
1773.7743
 11
1927.4037
 21
1773.7109
  0
LINE
  8
3_03
  6
CONTINUOUS
 62
2
 10
1927.7347
 20
1773.7108
 11
1928.1598
 21
1773.3002
  0
LINE
  8
3_03
  6
CONTINUOUS
 62
2
 10
1927.4036
 20
1773.7108
 11
1927.4039
 21
1773.7105
  0
LINE
  8
3_03
  6
CONTINUOUS
 62
2
 10
1927.4039
 20
1773.7105
 11
1926.9786
 21
1773.2997
  0
LINE
  8
0_00
  6
CONTINUOUS
 62
4
 10
814.3195
 20
2470.6210
 11
563.0746
 21
2470.6210
  0
LINE
  8
0_00
  6
CONTINUOUS
 62
4
 10
814.3195
 20
2460.6210
 11
573.0745
 21
2460.6210
  0
LINE
  8
0_00
  6
CONTINUOUS
 62
4
 10
814.3195
 20
2330.6210
 11
703.0745
 21
2330.6210
  0
LINE
  8
0_00
  6
CONTINUOUS
 62
4
 10
814.3195
 20
2320.6210
 11
713.0746
 21
2320.6210
  0
LINE
  8
0_00
  6
CONTINUOUS
 62
4
 10
573.0745
 20
2241.8666
 11
573.0745
 21
2460.6210
  0
LINE
  8
0_00
  6
CONTINUOUS
 62
4
 10
563.0746
 20
2241.8666
 11
563.0746
 21
2470.6210
  0
LINE
  8
0_00
  6
CONTINUOUS
 62
4
 10
703.0745
 20
2241.8666
 11
703.0745
 21
2330.6210
  0
LINE
  8
0_00
  6
CONTINUOUS
 62
4
 10
713.0746
 20
2241.8666
 11
713.0746
 21
2320.6210
  0
LINE
  8
0_00
  6
CENTER1
 62
6
 10
713.0746
 20
1830.4187
 11
745.5628
 21
1797.9303
  0
LINE
  8
0_00
  6
CONTINUOUS
 62
4
 10
814.3195
 20
1840.4185
 11
703.0745
 21
1840.4185
  0
LINE
  8
0_00
  6
CONTINUOUS
 62
4
 10
814.3195
 20
1830.4187
 11
713.0746
 21
1830.4187
  0
LINE
  8
0_00
  6
CONTINUOUS
 62
4
 10
703.0745
 20
1751.6643
 11
703.0745
 21
1840.4185
  0
LINE
  8
0_00
  6
CONTINUOUS
 62
4
 10
713.0746
 20
1751.6643
 11
713.0746
 21
1830.4187
  0
LINE
  8
0_00
  6
CONTINUOUS
 62
4
 10
573.0745
 20
1751.6643
 11
573.0745
 21
1970.4185
  0
LINE
  8
0_00
  6
CONTINUOUS
 62
4
 10
563.0746
 20
1751.6643
 11
563.0746
 21
1980.4187
  0
LINE
  8
0_00
  6
CONTINUOUS
 62
4
 10
814.3195
 20
1980.4187
 11
563.0746
 21
1980.4187
  0
LINE
  8
0_00
  6
CONTINUOUS
 62
4
 10
814.3195
 20
1970.4185
 11
573.0745
 21
1970.4185
  0
LINE
  8
0_00
  6
CONTINUOUS
 62
4
 10
713.0746
 20
1830.4187
 11
668.8245
 21
1874.6686
  0
LINE
  8
0_00
  6
CONTINUOUS
 62
4
 10
609.4784
 20
1934.0147
 11
563.0746
 21
1980.4187
  0
LINE
  8
0_00
  6
CONTINUOUS
 62
4
 10
1961.9829
 20
1037.4685
 11
703.0745
 21
1037.4685
  0
LINE
  8
0_00
  6
CONTINUOUS
 62
4
 10
1961.9829
 20
1027.4684
 11
713.0746
 21
1027.4684
  0
LINE
  8
0_00
  6
CONTINUOUS
 62
4
 10
713.0746
 20
575.0621
 11
713.0746
 21
1027.4684
  0
LINE
  8
0_00
  6
CONTINUOUS
 62
4
 10
703.0745
 20
575.0621
 11
703.0745
 21
1037.4685
  0
LINE
  8
0_00
  6
CONTINUOUS
 62
4
 10
573.0745
 20
575.0621
 11
573.0745
 21
1167.4685
  0
LINE
  8
0_00
  6
CONTINUOUS
 62
4
 10
563.0746
 20
575.0621
 11
563.0746
 21
1177.4685
  0
LINE
  8
4_04
  6
CONTINUOUS
 62
4
 10
1770.5745
 20
1070.4684
 11
1805.5745
 21
1070.4684
  0
LINE
  8
4_04
  6
CONTINUOUS
 62
4
 10
1750.5745
 20
1062.4685
 11
1787.0744
 21
1062.4685
  0
LINE
  8
4_04
  6
CONTINUOUS
 62
4
 10
1789.0746
 20
1062.4685
 11
1825.5745
 21
1062.4685
  0
LINE
  8
4_04
  6
CONTINUOUS
 62
4
 10
1750.5745
 20
1063.9684
 11
1825.5745
 21
1063.9684
  0
LINE
  8
4_04
  6
CONTINUOUS
 62
4
 10
1788.0745
 20
1062.9300
 11
1788.0870
 21
1062.9175
  0
LINE
  8
4_04
  6
CONTINUOUS
 62
4
 10
1788.0745
 20
1062.6559
 11
1787.0744
 21
1062.4685
  0
LINE
  8
4_04
  6
CONTINUOUS
 62
4
 10
1788.0745
 20
1062.6559
 11
1789.0746
 21
1062.4685
  0
LINE
  8
4_04
  6
CONTINUOUS
 62
4
 10
1770.5745
 20
1134.4684
 11
1805.5745
 21
1134.4684
  0
LINE
  8
4_04
  6
CONTINUOUS
 62
4
 10
1750.5745
 20
1142.4685
 11
1787.0744
 21
1142.4685
  0
LINE
  8
4_04
  6
CONTINUOUS
 62
4
 10
1789.0746
 20
1142.4685
 11
1825.5745
 21
1142.4685
  0
LINE
  8
4_04
  6
CONTINUOUS
 62
4
 10
1750.5745
 20
1140.9684
 11
1825.5745
 21
1140.9684
  0
LINE
  8
4_04
  6
CONTINUOUS
 62
4
 10
1788.0745
 20
1142.0069
 11
1788.0870
 21
1142.0195
  0
LINE
  8
4_04
  6
CONTINUOUS
 62
4
 10
1788.0745
 20
1142.2810
 11
1787.0744
 21
1142.4685
  0
LINE
  8
4_04
  6
CONTINUOUS
 62
4
 10
1788.0745
 20
1142.2810
 11
1789.0746
 21
1142.4685
  0
LINE
  8
0_00
  6
DASHED
 62
6
 10
1806.0745
 20
1099.9685
 11
1806.0745
 21
1104.9685
  0
LINE
  8
0_00
  6
DASHED
 62
6
 10
1788.3743
 20
1077.4684
 11
1805.5745
 21
1077.4684
  0
LINE
  8
0_00
  6
DASHED
 62
6
 10
1806.8744
 20
1087.7582
 11
1806.8744
 21
1099.1684
  0
LINE
  8
0_00
  6
DASHED
 62
6
 10
1806.8744
 20
1099.1684
 11
1806.0745
 21
1099.9685
  0
LINE
  8
0_00
  6
DASHED
 62
6
 10
1806.2744
 20
1079.4685
 11
1797.5745
 21
1079.4685
  0
LINE
  8
0_00
  6
DASHED
 62
6
 10
1778.5744
 20
1079.4685
 11
1769.8744
 21
1079.4685
  0
LINE
  8
0_00
  6
DASHED
 62
6
 10
1769.2744
 20
1087.7582
 11
1769.2744
 21
1099.1684
  0
LINE
  8
0_00
  6
DASHED
 62
6
 10
1769.2744
 20
1099.1684
 11
1770.0745
 21
1099.9685
  0
LINE
  8
0_00
  6
DASHED
 62
6
 10
1770.0745
 20
1104.9685
 11
1770.0745
 21
1099.9685
  0
LINE
  8
0_00
  6
DASHED
 62
6
 10
1808.0745
 20
1079.9684
 11
1808.0745
 21
1102.1684
  0
LINE
  8
0_00
  6
DASHED
 62
6
 10
1808.0745
 20
1102.7684
 11
1808.0745
 21
1124.9684
  0
LINE
  8
0_00
  6
DASHED
 62
6
 10
1768.0745
 20
1079.9684
 11
1768.0745
 21
1102.1684
  0
LINE
  8
0_00
  6
DASHED
 62
6
 10
1768.0745
 20
1102.7684
 11
1768.0745
 21
1124.9684
  0
LINE
  8
0_00
  6
DASHED
 62
6
 10
1802.7246
 20
1083.2329
 11
1802.7246
 21
1082.1318
  0
LINE
  8
0_00
  6
DASHED
 62
6
 10
1805.3745
 20
1082.4729
 11
1805.3745
 21
1082.9685
  0
LINE
  8
0_00
  6
DASHED
 62
6
 10
1803.7744
 20
1082.4729
 11
1803.7744
 21
1082.9685
  0
LINE
  8
0_00
  6
DASHED
 62
6
 10
1806.7245
 20
1083.7468
 11
1806.7245
 21
1085.1901
  0
LINE
  8
0_00
  6
DASHED
 62
6
 10
1806.0468
 20
1083.6184
 11
1806.2744
 21
1083.4869
  0
LINE
  8
0_00
  6
DASHED
 62
6
 10
1802.7246
 20
1085.7040
 11
1802.7246
 21
1086.8050
  0
LINE
  8
0_00
  6
DASHED
 62
6
 10
1805.3745
 20
1086.4641
 11
1805.3745
 21
1085.9685
  0
LINE
  8
0_00
  6
DASHED
 62
6
 10
1803.7744
 20
1086.4641
 11
1803.7744
 21
1085.9685
  0
LINE
  8
0_00
  6
DASHED
 62
6
 10
1806.0468
 20
1085.3185
 11
1806.2744
 21
1085.4498
  0
LINE
  8
0_00
  6
DASHED
 62
6
 10
1773.4245
 20
1083.2329
 11
1773.4245
 21
1082.1318
  0
LINE
  8
0_00
  6
DASHED
 62
6
 10
1770.7744
 20
1082.4729
 11
1770.7744
 21
1082.9685
  0
LINE
  8
0_00
  6
DASHED
 62
6
 10
1772.3744
 20
1082.4729
 11
1772.3744
 21
1082.9685
  0
LINE
  8
0_00
  6
DASHED
 62
6
 10
1769.4244
 20
1083.7468
 11
1769.4244
 21
1085.1901
  0
LINE
  8
0_00
  6
DASHED
 62
6
 10
1770.1022
 20
1083.6184
 11
1769.8744
 21
1083.4869
  0
LINE
  8
0_00
  6
DASHED
 62
6
 10
1773.4245
 20
1085.7040
 11
1773.4245
 21
1086.8050
  0
LINE
  8
0_00
  6
DASHED
 62
6
 10
1770.7744
 20
1086.4641
 11
1770.7744
 21
1085.9685
  0
LINE
  8
0_00
  6
DASHED
 62
6
 10
1772.3744
 20
1086.4641
 11
1772.3744
 21
1085.9685
  0
LINE
  8
0_00
  6
DASHED
 62
6
 10
1770.1022
 20
1085.3185
 11
1769.8744
 21
1085.4498
  0
LINE
  8
0_00
  6
DASHED
 62
6
 10
1806.7744
 20
1081.1259
 11
1806.7744
 21
1079.9684
  0
LINE
  8
0_00
  6
DASHED
 62
6
 10
1769.3744
 20
1081.1259
 11
1769.3744
 21
1079.9684
  0
LINE
  8
0_00
  6
DASHED
 62
6
 10
1791.3744
 20
1078.7683
 11
1796.7744
 21
1078.7683
  0
LINE
  8
0_00
  6
DASHED
 62
6
 10
1797.5745
 20
1079.4685
 11
1796.7744
 21
1078.7683
  0
LINE
  8
0_00
  6
DASHED
 62
6
 10
1791.3744
 20
1078.7683
 11
1790.5745
 21
1079.4685
  0
LINE
  8
0_00
  6
DASHED
 62
6
 10
1784.7743
 20
1078.7683
 11
1779.3744
 21
1078.7683
  0
LINE
  8
0_00
  6
DASHED
 62
6
 10
1778.5744
 20
1079.4685
 11
1779.3744
 21
1078.7683
  0
LINE
  8
0_00
  6
DASHED
 62
6
 10
1784.7743
 20
1078.7683
 11
1785.5745
 21
1079.4685
  0
LINE
  8
0_00
  6
DASHED
 62
6
 10
1785.5745
 20
1079.4685
 11
1790.5745
 21
1079.4685
  0
LINE
  8
0_00
  6
DASHED
 62
6
 10
1787.7745
 20
1077.4684
 11
1788.0745
 21
1077.7684
  0
LINE
  8
0_00
  6
DASHED
 62
6
 10
1788.3743
 20
1077.4684
 11
1788.0745
 21
1077.7684
  0
LINE
  8
0_00
  6
DASHED
 62
6
 10
1768.0745
 20
1102.7684
 11
1768.3745
 21
1102.4685
  0
LINE
  8
0_00
  6
DASHED
 62
6
 10
1768.0745
 20
1102.1684
 11
1768.3745
 21
1102.4685
  0
LINE
  8
0_00
  6
DASHED
 62
6
 10
1808.0745
 20
1102.7684
 11
1807.7744
 21
1102.4685
  0
LINE
  8
0_00
  6
DASHED
 62
6
 10
1808.0745
 20
1102.1684
 11
1807.7744
 21
1102.4685
  0
LINE
  8
0_00
  6
DASHED
 62
6
 10
1770.5745
 20
1077.4684
 11
1787.7745
 21
1077.4684
  0
LINE
  8
0_00
  6
DASHED
 62
6
 10
1788.3743
 20
1127.4684
 11
1805.5745
 21
1127.4684
  0
LINE
  8
0_00
  6
DASHED
 62
6
 10
1806.8744
 20
1117.1786
 11
1806.8744
 21
1105.7684
  0
LINE
  8
0_00
  6
DASHED
 62
6
 10
1806.8744
 20
1105.7684
 11
1806.0745
 21
1104.9685
  0
LINE
  8
0_00
  6
DASHED
 62
6
 10
1806.2744
 20
1125.4684
 11
1797.5745
 21
1125.4684
  0
LINE
  8
0_00
  6
DASHED
 62
6
 10
1778.5744
 20
1125.4684
 11
1769.8744
 21
1125.4684
  0
LINE
  8
0_00
  6
DASHED
 62
6
 10
1769.2744
 20
1117.1786
 11
1769.2744
 21
1105.7684
  0
LINE
  8
0_00
  6
DASHED
 62
6
 10
1769.2744
 20
1105.7684
 11
1770.0745
 21
1104.9685
  0
LINE
  8
0_00
  6
DASHED
 62
6
 10
1802.7246
 20
1121.7039
 11
1802.7246
 21
1122.8051
  0
LINE
  8
0_00
  6
DASHED
 62
6
 10
1805.3745
 20
1122.4641
 11
1805.3745
 21
1121.9685
  0
LINE
  8
0_00
  6
DASHED
 62
6
 10
1803.7744
 20
1122.4641
 11
1803.7744
 21
1121.9685
  0
LINE
  8
0_00
  6
DASHED
 62
6
 10
1806.7245
 20
1121.1902
 11
1806.7245
 21
1119.7467
  0
LINE
  8
0_00
  6
DASHED
 62
6
 10
1806.0468
 20
1121.3184
 11
1806.2744
 21
1121.4498
  0
LINE
  8
0_00
  6
DASHED
 62
6
 10
1802.7246
 20
1119.2328
 11
1802.7246
 21
1118.1318
  0
LINE
  8
0_00
  6
DASHED
 62
6
 10
1805.3745
 20
1118.4727
 11
1805.3745
 21
1118.9684
  0
LINE
  8
0_00
  6
DASHED
 62
6
 10
1803.7744
 20
1118.4727
 11
1803.7744
 21
1118.9684
  0
LINE
  8
0_00
  6
DASHED
 62
6
 10
1806.0468
 20
1119.6183
 11
1806.2744
 21
1119.4869
  0
LINE
  8
0_00
  6
DASHED
 62
6
 10
1773.4245
 20
1121.7039
 11
1773.4245
 21
1122.8051
  0
LINE
  8
0_00
  6
DASHED
 62
6
 10
1770.7744
 20
1122.4641
 11
1770.7744
 21
1121.9685
  0
LINE
  8
0_00
  6
DASHED
 62
6
 10
1772.3744
 20
1122.4641
 11
1772.3744
 21
1121.9685
  0
LINE
  8
0_00
  6
DASHED
 62
6
 10
1769.4244
 20
1121.1902
 11
1769.4244
 21
1119.7467
  0
LINE
  8
0_00
  6
DASHED
 62
6
 10
1770.1022
 20
1121.3184
 11
1769.8744
 21
1121.4498
  0
LINE
  8
0_00
  6
DASHED
 62
6
 10
1773.4245
 20
1119.2328
 11
1773.4245
 21
1118.1318
  0
LINE
  8
0_00
  6
DASHED
 62
6
 10
1770.7744
 20
1118.4727
 11
1770.7744
 21
1118.9684
  0
LINE
  8
0_00
  6
DASHED
 62
6
 10
1772.3744
 20
1118.4727
 11
1772.3744
 21
1118.9684
  0
LINE
  8
0_00
  6
DASHED
 62
6
 10
1770.1022
 20
1119.6183
 11
1769.8744
 21
1119.4869
  0
LINE
  8
0_00
  6
DASHED
 62
6
 10
1806.7744
 20
1123.8109
 11
1806.7744
 21
1124.9684
  0
LINE
  8
0_00
  6
DASHED
 62
6
 10
1769.3744
 20
1123.8109
 11
1769.3744
 21
1124.9684
  0
LINE
  8
0_00
  6
DASHED
 62
6
 10
1791.3744
 20
1126.1684
 11
1796.7744
 21
1126.1684
  0
LINE
  8
0_00
  6
DASHED
 62
6
 10
1797.5745
 20
1125.4684
 11
1796.7744
 21
1126.1684
  0
LINE
  8
0_00
  6
DASHED
 62
6
 10
1791.3744
 20
1126.1684
 11
1790.5745
 21
1125.4684
  0
LINE
  8
0_00
  6
DASHED
 62
6
 10
1784.7743
 20
1126.1684
 11
1779.3744
 21
1126.1684
  0
LINE
  8
0_00
  6
DASHED
 62
6
 10
1778.5744
 20
1125.4684
 11
1779.3744
 21
1126.1684
  0
LINE
  8
0_00
  6
DASHED
 62
6
 10
1784.7743
 20
1126.1684
 11
1785.5745
 21
1125.4684
  0
LINE
  8
0_00
  6
DASHED
 62
6
 10
1785.5745
 20
1125.4684
 11
1790.5745
 21
1125.4684
  0
LINE
  8
0_00
  6
DASHED
 62
6
 10
1787.7745
 20
1127.4684
 11
1788.0745
 21
1127.1684
  0
LINE
  8
0_00
  6
DASHED
 62
6
 10
1788.3743
 20
1127.4684
 11
1788.0745
 21
1127.1684
  0
LINE
  8
0_00
  6
DASHED
 62
6
 10
1770.5745
 20
1127.4684
 11
1787.7745
 21
1127.4684
  0
LINE
  8
4_04
  6
CONTINUOUS
 62
4
 10
920.5746
 20
1070.4684
 11
955.5746
 21
1070.4684
  0
LINE
  8
4_04
  6
CONTINUOUS
 62
4
 10
900.5746
 20
1062.4685
 11
937.0745
 21
1062.4685
  0
LINE
  8
4_04
  6
CONTINUOUS
 62
4
 10
939.0745
 20
1062.4685
 11
975.5746
 21
1062.4685
  0
LINE
  8
4_04
  6
CONTINUOUS
 62
4
 10
900.5746
 20
1063.9684
 11
975.5746
 21
1063.9684
  0
LINE
  8
4_04
  6
CONTINUOUS
 62
4
 10
938.0746
 20
1062.9300
 11
938.0871
 21
1062.9175
  0
LINE
  8
4_04
  6
CONTINUOUS
 62
4
 10
938.0746
 20
1062.6559
 11
937.0745
 21
1062.4685
  0
LINE
  8
4_04
  6
CONTINUOUS
 62
4
 10
938.0746
 20
1062.6559
 11
939.0745
 21
1062.4685
  0
LINE
  8
4_04
  6
CONTINUOUS
 62
4
 10
920.5746
 20
1134.4684
 11
955.5746
 21
1134.4684
  0
LINE
  8
4_04
  6
CONTINUOUS
 62
4
 10
900.5746
 20
1142.4685
 11
937.0745
 21
1142.4685
  0
LINE
  8
4_04
  6
CONTINUOUS
 62
4
 10
939.0745
 20
1142.4685
 11
975.5746
 21
1142.4685
  0
LINE
  8
4_04
  6
CONTINUOUS
 62
4
 10
900.5746
 20
1140.9684
 11
975.5746
 21
1140.9684
  0
LINE
  8
4_04
  6
CONTINUOUS
 62
4
 10
938.0746
 20
1142.0069
 11
938.0871
 21
1142.0195
  0
LINE
  8
4_04
  6
CONTINUOUS
 62
4
 10
938.0746
 20
1142.2810
 11
937.0745
 21
1142.4685
  0
LINE
  8
4_04
  6
CONTINUOUS
 62
4
 10
938.0746
 20
1142.2810
 11
939.0745
 21
1142.4685
  0
LINE
  8
0_00
  6
DASHED
 62
6
 10
956.0745
 20
1099.9685
 11
956.0745
 21
1104.9685
  0
LINE
  8
0_00
  6
DASHED
 62
6
 10
938.3746
 20
1077.4684
 11
955.5746
 21
1077.4684
  0
LINE
  8
0_00
  6
DASHED
 62
6
 10
956.8746
 20
1087.7582
 11
956.8746
 21
1099.1684
  0
LINE
  8
0_00
  6
DASHED
 62
6
 10
956.8746
 20
1099.1684
 11
956.0745
 21
1099.9685
  0
LINE
  8
0_00
  6
DASHED
 62
6
 10
956.2745
 20
1079.4685
 11
947.5745
 21
1079.4685
  0
LINE
  8
0_00
  6
DASHED
 62
6
 10
928.5745
 20
1079.4685
 11
919.8746
 21
1079.4685
  0
LINE
  8
0_00
  6
DASHED
 62
6
 10
919.2745
 20
1087.7582
 11
919.2745
 21
1099.1684
  0
LINE
  8
0_00
  6
DASHED
 62
6
 10
919.2745
 20
1099.1684
 11
920.0745
 21
1099.9685
  0
LINE
  8
0_00
  6
DASHED
 62
6
 10
920.0745
 20
1104.9685
 11
920.0745
 21
1099.9685
  0
LINE
  8
0_00
  6
DASHED
 62
6
 10
958.0746
 20
1079.9684
 11
958.0746
 21
1102.1684
  0
LINE
  8
0_00
  6
DASHED
 62
6
 10
958.0746
 20
1102.7684
 11
958.0746
 21
1124.9684
  0
LINE
  8
0_00
  6
DASHED
 62
6
 10
918.0746
 20
1079.9684
 11
918.0746
 21
1102.1684
  0
LINE
  8
0_00
  6
DASHED
 62
6
 10
918.0746
 20
1102.7684
 11
918.0746
 21
1124.9684
  0
LINE
  8
0_00
  6
DASHED
 62
6
 10
952.7245
 20
1083.2329
 11
952.7245
 21
1082.1318
  0
LINE
  8
0_00
  6
DASHED
 62
6
 10
955.3745
 20
1082.4729
 11
955.3745
 21
1082.9685
  0
LINE
  8
0_00
  6
DASHED
 62
6
 10
953.7745
 20
1082.4729
 11
953.7745
 21
1082.9685
  0
LINE
  8
0_00
  6
DASHED
 62
6
 10
956.7245
 20
1083.7468
 11
956.7245
 21
1085.1901
  0
LINE
  8
0_00
  6
DASHED
 62
6
 10
956.0468
 20
1083.6184
 11
956.2745
 21
1083.4869
  0
LINE
  8
0_00
  6
DASHED
 62
6
 10
952.7245
 20
1085.7040
 11
952.7245
 21
1086.8050
  0
LINE
  8
0_00
  6
DASHED
 62
6
 10
955.3745
 20
1086.4641
 11
955.3745
 21
1085.9685
  0
LINE
  8
0_00
  6
DASHED
 62
6
 10
953.7745
 20
1086.4641
 11
953.7745
 21
1085.9685
  0
LINE
  8
0_00
  6
DASHED
 62
6
 10
956.0468
 20
1085.3185
 11
956.2745
 21
1085.4498
  0
LINE
  8
0_00
  6
DASHED
 62
6
 10
923.4245
 20
1083.2329
 11
923.4245
 21
1082.1318
  0
LINE
  8
0_00
  6
DASHED
 62
6
 10
920.7745
 20
1082.4729
 11
920.7745
 21
1082.9685
  0
LINE
  8
0_00
  6
DASHED
 62
6
 10
922.3746
 20
1082.4729
 11
922.3746
 21
1082.9685
  0
LINE
  8
0_00
  6
DASHED
 62
6
 10
919.4245
 20
1083.7468
 11
919.4245
 21
1085.1901
  0
LINE
  8
0_00
  6
DASHED
 62
6
 10
920.1022
 20
1083.6184
 11
919.8746
 21
1083.4869
  0
LINE
  8
0_00
  6
DASHED
 62
6
 10
923.4245
 20
1085.7040
 11
923.4245
 21
1086.8050
  0
LINE
  8
0_00
  6
DASHED
 62
6
 10
920.7745
 20
1086.4641
 11
920.7745
 21
1085.9685
  0
LINE
  8
0_00
  6
DASHED
 62
6
 10
922.3746
 20
1086.4641
 11
922.3746
 21
1085.9685
  0
LINE
  8
0_00
  6
DASHED
 62
6
 10
920.1022
 20
1085.3185
 11
919.8746
 21
1085.4498
  0
LINE
  8
0_00
  6
DASHED
 62
6
 10
956.7745
 20
1081.1259
 11
956.7745
 21
1079.9684
  0
LINE
  8
0_00
  6
DASHED
 62
6
 10
919.3746
 20
1081.1259
 11
919.3746
 21
1079.9684
  0
LINE
  8
0_00
  6
DASHED
 62
6
 10
941.3746
 20
1078.7683
 11
946.7744
 21
1078.7683
  0
LINE
  8
0_00
  6
DASHED
 62
6
 10
947.5745
 20
1079.4685
 11
946.7744
 21
1078.7683
  0
LINE
  8
0_00
  6
DASHED
 62
6
 10
941.3746
 20
1078.7683
 11
940.5746
 21
1079.4685
  0
LINE
  8
0_00
  6
DASHED
 62
6
 10
934.7745
 20
1078.7683
 11
929.3745
 21
1078.7683
  0
LINE
  8
0_00
  6
DASHED
 62
6
 10
928.5745
 20
1079.4685
 11
929.3745
 21
1078.7683
  0
LINE
  8
0_00
  6
DASHED
 62
6
 10
934.7745
 20
1078.7683
 11
935.5746
 21
1079.4685
  0
LINE
  8
0_00
  6
DASHED
 62
6
 10
935.5746
 20
1079.4685
 11
940.5746
 21
1079.4685
  0
LINE
  8
0_00
  6
DASHED
 62
6
 10
937.7744
 20
1077.4684
 11
938.0746
 21
1077.7684
  0
LINE
  8
0_00
  6
DASHED
 62
6
 10
938.3746
 20
1077.4684
 11
938.0746
 21
1077.7684
  0
LINE
  8
0_00
  6
DASHED
 62
6
 10
918.0746
 20
1102.7684
 11
918.3746
 21
1102.4685
  0
LINE
  8
0_00
  6
DASHED
 62
6
 10
918.0746
 20
1102.1684
 11
918.3746
 21
1102.4685
  0
LINE
  8
0_00
  6
DASHED
 62
6
 10
958.0746
 20
1102.7684
 11
957.7745
 21
1102.4685
  0
LINE
  8
0_00
  6
DASHED
 62
6
 10
958.0746
 20
1102.1684
 11
957.7745
 21
1102.4685
  0
LINE
  8
0_00
  6
DASHED
 62
6
 10
920.5746
 20
1077.4684
 11
937.7744
 21
1077.4684
  0
LINE
  8
0_00
  6
DASHED
 62
6
 10
938.3746
 20
1127.4684
 11
955.5746
 21
1127.4684
  0
LINE
  8
0_00
  6
DASHED
 62
6
 10
956.8746
 20
1117.1786
 11
956.8746
 21
1105.7684
  0
LINE
  8
0_00
  6
DASHED
 62
6
 10
956.8746
 20
1105.7684
 11
956.0745
 21
1104.9685
  0
LINE
  8
0_00
  6
DASHED
 62
6
 10
956.2745
 20
1125.4684
 11
947.5745
 21
1125.4684
  0
LINE
  8
0_00
  6
DASHED
 62
6
 10
928.5745
 20
1125.4684
 11
919.8746
 21
1125.4684
  0
LINE
  8
0_00
  6
DASHED
 62
6
 10
919.2745
 20
1117.1786
 11
919.2745
 21
1105.7684
  0
LINE
  8
0_00
  6
DASHED
 62
6
 10
919.2745
 20
1105.7684
 11
920.0745
 21
1104.9685
  0
LINE
  8
0_00
  6
DASHED
 62
6
 10
952.7245
 20
1121.7039
 11
952.7245
 21
1122.8051
  0
LINE
  8
0_00
  6
DASHED
 62
6
 10
955.3745
 20
1122.4641
 11
955.3745
 21
1121.9685
  0
LINE
  8
0_00
  6
DASHED
 62
6
 10
953.7745
 20
1122.4641
 11
953.7745
 21
1121.9685
  0
LINE
  8
0_00
  6
DASHED
 62
6
 10
956.7245
 20
1121.1902
 11
956.7245
 21
1119.7467
  0
LINE
  8
0_00
  6
DASHED
 62
6
 10
956.0468
 20
1121.3184
 11
956.2745
 21
1121.4498
  0
LINE
  8
0_00
  6
DASHED
 62
6
 10
952.7245
 20
1119.2328
 11
952.7245
 21
1118.1318
  0
LINE
  8
0_00
  6
DASHED
 62
6
 10
955.3745
 20
1118.4727
 11
955.3745
 21
1118.9684
  0
LINE
  8
0_00
  6
DASHED
 62
6
 10
953.7745
 20
1118.4727
 11
953.7745
 21
1118.9684
  0
LINE
  8
0_00
  6
DASHED
 62
6
 10
956.0468
 20
1119.6183
 11
956.2745
 21
1119.4869
  0
LINE
  8
0_00
  6
DASHED
 62
6
 10
923.4245
 20
1121.7039
 11
923.4245
 21
1122.8051
  0
LINE
  8
0_00
  6
DASHED
 62
6
 10
920.7745
 20
1122.4641
 11
920.7745
 21
1121.9685
  0
LINE
  8
0_00
  6
DASHED
 62
6
 10
922.3746
 20
1122.4641
 11
922.3746
 21
1121.9685
  0
LINE
  8
0_00
  6
DASHED
 62
6
 10
919.4245
 20
1121.1902
 11
919.4245
 21
1119.7467
  0
LINE
  8
0_00
  6
DASHED
 62
6
 10
920.1022
 20
1121.3184
 11
919.8746
 21
1121.4498
  0
LINE
  8
0_00
  6
DASHED
 62
6
 10
923.4245
 20
1119.2328
 11
923.4245
 21
1118.1318
  0
LINE
  8
0_00
  6
DASHED
 62
6
 10
920.7745
 20
1118.4727
 11
920.7745
 21
1118.9684
  0
LINE
  8
0_00
  6
DASHED
 62
6
 10
922.3746
 20
1118.4727
 11
922.3746
 21
1118.9684
  0
LINE
  8
0_00
  6
DASHED
 62
6
 10
920.1022
 20
1119.6183
 11
919.8746
 21
1119.4869
  0
LINE
  8
0_00
  6
DASHED
 62
6
 10
956.7745
 20
1123.8109
 11
956.7745
 21
1124.9684
  0
LINE
  8
0_00
  6
DASHED
 62
6
 10
919.3746
 20
1123.8109
 11
919.3746
 21
1124.9684
  0
LINE
  8
0_00
  6
DASHED
 62
6
 10
941.3746
 20
1126.1684
 11
946.7744
 21
1126.1684
  0
LINE
  8
0_00
  6
DASHED
 62
6
 10
947.5745
 20
1125.4684
 11
946.7744
 21
1126.1684
  0
LINE
  8
0_00
  6
DASHED
 62
6
 10
941.3746
 20
1126.1684
 11
940.5746
 21
1125.4684
  0
LINE
  8
0_00
  6
DASHED
 62
6
 10
934.7745
 20
1126.1684
 11
929.3745
 21
1126.1684
  0
LINE
  8
0_00
  6
DASHED
 62
6
 10
928.5745
 20
1125.4684
 11
929.3745
 21
1126.1684
  0
LINE
  8
0_00
  6
DASHED
 62
6
 10
934.7745
 20
1126.1684
 11
935.5746
 21
1125.4684
  0
LINE
  8
0_00
  6
DASHED
 62
6
 10
935.5746
 20
1125.4684
 11
940.5746
 21
1125.4684
  0
LINE
  8
0_00
  6
DASHED
 62
6
 10
937.7744
 20
1127.4684
 11
938.0746
 21
1127.1684
  0
LINE
  8
0_00
  6
DASHED
 62
6
 10
938.3746
 20
1127.4684
 11
938.0746
 21
1127.1684
  0
LINE
  8
0_00
  6
DASHED
 62
6
 10
920.5746
 20
1127.4684
 11
937.7744
 21
1127.4684
  0
LINE
  8
4_04
  6
CONTINUOUS
 62
4
 10
670.0745
 20
819.9684
 11
670.0745
 21
784.9684
  0
LINE
  8
4_04
  6
CONTINUOUS
 62
4
 10
678.0746
 20
839.9684
 11
678.0746
 21
803.4685
  0
LINE
  8
4_04
  6
CONTINUOUS
 62
4
 10
678.0746
 20
801.4684
 11
678.0746
 21
764.9684
  0
LINE
  8
4_04
  6
CONTINUOUS
 62
4
 10
676.5745
 20
839.9684
 11
676.5745
 21
764.9684
  0
LINE
  8
4_04
  6
CONTINUOUS
 62
4
 10
677.6130
 20
802.4684
 11
677.6256
 21
802.4559
  0
LINE
  8
4_04
  6
CONTINUOUS
 62
4
 10
677.8870
 20
802.4684
 11
678.0746
 21
803.4685
  0
LINE
  8
4_04
  6
CONTINUOUS
 62
4
 10
677.8870
 20
802.4684
 11
678.0746
 21
801.4684
  0
LINE
  8
4_04
  6
CONTINUOUS
 62
4
 10
606.0745
 20
819.9684
 11
606.0745
 21
784.9684
  0
LINE
  8
4_04
  6
CONTINUOUS
 62
4
 10
598.0745
 20
839.9684
 11
598.0745
 21
803.4685
  0
LINE
  8
4_04
  6
CONTINUOUS
 62
4
 10
598.0745
 20
801.4684
 11
598.0745
 21
764.9684
  0
LINE
  8
4_04
  6
CONTINUOUS
 62
4
 10
599.5745
 20
839.9684
 11
599.5745
 21
764.9684
  0
LINE
  8
4_04
  6
CONTINUOUS
 62
4
 10
598.5361
 20
802.4684
 11
598.5235
 21
802.4559
  0
LINE
  8
4_04
  6
CONTINUOUS
 62
4
 10
598.2620
 20
802.4684
 11
598.0745
 21
803.4685
  0
LINE
  8
4_04
  6
CONTINUOUS
 62
4
 10
598.2620
 20
802.4684
 11
598.0745
 21
801.4684
  0
LINE
  8
0_00
  6
DASHED
 62
6
 10
640.5746
 20
784.4685
 11
635.5745
 21
784.4685
  0
LINE
  8
0_00
  6
DASHED
 62
6
 10
663.0746
 20
802.1684
 11
663.0746
 21
784.9684
  0
LINE
  8
0_00
  6
DASHED
 62
6
 10
652.7847
 20
783.6684
 11
641.3746
 21
783.6684
  0
LINE
  8
0_00
  6
DASHED
 62
6
 10
641.3746
 20
783.6684
 11
640.5746
 21
784.4685
  0
LINE
  8
0_00
  6
DASHED
 62
6
 10
661.0746
 20
784.2684
 11
661.0746
 21
792.9684
  0
LINE
  8
0_00
  6
DASHED
 62
6
 10
661.0746
 20
811.9685
 11
661.0746
 21
820.6684
  0
LINE
  8
0_00
  6
DASHED
 62
6
 10
652.7847
 20
821.2684
 11
641.3746
 21
821.2684
  0
LINE
  8
0_00
  6
DASHED
 62
6
 10
641.3746
 20
821.2684
 11
640.5746
 21
820.4684
  0
LINE
  8
0_00
  6
DASHED
 62
6
 10
635.5745
 20
820.4684
 11
640.5746
 21
820.4684
  0
LINE
  8
0_00
  6
DASHED
 62
6
 10
660.5746
 20
782.4685
 11
638.3746
 21
782.4685
  0
LINE
  8
0_00
  6
DASHED
 62
6
 10
637.7745
 20
782.4685
 11
615.5745
 21
782.4685
  0
LINE
  8
0_00
  6
DASHED
 62
6
 10
660.5746
 20
822.4684
 11
638.3746
 21
822.4684
  0
LINE
  8
0_00
  6
DASHED
 62
6
 10
637.7745
 20
822.4684
 11
615.5745
 21
822.4684
  0
LINE
  8
0_00
  6
DASHED
 62
6
 10
657.3100
 20
787.8185
 11
658.4112
 21
787.8185
  0
LINE
  8
0_00
  6
DASHED
 62
6
 10
658.0701
 20
785.1685
 11
657.5745
 21
785.1685
  0
LINE
  8
0_00
  6
DASHED
 62
6
 10
658.0701
 20
786.7684
 11
657.5745
 21
786.7684
  0
LINE
  8
0_00
  6
DASHED
 62
6
 10
656.7962
 20
783.8184
 11
655.3529
 21
783.8184
  0
LINE
  8
0_00
  6
DASHED
 62
6
 10
656.9245
 20
784.4962
 11
657.0560
 21
784.2684
  0
LINE
  8
0_00
  6
DASHED
 62
6
 10
654.8389
 20
787.8185
 11
653.7379
 21
787.8185
  0
LINE
  8
0_00
  6
DASHED
 62
6
 10
654.0790
 20
785.1685
 11
654.5745
 21
785.1685
  0
LINE
  8
0_00
  6
DASHED
 62
6
 10
654.0790
 20
786.7684
 11
654.5745
 21
786.7684
  0
LINE
  8
0_00
  6
DASHED
 62
6
 10
655.2245
 20
784.4962
 11
655.0930
 21
784.2684
  0
LINE
  8
0_00
  6
DASHED
 62
6
 10
657.3100
 20
817.1185
 11
658.4112
 21
817.1185
  0
LINE
  8
0_00
  6
DASHED
 62
6
 10
658.0701
 20
819.7684
 11
657.5745
 21
819.7684
  0
LINE
  8
0_00
  6
DASHED
 62
6
 10
658.0701
 20
818.1684
 11
657.5745
 21
818.1684
  0
LINE
  8
0_00
  6
DASHED
 62
6
 10
656.7962
 20
821.1184
 11
655.3529
 21
821.1184
  0
LINE
  8
0_00
  6
DASHED
 62
6
 10
656.9245
 20
820.4407
 11
657.0560
 21
820.6684
  0
LINE
  8
0_00
  6
DASHED
 62
6
 10
654.8389
 20
817.1185
 11
653.7379
 21
817.1185
  0
LINE
  8
0_00
  6
DASHED
 62
6
 10
654.0790
 20
819.7684
 11
654.5745
 21
819.7684
  0
LINE
  8
0_00
  6
DASHED
 62
6
 10
654.0790
 20
818.1684
 11
654.5745
 21
818.1684
  0
LINE
  8
0_00
  6
DASHED
 62
6
 10
655.2245
 20
820.4407
 11
655.0930
 21
820.6684
  0
LINE
  8
0_00
  6
DASHED
 62
6
 10
659.4171
 20
783.7685
 11
660.5746
 21
783.7685
  0
LINE
  8
0_00
  6
DASHED
 62
6
 10
659.4171
 20
821.1684
 11
660.5746
 21
821.1684
  0
LINE
  8
0_00
  6
DASHED
 62
6
 10
661.7745
 20
799.1684
 11
661.7745
 21
793.7685
  0
LINE
  8
0_00
  6
DASHED
 62
6
 10
661.0746
 20
792.9684
 11
661.7745
 21
793.7685
  0
LINE
  8
0_00
  6
DASHED
 62
6
 10
661.7745
 20
799.1684
 11
661.0746
 21
799.9685
  0
LINE
  8
0_00
  6
DASHED
 62
6
 10
661.7745
 20
805.7685
 11
661.7745
 21
811.1684
  0
LINE
  8
0_00
  6
DASHED
 62
6
 10
661.0746
 20
811.9685
 11
661.7745
 21
811.1684
  0
LINE
  8
0_00
  6
DASHED
 62
6
 10
661.7745
 20
805.7685
 11
661.0746
 21
804.9684
  0
LINE
  8
0_00
  6
DASHED
 62
6
 10
661.0746
 20
804.9684
 11
661.0746
 21
799.9685
  0
LINE
  8
0_00
  6
DASHED
 62
6
 10
663.0746
 20
802.7685
 11
662.7745
 21
802.4684
  0
LINE
  8
0_00
  6
DASHED
 62
6
 10
663.0746
 20
802.1684
 11
662.7745
 21
802.4684
  0
LINE
  8
0_00
  6
DASHED
 62
6
 10
637.7745
 20
822.4684
 11
638.0745
 21
822.1684
  0
LINE
  8
0_00
  6
DASHED
 62
6
 10
638.3746
 20
822.4684
 11
638.0745
 21
822.1684
  0
LINE
  8
0_00
  6
DASHED
 62
6
 10
637.7745
 20
782.4685
 11
638.0745
 21
782.7685
  0
LINE
  8
0_00
  6
DASHED
 62
6
 10
638.3746
 20
782.4685
 11
638.0745
 21
782.7685
  0
LINE
  8
0_00
  6
DASHED
 62
6
 10
663.0746
 20
819.9684
 11
663.0746
 21
802.7685
  0
LINE
  8
0_00
  6
DASHED
 62
6
 10
613.0745
 20
802.1684
 11
613.0745
 21
784.9684
  0
LINE
  8
0_00
  6
DASHED
 62
6
 10
623.3643
 20
783.6684
 11
634.7745
 21
783.6684
  0
LINE
  8
0_00
  6
DASHED
 62
6
 10
634.7745
 20
783.6684
 11
635.5745
 21
784.4685
  0
LINE
  8
0_00
  6
DASHED
 62
6
 10
615.0745
 20
784.2684
 11
615.0745
 21
792.9684
  0
LINE
  8
0_00
  6
DASHED
 62
6
 10
615.0745
 20
811.9685
 11
615.0745
 21
820.6684
  0
LINE
  8
0_00
  6
DASHED
 62
6
 10
623.3643
 20
821.2684
 11
634.7745
 21
821.2684
  0
LINE
  8
0_00
  6
DASHED
 62
6
 10
634.7745
 20
821.2684
 11
635.5745
 21
820.4684
  0
LINE
  8
0_00
  6
DASHED
 62
6
 10
618.8390
 20
787.8185
 11
617.7379
 21
787.8185
  0
LINE
  8
0_00
  6
DASHED
 62
6
 10
618.0790
 20
785.1685
 11
618.5746
 21
785.1685
  0
LINE
  8
0_00
  6
DASHED
 62
6
 10
618.0790
 20
786.7684
 11
618.5746
 21
786.7684
  0
LINE
  8
0_00
  6
DASHED
 62
6
 10
619.3529
 20
783.8184
 11
620.7962
 21
783.8184
  0
LINE
  8
0_00
  6
DASHED
 62
6
 10
619.2246
 20
784.4962
 11
619.0930
 21
784.2684
  0
LINE
  8
0_00
  6
DASHED
 62
6
 10
621.3100
 20
787.8185
 11
622.4112
 21
787.8185
  0
LINE
  8
0_00
  6
DASHED
 62
6
 10
622.0702
 20
785.1685
 11
621.5745
 21
785.1685
  0
LINE
  8
0_00
  6
DASHED
 62
6
 10
622.0702
 20
786.7684
 11
621.5745
 21
786.7684
  0
LINE
  8
0_00
  6
DASHED
 62
6
 10
620.9245
 20
784.4962
 11
621.0560
 21
784.2684
  0
LINE
  8
0_00
  6
DASHED
 62
6
 10
618.8390
 20
817.1185
 11
617.7379
 21
817.1185
  0
LINE
  8
0_00
  6
DASHED
 62
6
 10
618.0790
 20
819.7684
 11
618.5746
 21
819.7684
  0
LINE
  8
0_00
  6
DASHED
 62
6
 10
618.0790
 20
818.1684
 11
618.5746
 21
818.1684
  0
LINE
  8
0_00
  6
DASHED
 62
6
 10
619.3529
 20
821.1184
 11
620.7962
 21
821.1184
  0
LINE
  8
0_00
  6
DASHED
 62
6
 10
619.2246
 20
820.4407
 11
619.0930
 21
820.6684
  0
LINE
  8
0_00
  6
DASHED
 62
6
 10
621.3100
 20
817.1185
 11
622.4112
 21
817.1185
  0
LINE
  8
0_00
  6
DASHED
 62
6
 10
622.0702
 20
819.7684
 11
621.5745
 21
819.7684
  0
LINE
  8
0_00
  6
DASHED
 62
6
 10
622.0702
 20
818.1684
 11
621.5745
 21
818.1684
  0
LINE
  8
0_00
  6
DASHED
 62
6
 10
620.9245
 20
820.4407
 11
621.0560
 21
820.6684
  0
LINE
  8
0_00
  6
DASHED
 62
6
 10
616.7320
 20
783.7685
 11
615.5745
 21
783.7685
  0
LINE
  8
0_00
  6
DASHED
 62
6
 10
616.7320
 20
821.1684
 11
615.5745
 21
821.1684
  0
LINE
  8
0_00
  6
DASHED
 62
6
 10
614.3746
 20
799.1684
 11
614.3746
 21
793.7685
  0
LINE
  8
0_00
  6
DASHED
 62
6
 10
615.0745
 20
792.9684
 11
614.3746
 21
793.7685
  0
LINE
  8
0_00
  6
DASHED
 62
6
 10
614.3746
 20
799.1684
 11
615.0745
 21
799.9685
  0
LINE
  8
0_00
  6
DASHED
 62
6
 10
614.3746
 20
805.7685
 11
614.3746
 21
811.1684
  0
LINE
  8
0_00
  6
DASHED
 62
6
 10
615.0745
 20
811.9685
 11
614.3746
 21
811.1684
  0
LINE
  8
0_00
  6
DASHED
 62
6
 10
614.3746
 20
805.7685
 11
615.0745
 21
804.9684
  0
LINE
  8
0_00
  6
DASHED
 62
6
 10
615.0745
 20
804.9684
 11
615.0745
 21
799.9685
  0
LINE
  8
0_00
  6
DASHED
 62
6
 10
613.0745
 20
802.7685
 11
613.3746
 21
802.4684
  0
LINE
  8
0_00
  6
DASHED
 62
6
 10
613.0745
 20
802.1684
 11
613.3746
 21
802.4684
  0
LINE
  8
0_00
  6
DASHED
 62
6
 10
613.0745
 20
819.9684
 11
613.0745
 21
802.7685
  0
LINE
  8
0_00
  6
CONTINUOUS
 62
3
 10
1824.7032
 20
324.0002
 11
1824.7032
 21
124.0001
  0
LINE
  8
0_00
  6
CONTINUOUS
 62
7
 10
182.3016
 20
374.0002
 11
4061.7035
 21
374.0002
  0
LINE
  8
0_00
  6
CONTINUOUS
 62
3
 10
4061.7035
 20
2838.9999
 11
4061.7035
 21
2883.9999
  0
LINE
  8
0_00
  6
CONTINUOUS
 62
7
 10
4061.7035
 20
124.0001
 11
4061.7035
 21
2838.9999
  0
LINE
  8
0_00
  6
CONTINUOUS
 62
3
 10
182.3016
 20
2838.9999
 11
182.3016
 21
2883.9999
  0
LINE
  8
0_00
  6
CONTINUOUS
 62
7
 10
182.3016
 20
124.0001
 11
182.3016
 21
2838.9999
  0
LINE
  8
0_00
  6
CONTINUOUS
 62
7
 10
182.3016
 20
2838.9999
 11
4061.7035
 21
2838.9999
  0
LINE
  8
0_00
  6
CONTINUOUS
 62
7
 10
182.3016
 20
124.0001
 11
4061.7035
 21
124.0001
  0
LINE
  8
0_00
  6
CONTINUOUS
 62
3
 10
132.3016
 20
74.0001
 11
132.3016
 21
2883.9999
  0
LINE
  8
0_00
  6
CONTINUOUS
 62
3
 10
4111.7032
 20
74.0001
 11
4111.7032
 21
2883.9999
  0
LINE
  8
0_00
  6
CONTINUOUS
 62
3
 10
132.3016
 20
2883.9999
 11
4111.7032
 21
2883.9999
  0
LINE
  8
0_00
  6
CONTINUOUS
 62
3
 10
3568.7033
 20
124.0001
 11
3568.7033
 21
374.0002
  0
LINE
  8
0_00
  6
CONTINUOUS
 62
3
 10
182.3016
 20
324.0002
 11
2709.2035
 21
324.0002
  0
LINE
  8
0_00
  6
CONTINUOUS
 62
7
 10
2709.2035
 20
324.0002
 11
4061.7035
 21
324.0002
  0
LINE
  8
0_00
  6
CONTINUOUS
 62
3
 10
3568.7033
 20
224.0001
 11
4061.7035
 21
224.0001
  0
LINE
  8
0_00
  6
CONTINUOUS
 62
3
 10
3668.7033
 20
374.0002
 11
3668.7033
 21
324.0002
  0
LINE
  8
0_00
  6
CONTINUOUS
 62
3
 10
2709.2035
 20
124.0001
 11
2709.2035
 21
324.0002
  0
LINE
  8
0_00
  6
CONTINUOUS
 62
7
 10
2709.2035
 20
324.0002
 11
2709.2035
 21
374.0002
  0
LINE
  8
0_00
  6
CONTINUOUS
 62
3
 10
2789.2035
 20
324.0002
 11
2789.2035
 21
374.0002
  0
LINE
  8
0_00
  6
CONTINUOUS
 62
3
 10
3041.7035
 20
124.0001
 11
3041.7035
 21
374.0002
  0
LINE
  8
0_00
  6
CONTINUOUS
 62
3
 10
3348.7033
 20
324.0002
 11
3348.7033
 21
374.0002
  0
LINE
  8
0_00
  6
CONTINUOUS
 62
3
 10
3440.7034
 20
124.0001
 11
3440.7034
 21
324.0002
  0
LINE
  8
0_00
  6
CONTINUOUS
 62
3
 10
3319.7031
 20
124.0001
 11
3319.7031
 21
324.0002
  0
LINE
  8
0_00
  6
CONTINUOUS
 62
3
 10
3198.7030
 20
124.0001
 11
3198.7030
 21
324.0002
  0
LINE
  8
0_00
  6
CONTINUOUS
 62
3
 10
1562.2032
 20
124.0001
 11
1562.2032
 21
374.0002
  0
LINE
  8
0_00
  6
CONTINUOUS
 62
3
 10
2087.2031
 20
124.0001
 11
2087.2031
 21
324.0002
  0
LINE
  8
0_00
  6
CONTINUOUS
 62
3
 10
182.3016
 20
274.0002
 11
1562.2032
 21
274.0002
  0
LINE
  8
0_00
  6
CONTINUOUS
 62
3
 10
182.3016
 20
224.0001
 11
3041.7035
 21
224.0001
  0
LINE
  8
0_00
  6
CONTINUOUS
 62
3
 10
582.3016
 20
174.0001
 11
1562.2032
 21
174.0001
  0
LINE
  8
0_00
  6
CONTINUOUS
 62
7
 10
182.3016
 20
174.0001
 11
582.3016
 21
174.0001
  0
LINE
  8
0_00
  6
CONTINUOUS
 62
3
 10
2726.7035
 20
2838.9999
 11
2726.7035
 21
2883.9999
  0
LINE
  8
0_00
  6
CONTINUOUS
 62
3
 10
2626.7035
 20
2838.9999
 11
2626.7035
 21
2883.9999
  0
LINE
  8
0_00
  6
CONTINUOUS
 62
3
 10
682.3016
 20
2838.9999
 11
682.3016
 21
2883.9999
  0
LINE
  8
0_00
  6
CONTINUOUS
 62
3
 10
2846.7032
 20
2838.9999
 11
2846.7032
 21
2883.9999
  0
LINE
  8
0_00
  6
CONTINUOUS
 62
3
 10
3051.7035
 20
2838.9999
 11
3051.7035
 21
2883.9999
  0
LINE
  8
0_00
  6
CONTINUOUS
 62
3
 10
3821.7032
 20
2838.9999
 11
3821.7032
 21
2883.9999
  0
LINE
  8
0_00
  6
CONTINUOUS
 62
3
 10
382.3016
 20
374.0002
 11
382.3016
 21
124.0001
  0
LINE
  8
0_00
  6
CONTINUOUS
 62
7
 10
582.3016
 20
374.0002
 11
582.3016
 21
124.0001
  0
LINE
  8
0_00
  6
CONTINUOUS
 62
3
 10
2899.2035
 20
224.0001
 11
2899.2035
 21
324.0002
  0
LINE
  8
0_00
  6
CONTINUOUS
 62
3
 10
2979.2035
 20
374.0002
 11
2979.2035
 21
324.0002
  0
LINE
  8
0_00
  6
CONTINUOUS
 62
3
 10
3041.7035
 20
274.0002
 11
3568.7033
 21
274.0002
  0
LINE
  8
0_00
  6
CONTINUOUS
 62
3
 10
3588.7033
 20
239.0001
 11
3595.2029
 21
239.0001
  0
LINE
  8
0_00
  6
CONTINUOUS
 62
3
 10
3595.2029
 20
239.0001
 11
3595.2029
 21
304.0001
  0
LINE
  8
0_00
  6
CONTINUOUS
 62
3
 10
3595.2029
 20
304.0001
 11
3588.7033
 21
304.0001
  0
LINE
  8
0_00
  6
CONTINUOUS
 62
3
 10
3588.7033
 20
239.0001
 11
3588.7033
 21
304.0001
  0
LINE
  8
0_00
  6
CONTINUOUS
 62
3
 10
3597.8030
 20
239.0001
 11
3604.3033
 21
239.0001
  0
LINE
  8
0_00
  6
CONTINUOUS
 62
3
 10
3604.3033
 20
239.0001
 11
3604.3033
 21
304.0001
  0
LINE
  8
0_00
  6
CONTINUOUS
 62
3
 10
3604.3033
 20
304.0001
 11
3597.8030
 21
304.0001
  0
LINE
  8
0_00
  6
CONTINUOUS
 62
3
 10
3597.8030
 20
239.0001
 11
3597.8030
 21
304.0001
  0
LINE
  8
0_00
  6
CONTINUOUS
 62
3
 10
3606.9034
 20
239.0001
 11
3613.4030
 21
239.0001
  0
LINE
  8
0_00
  6
CONTINUOUS
 62
3
 10
3613.4030
 20
239.0001
 11
3613.4030
 21
304.0001
  0
LINE
  8
0_00
  6
CONTINUOUS
 62
3
 10
3613.4030
 20
304.0001
 11
3606.9034
 21
304.0001
  0
LINE
  8
0_00
  6
CONTINUOUS
 62
3
 10
3606.9034
 20
239.0001
 11
3606.9034
 21
304.0001
  0
LINE
  8
0_00
  6
CONTINUOUS
 62
3
 10
3616.0031
 20
239.0001
 11
3622.5031
 21
239.0001
  0
LINE
  8
0_00
  6
CONTINUOUS
 62
3
 10
3622.5031
 20
304.0001
 11
3616.0031
 21
304.0001
  0
LINE
  8
0_00
  6
CONTINUOUS
 62
3
 10
3616.0031
 20
239.0001
 11
3616.0031
 21
304.0001
  0
LINE
  8
0_00
  6
CONTINUOUS
 62
3
 10
3641.3535
 20
239.0001
 11
3666.7032
 21
239.0001
  0
LINE
  8
0_00
  6
CONTINUOUS
 62
3
 10
3666.7032
 20
239.0001
 11
3666.7032
 21
244.8501
  0
LINE
  8
0_00
  6
CONTINUOUS
 62
3
 10
3666.7032
 20
244.8501
 11
3641.3535
 21
244.8501
  0
LINE
  8
0_00
  6
CONTINUOUS
 62
3
 10
3641.3535
 20
244.8501
 11
3641.3535
 21
239.0001
  0
LINE
  8
0_00
  6
CONTINUOUS
 62
3
 10
3641.3535
 20
247.4502
 11
3666.7032
 21
247.4502
  0
LINE
  8
0_00
  6
CONTINUOUS
 62
3
 10
3666.7032
 20
247.4502
 11
3666.7032
 21
253.3000
  0
LINE
  8
0_00
  6
CONTINUOUS
 62
3
 10
3666.7032
 20
253.3000
 11
3641.3535
 21
253.3000
  0
LINE
  8
0_00
  6
CONTINUOUS
 62
3
 10
3641.3535
 20
253.3000
 11
3641.3535
 21
247.4502
  0
LINE
  8
0_00
  6
CONTINUOUS
 62
3
 10
3641.3535
 20
255.9001
 11
3666.7032
 21
255.9001
  0
LINE
  8
0_00
  6
CONTINUOUS
 62
3
 10
3666.7032
 20
255.9001
 11
3666.7032
 21
261.7501
  0
LINE
  8
0_00
  6
CONTINUOUS
 62
3
 10
3666.7032
 20
261.7501
 11
3641.3535
 21
261.7501
  0
LINE
  8
0_00
  6
CONTINUOUS
 62
3
 10
3641.3535
 20
261.7501
 11
3641.3535
 21
255.9001
  0
LINE
  8
0_00
  6
CONTINUOUS
 62
3
 10
3641.3535
 20
264.3502
 11
3666.7032
 21
264.3502
  0
LINE
  8
0_00
  6
CONTINUOUS
 62
3
 10
3666.7032
 20
264.3502
 11
3666.7032
 21
270.2000
  0
LINE
  8
0_00
  6
CONTINUOUS
 62
3
 10
3666.7032
 20
270.2000
 11
3641.3535
 21
270.2000
  0
LINE
  8
0_00
  6
CONTINUOUS
 62
3
 10
3641.3535
 20
270.2000
 11
3641.3535
 21
264.3502
  0
LINE
  8
0_00
  6
CONTINUOUS
 62
3
 10
3641.3535
 20
272.8001
 11
3666.7032
 21
272.8001
  0
LINE
  8
0_00
  6
CONTINUOUS
 62
3
 10
3666.7032
 20
272.8001
 11
3666.7032
 21
278.6501
  0
LINE
  8
0_00
  6
CONTINUOUS
 62
3
 10
3666.7032
 20
278.6501
 11
3641.3535
 21
278.6501
  0
LINE
  8
0_00
  6
CONTINUOUS
 62
3
 10
3641.3535
 20
278.6501
 11
3641.3535
 21
272.8001
  0
LINE
  8
0_00
  6
CONTINUOUS
 62
3
 10
3641.3535
 20
281.2502
 11
3666.7032
 21
281.2502
  0
LINE
  8
0_00
  6
CONTINUOUS
 62
3
 10
3666.7032
 20
281.2502
 11
3666.7032
 21
287.1001
  0
LINE
  8
0_00
  6
CONTINUOUS
 62
3
 10
3666.7032
 20
287.1001
 11
3641.3535
 21
287.1001
  0
LINE
  8
0_00
  6
CONTINUOUS
 62
3
 10
3641.3535
 20
287.1001
 11
3641.3535
 21
281.2502
  0
LINE
  8
0_00
  6
CONTINUOUS
 62
3
 10
3641.3535
 20
289.7002
 11
3666.7032
 21
289.7002
  0
LINE
  8
0_00
  6
CONTINUOUS
 62
3
 10
3666.7032
 20
289.7002
 11
3666.7032
 21
295.5502
  0
LINE
  8
0_00
  6
CONTINUOUS
 62
3
 10
3666.7032
 20
295.5502
 11
3641.3535
 21
295.5502
  0
LINE
  8
0_00
  6
CONTINUOUS
 62
3
 10
3641.3535
 20
295.5502
 11
3641.3535
 21
289.7002
  0
LINE
  8
0_00
  6
CONTINUOUS
 62
3
 10
3641.3535
 20
298.1503
 11
3666.7032
 21
298.1503
  0
LINE
  8
0_00
  6
CONTINUOUS
 62
3
 10
3666.7032
 20
298.1503
 11
3666.7032
 21
304.0001
  0
LINE
  8
0_00
  6
CONTINUOUS
 62
3
 10
3666.7032
 20
304.0001
 11
3641.3535
 21
304.0001
  0
LINE
  8
0_00
  6
CONTINUOUS
 62
3
 10
3641.3535
 20
304.0001
 11
3641.3535
 21
298.1503
  0
LINE
  8
0_00
  6
CONTINUOUS
 62
3
 10
3625.1031
 20
239.0001
 11
3625.1031
 21
256.8752
  0
LINE
  8
0_00
  6
CONTINUOUS
 62
3
 10
3629.4583
 20
242.5749
 11
3629.4583
 21
256.8752
  0
LINE
  8
0_00
  6
CONTINUOUS
 62
3
 10
3625.1031
 20
239.0001
 11
3632.2531
 21
239.0001
  0
LINE
  8
0_00
  6
CONTINUOUS
 62
3
 10
3629.4583
 20
242.5749
 11
3632.2531
 21
242.5749
  0
LINE
  8
0_00
  6
CONTINUOUS
 62
3
 10
3632.0166
 20
266.0185
 11
3634.8532
 21
260.4502
  0
LINE
  8
0_00
  6
CONTINUOUS
 62
3
 10
3636.4697
 20
275.1509
 11
3632.0157
 21
266.0183
  0
LINE
  8
0_00
  6
CONTINUOUS
 62
3
 10
3622.5031
 20
284.5003
 11
3622.5031
 21
304.0001
  0
LINE
  8
0_00
  6
CONTINUOUS
 62
3
 10
3622.5031
 20
284.5003
 11
3630.6284
 21
284.5003
  0
LINE
  8
0_00
  6
CONTINUOUS
 62
3
 10
3622.5031
 20
280.6002
 11
3626.1105
 21
280.6002
  0
LINE
  8
0_00
  6
CONTINUOUS
 62
3
 10
3622.5031
 20
260.4502
 11
3634.8532
 21
260.4502
  0
LINE
  8
0_00
  6
CONTINUOUS
 62
3
 10
3622.5031
 20
273.2036
 11
3626.1111
 21
280.6003
  0
LINE
  8
0_00
  6
CONTINUOUS
 62
3
 10
3622.5031
 20
273.2042
 11
3622.5031
 21
280.6002
  0
LINE
  8
0_00
  6
CONTINUOUS
 62
3
 10
3622.5031
 20
260.4502
 11
3622.5031
 21
239.0001
  0
LINE
  8
0_00
  6
CONTINUOUS
 62
3
 10
3589.7031
 20
304.0001
 11
3589.7031
 21
239.0001
  0
LINE
  8
0_00
  6
CONTINUOUS
 62
3
 10
3590.7034
 20
304.0001
 11
3590.7034
 21
239.0001
  0
LINE
  8
0_00
  6
CONTINUOUS
 62
3
 10
3591.7032
 20
304.0001
 11
3591.7032
 21
239.0001
  0
LINE
  8
0_00
  6
CONTINUOUS
 62
3
 10
3592.7029
 20
304.0001
 11
3592.7029
 21
239.0001
  0
LINE
  8
0_00
  6
CONTINUOUS
 62
3
 10
3593.7033
 20
304.0001
 11
3593.7033
 21
239.0001
  0
LINE
  8
0_00
  6
CONTINUOUS
 62
3
 10
3598.8037
 20
304.0001
 11
3598.8037
 21
239.0001
  0
LINE
  8
0_00
  6
CONTINUOUS
 62
3
 10
3599.8032
 20
304.0001
 11
3599.8032
 21
239.0001
  0
LINE
  8
0_00
  6
CONTINUOUS
 62
3
 10
3600.8029
 20
304.0001
 11
3600.8029
 21
239.0001
  0
LINE
  8
0_00
  6
CONTINUOUS
 62
3
 10
3601.8033
 20
304.0001
 11
3601.8033
 21
239.0001
  0
LINE
  8
0_00
  6
CONTINUOUS
 62
3
 10
3602.8030
 20
304.0001
 11
3602.8030
 21
239.0001
  0
LINE
  8
0_00
  6
CONTINUOUS
 62
3
 10
3603.8037
 20
304.0001
 11
3603.8037
 21
239.0001
  0
LINE
  8
0_00
  6
CONTINUOUS
 62
3
 10
3607.9031
 20
304.0001
 11
3607.9031
 21
239.0001
  0
LINE
  8
0_00
  6
CONTINUOUS
 62
3
 10
3608.9035
 20
304.0001
 11
3608.9035
 21
239.0001
  0
LINE
  8
0_00
  6
CONTINUOUS
 62
3
 10
3609.9030
 20
304.0001
 11
3609.9030
 21
239.0001
  0
LINE
  8
0_00
  6
CONTINUOUS
 62
3
 10
3610.9030
 20
304.0001
 11
3610.9030
 21
239.0001
  0
LINE
  8
0_00
  6
CONTINUOUS
 62
3
 10
3611.9034
 20
304.0001
 11
3611.9034
 21
239.0001
  0
LINE
  8
0_00
  6
CONTINUOUS
 62
3
 10
3612.9031
 20
304.0001
 11
3612.9031
 21
239.0001
  0
LINE
  8
0_00
  6
CONTINUOUS
 62
3
 10
3641.3535
 20
240.0002
 11
3666.7032
 21
240.0002
  0
LINE
  8
0_00
  6
CONTINUOUS
 62
3
 10
3641.3535
 20
241.0002
 11
3666.7032
 21
241.0002
  0
LINE
  8
0_00
  6
CONTINUOUS
 62
3
 10
3641.3535
 20
242.0000
 11
3666.7032
 21
242.0000
  0
LINE
  8
0_00
  6
CONTINUOUS
 62
3
 10
3641.3535
 20
243.0001
 11
3666.7032
 21
243.0001
  0
LINE
  8
0_00
  6
CONTINUOUS
 62
3
 10
3641.3535
 20
244.0001
 11
3666.7032
 21
244.0001
  0
LINE
  8
0_00
  6
CONTINUOUS
 62
3
 10
3641.3535
 20
248.4502
 11
3666.7032
 21
248.4502
  0
LINE
  8
0_00
  6
CONTINUOUS
 62
3
 10
3641.3535
 20
249.4503
 11
3666.7032
 21
249.4503
  0
LINE
  8
0_00
  6
CONTINUOUS
 62
3
 10
3641.3535
 20
250.4501
 11
3666.7032
 21
250.4501
  0
LINE
  8
0_00
  6
CONTINUOUS
 62
3
 10
3641.3535
 20
251.4501
 11
3666.7032
 21
251.4501
  0
LINE
  8
0_00
  6
CONTINUOUS
 62
3
 10
3641.3535
 20
252.4502
 11
3666.7032
 21
252.4502
  0
LINE
  8
0_00
  6
CONTINUOUS
 62
3
 10
3641.3535
 20
256.9003
 11
3666.7032
 21
256.9003
  0
LINE
  8
0_00
  6
CONTINUOUS
 62
3
 10
3641.3535
 20
257.9002
 11
3666.7032
 21
257.9002
  0
LINE
  8
0_00
  6
CONTINUOUS
 62
3
 10
3641.3535
 20
258.9000
 11
3666.7032
 21
258.9000
  0
LINE
  8
0_00
  6
CONTINUOUS
 62
3
 10
3641.3535
 20
259.9001
 11
3666.7032
 21
259.9001
  0
LINE
  8
0_00
  6
CONTINUOUS
 62
3
 10
3641.3535
 20
260.9002
 11
3666.7032
 21
260.9002
  0
LINE
  8
0_00
  6
CONTINUOUS
 62
3
 10
3641.3535
 20
265.3502
 11
3666.7032
 21
265.3502
  0
LINE
  8
0_00
  6
CONTINUOUS
 62
3
 10
3641.3535
 20
266.3503
 11
3666.7032
 21
266.3503
  0
LINE
  8
0_00
  6
CONTINUOUS
 62
3
 10
3641.3535
 20
267.3501
 11
3666.7032
 21
267.3501
  0
LINE
  8
0_00
  6
CONTINUOUS
 62
3
 10
3641.3535
 20
268.3501
 11
3666.7032
 21
268.3501
  0
LINE
  8
0_00
  6
CONTINUOUS
 62
3
 10
3641.3535
 20
269.3502
 11
3666.7032
 21
269.3502
  0
LINE
  8
0_00
  6
CONTINUOUS
 62
3
 10
3641.3535
 20
273.8003
 11
3666.7032
 21
273.8003
  0
LINE
  8
0_00
  6
CONTINUOUS
 62
3
 10
3641.3535
 20
274.8003
 11
3666.7032
 21
274.8003
  0
LINE
  8
0_00
  6
CONTINUOUS
 62
3
 10
3641.3535
 20
275.8000
 11
3666.7032
 21
275.8000
  0
LINE
  8
0_00
  6
CONTINUOUS
 62
3
 10
3641.3535
 20
276.8002
 11
3666.7032
 21
276.8002
  0
LINE
  8
0_00
  6
CONTINUOUS
 62
3
 10
3641.3535
 20
277.8002
 11
3666.7032
 21
277.8002
  0
LINE
  8
0_00
  6
CONTINUOUS
 62
3
 10
3666.7032
 20
282.2503
 11
3641.3535
 21
282.2503
  0
LINE
  8
0_00
  6
CONTINUOUS
 62
3
 10
3666.7032
 20
283.2504
 11
3641.3535
 21
283.2504
  0
LINE
  8
0_00
  6
CONTINUOUS
 62
3
 10
3666.7032
 20
284.2501
 11
3641.3535
 21
284.2501
  0
LINE
  8
0_00
  6
CONTINUOUS
 62
3
 10
3666.7032
 20
285.2501
 11
3641.3535
 21
285.2501
  0
LINE
  8
0_00
  6
CONTINUOUS
 62
3
 10
3666.7032
 20
286.2502
 11
3641.3535
 21
286.2502
  0
LINE
  8
0_00
  6
CONTINUOUS
 62
3
 10
3641.3535
 20
290.7003
 11
3666.7032
 21
290.7003
  0
LINE
  8
0_00
  6
CONTINUOUS
 62
3
 10
3641.3535
 20
291.7003
 11
3666.7032
 21
291.7003
  0
LINE
  8
0_00
  6
CONTINUOUS
 62
3
 10
3641.3535
 20
292.7001
 11
3666.7032
 21
292.7001
  0
LINE
  8
0_00
  6
CONTINUOUS
 62
3
 10
3641.3535
 20
293.7002
 11
3666.7032
 21
293.7002
  0
LINE
  8
0_00
  6
CONTINUOUS
 62
3
 10
3641.3535
 20
294.7002
 11
3666.7032
 21
294.7002
  0
LINE
  8
0_00
  6
CONTINUOUS
 62
3
 10
3641.3535
 20
299.1503
 11
3666.7032
 21
299.1503
  0
LINE
  8
0_00
  6
CONTINUOUS
 62
3
 10
3641.3535
 20
300.1504
 11
3666.7032
 21
300.1504
  0
LINE
  8
0_00
  6
CONTINUOUS
 62
3
 10
3641.3535
 20
301.1501
 11
3666.7032
 21
301.1501
  0
LINE
  8
0_00
  6
CONTINUOUS
 62
3
 10
3641.3535
 20
302.1501
 11
3666.7032
 21
302.1501
  0
LINE
  8
0_00
  6
CONTINUOUS
 62
3
 10
3641.3535
 20
303.1503
 11
3666.7032
 21
303.1503
  0
LINE
  8
0_00
  6
CONTINUOUS
 62
3
 10
3617.0029
 20
304.0001
 11
3617.0029
 21
239.0001
  0
LINE
  8
0_00
  6
CONTINUOUS
 62
3
 10
3618.0032
 20
304.0001
 11
3618.0032
 21
239.0001
  0
LINE
  8
0_00
  6
CONTINUOUS
 62
3
 10
3619.0030
 20
304.0001
 11
3619.0030
 21
239.0001
  0
LINE
  8
0_00
  6
CONTINUOUS
 62
3
 10
3620.0027
 20
304.0001
 11
3620.0027
 21
239.0001
  0
LINE
  8
0_00
  6
CONTINUOUS
 62
3
 10
3621.0031
 20
304.0001
 11
3621.0031
 21
239.0001
  0
LINE
  8
0_00
  6
CONTINUOUS
 62
3
 10
3622.0029
 20
304.0001
 11
3622.0029
 21
239.0001
  0
LINE
  8
0_00
  6
CONTINUOUS
 62
3
 10
3626.1035
 20
239.0001
 11
3626.1035
 21
256.8752
  0
LINE
  8
0_00
  6
CONTINUOUS
 62
3
 10
3627.1036
 20
239.0001
 11
3627.1036
 21
256.8752
  0
LINE
  8
0_00
  6
CONTINUOUS
 62
3
 10
3628.1033
 20
239.0001
 11
3628.1033
 21
256.8752
  0
LINE
  8
0_00
  6
CONTINUOUS
 62
3
 10
3629.1031
 20
239.0001
 11
3629.1031
 21
256.8752
  0
LINE
  8
0_00
  6
CONTINUOUS
 62
3
 10
3629.4583
 20
241.5749
 11
3632.2531
 21
241.5749
  0
LINE
  8
0_00
  6
CONTINUOUS
 62
3
 10
3629.4583
 20
240.5748
 11
3632.2531
 21
240.5748
  0
LINE
  8
0_00
  6
CONTINUOUS
 62
3
 10
3629.4583
 20
239.5751
 11
3632.2531
 21
239.5751
  0
LINE
  8
0_00
  6
CONTINUOUS
 62
3
 10
3634.2746
 20
261.5859
 11
3622.6175
 21
261.5859
  0
LINE
  8
0_00
  6
CONTINUOUS
 62
3
 10
3633.6771
 20
262.7591
 11
3622.6175
 21
262.7591
  0
LINE
  8
0_00
  6
CONTINUOUS
 62
3
 10
3632.9791
 20
264.1280
 11
3622.5931
 21
264.1280
  0
LINE
  8
0_00
  6
CONTINUOUS
 62
3
 10
3632.4014
 20
265.2622
 11
3622.5809
 21
265.2622
  0
LINE
  8
0_00
  6
CONTINUOUS
 62
3
 10
3636.9528
 20
278.4206
 11
3630.5008
 21
265.1930
  0
LINE
  8
0_00
  6
CONTINUOUS
 62
3
 10
3636.6318
 20
280.0444
 11
3629.3683
 21
265.1528
  0
LINE
  8
0_00
  6
CONTINUOUS
 62
3
 10
3636.0278
 20
281.0859
 11
3628.3047
 21
265.2528
  0
LINE
  8
0_00
  6
CONTINUOUS
 62
3
 10
3635.3424
 20
281.9643
 11
3627.1512
 21
265.1693
  0
LINE
  8
0_00
  6
CONTINUOUS
 62
3
 10
3634.6695
 20
282.8654
 11
3626.2631
 21
265.6290
  0
LINE
  8
0_00
  6
CONTINUOUS
 62
3
 10
3633.7900
 20
283.3419
 11
3624.9692
 21
265.2581
  0
LINE
  8
0_00
  6
CONTINUOUS
 62
3
 10
3632.9202
 20
283.8402
 11
3623.8443
 21
265.2324
  0
LINE
  8
0_00
  6
CONTINUOUS
 62
3
 10
3631.8881
 20
284.0058
 11
3622.7951
 21
265.3624
  0
LINE
  8
0_00
  6
CONTINUOUS
 62
3
 10
3630.8328
 20
284.1224
 11
3622.3511
 21
266.7324
  0
LINE
  8
0_00
  6
CONTINUOUS
 62
3
 10
3629.7906
 20
284.2674
 11
3622.4429
 21
269.2024
  0
LINE
  8
0_00
  6
CONTINUOUS
 62
3
 10
3628.6520
 20
284.2143
 11
3622.1292
 21
270.8403
  0
LINE
  8
0_00
  6
CONTINUOUS
 62
3
 10
3626.6412
 20
281.6002
 11
3622.5031
 21
281.6002
  0
LINE
  8
0_00
  6
CONTINUOUS
 62
3
 10
3627.4515
 20
282.6003
 11
3622.5031
 21
282.6003
  0
LINE
  8
0_00
  6
CONTINUOUS
 62
3
 10
3627.8317
 20
283.6001
 11
3622.5031
 21
283.6001
  0
LINE
  8
0_00
  6
CONTINUOUS
 62
3
 10
2654.2035
 20
2841.6306
 11
2699.2035
 21
2841.6306
  0
LINE
  8
0_00
  6
CONTINUOUS
 62
3
 10
2657.2284
 20
2846.8695
 11
2654.2035
 21
2841.6306
  0
LINE
  8
0_00
  6
CONTINUOUS
 62
3
 10
2669.6429
 20
2868.3728
 11
2676.7035
 21
2880.6018
  0
LINE
  8
0_00
  6
CONTINUOUS
 62
3
 10
2696.1789
 20
2846.8695
 11
2699.2035
 21
2841.6306
  0
LINE
  8
0_00
  6
CONTINUOUS
 62
3
 10
2683.7640
 20
2868.3728
 11
2676.7035
 21
2880.6018
  0
LINE
  8
0_00
  6
CONTINUOUS
 62
3
 10
4061.7035
 20
514.0002
 11
4071.7035
 21
514.0002
  0
LINE
  8
0_00
  6
CONTINUOUS
 62
3
 10
4061.7035
 20
584.0002
 11
4071.7035
 21
584.0002
  0
LINE
  8
0_00
  6
CONTINUOUS
 62
3
 10
4061.7035
 20
654.0002
 11
4071.7035
 21
654.0002
  0
LINE
  8
0_00
  6
CONTINUOUS
 62
3
 10
4061.7035
 20
724.0002
 11
4071.7035
 21
724.0002
  0
LINE
  8
0_00
  6
CONTINUOUS
 62
3
 10
4061.7035
 20
794.0002
 11
4071.7035
 21
794.0002
  0
LINE
  8
0_00
  6
CONTINUOUS
 62
3
 10
4061.7035
 20
864.0002
 11
4071.7035
 21
864.0002
  0
LINE
  8
0_00
  6
CONTINUOUS
 62
3
 10
4061.7035
 20
934.0002
 11
4071.7035
 21
934.0002
  0
LINE
  8
0_00
  6
CONTINUOUS
 62
3
 10
4061.7035
 20
1004.0002
 11
4071.7035
 21
1004.0002
  0
LINE
  8
0_00
  6
CONTINUOUS
 62
3
 10
4061.7035
 20
1074.0002
 11
4071.7035
 21
1074.0002
  0
LINE
  8
0_00
  6
CONTINUOUS
 62
3
 10
4061.7035
 20
1144.0002
 11
4071.7035
 21
1144.0002
  0
LINE
  8
0_00
  6
CONTINUOUS
 62
3
 10
4061.7035
 20
1214.0002
 11
4071.7035
 21
1214.0002
  0
LINE
  8
0_00
  6
CONTINUOUS
 62
3
 10
4061.7035
 20
1284.0001
 11
4071.7035
 21
1284.0001
  0
LINE
  8
0_00
  6
CONTINUOUS
 62
3
 10
4061.7035
 20
1354.0002
 11
4071.7035
 21
1354.0002
  0
LINE
  8
0_00
  6
CONTINUOUS
 62
3
 10
4061.7035
 20
1424.0002
 11
4071.7035
 21
1424.0002
  0
LINE
  8
0_00
  6
CONTINUOUS
 62
3
 10
4061.7035
 20
1494.0002
 11
4071.7035
 21
1494.0002
  0
LINE
  8
0_00
  6
CONTINUOUS
 62
3
 10
4061.7035
 20
1564.0002
 11
4071.7035
 21
1564.0002
  0
LINE
  8
0_00
  6
CONTINUOUS
 62
3
 10
4061.7035
 20
1634.0001
 11
4071.7035
 21
1634.0001
  0
LINE
  8
0_00
  6
CONTINUOUS
 62
3
 10
4061.7035
 20
2778.9999
 11
4071.7035
 21
2778.9999
  0
LINE
  8
0_00
  6
CONTINUOUS
 62
3
 10
4061.7035
 20
2719.0002
 11
4071.7035
 21
2719.0002
  0
LINE
  8
0_00
  6
CONTINUOUS
 62
3
 10
4061.7035
 20
2659.0002
 11
4071.7035
 21
2659.0002
  0
LINE
  8
0_00
  6
CONTINUOUS
 62
3
 10
4061.7035
 20
2598.9999
 11
4071.7035
 21
2598.9999
  0
LINE
  8
0_00
  6
CONTINUOUS
 62
3
 10
4061.7035
 20
2539.0001
 11
4071.7035
 21
2539.0001
  0
LINE
  8
0_00
  6
CONTINUOUS
 62
3
 10
4061.7035
 20
2479.0001
 11
4071.7035
 21
2479.0001
  0
LINE
  8
0_00
  6
CONTINUOUS
 62
3
 10
4061.7035
 20
1704.0001
 11
4071.7035
 21
1704.0001
  0
LINE
  8
0_00
  6
CONTINUOUS
 62
3
 10
4061.7035
 20
1774.0001
 11
4071.7035
 21
1774.0001
  0
LINE
  8
0_00
  6
CONTINUOUS
 62
3
 10
4061.7035
 20
1844.0001
 11
4071.7035
 21
1844.0001
  0
LINE
  8
0_00
  6
CONTINUOUS
 62
3
 10
4061.7035
 20
1914.0001
 11
4071.7035
 21
1914.0001
  0
LINE
  8
0_00
  6
CONTINUOUS
 62
3
 10
4061.7035
 20
1984.0001
 11
4071.7035
 21
1984.0001
  0
LINE
  8
0_00
  6
CONTINUOUS
 62
3
 10
4061.7035
 20
2054.0002
 11
4071.7035
 21
2054.0002
  0
LINE
  8
0_00
  6
CONTINUOUS
 62
3
 10
4061.7035
 20
2124.0001
 11
4071.7035
 21
2124.0001
  0
LINE
  8
0_00
  6
CONTINUOUS
 62
3
 10
4061.7035
 20
2194.0001
 11
4071.7035
 21
2194.0001
  0
LINE
  8
0_00
  6
CONTINUOUS
 62
3
 10
4061.7035
 20
2264.0001
 11
4071.7035
 21
2264.0001
  0
LINE
  8
0_00
  6
CONTINUOUS
 62
3
 10
4061.7035
 20
2334.0001
 11
4071.7035
 21
2334.0001
  0
LINE
  8
0_00
  6
CONTINUOUS
 62
3
 10
4061.7035
 20
2404.0001
 11
4071.7035
 21
2404.0001
  0
LINE
  8
0_00
  6
CENTER1
 62
3
 10
2936.8030
 20
244.0002
 11
2936.8030
 21
304.0002
  0
LINE
  8
0_00
  6
CONTINUOUS
 62
4
 10
2971.8030
 20
261.5002
 11
2971.8030
 21
286.5002
  0
LINE
  8
0_00
  6
CONTINUOUS
 62
4
 10
3016.8030
 20
254.0002
 11
3016.8030
 21
294.0002
  0
LINE
  8
0_00
  6
CONTINUOUS
 62
4
 10
2971.8030
 20
286.5002
 11
3016.8030
 21
294.0002
  0
LINE
  8
0_00
  6
CONTINUOUS
 62
4
 10
2971.8030
 20
261.5002
 11
3016.8030
 21
254.0002
  0
LINE
  8
0_00
  6
CENTER1
 62
3
 10
2906.8030
 20
274.0002
 11
3024.5184
 21
274.0002
  0
LINE
  8
0_00
  6
CONTINUOUS
 62
3
 10
3971.7032
 20
124.0001
 11
3971.7032
 21
224.0001
  0
LINE
  8
0_00
  6
CONTINUOUS
 62
3
 10
132.3016
 20
74.0001
 11
4111.7032
 21
74.0001
  0
LINE
  8
0_00
  6
CONTINUOUS
 62
3
 10
3941.7035
 20
2883.9999
 11
3941.7035
 21
2838.9999
  0
LINE
  8
0_00
  6
CONTINUOUS
 62
3
 10
0.0000
 20
1479.0001
 11
132.3016
 21
1479.0001
  0
LINE
  8
0_00
  6
CONTINUOUS
 62
3
 10
2087.2031
 20
74.0001
 11
2087.2031
 21
0.0000
  0
LINE
  8
0_00
  6
CONTINUOUS
 62
3
 10
2087.2031
 20
2883.9999
 11
2087.2031
 21
2970.0000
  0
LINE
  8
0_00
  6
CONTINUOUS
 62
3
 10
4111.7032
 20
1479.0001
 11
4200.0000
 21
1479.0001
  0
LINE
  8
0_00
  6
CONTINUOUS
 62
4
 10
1670.6502
 20
450.8420
 11
1892.6501
 21
450.8420
  0
LINE
  8
0_00
  6
CONTINUOUS
 62
6
 10
500.3516
 20
802.4684
 11
400.0000
 21
802.4684
  0
LINE
  8
0_00
  6
CONTINUOUS
 62
6
 10
588.0746
 20
1102.4685
 11
400.0000
 21
1102.4685
  0
LINE
  8
0_00
  6
CONTINUOUS
 62
6
 10
420.0000
 20
1102.4685
 11
420.0000
 21
802.4684
  0
LINE
  8
0_00
  6
CONTINUOUS
 62
6
 10
420.0000
 20
1102.4685
 11
414.8022
 21
1078.0148
  0
LINE
  8
0_00
  6
CONTINUOUS
 62
6
 10
420.0000
 20
1102.4685
 11
425.1978
 21
1078.0148
  0
LINE
  8
0_00
  6
CONTINUOUS
 62
6
 10
420.0000
 20
802.4684
 11
425.1978
 21
826.9221
  0
LINE
  8
0_00
  6
CONTINUOUS
 62
6
 10
420.0000
 20
802.4684
 11
414.8022
 21
826.9221
  0
LINE
  8
0_00
  6
CONTINUOUS
 62
4
 10
1817.4825
 20
1602.1205
 11
2063.4825
 21
1602.1205
  0
LINE
  8
0_00
  6
CONTINUOUS
 62
6
 10
638.0745
 20
1222.4684
 11
638.0745
 21
1349.9998
  0
LINE
  8
0_00
  6
CONTINUOUS
 62
6
 10
669.0744
 20
1148.0434
 11
669.0744
 21
1349.9998
  0
LINE
  8
0_00
  6
CONTINUOUS
 62
6
 10
638.0745
 20
1329.9998
 11
669.0744
 21
1329.9998
  0
LINE
  8
0_00
  6
CONTINUOUS
 62
6
 10
550.9394
 20
1329.9998
 11
638.0745
 21
1329.9998
  0
LINE
  8
0_00
  6
CONTINUOUS
 62
6
 10
638.0745
 20
1329.9998
 11
613.6208
 21
1335.1976
  0
LINE
  8
0_00
  6
CONTINUOUS
 62
6
 10
638.0745
 20
1329.9998
 11
613.6208
 21
1324.8022
  0
LINE
  8
0_00
  6
CONTINUOUS
 62
6
 10
729.0745
 20
1329.9998
 11
669.0744
 21
1329.9998
  0
LINE
  8
0_00
  6
CONTINUOUS
 62
6
 10
669.0744
 20
1329.9998
 11
693.5281
 21
1324.8022
  0
LINE
  8
0_00
  6
CONTINUOUS
 62
6
 10
669.0744
 20
1329.9998
 11
693.5281
 21
1335.1976
  0
LINE
  8
0_00
  6
CONTINUOUS
 62
6
 10
638.0745
 20
2515.6209
 11
638.0745
 21
2518.2220
  0
LINE
  8
0_00
  6
CONTINUOUS
 62
6
 10
1050.0000
 20
1072.4684
 11
1050.0000
 21
1132.4685
  0
LINE
  8
0_00
  6
CONTINUOUS
 62
6
 10
1050.0000
 20
912.0000
 11
1050.0000
 21
1072.4684
  0
LINE
  8
0_00
  6
CONTINUOUS
 62
6
 10
1050.0000
 20
1072.4684
 11
1044.8022
 21
1048.0147
  0
LINE
  8
0_00
  6
CONTINUOUS
 62
6
 10
1050.0000
 20
1072.4684
 11
1055.1977
 21
1048.0147
  0
LINE
  8
0_00
  6
CONTINUOUS
 62
6
 10
1050.0000
 20
1192.4684
 11
1050.0000
 21
1132.4685
  0
LINE
  8
0_00
  6
CONTINUOUS
 62
6
 10
1050.0000
 20
1132.4685
 11
1055.1977
 21
1156.9221
  0
LINE
  8
0_00
  6
CONTINUOUS
 62
6
 10
1050.0000
 20
1132.4685
 11
1044.8022
 21
1156.9221
  0
LINE
  8
0_00
  6
CONTINUOUS
 62
6
 10
832.2907
 20
2435.6209
 11
930.0000
 21
2435.6209
  0
LINE
  8
0_00
  6
CONTINUOUS
 62
6
 10
832.2907
 20
2355.6209
 11
930.0000
 21
2355.6209
  0
LINE
  8
0_00
  6
CONTINUOUS
 62
6
 10
910.0000
 20
2435.6209
 11
910.0000
 21
2355.6209
  0
LINE
  8
0_00
  6
CONTINUOUS
 62
6
 10
910.0000
 20
2533.6209
 11
910.0000
 21
2435.6209
  0
LINE
  8
0_00
  6
CONTINUOUS
 62
6
 10
910.0000
 20
2435.6209
 11
915.1977
 21
2460.0746
  0
LINE
  8
0_00
  6
CONTINUOUS
 62
6
 10
910.0000
 20
2435.6209
 11
904.8022
 21
2460.0746
  0
LINE
  8
0_00
  6
CONTINUOUS
 62
6
 10
910.0000
 20
2295.6210
 11
910.0000
 21
2355.6209
  0
LINE
  8
0_00
  6
CONTINUOUS
 62
6
 10
910.0000
 20
2355.6209
 11
904.8022
 21
2331.1674
  0
LINE
  8
0_00
  6
CONTINUOUS
 62
6
 10
910.0000
 20
2355.6209
 11
915.1977
 21
2331.1674
  0
LINE
  8
0_00
  6
CONTINUOUS
 62
6
 10
678.8746
 20
2446.5399
 11
678.8746
 21
2595.0000
  0
LINE
  8
0_00
  6
CONTINUOUS
 62
6
 10
638.0745
 20
2417.9295
 11
638.0745
 21
2595.0000
  0
LINE
  8
0_00
  6
CONTINUOUS
 62
6
 10
638.0745
 20
2574.9997
 11
678.8746
 21
2574.9997
  0
LINE
  8
0_00
  6
CONTINUOUS
 62
6
 10
540.0745
 20
2574.9997
 11
638.0745
 21
2574.9997
  0
LINE
  8
0_00
  6
CONTINUOUS
 62
6
 10
638.0745
 20
2574.9997
 11
613.6208
 21
2580.1974
  0
LINE
  8
0_00
  6
CONTINUOUS
 62
6
 10
638.0745
 20
2574.9997
 11
613.6208
 21
2569.8022
  0
LINE
  8
0_00
  6
CONTINUOUS
 62
6
 10
738.8746
 20
2574.9997
 11
678.8746
 21
2574.9997
  0
LINE
  8
0_00
  6
CONTINUOUS
 62
6
 10
678.8746
 20
2574.9997
 11
703.3282
 21
2569.8022
  0
LINE
  8
0_00
  6
CONTINUOUS
 62
6
 10
678.8746
 20
2574.9997
 11
703.3282
 21
2580.1974
  0
LINE
  8
0_00
  6
CONTINUOUS
 62
6
 10
1327.5691
 20
2616.6122
 11
1327.5691
 21
2750.0000
  0
LINE
  8
0_00
  6
CONTINUOUS
 62
6
 10
1470.5690
 20
2616.6122
 11
1470.5690
 21
2750.0000
  0
LINE
  8
0_00
  6
CONTINUOUS
 62
6
 10
1327.5691
 20
2729.9997
 11
1470.5690
 21
2729.9997
  0
LINE
  8
0_00
  6
CONTINUOUS
 62
6
 10
1327.5691
 20
2729.9997
 11
1352.0229
 21
2724.8022
  0
LINE
  8
0_00
  6
CONTINUOUS
 62
6
 10
1327.5691
 20
2729.9997
 11
1352.0229
 21
2735.1974
  0
LINE
  8
0_00
  6
CONTINUOUS
 62
6
 10
1470.5690
 20
2729.9997
 11
1446.1154
 21
2735.1974
  0
LINE
  8
0_00
  6
CONTINUOUS
 62
6
 10
1470.5690
 20
2729.9997
 11
1446.1154
 21
2724.8022
  0
LINE
  8
0_00
  6
CONTINUOUS
 62
6
 10
1927.5691
 20
2616.6122
 11
1927.5691
 21
2750.0000
  0
LINE
  8
0_00
  6
CONTINUOUS
 62
6
 10
1470.5690
 20
2729.9997
 11
1927.5691
 21
2729.9997
  0
LINE
  8
0_00
  6
CONTINUOUS
 62
6
 10
1470.5690
 20
2729.9997
 11
1495.0229
 21
2724.8022
  0
LINE
  8
0_00
  6
CONTINUOUS
 62
6
 10
1470.5690
 20
2729.9997
 11
1495.0229
 21
2735.1974
  0
LINE
  8
0_00
  6
CONTINUOUS
 62
6
 10
1927.5691
 20
2729.9997
 11
1903.1154
 21
2735.1974
  0
LINE
  8
0_00
  6
CONTINUOUS
 62
6
 10
1927.5691
 20
2729.9997
 11
1903.1154
 21
2724.8022
  0
LINE
  8
0_00
  6
CONTINUOUS
 62
6
 10
1370.0690
 20
2616.6122
 11
1370.0690
 21
2680.0000
  0
LINE
  8
0_00
  6
CONTINUOUS
 62
6
 10
1433.5689
 20
2616.6122
 11
1433.5689
 21
2680.0000
  0
LINE
  8
0_00
  6
CONTINUOUS
 62
6
 10
1370.0690
 20
2659.9997
 11
1433.5689
 21
2659.9997
  0
LINE
  8
0_00
  6
CONTINUOUS
 62
6
 10
1493.5690
 20
2659.9997
 11
1433.5689
 21
2659.9997
  0
LINE
  8
0_00
  6
CONTINUOUS
 62
6
 10
1433.5689
 20
2659.9997
 11
1458.0228
 21
2654.8022
  0
LINE
  8
0_00
  6
CONTINUOUS
 62
6
 10
1433.5689
 20
2659.9997
 11
1458.0228
 21
2665.1974
  0
LINE
  8
0_00
  6
CONTINUOUS
 62
6
 10
1310.0690
 20
2659.9997
 11
1370.0690
 21
2659.9997
  0
LINE
  8
0_00
  6
CONTINUOUS
 62
6
 10
1370.0690
 20
2659.9997
 11
1345.6154
 21
2665.1974
  0
LINE
  8
0_00
  6
CONTINUOUS
 62
6
 10
1370.0690
 20
2659.9997
 11
1345.6154
 21
2654.8022
  0
LINE
  8
0_00
  6
CONTINUOUS
 62
6
 10
1247.9691
 20
2060.3575
 11
1169.9999
 21
2060.3575
  0
LINE
  8
0_00
  6
CONTINUOUS
 62
6
 10
1293.0692
 20
1810.3571
 11
1169.9999
 21
1810.3571
  0
LINE
  8
0_00
  6
CONTINUOUS
 62
6
 10
1189.9999
 20
2060.3575
 11
1189.9999
 21
1810.3571
  0
LINE
  8
0_00
  6
CONTINUOUS
 62
6
 10
1189.9999
 20
2060.3575
 11
1184.8022
 21
2035.9038
  0
LINE
  8
0_00
  6
CONTINUOUS
 62
6
 10
1189.9999
 20
2060.3575
 11
1195.1977
 21
2035.9038
  0
LINE
  8
0_00
  6
CONTINUOUS
 62
6
 10
1189.9999
 20
1810.3571
 11
1195.1977
 21
1834.8106
  0
LINE
  8
0_00
  6
CONTINUOUS
 62
6
 10
1189.9999
 20
1810.3571
 11
1184.8022
 21
1834.8106
  0
LINE
  8
0_00
  6
CONTINUOUS
 62
6
 10
638.0745
 20
2025.4185
 11
638.0745
 21
2028.0196
  0
LINE
  8
0_00
  6
CONTINUOUS
 62
6
 10
832.2907
 20
1935.4185
 11
930.0000
 21
1935.4185
  0
LINE
  8
0_00
  6
CONTINUOUS
 62
6
 10
832.2907
 20
1875.4185
 11
930.0000
 21
1875.4185
  0
LINE
  8
0_00
  6
CONTINUOUS
 62
6
 10
910.0000
 20
1935.4185
 11
910.0000
 21
1875.4185
  0
LINE
  8
0_00
  6
CONTINUOUS
 62
6
 10
910.0000
 20
2033.4186
 11
910.0000
 21
1935.4185
  0
LINE
  8
0_00
  6
CONTINUOUS
 62
6
 10
910.0000
 20
1935.4185
 11
915.1977
 21
1959.8723
  0
LINE
  8
0_00
  6
CONTINUOUS
 62
6
 10
910.0000
 20
1935.4185
 11
904.8022
 21
1959.8723
  0
LINE
  8
0_00
  6
CONTINUOUS
 62
6
 10
910.0000
 20
1805.4185
 11
910.0000
 21
1875.4185
  0
LINE
  8
0_00
  6
CONTINUOUS
 62
6
 10
910.0000
 20
1875.4185
 11
904.8022
 21
1850.9650
  0
LINE
  8
0_00
  6
CONTINUOUS
 62
6
 10
910.0000
 20
1875.4185
 11
915.1977
 21
1850.9650
  0
LINE
  8
0_00
  6
CONTINUOUS
 62
6
 10
638.0745
 20
1955.4185
 11
638.0745
 21
2119.9998
  0
LINE
  8
0_00
  6
CONTINUOUS
 62
6
 10
669.0744
 20
1955.8569
 11
669.0744
 21
2119.9998
  0
LINE
  8
0_00
  6
CONTINUOUS
 62
6
 10
638.0745
 20
2100.0000
 11
669.0744
 21
2100.0000
  0
LINE
  8
0_00
  6
CONTINUOUS
 62
6
 10
540.0745
 20
2100.0000
 11
638.0745
 21
2100.0000
  0
LINE
  8
0_00
  6
CONTINUOUS
 62
6
 10
638.0745
 20
2100.0000
 11
613.6208
 21
2105.1978
  0
LINE
  8
0_00
  6
CONTINUOUS
 62
6
 10
638.0745
 20
2100.0000
 11
613.6208
 21
2094.8019
  0
LINE
  8
0_00
  6
CONTINUOUS
 62
6
 10
729.0745
 20
2100.0000
 11
669.0744
 21
2100.0000
  0
LINE
  8
0_00
  6
CONTINUOUS
 62
6
 10
669.0744
 20
2100.0000
 11
693.5281
 21
2094.8019
  0
LINE
  8
0_00
  6
CONTINUOUS
 62
6
 10
669.0744
 20
2100.0000
 11
693.5281
 21
2105.1978
  0
LINE
  8
0_00
  6
CONTINUOUS
 62
4
 10
1372.8682
 20
1604.1252
 11
1714.8680
 21
1604.1252
  0
LINE
  8
0_00
  6
CONTINUOUS
 62
6
 10
638.0745
 20
1148.0434
 11
638.0745
 21
1420.0000
  0
LINE
  8
0_00
  6
CONTINUOUS
 62
6
 10
938.0746
 20
1299.3991
 11
938.0746
 21
1420.0000
  0
LINE
  8
0_00
  6
CONTINUOUS
 62
6
 10
638.0745
 20
1399.9998
 11
938.0746
 21
1399.9998
  0
LINE
  8
0_00
  6
CONTINUOUS
 62
6
 10
638.0745
 20
1399.9998
 11
662.5283
 21
1394.8022
  0
LINE
  8
0_00
  6
CONTINUOUS
 62
6
 10
638.0745
 20
1399.9998
 11
662.5283
 21
1405.1976
  0
LINE
  8
0_00
  6
CONTINUOUS
 62
6
 10
938.0746
 20
1399.9998
 11
913.6208
 21
1405.1976
  0
LINE
  8
0_00
  6
CONTINUOUS
 62
6
 10
938.0746
 20
1399.9998
 11
913.6208
 21
1394.8022
  0
LINE
  8
0_00
  6
CONTINUOUS
 62
6
 10
1788.0745
 20
1249.5531
 11
1788.0745
 21
1420.0000
  0
LINE
  8
0_00
  6
CONTINUOUS
 62
6
 10
938.0746
 20
1399.9998
 11
1788.0745
 21
1399.9998
  0
LINE
  8
0_00
  6
CONTINUOUS
 62
6
 10
938.0746
 20
1399.9998
 11
962.5283
 21
1394.8022
  0
LINE
  8
0_00
  6
CONTINUOUS
 62
6
 10
938.0746
 20
1399.9998
 11
962.5283
 21
1405.1976
  0
LINE
  8
0_00
  6
CONTINUOUS
 62
6
 10
1788.0745
 20
1399.9998
 11
1763.6208
 21
1405.1976
  0
LINE
  8
0_00
  6
CONTINUOUS
 62
6
 10
1788.0745
 20
1399.9998
 11
1763.6208
 21
1394.8022
  0
LINE
  8
0_00
  6
CONTINUOUS
 62
6
 10
1274.5341
 20
2250.5594
 11
1099.9999
 21
2250.5594
  0
LINE
  8
0_00
  6
CONTINUOUS
 62
6
 10
1297.9692
 20
2550.5600
 11
1099.9999
 21
2550.5600
  0
LINE
  8
0_00
  6
CONTINUOUS
 62
6
 10
1120.0000
 20
2550.5600
 11
1120.0000
 21
2250.5594
  0
LINE
  8
0_00
  6
CONTINUOUS
 62
6
 10
1120.0000
 20
2550.5600
 11
1114.8021
 21
2526.1063
  0
LINE
  8
0_00
  6
CONTINUOUS
 62
6
 10
1120.0000
 20
2550.5600
 11
1125.1977
 21
2526.1063
  0
LINE
  8
0_00
  6
CONTINUOUS
 62
6
 10
1120.0000
 20
2250.5594
 11
1125.1977
 21
2275.0130
  0
LINE
  8
0_00
  6
CONTINUOUS
 62
6
 10
1120.0000
 20
2250.5594
 11
1114.8021
 21
2275.0130
  0
LINE
  8
0_00
  6
CONTINUOUS
 62
6
 10
1247.9691
 20
2550.5600
 11
1169.9999
 21
2550.5600
  0
LINE
  8
0_00
  6
CONTINUOUS
 62
6
 10
1293.0692
 20
2300.5594
 11
1169.9999
 21
2300.5594
  0
LINE
  8
0_00
  6
CONTINUOUS
 62
6
 10
1189.9999
 20
2550.5600
 11
1189.9999
 21
2300.5594
  0
LINE
  8
0_00
  6
CONTINUOUS
 62
6
 10
1189.9999
 20
2550.5600
 11
1184.8022
 21
2526.1063
  0
LINE
  8
0_00
  6
CONTINUOUS
 62
6
 10
1189.9999
 20
2550.5600
 11
1195.1977
 21
2526.1063
  0
LINE
  8
0_00
  6
CONTINUOUS
 62
6
 10
1189.9999
 20
2300.5594
 11
1195.1977
 21
2325.0131
  0
LINE
  8
0_00
  6
CONTINUOUS
 62
6
 10
1189.9999
 20
2300.5594
 11
1184.8022
 21
2325.0131
  0
LINE
  8
0_00
  6
CONTINUOUS
 62
6
 10
1274.5341
 20
1760.3571
 11
1099.9999
 21
1760.3571
  0
LINE
  8
0_00
  6
CONTINUOUS
 62
6
 10
1297.9692
 20
2060.3575
 11
1099.9999
 21
2060.3575
  0
LINE
  8
0_00
  6
CONTINUOUS
 62
6
 10
1120.0000
 20
2060.3575
 11
1120.0000
 21
1760.3571
  0
LINE
  8
0_00
  6
CONTINUOUS
 62
6
 10
1120.0000
 20
2060.3575
 11
1114.8021
 21
2035.9038
  0
LINE
  8
0_00
  6
CONTINUOUS
 62
6
 10
1120.0000
 20
2060.3575
 11
1125.1977
 21
2035.9038
  0
LINE
  8
0_00
  6
CONTINUOUS
 62
6
 10
1120.0000
 20
1760.3571
 11
1125.1977
 21
1784.8106
  0
LINE
  8
0_00
  6
CONTINUOUS
 62
6
 10
1120.0000
 20
1760.3571
 11
1114.8021
 21
1784.8106
  0
LINE
  8
0_00
  6
CONTINUOUS
 62
4
 10
871.2437
 20
722.0789
 11
1141.2437
 21
722.0789
  0
ARC
  8
0_00
  6
CONTINUOUS
 62
4
 10
603.7745
 20
2429.9210
 40
6.5000
 50
90.0000
 51
180.0000
  0
ARC
  8
4_04
  6
CONTINUOUS
 62
4
 10
1342.0692
 20
2301.0594
 40
1.0000
 50
270.0000
 51
360.0000
  0
ARC
  8
4_04
  6
CONTINUOUS
 62
4
 10
1317.3192
 20
2316.8095
 40
1.2500
 50
90.0000
 51
180.0000
  0
ARC
  8
4_04
  6
CONTINUOUS
 62
4
 10
1317.0691
 20
2301.0594
 40
1.0000
 50
180.0000
 51
270.0000
  0
ARC
  8
0_00
  6
CONTINUOUS
 62
2
 10
1470.5690
 20
2304.0594
 40
1.2250
 50
45.0000
 51
58.5444
  0
ARC
  8
0_00
  6
CONTINUOUS
 62
2
 10
1470.5690
 20
2304.0594
 40
1.2250
 50
121.3667
 51
135.0000
  0
ARC
  8
0_00
  6
CONTINUOUS
 62
2
 10
1470.5690
 20
2304.0594
 40
1.2250
 50
211.4556
 51
225.0000
  0
ARC
  8
0_00
  6
CONTINUOUS
 62
2
 10
1470.5690
 20
2304.0594
 40
1.2250
 50
135.0000
 51
148.6333
  0
ARC
  8
0_00
  6
CONTINUOUS
 62
2
 10
1470.5690
 20
2304.0594
 40
1.2250
 50
31.4556
 51
45.0000
  0
ARC
  8
0_00
  6
CONTINUOUS
 62
2
 10
1470.5690
 20
2304.0594
 40
1.2250
 50
315.0000
 51
328.6334
  0
ARC
  8
0_00
  6
CONTINUOUS
 62
2
 10
1470.5690
 20
2304.0594
 40
1.2250
 50
225.0000
 51
238.5444
  0
ARC
  8
0_00
  6
CONTINUOUS
 62
2
 10
1470.5690
 20
2304.0594
 40
1.2250
 50
301.3667
 51
315.0000
  0
CIRCLE
  8
0_00
  6
CONTINUOUS
 62
2
 10
1470.5690
 20
2304.0594
 40
2.9500
  0
ARC
  8
0_00
  6
CONTINUOUS
 62
2
 10
1927.5691
 20
2304.0594
 40
1.2250
 50
45.0000
 51
58.5444
  0
ARC
  8
0_00
  6
CONTINUOUS
 62
2
 10
1927.5691
 20
2304.0594
 40
1.2250
 50
121.3667
 51
135.0000
  0
ARC
  8
0_00
  6
CONTINUOUS
 62
2
 10
1927.5691
 20
2304.0594
 40
1.2250
 50
211.4556
 51
225.0000
  0
ARC
  8
0_00
  6
CONTINUOUS
 62
2
 10
1927.5691
 20
2304.0594
 40
1.2250
 50
135.0000
 51
148.6333
  0
ARC
  8
0_00
  6
CONTINUOUS
 62
2
 10
1927.5691
 20
2304.0594
 40
1.2250
 50
31.4556
 51
45.0000
  0
ARC
  8
0_00
  6
CONTINUOUS
 62
2
 10
1927.5691
 20
2304.0594
 40
1.2250
 50
315.0000
 51
328.6334
  0
ARC
  8
0_00
  6
CONTINUOUS
 62
2
 10
1927.5691
 20
2304.0594
 40
1.2250
 50
225.0000
 51
238.5444
  0
ARC
  8
0_00
  6
CONTINUOUS
 62
2
 10
1927.5691
 20
2304.0594
 40
1.2250
 50
301.3667
 51
315.0000
  0
CIRCLE
  8
0_00
  6
CONTINUOUS
 62
2
 10
1927.5691
 20
2304.0594
 40
2.9500
  0
ARC
  8
3_03
  6
CONTINUOUS
 62
4
 10
1327.5691
 20
1959.5575
 40
101.1500
 50
89.8197
 51
97.0407
  0
ARC
  8
3_03
  6
CONTINUOUS
 62
4
 10
1315.5690
 20
2056.7194
 40
3.2500
 50
97.0407
 51
180.0000
  0
ARC
  8
3_03
  6
CONTINUOUS
 62
4
 10
1342.8191
 20
2060.4568
 40
0.2500
 50
0.0000
 51
90.0000
  0
ARC
  8
3_03
  6
CONTINUOUS
 62
4
 10
1342.8191
 20
2036.9576
 40
0.2500
 50
270.0000
 51
360.0000
  0
ARC
  8
3_03
  6
CONTINUOUS
 62
4
 10
1312.5690
 20
2036.9576
 40
0.2500
 50
180.0000
 51
270.0000
  0
ARC
  8
4_04
  6
CONTINUOUS
 62
4
 10
1342.0692
 20
1810.8571
 40
1.0000
 50
270.0000
 51
360.0000
  0
ARC
  8
4_04
  6
CONTINUOUS
 62
4
 10
1317.3192
 20
1826.6071
 40
1.2500
 50
90.0000
 51
180.0000
  0
ARC
  8
4_04
  6
CONTINUOUS
 62
4
 10
1317.0691
 20
1810.8571
 40
1.0000
 50
180.0000
 51
270.0000
  0
ARC
  8
0_00
  6
CONTINUOUS
 62
2
 10
1470.5690
 20
1813.8571
 40
1.2250
 50
45.0000
 51
58.5444
  0
ARC
  8
0_00
  6
CONTINUOUS
 62
2
 10
1470.5690
 20
1813.8571
 40
1.2250
 50
121.3667
 51
135.0000
  0
ARC
  8
0_00
  6
CONTINUOUS
 62
2
 10
1470.5690
 20
1813.8571
 40
1.2250
 50
211.4556
 51
225.0000
  0
ARC
  8
0_00
  6
CONTINUOUS
 62
2
 10
1470.5690
 20
1813.8571
 40
1.2250
 50
135.0000
 51
148.6333
  0
ARC
  8
0_00
  6
CONTINUOUS
 62
2
 10
1470.5690
 20
1813.8571
 40
1.2250
 50
31.4556
 51
45.0000
  0
ARC
  8
0_00
  6
CONTINUOUS
 62
2
 10
1470.5690
 20
1813.8571
 40
1.2250
 50
315.0000
 51
328.6334
  0
ARC
  8
0_00
  6
CONTINUOUS
 62
2
 10
1470.5690
 20
1813.8571
 40
1.2250
 50
225.0000
 51
238.5444
  0
ARC
  8
0_00
  6
CONTINUOUS
 62
2
 10
1470.5690
 20
1813.8571
 40
1.2250
 50
301.3667
 51
315.0000
  0
CIRCLE
  8
0_00
  6
CONTINUOUS
 62
2
 10
1470.5690
 20
1813.8571
 40
2.9500
  0
ARC
  8
0_00
  6
CONTINUOUS
 62
2
 10
1927.5691
 20
1813.8571
 40
1.2250
 50
45.0000
 51
58.5444
  0
ARC
  8
0_00
  6
CONTINUOUS
 62
2
 10
1927.5691
 20
1813.8571
 40
1.2250
 50
121.3667
 51
135.0000
  0
ARC
  8
0_00
  6
CONTINUOUS
 62
2
 10
1927.5691
 20
1813.8571
 40
1.2250
 50
211.4556
 51
225.0000
  0
ARC
  8
0_00
  6
CONTINUOUS
 62
2
 10
1927.5691
 20
1813.8571
 40
1.2250
 50
135.0000
 51
148.6333
  0
ARC
  8
0_00
  6
CONTINUOUS
 62
2
 10
1927.5691
 20
1813.8571
 40
1.2250
 50
31.4556
 51
45.0000
  0
ARC
  8
0_00
  6
CONTINUOUS
 62
2
 10
1927.5691
 20
1813.8571
 40
1.2250
 50
315.0000
 51
328.6334
  0
ARC
  8
0_00
  6
CONTINUOUS
 62
2
 10
1927.5691
 20
1813.8571
 40
1.2250
 50
225.0000
 51
238.5444
  0
ARC
  8
0_00
  6
CONTINUOUS
 62
2
 10
1927.5691
 20
1813.8571
 40
1.2250
 50
301.3667
 51
315.0000
  0
CIRCLE
  8
0_00
  6
CONTINUOUS
 62
2
 10
1927.5691
 20
1813.8571
 40
2.9500
  0
ARC
  8
32_20
  6
CONTINUOUS
 62
4
 10
1315.2692
 20
2539.1331
 40
8.1000
 50
123.4747
 51
248.0903
  0
ARC
  8
32_20
  6
CONTINUOUS
 62
4
 10
1312.4333
 20
2532.0819
 40
0.5000
 50
248.0903
 51
270.0000
  0
ARC
  8
32_20
  6
CONTINUOUS
 62
4
 10
1342.7049
 20
2532.0819
 40
0.5000
 50
270.0000
 51
291.9097
  0
ARC
  8
32_20
  6
CONTINUOUS
 62
4
 10
1327.5691
 20
2520.5321
 40
30.4000
 50
90.0000
 51
123.4747
  0
ARC
  8
10_0A
  6
CONTINUOUS
 62
2
 10
854.0746
 20
1105.6786
 40
6.0000
 50
0.0000
 51
15.0000
  0
ARC
  8
10_0A
  6
CONTINUOUS
 62
2
 10
855.4950
 20
1111.9685
 40
3.0000
 50
15.0000
 51
90.0000
  0
ARC
  8
10_0A
  6
CONTINUOUS
 62
2
 10
844.6542
 20
1111.9685
 40
3.0000
 50
90.0000
 51
165.0000
  0
ARC
  8
10_0A
  6
CONTINUOUS
 62
2
 10
846.0745
 20
1105.6786
 40
6.0000
 50
165.0000
 51
180.0000
  0
ARC
  8
10_0A
  6
CONTINUOUS
 62
2
 10
854.0746
 20
1105.6786
 40
5.3000
 50
0.0000
 51
15.0000
  0
ARC
  8
10_0A
  6
CONTINUOUS
 62
2
 10
855.4950
 20
1111.9685
 40
2.3000
 50
15.0000
 51
90.0000
  0
ARC
  8
10_0A
  6
CONTINUOUS
 62
2
 10
844.6542
 20
1111.9685
 40
2.3000
 50
90.0000
 51
165.0000
  0
ARC
  8
10_0A
  6
CONTINUOUS
 62
2
 10
846.0745
 20
1105.6786
 40
5.3000
 50
165.0000
 51
171.1226
  0
ARC
  8
10_0A
  6
CONTINUOUS
 62
2
 10
843.5745
 20
1102.4685
 40
1.7000
 50
116.1790
 51
153.8210
  0
ARC
  8
10_0A
  6
CONTINUOUS
 62
2
 10
843.5745
 20
1102.4685
 40
3.2500
 50
52.0201
 51
114.2934
  0
ARC
  8
10_0A
  6
CONTINUOUS
 62
2
 10
841.8260
 20
1106.3420
 40
1.0000
 50
171.1226
 51
294.2934
  0
ARC
  8
10_0A
  6
CONTINUOUS
 62
2
 10
843.5745
 20
1102.4685
 40
1.7000
 50
30.0000
 51
63.8210
  0
ARC
  8
10_0A
  6
CONTINUOUS
 62
2
 10
838.8746
 20
1102.4685
 40
1.5000
 50
0.0000
 51
36.8699
  0
ARC
  8
10_0A
  6
CONTINUOUS
 62
2
 10
860.7745
 20
1102.4685
 40
1.0000
 50
134.4270
 51
180.0000
  0
ARC
  8
10_0A
  6
CONTINUOUS
 62
2
 10
861.2745
 20
1102.4685
 40
2.2000
 50
149.7274
 51
180.0000
  0
ARC
  8
10_0A
  6
CONTINUOUS
 62
2
 10
854.0746
 20
1099.2583
 40
6.0000
 50
345.0000
 51
360.0000
  0
ARC
  8
10_0A
  6
CONTINUOUS
 62
2
 10
855.4950
 20
1092.9684
 40
3.0000
 50
270.0000
 51
345.0000
  0
ARC
  8
10_0A
  6
CONTINUOUS
 62
2
 10
844.6542
 20
1092.9684
 40
3.0000
 50
195.0000
 51
270.0000
  0
ARC
  8
10_0A
  6
CONTINUOUS
 62
2
 10
846.0745
 20
1099.2583
 40
6.0000
 50
180.0000
 51
195.0000
  0
ARC
  8
10_0A
  6
CONTINUOUS
 62
2
 10
854.0746
 20
1099.2583
 40
5.3000
 50
345.0000
 51
360.0000
  0
ARC
  8
10_0A
  6
CONTINUOUS
 62
2
 10
855.4950
 20
1092.9684
 40
2.3000
 50
270.0000
 51
345.0000
  0
ARC
  8
10_0A
  6
CONTINUOUS
 62
2
 10
844.6542
 20
1092.9684
 40
2.3000
 50
195.0000
 51
270.0000
  0
ARC
  8
10_0A
  6
CONTINUOUS
 62
2
 10
846.0745
 20
1099.2583
 40
5.3000
 50
188.8774
 51
195.0000
  0
ARC
  8
10_0A
  6
CONTINUOUS
 62
2
 10
843.5745
 20
1102.4685
 40
1.7000
 50
206.1790
 51
243.8210
  0
ARC
  8
10_0A
  6
CONTINUOUS
 62
2
 10
843.5745
 20
1102.4685
 40
3.2500
 50
245.7066
 51
307.9799
  0
ARC
  8
10_0A
  6
CONTINUOUS
 62
2
 10
841.8260
 20
1098.5948
 40
1.0000
 50
65.7066
 51
188.8774
  0
ARC
  8
10_0A
  6
CONTINUOUS
 62
2
 10
843.5745
 20
1102.4685
 40
1.7000
 50
296.1790
 51
330.0000
  0
ARC
  8
10_0A
  6
CONTINUOUS
 62
2
 10
838.8746
 20
1102.4685
 40
1.5000
 50
323.1301
 51
360.0000
  0
ARC
  8
10_0A
  6
CONTINUOUS
 62
2
 10
860.7745
 20
1102.4685
 40
1.0000
 50
180.0000
 51
225.5730
  0
ARC
  8
10_0A
  6
CONTINUOUS
 62
2
 10
861.2745
 20
1102.4685
 40
2.2000
 50
180.0000
 51
210.2726
  0
ARC
  8
10_0A
  6
CONTINUOUS
 62
2
 10
727.0746
 20
1105.6786
 40
6.0000
 50
0.0000
 51
15.0000
  0
ARC
  8
10_0A
  6
CONTINUOUS
 62
2
 10
728.4949
 20
1111.9685
 40
3.0000
 50
15.0000
 51
90.0000
  0
ARC
  8
10_0A
  6
CONTINUOUS
 62
2
 10
717.6541
 20
1111.9685
 40
3.0000
 50
90.0000
 51
165.0000
  0
ARC
  8
10_0A
  6
CONTINUOUS
 62
2
 10
719.0746
 20
1105.6786
 40
6.0000
 50
165.0000
 51
180.0000
  0
ARC
  8
10_0A
  6
CONTINUOUS
 62
2
 10
727.0746
 20
1105.6786
 40
5.3000
 50
0.0000
 51
15.0000
  0
ARC
  8
10_0A
  6
CONTINUOUS
 62
2
 10
728.4949
 20
1111.9685
 40
2.3000
 50
15.0000
 51
90.0000
  0
ARC
  8
10_0A
  6
CONTINUOUS
 62
2
 10
717.6541
 20
1111.9685
 40
2.3000
 50
90.0000
 51
165.0000
  0
ARC
  8
10_0A
  6
CONTINUOUS
 62
2
 10
719.0746
 20
1105.6786
 40
5.3000
 50
165.0000
 51
171.1226
  0
ARC
  8
10_0A
  6
CONTINUOUS
 62
2
 10
716.5746
 20
1102.4685
 40
1.7000
 50
116.1790
 51
153.8210
  0
ARC
  8
10_0A
  6
CONTINUOUS
 62
2
 10
716.5746
 20
1102.4685
 40
3.2500
 50
52.0201
 51
114.2934
  0
ARC
  8
10_0A
  6
CONTINUOUS
 62
2
 10
714.8260
 20
1106.3420
 40
1.0000
 50
171.1226
 51
294.2934
  0
ARC
  8
10_0A
  6
CONTINUOUS
 62
2
 10
716.5746
 20
1102.4685
 40
1.7000
 50
30.0000
 51
63.8210
  0
ARC
  8
10_0A
  6
CONTINUOUS
 62
2
 10
711.8746
 20
1102.4685
 40
1.5000
 50
0.0000
 51
36.8699
  0
ARC
  8
10_0A
  6
CONTINUOUS
 62
2
 10
733.7745
 20
1102.4685
 40
1.0000
 50
134.4270
 51
180.0000
  0
ARC
  8
10_0A
  6
CONTINUOUS
 62
2
 10
734.2745
 20
1102.4685
 40
2.2000
 50
149.7274
 51
180.0000
  0
ARC
  8
10_0A
  6
CONTINUOUS
 62
2
 10
727.0746
 20
1099.2583
 40
6.0000
 50
345.0000
 51
360.0000
  0
ARC
  8
10_0A
  6
CONTINUOUS
 62
2
 10
728.4949
 20
1092.9684
 40
3.0000
 50
270.0000
 51
345.0000
  0
ARC
  8
10_0A
  6
CONTINUOUS
 62
2
 10
717.6541
 20
1092.9684
 40
3.0000
 50
195.0000
 51
270.0000
  0
ARC
  8
10_0A
  6
CONTINUOUS
 62
2
 10
719.0746
 20
1099.2583
 40
6.0000
 50
180.0000
 51
195.0000
  0
ARC
  8
10_0A
  6
CONTINUOUS
 62
2
 10
727.0746
 20
1099.2583
 40
5.3000
 50
345.0000
 51
360.0000
  0
ARC
  8
10_0A
  6
CONTINUOUS
 62
2
 10
728.4949
 20
1092.9684
 40
2.3000
 50
270.0000
 51
345.0000
  0
ARC
  8
10_0A
  6
CONTINUOUS
 62
2
 10
717.6541
 20
1092.9684
 40
2.3000
 50
195.0000
 51
270.0000
  0
ARC
  8
10_0A
  6
CONTINUOUS
 62
2
 10
719.0746
 20
1099.2583
 40
5.3000
 50
188.8774
 51
195.0000
  0
ARC
  8
10_0A
  6
CONTINUOUS
 62
2
 10
716.5746
 20
1102.4685
 40
1.7000
 50
206.1790
 51
243.8210
  0
ARC
  8
10_0A
  6
CONTINUOUS
 62
2
 10
716.5746
 20
1102.4685
 40
3.2500
 50
245.7066
 51
307.9799
  0
ARC
  8
10_0A
  6
CONTINUOUS
 62
2
 10
714.8260
 20
1098.5948
 40
1.0000
 50
65.7066
 51
188.8774
  0
ARC
  8
10_0A
  6
CONTINUOUS
 62
2
 10
716.5746
 20
1102.4685
 40
1.7000
 50
296.1790
 51
330.0000
  0
ARC
  8
10_0A
  6
CONTINUOUS
 62
2
 10
711.8746
 20
1102.4685
 40
1.5000
 50
323.1301
 51
360.0000
  0
ARC
  8
10_0A
  6
CONTINUOUS
 62
2
 10
733.7745
 20
1102.4685
 40
1.0000
 50
180.0000
 51
225.5730
  0
ARC
  8
10_0A
  6
CONTINUOUS
 62
2
 10
734.2745
 20
1102.4685
 40
2.2000
 50
180.0000
 51
210.2726
  0
ARC
  8
3_03
  6
CONTINUOUS
 62
4
 10
651.6774
 20
1088.8655
 40
0.5000
 50
90.0000
 51
180.0000
  0
ARC
  8
3_03
  6
CONTINUOUS
 62
4
 10
651.5746
 20
1088.9684
 40
1.0000
 50
90.0000
 51
180.0000
  0
ARC
  8
3_03
  6
CONTINUOUS
 62
4
 10
626.0745
 20
1114.4685
 40
0.5000
 50
90.0000
 51
180.0000
  0
ARC
  8
3_03
  6
CONTINUOUS
 62
4
 10
625.9716
 20
1114.5713
 40
1.0000
 50
90.0000
 51
180.0000
  0
ARC
  8
3_03
  6
CONTINUOUS
 62
4
 10
668.5745
 20
1124.9684
 40
0.5000
 50
0.0000
 51
90.0000
  0
ARC
  8
3_03
  6
CONTINUOUS
 62
4
 10
621.5745
 20
1118.9684
 40
6.5000
 50
90.0000
 51
180.0000
  0
ARC
  8
3_03
  6
CONTINUOUS
 62
4
 10
668.5745
 20
1079.9684
 40
0.5000
 50
270.0000
 51
360.0000
  0
ARC
  8
3_03
  6
CONTINUOUS
 62
4
 10
663.0746
 20
1077.4684
 40
2.0000
 50
90.0000
 51
180.0000
  0
ARC
  8
3_03
  6
CONTINUOUS
 62
4
 10
615.5745
 20
1071.9685
 40
0.5000
 50
180.0000
 51
270.0000
  0
ARC
  8
3_03
  6
CONTINUOUS
 62
4
 10
660.5746
 20
1071.9685
 40
0.5000
 50
270.0000
 51
360.0000
  0
CIRCLE
  8
12_0C
  6
CONTINUOUS
 62
6
 10
699.0746
 20
1120.4684
 40
4.0000
  0
ARC
  8
12_0C
  6
CONTINUOUS
 62
6
 10
699.0746
 20
1120.4684
 40
2.0000
 50
216.1800
 51
233.8200
  0
ARC
  8
12_0C
  6
CONTINUOUS
 62
6
 10
699.0746
 20
1120.4684
 40
2.0000
 50
126.3200
 51
143.7932
  0
ARC
  8
12_0C
  6
CONTINUOUS
 62
6
 10
699.0746
 20
1120.4684
 40
2.0000
 50
36.2942
 51
53.8200
  0
ARC
  8
12_0C
  6
CONTINUOUS
 62
6
 10
699.0746
 20
1120.4684
 40
2.0000
 50
306.2068
 51
323.7932
  0
CIRCLE
  8
12_0C
  6
CONTINUOUS
 62
6
 10
699.0746
 20
1084.4685
 40
4.0000
  0
ARC
  8
12_0C
  6
CONTINUOUS
 62
6
 10
699.0746
 20
1084.4685
 40
2.0000
 50
216.1800
 51
233.8200
  0
ARC
  8
12_0C
  6
CONTINUOUS
 62
6
 10
699.0746
 20
1084.4685
 40
2.0000
 50
126.3200
 51
143.7932
  0
ARC
  8
12_0C
  6
CONTINUOUS
 62
6
 10
699.0746
 20
1084.4685
 40
2.0000
 50
36.2942
 51
53.8200
  0
ARC
  8
12_0C
  6
CONTINUOUS
 62
6
 10
699.0746
 20
1084.4685
 40
2.0000
 50
306.2068
 51
323.7932
  0
ARC
  8
10_0A
  6
CONTINUOUS
 62
2
 10
634.8645
 20
1021.4684
 40
6.0000
 50
90.0000
 51
105.0000
  0
ARC
  8
10_0A
  6
CONTINUOUS
 62
2
 10
628.5745
 20
1022.8889
 40
3.0000
 50
105.0000
 51
180.0000
  0
ARC
  8
10_0A
  6
CONTINUOUS
 62
2
 10
628.5745
 20
1012.0480
 40
3.0000
 50
180.0000
 51
255.0000
  0
ARC
  8
10_0A
  6
CONTINUOUS
 62
2
 10
634.8645
 20
1013.4685
 40
6.0000
 50
255.0000
 51
270.0000
  0
ARC
  8
10_0A
  6
CONTINUOUS
 62
2
 10
634.8645
 20
1021.4684
 40
5.3000
 50
90.0000
 51
105.0000
  0
ARC
  8
10_0A
  6
CONTINUOUS
 62
2
 10
628.5745
 20
1022.8889
 40
2.3000
 50
105.0000
 51
180.0000
  0
ARC
  8
10_0A
  6
CONTINUOUS
 62
2
 10
628.5745
 20
1012.0480
 40
2.3000
 50
180.0000
 51
255.0000
  0
ARC
  8
10_0A
  6
CONTINUOUS
 62
2
 10
634.8645
 20
1013.4685
 40
5.3000
 50
255.0000
 51
261.1226
  0
ARC
  8
10_0A
  6
CONTINUOUS
 62
2
 10
638.0745
 20
1010.9685
 40
1.7000
 50
206.1790
 51
243.8210
  0
ARC
  8
10_0A
  6
CONTINUOUS
 62
2
 10
638.0745
 20
1010.9685
 40
3.2500
 50
142.0201
 51
204.2934
  0
ARC
  8
10_0A
  6
CONTINUOUS
 62
2
 10
634.2009
 20
1009.2199
 40
1.0000
 50
261.1226
 51
384.2934
  0
ARC
  8
10_0A
  6
CONTINUOUS
 62
2
 10
638.0745
 20
1010.9685
 40
1.7000
 50
120.0000
 51
153.8210
  0
ARC
  8
10_0A
  6
CONTINUOUS
 62
2
 10
638.0745
 20
1006.2683
 40
1.5000
 50
90.0000
 51
126.8699
  0
ARC
  8
10_0A
  6
CONTINUOUS
 62
2
 10
638.0745
 20
1028.1684
 40
1.0000
 50
224.4270
 51
270.0000
  0
ARC
  8
10_0A
  6
CONTINUOUS
 62
2
 10
638.0745
 20
1028.6684
 40
2.2000
 50
239.7274
 51
270.0000
  0
ARC
  8
10_0A
  6
CONTINUOUS
 62
2
 10
641.2846
 20
1021.4684
 40
6.0000
 50
75.0000
 51
90.0000
  0
ARC
  8
10_0A
  6
CONTINUOUS
 62
2
 10
647.5745
 20
1022.8889
 40
3.0000
 50
0.0000
 51
75.0000
  0
ARC
  8
10_0A
  6
CONTINUOUS
 62
2
 10
647.5745
 20
1012.0480
 40
3.0000
 50
285.0000
 51
360.0000
  0
ARC
  8
10_0A
  6
CONTINUOUS
 62
2
 10
641.2846
 20
1013.4685
 40
6.0000
 50
270.0000
 51
285.0000
  0
ARC
  8
10_0A
  6
CONTINUOUS
 62
2
 10
641.2846
 20
1021.4684
 40
5.3000
 50
75.0000
 51
90.0000
  0
ARC
  8
10_0A
  6
CONTINUOUS
 62
2
 10
647.5745
 20
1022.8889
 40
2.3000
 50
0.0000
 51
75.0000
  0
ARC
  8
10_0A
  6
CONTINUOUS
 62
2
 10
647.5745
 20
1012.0480
 40
2.3000
 50
285.0000
 51
360.0000
  0
ARC
  8
10_0A
  6
CONTINUOUS
 62
2
 10
641.2846
 20
1013.4685
 40
5.3000
 50
278.8774
 51
285.0000
  0
ARC
  8
10_0A
  6
CONTINUOUS
 62
2
 10
638.0745
 20
1010.9685
 40
1.7000
 50
296.1790
 51
333.8210
  0
ARC
  8
10_0A
  6
CONTINUOUS
 62
2
 10
638.0745
 20
1010.9685
 40
3.2500
 50
335.7066
 51
397.9799
  0
ARC
  8
10_0A
  6
CONTINUOUS
 62
2
 10
641.9482
 20
1009.2199
 40
1.0000
 50
155.7066
 51
278.8774
  0
ARC
  8
10_0A
  6
CONTINUOUS
 62
2
 10
638.0745
 20
1010.9685
 40
1.7000
 50
26.1790
 51
60.0000
  0
ARC
  8
10_0A
  6
CONTINUOUS
 62
2
 10
638.0745
 20
1006.2683
 40
1.5000
 50
53.1301
 51
90.0000
  0
ARC
  8
10_0A
  6
CONTINUOUS
 62
2
 10
638.0745
 20
1028.1684
 40
1.0000
 50
270.0000
 51
315.5730
  0
ARC
  8
10_0A
  6
CONTINUOUS
 62
2
 10
638.0745
 20
1028.6684
 40
2.2000
 50
270.0000
 51
300.2726
  0
CIRCLE
  8
12_0C
  6
CONTINUOUS
 62
6
 10
656.0745
 20
1041.4684
 40
4.0000
  0
ARC
  8
12_0C
  6
CONTINUOUS
 62
6
 10
656.0745
 20
1041.4684
 40
2.0000
 50
216.1800
 51
233.8200
  0
ARC
  8
12_0C
  6
CONTINUOUS
 62
6
 10
656.0745
 20
1041.4684
 40
2.0000
 50
126.3200
 51
143.7932
  0
ARC
  8
12_0C
  6
CONTINUOUS
 62
6
 10
656.0745
 20
1041.4684
 40
2.0000
 50
36.2942
 51
53.8200
  0
ARC
  8
12_0C
  6
CONTINUOUS
 62
6
 10
656.0745
 20
1041.4684
 40
2.0000
 50
306.2068
 51
323.7932
  0
CIRCLE
  8
12_0C
  6
CONTINUOUS
 62
6
 10
620.0745
 20
1041.4684
 40
4.0000
  0
ARC
  8
12_0C
  6
CONTINUOUS
 62
6
 10
620.0745
 20
1041.4684
 40
2.0000
 50
216.1800
 51
233.8200
  0
ARC
  8
12_0C
  6
CONTINUOUS
 62
6
 10
620.0745
 20
1041.4684
 40
2.0000
 50
126.3200
 51
143.7932
  0
ARC
  8
12_0C
  6
CONTINUOUS
 62
6
 10
620.0745
 20
1041.4684
 40
2.0000
 50
36.2942
 51
53.8200
  0
ARC
  8
12_0C
  6
CONTINUOUS
 62
6
 10
620.0745
 20
1041.4684
 40
2.0000
 50
306.2068
 51
323.7932
  0
ARC
  8
10_0A
  6
CONTINUOUS
 62
2
 10
634.8645
 20
894.4685
 40
6.0000
 50
90.0000
 51
105.0000
  0
ARC
  8
10_0A
  6
CONTINUOUS
 62
2
 10
628.5745
 20
895.8888
 40
3.0000
 50
105.0000
 51
180.0000
  0
ARC
  8
10_0A
  6
CONTINUOUS
 62
2
 10
628.5745
 20
885.0480
 40
3.0000
 50
180.0000
 51
255.0000
  0
ARC
  8
10_0A
  6
CONTINUOUS
 62
2
 10
634.8645
 20
886.4684
 40
6.0000
 50
255.0000
 51
270.0000
  0
ARC
  8
10_0A
  6
CONTINUOUS
 62
2
 10
634.8645
 20
894.4685
 40
5.3000
 50
90.0000
 51
105.0000
  0
ARC
  8
10_0A
  6
CONTINUOUS
 62
2
 10
628.5745
 20
895.8888
 40
2.3000
 50
105.0000
 51
180.0000
  0
ARC
  8
10_0A
  6
CONTINUOUS
 62
2
 10
628.5745
 20
885.0480
 40
2.3000
 50
180.0000
 51
255.0000
  0
ARC
  8
10_0A
  6
CONTINUOUS
 62
2
 10
634.8645
 20
886.4684
 40
5.3000
 50
255.0000
 51
261.1226
  0
ARC
  8
10_0A
  6
CONTINUOUS
 62
2
 10
638.0745
 20
883.9684
 40
1.7000
 50
206.1790
 51
243.8210
  0
ARC
  8
10_0A
  6
CONTINUOUS
 62
2
 10
638.0745
 20
883.9684
 40
3.2500
 50
142.0201
 51
204.2934
  0
ARC
  8
10_0A
  6
CONTINUOUS
 62
2
 10
634.2009
 20
882.2199
 40
1.0000
 50
261.1226
 51
384.2934
  0
ARC
  8
10_0A
  6
CONTINUOUS
 62
2
 10
638.0745
 20
883.9684
 40
1.7000
 50
120.0000
 51
153.8210
  0
ARC
  8
10_0A
  6
CONTINUOUS
 62
2
 10
638.0745
 20
879.2684
 40
1.5000
 50
90.0000
 51
126.8699
  0
ARC
  8
10_0A
  6
CONTINUOUS
 62
2
 10
638.0745
 20
901.1684
 40
1.0000
 50
224.4270
 51
270.0000
  0
ARC
  8
10_0A
  6
CONTINUOUS
 62
2
 10
638.0745
 20
901.6684
 40
2.2000
 50
239.7274
 51
270.0000
  0
ARC
  8
10_0A
  6
CONTINUOUS
 62
2
 10
641.2846
 20
894.4685
 40
6.0000
 50
75.0000
 51
90.0000
  0
ARC
  8
10_0A
  6
CONTINUOUS
 62
2
 10
647.5745
 20
895.8888
 40
3.0000
 50
0.0000
 51
75.0000
  0
ARC
  8
10_0A
  6
CONTINUOUS
 62
2
 10
647.5745
 20
885.0480
 40
3.0000
 50
285.0000
 51
360.0000
  0
ARC
  8
10_0A
  6
CONTINUOUS
 62
2
 10
641.2846
 20
886.4684
 40
6.0000
 50
270.0000
 51
285.0000
  0
ARC
  8
10_0A
  6
CONTINUOUS
 62
2
 10
641.2846
 20
894.4685
 40
5.3000
 50
75.0000
 51
90.0000
  0
ARC
  8
10_0A
  6
CONTINUOUS
 62
2
 10
647.5745
 20
895.8888
 40
2.3000
 50
0.0000
 51
75.0000
  0
ARC
  8
10_0A
  6
CONTINUOUS
 62
2
 10
647.5745
 20
885.0480
 40
2.3000
 50
285.0000
 51
360.0000
  0
ARC
  8
10_0A
  6
CONTINUOUS
 62
2
 10
641.2846
 20
886.4684
 40
5.3000
 50
278.8774
 51
285.0000
  0
ARC
  8
10_0A
  6
CONTINUOUS
 62
2
 10
638.0745
 20
883.9684
 40
1.7000
 50
296.1790
 51
333.8210
  0
ARC
  8
10_0A
  6
CONTINUOUS
 62
2
 10
638.0745
 20
883.9684
 40
3.2500
 50
335.7066
 51
397.9799
  0
ARC
  8
10_0A
  6
CONTINUOUS
 62
2
 10
641.9482
 20
882.2199
 40
1.0000
 50
155.7066
 51
278.8774
  0
ARC
  8
10_0A
  6
CONTINUOUS
 62
2
 10
638.0745
 20
883.9684
 40
1.7000
 50
26.1790
 51
60.0000
  0
ARC
  8
10_0A
  6
CONTINUOUS
 62
2
 10
638.0745
 20
879.2684
 40
1.5000
 50
53.1301
 51
90.0000
  0
ARC
  8
10_0A
  6
CONTINUOUS
 62
2
 10
638.0745
 20
901.1684
 40
1.0000
 50
270.0000
 51
315.5730
  0
ARC
  8
10_0A
  6
CONTINUOUS
 62
2
 10
638.0745
 20
901.6684
 40
2.2000
 50
270.0000
 51
300.2726
  0
ARC
  8
2_02
  6
CONTINUOUS
 62
4
 10
608.0746
 20
1874.9185
 40
0.5000
 50
180.0000
 51
270.0000
  0
ARC
  8
2_02
  6
CONTINUOUS
 62
4
 10
668.5744
 20
1935.4185
 40
0.5000
 50
0.0000
 51
90.0000
  0
ARC
  8
2_02
  6
CONTINUOUS
 62
4
 10
614.0746
 20
1929.4185
 40
6.5000
 50
90.0000
 51
180.0000
  0
ARC
  8
0_00
  6
CONTINUOUS
 62
4
 10
1493.4099
 20
2253.8094
 40
1.5000
 50
3.5763
 51
90.0000
  0
ARC
  8
0_00
  6
CONTINUOUS
 62
4
 10
1485.4559
 20
2256.8095
 40
1.5000
 50
184.4846
 51
270.0000
  0
ARC
  8
0_00
  6
CONTINUOUS
 62
4
 10
1482.6068
 20
2267.5595
 40
0.5000
 50
4.4846
 51
90.0000
  0
ARC
  8
0_00
  6
CONTINUOUS
 62
4
 10
1447.7283
 20
2253.8094
 40
1.5000
 50
90.0000
 51
176.4237
  0
ARC
  8
0_00
  6
CONTINUOUS
 62
4
 10
1455.6822
 20
2256.8095
 40
1.5000
 50
270.0000
 51
355.5154
  0
ARC
  8
0_00
  6
CONTINUOUS
 62
4
 10
1458.5315
 20
2267.5595
 40
0.5000
 50
90.0000
 51
175.5154
  0
ARC
  8
0_00
  6
CONTINUOUS
 62
2
 10
1451.8190
 20
2253.1096
 40
4.5500
 50
39.7151
 51
140.2849
  0
ARC
  8
0_00
  6
CONTINUOUS
 62
2
 10
1489.3190
 20
2253.1096
 40
4.5500
 50
39.7151
 51
140.2849
  0
CIRCLE
  8
3_03
  6
CONTINUOUS
 62
2
 10
1470.5690
 20
2264.3094
 40
2.0000
  0
ARC
  8
3_03
  6
CONTINUOUS
 62
2
 10
1470.5690
 20
2264.3094
 40
1.0000
 50
36.1800
 51
53.8200
  0
ARC
  8
3_03
  6
CONTINUOUS
 62
2
 10
1470.5690
 20
2264.3094
 40
1.0000
 50
126.2068
 51
143.6799
  0
ARC
  8
3_03
  6
CONTINUOUS
 62
2
 10
1470.5690
 20
2264.3094
 40
1.0000
 50
216.1800
 51
233.7058
  0
ARC
  8
3_03
  6
CONTINUOUS
 62
2
 10
1470.5690
 20
2264.3094
 40
1.0000
 50
306.2068
 51
323.7932
  0
ARC
  8
0_00
  6
CONTINUOUS
 62
4
 10
1950.4099
 20
2253.8094
 40
1.5000
 50
3.5763
 51
90.0000
  0
ARC
  8
0_00
  6
CONTINUOUS
 62
4
 10
1942.4561
 20
2256.8095
 40
1.5000
 50
184.4846
 51
270.0000
  0
ARC
  8
0_00
  6
CONTINUOUS
 62
4
 10
1939.6068
 20
2267.5595
 40
0.5000
 50
4.4846
 51
90.0000
  0
ARC
  8
0_00
  6
CONTINUOUS
 62
4
 10
1904.7282
 20
2253.8094
 40
1.5000
 50
90.0000
 51
176.4237
  0
ARC
  8
0_00
  6
CONTINUOUS
 62
4
 10
1912.6820
 20
2256.8095
 40
1.5000
 50
270.0000
 51
355.5154
  0
ARC
  8
0_00
  6
CONTINUOUS
 62
4
 10
1915.5313
 20
2267.5595
 40
0.5000
 50
90.0000
 51
175.5154
  0
ARC
  8
0_00
  6
CONTINUOUS
 62
2
 10
1908.8191
 20
2253.1096
 40
4.5500
 50
39.7151
 51
140.2849
  0
ARC
  8
0_00
  6
CONTINUOUS
 62
2
 10
1946.3191
 20
2253.1096
 40
4.5500
 50
39.7151
 51
140.2849
  0
CIRCLE
  8
3_03
  6
CONTINUOUS
 62
2
 10
1927.5691
 20
2264.3094
 40
2.0000
  0
ARC
  8
3_03
  6
CONTINUOUS
 62
2
 10
1927.5691
 20
2264.3094
 40
1.0000
 50
36.1800
 51
53.8200
  0
ARC
  8
3_03
  6
CONTINUOUS
 62
2
 10
1927.5691
 20
2264.3094
 40
1.0000
 50
126.2068
 51
143.6799
  0
ARC
  8
3_03
  6
CONTINUOUS
 62
2
 10
1927.5691
 20
2264.3094
 40
1.0000
 50
216.1800
 51
233.7058
  0
ARC
  8
3_03
  6
CONTINUOUS
 62
2
 10
1927.5691
 20
2264.3094
 40
1.0000
 50
306.2068
 51
323.7932
  0
ARC
  8
0_00
  6
CONTINUOUS
 62
4
 10
1493.4099
 20
1763.6070
 40
1.5000
 50
3.5763
 51
90.0000
  0
ARC
  8
0_00
  6
CONTINUOUS
 62
4
 10
1485.4559
 20
1766.6071
 40
1.5000
 50
184.4846
 51
270.0000
  0
ARC
  8
0_00
  6
CONTINUOUS
 62
4
 10
1482.6068
 20
1777.3570
 40
0.5000
 50
4.4846
 51
90.0000
  0
ARC
  8
0_00
  6
CONTINUOUS
 62
4
 10
1447.7283
 20
1763.6070
 40
1.5000
 50
90.0000
 51
176.4237
  0
ARC
  8
0_00
  6
CONTINUOUS
 62
4
 10
1455.6822
 20
1766.6071
 40
1.5000
 50
270.0000
 51
355.5154
  0
ARC
  8
0_00
  6
CONTINUOUS
 62
4
 10
1458.5315
 20
1777.3570
 40
0.5000
 50
90.0000
 51
175.5154
  0
ARC
  8
0_00
  6
CONTINUOUS
 62
2
 10
1451.8190
 20
1762.9070
 40
4.5500
 50
39.7151
 51
140.2849
  0
ARC
  8
0_00
  6
CONTINUOUS
 62
2
 10
1489.3190
 20
1762.9070
 40
4.5500
 50
39.7151
 51
140.2849
  0
CIRCLE
  8
3_03
  6
CONTINUOUS
 62
2
 10
1470.5690
 20
1774.1071
 40
2.0000
  0
ARC
  8
3_03
  6
CONTINUOUS
 62
2
 10
1470.5690
 20
1774.1071
 40
1.0000
 50
36.1800
 51
53.8200
  0
ARC
  8
3_03
  6
CONTINUOUS
 62
2
 10
1470.5690
 20
1774.1071
 40
1.0000
 50
126.2068
 51
143.6799
  0
ARC
  8
3_03
  6
CONTINUOUS
 62
2
 10
1470.5690
 20
1774.1071
 40
1.0000
 50
216.1800
 51
233.7058
  0
ARC
  8
3_03
  6
CONTINUOUS
 62
2
 10
1470.5690
 20
1774.1071
 40
1.0000
 50
306.2068
 51
323.7932
  0
ARC
  8
0_00
  6
CONTINUOUS
 62
4
 10
1950.4099
 20
1763.6070
 40
1.5000
 50
3.5763
 51
90.0000
  0
ARC
  8
0_00
  6
CONTINUOUS
 62
4
 10
1942.4561
 20
1766.6071
 40
1.5000
 50
184.4846
 51
270.0000
  0
ARC
  8
0_00
  6
CONTINUOUS
 62
4
 10
1939.6068
 20
1777.3570
 40
0.5000
 50
4.4846
 51
90.0000
  0
ARC
  8
0_00
  6
CONTINUOUS
 62
4
 10
1904.7282
 20
1763.6070
 40
1.5000
 50
90.0000
 51
176.4237
  0
ARC
  8
0_00
  6
CONTINUOUS
 62
4
 10
1912.6820
 20
1766.6071
 40
1.5000
 50
270.0000
 51
355.5154
  0
ARC
  8
0_00
  6
CONTINUOUS
 62
4
 10
1915.5313
 20
1777.3570
 40
0.5000
 50
90.0000
 51
175.5154
  0
ARC
  8
0_00
  6
CONTINUOUS
 62
2
 10
1908.8191
 20
1762.9070
 40
4.5500
 50
39.7151
 51
140.2849
  0
ARC
  8
0_00
  6
CONTINUOUS
 62
2
 10
1946.3191
 20
1762.9070
 40
4.5500
 50
39.7151
 51
140.2849
  0
CIRCLE
  8
3_03
  6
CONTINUOUS
 62
2
 10
1927.5691
 20
1774.1071
 40
2.0000
  0
ARC
  8
3_03
  6
CONTINUOUS
 62
2
 10
1927.5691
 20
1774.1071
 40
1.0000
 50
36.1800
 51
53.8200
  0
ARC
  8
3_03
  6
CONTINUOUS
 62
2
 10
1927.5691
 20
1774.1071
 40
1.0000
 50
126.2068
 51
143.6799
  0
ARC
  8
3_03
  6
CONTINUOUS
 62
2
 10
1927.5691
 20
1774.1071
 40
1.0000
 50
216.1800
 51
233.7058
  0
ARC
  8
3_03
  6
CONTINUOUS
 62
2
 10
1927.5691
 20
1774.1071
 40
1.0000
 50
306.2068
 51
323.7932
  0
ARC
  8
12_0C
  6
CONTINUOUS
 62
2
 10
1825.5745
 20
1074.9684
 40
7.0000
 50
200.9248
 51
339.0752
  0
ARC
  8
4_04
  6
CONTINUOUS
 62
4
 10
1770.5745
 20
1079.9684
 40
9.5000
 50
232.1364
 51
270.0000
  0
ARC
  8
4_04
  6
CONTINUOUS
 62
4
 10
1825.5745
 20
1074.9684
 40
11.0000
 50
270.0000
 51
346.8635
  0
ARC
  8
4_04
  6
CONTINUOUS
 62
4
 10
1805.5745
 20
1079.9684
 40
9.5000
 50
270.0000
 51
307.8636
  0
ARC
  8
4_04
  6
CONTINUOUS
 62
4
 10
1750.5745
 20
1074.9684
 40
11.0000
 50
193.1366
 51
270.0000
  0
ARC
  8
4_04
  6
CONTINUOUS
 62
4
 10
1750.5745
 20
1074.9684
 40
12.5000
 50
191.5370
 51
270.0000
  0
ARC
  8
4_04
  6
CONTINUOUS
 62
4
 10
1825.5745
 20
1074.9684
 40
12.5000
 50
270.0000
 51
348.4630
  0
ARC
  8
12_0C
  6
CONTINUOUS
 62
2
 10
1750.5745
 20
1074.9684
 40
7.0000
 50
200.9248
 51
339.0752
  0
ARC
  8
12_0C
  6
CONTINUOUS
 62
2
 10
1825.5745
 20
1129.9685
 40
7.0000
 50
20.9248
 51
159.0752
  0
ARC
  8
4_04
  6
CONTINUOUS
 62
4
 10
1770.5745
 20
1124.9684
 40
9.5000
 50
90.0000
 51
127.8636
  0
ARC
  8
4_04
  6
CONTINUOUS
 62
4
 10
1825.5745
 20
1129.9685
 40
11.0000
 50
13.1366
 51
90.0000
  0
ARC
  8
4_04
  6
CONTINUOUS
 62
4
 10
1805.5745
 20
1124.9684
 40
9.5000
 50
52.1364
 51
90.0000
  0
ARC
  8
4_04
  6
CONTINUOUS
 62
4
 10
1750.5745
 20
1129.9685
 40
11.0000
 50
90.0000
 51
166.8634
  0
ARC
  8
4_04
  6
CONTINUOUS
 62
4
 10
1750.5745
 20
1129.9685
 40
12.5000
 50
90.0000
 51
168.4630
  0
ARC
  8
4_04
  6
CONTINUOUS
 62
4
 10
1825.5745
 20
1129.9685
 40
12.5000
 50
11.5370
 51
90.0000
  0
ARC
  8
12_0C
  6
CONTINUOUS
 62
2
 10
1750.5745
 20
1129.9685
 40
7.0000
 50
20.9248
 51
159.0752
  0
ARC
  8
0_00
  6
DASHED
 62
6
 10
1805.5745
 20
1079.9684
 40
2.5000
 50
270.0000
 51
360.0000
  0
ARC
  8
0_00
  6
DASHED
 62
6
 10
1804.5746
 20
1084.4685
 40
1.7000
 50
218.3796
 51
241.9275
  0
ARC
  8
0_00
  6
DASHED
 62
6
 10
1804.5746
 20
1084.4685
 40
3.2500
 50
241.8554
 51
296.9578
  0
ARC
  8
0_00
  6
DASHED
 62
6
 10
1806.2744
 20
1081.1259
 40
0.5000
 50
0.0000
 51
116.9577
  0
ARC
  8
0_00
  6
DASHED
 62
6
 10
1803.3244
 20
1082.1318
 40
0.6000
 50
180.0000
 51
241.8554
  0
ARC
  8
0_00
  6
DASHED
 62
6
 10
1804.5746
 20
1084.4685
 40
1.7000
 50
298.0725
 51
330.0000
  0
ARC
  8
0_00
  6
DASHED
 62
6
 10
1770.5745
 20
1079.9684
 40
2.5000
 50
180.0000
 51
270.0000
  0
ARC
  8
0_00
  6
DASHED
 62
6
 10
1803.0145
 20
1083.2329
 40
0.2900
 50
38.3796
 51
180.0000
  0
ARC
  8
0_00
  6
DASHED
 62
6
 10
1806.4246
 20
1083.7468
 40
0.3000
 50
240.0000
 51
360.0000
  0
ARC
  8
0_00
  6
DASHED
 62
6
 10
1804.5746
 20
1084.4685
 40
2.1500
 50
248.1552
 51
291.8448
  0
ARC
  8
0_00
  6
DASHED
 62
6
 10
1804.5746
 20
1084.4685
 40
1.7000
 50
118.0725
 51
141.6204
  0
ARC
  8
0_00
  6
DASHED
 62
6
 10
1804.5746
 20
1084.4685
 40
3.2500
 50
61.3146
 51
118.1446
  0
ARC
  8
0_00
  6
DASHED
 62
6
 10
1803.3244
 20
1086.8050
 40
0.6000
 50
118.1446
 51
180.0000
  0
ARC
  8
0_00
  6
DASHED
 62
6
 10
1806.3744
 20
1087.7582
 40
0.5000
 50
241.3146
 51
360.0000
  0
ARC
  8
0_00
  6
DASHED
 62
6
 10
1804.5746
 20
1084.4685
 40
1.7000
 50
30.0000
 51
61.9275
  0
ARC
  8
0_00
  6
DASHED
 62
6
 10
1803.0145
 20
1085.7040
 40
0.2900
 50
180.0000
 51
321.6204
  0
ARC
  8
0_00
  6
DASHED
 62
6
 10
1806.4246
 20
1085.1901
 40
0.3000
 50
0.0000
 51
120.0000
  0
ARC
  8
0_00
  6
DASHED
 62
6
 10
1804.5746
 20
1084.4685
 40
2.1500
 50
68.1552
 51
111.8448
  0
ARC
  8
0_00
  6
DASHED
 62
6
 10
1771.5744
 20
1084.4685
 40
1.7000
 50
298.0725
 51
321.6204
  0
ARC
  8
0_00
  6
DASHED
 62
6
 10
1771.5744
 20
1084.4685
 40
3.2500
 50
243.0423
 51
298.1446
  0
ARC
  8
0_00
  6
DASHED
 62
6
 10
1772.8246
 20
1082.1318
 40
0.6000
 50
298.1446
 51
360.0000
  0
ARC
  8
0_00
  6
DASHED
 62
6
 10
1771.5744
 20
1084.4685
 40
1.7000
 50
210.0000
 51
241.9275
  0
ARC
  8
0_00
  6
DASHED
 62
6
 10
1773.1345
 20
1083.2329
 40
0.2900
 50
0.0000
 51
141.6204
  0
ARC
  8
0_00
  6
DASHED
 62
6
 10
1769.7244
 20
1083.7468
 40
0.3000
 50
180.0000
 51
300.0000
  0
ARC
  8
0_00
  6
DASHED
 62
6
 10
1771.5744
 20
1084.4685
 40
2.1500
 50
248.1552
 51
291.8448
  0
ARC
  8
0_00
  6
DASHED
 62
6
 10
1771.5744
 20
1084.4685
 40
1.7000
 50
38.3796
 51
61.9275
  0
ARC
  8
0_00
  6
DASHED
 62
6
 10
1771.5744
 20
1084.4685
 40
3.2500
 50
61.8554
 51
118.6854
  0
ARC
  8
0_00
  6
DASHED
 62
6
 10
1772.8246
 20
1086.8050
 40
0.6000
 50
0.0000
 51
61.8554
  0
ARC
  8
0_00
  6
DASHED
 62
6
 10
1769.7745
 20
1087.7582
 40
0.5000
 50
180.0000
 51
298.6854
  0
ARC
  8
0_00
  6
DASHED
 62
6
 10
1771.5744
 20
1084.4685
 40
1.7000
 50
118.0725
 51
150.0000
  0
ARC
  8
0_00
  6
DASHED
 62
6
 10
1773.1345
 20
1085.7040
 40
0.2900
 50
218.3796
 51
360.0000
  0
ARC
  8
0_00
  6
DASHED
 62
6
 10
1769.7244
 20
1085.1901
 40
0.3000
 50
60.0000
 51
180.0000
  0
ARC
  8
0_00
  6
DASHED
 62
6
 10
1771.5744
 20
1084.4685
 40
2.1500
 50
68.1552
 51
111.8448
  0
ARC
  8
0_00
  6
DASHED
 62
6
 10
1806.2744
 20
1079.9684
 40
0.5000
 50
270.0000
 51
360.0000
  0
ARC
  8
0_00
  6
DASHED
 62
6
 10
1769.8744
 20
1081.1259
 40
0.5000
 50
63.0423
 51
180.0000
  0
ARC
  8
0_00
  6
DASHED
 62
6
 10
1769.8744
 20
1079.9684
 40
0.5000
 50
180.0000
 51
270.0000
  0
ARC
  8
0_00
  6
DASHED
 62
6
 10
1805.5745
 20
1124.9684
 40
2.5000
 50
0.0000
 51
90.0000
  0
ARC
  8
0_00
  6
DASHED
 62
6
 10
1804.5746
 20
1120.4684
 40
1.7000
 50
118.0725
 51
141.6204
  0
ARC
  8
0_00
  6
DASHED
 62
6
 10
1804.5746
 20
1120.4684
 40
3.2500
 50
63.0423
 51
118.1446
  0
ARC
  8
0_00
  6
DASHED
 62
6
 10
1806.2744
 20
1123.8109
 40
0.5000
 50
243.0423
 51
360.0000
  0
ARC
  8
0_00
  6
DASHED
 62
6
 10
1803.3244
 20
1122.8051
 40
0.6000
 50
118.1446
 51
180.0000
  0
ARC
  8
0_00
  6
DASHED
 62
6
 10
1804.5746
 20
1120.4684
 40
1.7000
 50
30.0000
 51
61.9275
  0
ARC
  8
0_00
  6
DASHED
 62
6
 10
1770.5745
 20
1124.9684
 40
2.5000
 50
90.0000
 51
180.0000
  0
ARC
  8
0_00
  6
DASHED
 62
6
 10
1803.0145
 20
1121.7039
 40
0.2900
 50
180.0000
 51
321.6204
  0
ARC
  8
0_00
  6
DASHED
 62
6
 10
1806.4246
 20
1121.1902
 40
0.3000
 50
0.0000
 51
120.0000
  0
ARC
  8
0_00
  6
DASHED
 62
6
 10
1804.5746
 20
1120.4684
 40
2.1500
 50
68.1552
 51
111.8448
  0
ARC
  8
0_00
  6
DASHED
 62
6
 10
1804.5746
 20
1120.4684
 40
1.7000
 50
218.3796
 51
241.9275
  0
ARC
  8
0_00
  6
DASHED
 62
6
 10
1804.5746
 20
1120.4684
 40
3.2500
 50
241.8554
 51
298.6854
  0
ARC
  8
0_00
  6
DASHED
 62
6
 10
1803.3244
 20
1118.1318
 40
0.6000
 50
180.0000
 51
241.8554
  0
ARC
  8
0_00
  6
DASHED
 62
6
 10
1806.3744
 20
1117.1786
 40
0.5000
 50
0.0000
 51
118.6854
  0
ARC
  8
0_00
  6
DASHED
 62
6
 10
1804.5746
 20
1120.4684
 40
1.7000
 50
298.0725
 51
330.0000
  0
ARC
  8
0_00
  6
DASHED
 62
6
 10
1803.0145
 20
1119.2328
 40
0.2900
 50
38.3796
 51
180.0000
  0
ARC
  8
0_00
  6
DASHED
 62
6
 10
1806.4246
 20
1119.7467
 40
0.3000
 50
240.0000
 51
360.0000
  0
ARC
  8
0_00
  6
DASHED
 62
6
 10
1804.5746
 20
1120.4684
 40
2.1500
 50
248.1552
 51
291.8448
  0
ARC
  8
0_00
  6
DASHED
 62
6
 10
1771.5744
 20
1120.4684
 40
1.7000
 50
38.3796
 51
61.9275
  0
ARC
  8
0_00
  6
DASHED
 62
6
 10
1771.5744
 20
1120.4684
 40
3.2500
 50
61.8554
 51
116.9577
  0
ARC
  8
0_00
  6
DASHED
 62
6
 10
1772.8246
 20
1122.8051
 40
0.6000
 50
0.0000
 51
61.8554
  0
ARC
  8
0_00
  6
DASHED
 62
6
 10
1771.5744
 20
1120.4684
 40
1.7000
 50
118.0725
 51
150.0000
  0
ARC
  8
0_00
  6
DASHED
 62
6
 10
1773.1345
 20
1121.7039
 40
0.2900
 50
218.3796
 51
360.0000
  0
ARC
  8
0_00
  6
DASHED
 62
6
 10
1769.7244
 20
1121.1902
 40
0.3000
 50
60.0000
 51
180.0000
  0
ARC
  8
0_00
  6
DASHED
 62
6
 10
1771.5744
 20
1120.4684
 40
2.1500
 50
68.1552
 51
111.8448
  0
ARC
  8
0_00
  6
DASHED
 62
6
 10
1771.5744
 20
1120.4684
 40
1.7000
 50
298.0725
 51
321.6204
  0
ARC
  8
0_00
  6
DASHED
 62
6
 10
1771.5744
 20
1120.4684
 40
3.2500
 50
241.3146
 51
298.1446
  0
ARC
  8
0_00
  6
DASHED
 62
6
 10
1772.8246
 20
1118.1318
 40
0.6000
 50
298.1446
 51
360.0000
  0
ARC
  8
0_00
  6
DASHED
 62
6
 10
1769.7745
 20
1117.1786
 40
0.5000
 50
61.3146
 51
180.0000
  0
ARC
  8
0_00
  6
DASHED
 62
6
 10
1771.5744
 20
1120.4684
 40
1.7000
 50
210.0000
 51
241.9275
  0
ARC
  8
0_00
  6
DASHED
 62
6
 10
1773.1345
 20
1119.2328
 40
0.2900
 50
0.0000
 51
141.6204
  0
ARC
  8
0_00
  6
DASHED
 62
6
 10
1769.7244
 20
1119.7467
 40
0.3000
 50
180.0000
 51
300.0000
  0
ARC
  8
0_00
  6
DASHED
 62
6
 10
1771.5744
 20
1120.4684
 40
2.1500
 50
248.1552
 51
291.8448
  0
ARC
  8
0_00
  6
DASHED
 62
6
 10
1806.2744
 20
1124.9684
 40
0.5000
 50
0.0000
 51
90.0000
  0
ARC
  8
0_00
  6
DASHED
 62
6
 10
1769.8744
 20
1123.8109
 40
0.5000
 50
180.0000
 51
296.9578
  0
ARC
  8
0_00
  6
DASHED
 62
6
 10
1769.8744
 20
1124.9684
 40
0.5000
 50
90.0000
 51
180.0000
  0
ARC
  8
12_0C
  6
CONTINUOUS
 62
2
 10
975.5746
 20
1074.9684
 40
7.0000
 50
200.9248
 51
339.0752
  0
ARC
  8
4_04
  6
CONTINUOUS
 62
4
 10
920.5746
 20
1079.9684
 40
9.5000
 50
232.1364
 51
270.0000
  0
ARC
  8
4_04
  6
CONTINUOUS
 62
4
 10
975.5746
 20
1074.9684
 40
11.0000
 50
270.0000
 51
346.8635
  0
ARC
  8
4_04
  6
CONTINUOUS
 62
4
 10
955.5746
 20
1079.9684
 40
9.5000
 50
270.0000
 51
307.8636
  0
ARC
  8
4_04
  6
CONTINUOUS
 62
4
 10
900.5746
 20
1074.9684
 40
11.0000
 50
193.1366
 51
270.0000
  0
ARC
  8
4_04
  6
CONTINUOUS
 62
4
 10
900.5746
 20
1074.9684
 40
12.5000
 50
191.5370
 51
270.0000
  0
ARC
  8
4_04
  6
CONTINUOUS
 62
4
 10
975.5746
 20
1074.9684
 40
12.5000
 50
270.0000
 51
348.4630
  0
ARC
  8
12_0C
  6
CONTINUOUS
 62
2
 10
900.5746
 20
1074.9684
 40
7.0000
 50
200.9248
 51
339.0752
  0
ARC
  8
12_0C
  6
CONTINUOUS
 62
2
 10
975.5746
 20
1129.9685
 40
7.0000
 50
20.9248
 51
159.0752
  0
ARC
  8
4_04
  6
CONTINUOUS
 62
4
 10
920.5746
 20
1124.9684
 40
9.5000
 50
90.0000
 51
127.8636
  0
ARC
  8
4_04
  6
CONTINUOUS
 62
4
 10
975.5746
 20
1129.9685
 40
11.0000
 50
13.1366
 51
90.0000
  0
ARC
  8
4_04
  6
CONTINUOUS
 62
4
 10
955.5746
 20
1124.9684
 40
9.5000
 50
52.1364
 51
90.0000
  0
ARC
  8
4_04
  6
CONTINUOUS
 62
4
 10
900.5746
 20
1129.9685
 40
11.0000
 50
90.0000
 51
166.8634
  0
ARC
  8
4_04
  6
CONTINUOUS
 62
4
 10
900.5746
 20
1129.9685
 40
12.5000
 50
90.0000
 51
168.4630
  0
ARC
  8
4_04
  6
CONTINUOUS
 62
4
 10
975.5746
 20
1129.9685
 40
12.5000
 50
11.5370
 51
90.0000
  0
ARC
  8
12_0C
  6
CONTINUOUS
 62
2
 10
900.5746
 20
1129.9685
 40
7.0000
 50
20.9248
 51
159.0752
  0
ARC
  8
0_00
  6
DASHED
 62
6
 10
955.5746
 20
1079.9684
 40
2.5000
 50
270.0000
 51
360.0000
  0
ARC
  8
0_00
  6
DASHED
 62
6
 10
954.5745
 20
1084.4685
 40
1.7000
 50
218.3796
 51
241.9275
  0
ARC
  8
0_00
  6
DASHED
 62
6
 10
954.5745
 20
1084.4685
 40
3.2500
 50
241.8554
 51
296.9578
  0
ARC
  8
0_00
  6
DASHED
 62
6
 10
956.2745
 20
1081.1259
 40
0.5000
 50
0.0000
 51
116.9577
  0
ARC
  8
0_00
  6
DASHED
 62
6
 10
953.3245
 20
1082.1318
 40
0.6000
 50
180.0000
 51
241.8554
  0
ARC
  8
0_00
  6
DASHED
 62
6
 10
954.5745
 20
1084.4685
 40
1.7000
 50
298.0725
 51
330.0000
  0
ARC
  8
0_00
  6
DASHED
 62
6
 10
920.5746
 20
1079.9684
 40
2.5000
 50
180.0000
 51
270.0000
  0
ARC
  8
0_00
  6
DASHED
 62
6
 10
953.0145
 20
1083.2329
 40
0.2900
 50
38.3796
 51
180.0000
  0
ARC
  8
0_00
  6
DASHED
 62
6
 10
956.4245
 20
1083.7468
 40
0.3000
 50
240.0000
 51
360.0000
  0
ARC
  8
0_00
  6
DASHED
 62
6
 10
954.5745
 20
1084.4685
 40
2.1500
 50
248.1552
 51
291.8448
  0
ARC
  8
0_00
  6
DASHED
 62
6
 10
954.5745
 20
1084.4685
 40
1.7000
 50
118.0725
 51
141.6204
  0
ARC
  8
0_00
  6
DASHED
 62
6
 10
954.5745
 20
1084.4685
 40
3.2500
 50
61.3146
 51
118.1446
  0
ARC
  8
0_00
  6
DASHED
 62
6
 10
953.3245
 20
1086.8050
 40
0.6000
 50
118.1446
 51
180.0000
  0
ARC
  8
0_00
  6
DASHED
 62
6
 10
956.3746
 20
1087.7582
 40
0.5000
 50
241.3146
 51
360.0000
  0
ARC
  8
0_00
  6
DASHED
 62
6
 10
954.5745
 20
1084.4685
 40
1.7000
 50
30.0000
 51
61.9275
  0
ARC
  8
0_00
  6
DASHED
 62
6
 10
953.0145
 20
1085.7040
 40
0.2900
 50
180.0000
 51
321.6204
  0
ARC
  8
0_00
  6
DASHED
 62
6
 10
956.4245
 20
1085.1901
 40
0.3000
 50
0.0000
 51
120.0000
  0
ARC
  8
0_00
  6
DASHED
 62
6
 10
954.5745
 20
1084.4685
 40
2.1500
 50
68.1552
 51
111.8448
  0
ARC
  8
0_00
  6
DASHED
 62
6
 10
921.5746
 20
1084.4685
 40
1.7000
 50
298.0725
 51
321.6204
  0
ARC
  8
0_00
  6
DASHED
 62
6
 10
921.5746
 20
1084.4685
 40
3.2500
 50
243.0423
 51
298.1446
  0
ARC
  8
0_00
  6
DASHED
 62
6
 10
922.8246
 20
1082.1318
 40
0.6000
 50
298.1446
 51
360.0000
  0
ARC
  8
0_00
  6
DASHED
 62
6
 10
921.5746
 20
1084.4685
 40
1.7000
 50
210.0000
 51
241.9275
  0
ARC
  8
0_00
  6
DASHED
 62
6
 10
923.1345
 20
1083.2329
 40
0.2900
 50
0.0000
 51
141.6204
  0
ARC
  8
0_00
  6
DASHED
 62
6
 10
919.7245
 20
1083.7468
 40
0.3000
 50
180.0000
 51
300.0000
  0
ARC
  8
0_00
  6
DASHED
 62
6
 10
921.5746
 20
1084.4685
 40
2.1500
 50
248.1552
 51
291.8448
  0
ARC
  8
0_00
  6
DASHED
 62
6
 10
921.5746
 20
1084.4685
 40
1.7000
 50
38.3796
 51
61.9275
  0
ARC
  8
0_00
  6
DASHED
 62
6
 10
921.5746
 20
1084.4685
 40
3.2500
 50
61.8554
 51
118.6854
  0
ARC
  8
0_00
  6
DASHED
 62
6
 10
922.8246
 20
1086.8050
 40
0.6000
 50
0.0000
 51
61.8554
  0
ARC
  8
0_00
  6
DASHED
 62
6
 10
919.7745
 20
1087.7582
 40
0.5000
 50
180.0000
 51
298.6854
  0
ARC
  8
0_00
  6
DASHED
 62
6
 10
921.5746
 20
1084.4685
 40
1.7000
 50
118.0725
 51
150.0000
  0
ARC
  8
0_00
  6
DASHED
 62
6
 10
923.1345
 20
1085.7040
 40
0.2900
 50
218.3796
 51
360.0000
  0
ARC
  8
0_00
  6
DASHED
 62
6
 10
919.7245
 20
1085.1901
 40
0.3000
 50
60.0000
 51
180.0000
  0
ARC
  8
0_00
  6
DASHED
 62
6
 10
921.5746
 20
1084.4685
 40
2.1500
 50
68.1552
 51
111.8448
  0
ARC
  8
0_00
  6
DASHED
 62
6
 10
956.2745
 20
1079.9684
 40
0.5000
 50
270.0000
 51
360.0000
  0
ARC
  8
0_00
  6
DASHED
 62
6
 10
919.8746
 20
1081.1259
 40
0.5000
 50
63.0423
 51
180.0000
  0
ARC
  8
0_00
  6
DASHED
 62
6
 10
919.8746
 20
1079.9684
 40
0.5000
 50
180.0000
 51
270.0000
  0
ARC
  8
0_00
  6
DASHED
 62
6
 10
955.5746
 20
1124.9684
 40
2.5000
 50
0.0000
 51
90.0000
  0
ARC
  8
0_00
  6
DASHED
 62
6
 10
954.5745
 20
1120.4684
 40
1.7000
 50
118.0725
 51
141.6204
  0
ARC
  8
0_00
  6
DASHED
 62
6
 10
954.5745
 20
1120.4684
 40
3.2500
 50
63.0423
 51
118.1446
  0
ARC
  8
0_00
  6
DASHED
 62
6
 10
956.2745
 20
1123.8109
 40
0.5000
 50
243.0423
 51
360.0000
  0
ARC
  8
0_00
  6
DASHED
 62
6
 10
953.3245
 20
1122.8051
 40
0.6000
 50
118.1446
 51
180.0000
  0
ARC
  8
0_00
  6
DASHED
 62
6
 10
954.5745
 20
1120.4684
 40
1.7000
 50
30.0000
 51
61.9275
  0
ARC
  8
0_00
  6
DASHED
 62
6
 10
920.5746
 20
1124.9684
 40
2.5000
 50
90.0000
 51
180.0000
  0
ARC
  8
0_00
  6
DASHED
 62
6
 10
953.0145
 20
1121.7039
 40
0.2900
 50
180.0000
 51
321.6204
  0
ARC
  8
0_00
  6
DASHED
 62
6
 10
956.4245
 20
1121.1902
 40
0.3000
 50
0.0000
 51
120.0000
  0
ARC
  8
0_00
  6
DASHED
 62
6
 10
954.5745
 20
1120.4684
 40
2.1500
 50
68.1552
 51
111.8448
  0
ARC
  8
0_00
  6
DASHED
 62
6
 10
954.5745
 20
1120.4684
 40
1.7000
 50
218.3796
 51
241.9275
  0
ARC
  8
0_00
  6
DASHED
 62
6
 10
954.5745
 20
1120.4684
 40
3.2500
 50
241.8554
 51
298.6854
  0
ARC
  8
0_00
  6
DASHED
 62
6
 10
953.3245
 20
1118.1318
 40
0.6000
 50
180.0000
 51
241.8554
  0
ARC
  8
0_00
  6
DASHED
 62
6
 10
956.3746
 20
1117.1786
 40
0.5000
 50
0.0000
 51
118.6854
  0
ARC
  8
0_00
  6
DASHED
 62
6
 10
954.5745
 20
1120.4684
 40
1.7000
 50
298.0725
 51
330.0000
  0
ARC
  8
0_00
  6
DASHED
 62
6
 10
953.0145
 20
1119.2328
 40
0.2900
 50
38.3796
 51
180.0000
  0
ARC
  8
0_00
  6
DASHED
 62
6
 10
956.4245
 20
1119.7467
 40
0.3000
 50
240.0000
 51
360.0000
  0
ARC
  8
0_00
  6
DASHED
 62
6
 10
954.5745
 20
1120.4684
 40
2.1500
 50
248.1552
 51
291.8448
  0
ARC
  8
0_00
  6
DASHED
 62
6
 10
921.5746
 20
1120.4684
 40
1.7000
 50
38.3796
 51
61.9275
  0
ARC
  8
0_00
  6
DASHED
 62
6
 10
921.5746
 20
1120.4684
 40
3.2500
 50
61.8554
 51
116.9577
  0
ARC
  8
0_00
  6
DASHED
 62
6
 10
922.8246
 20
1122.8051
 40
0.6000
 50
0.0000
 51
61.8554
  0
ARC
  8
0_00
  6
DASHED
 62
6
 10
921.5746
 20
1120.4684
 40
1.7000
 50
118.0725
 51
150.0000
  0
ARC
  8
0_00
  6
DASHED
 62
6
 10
923.1345
 20
1121.7039
 40
0.2900
 50
218.3796
 51
360.0000
  0
ARC
  8
0_00
  6
DASHED
 62
6
 10
919.7245
 20
1121.1902
 40
0.3000
 50
60.0000
 51
180.0000
  0
ARC
  8
0_00
  6
DASHED
 62
6
 10
921.5746
 20
1120.4684
 40
2.1500
 50
68.1552
 51
111.8448
  0
ARC
  8
0_00
  6
DASHED
 62
6
 10
921.5746
 20
1120.4684
 40
1.7000
 50
298.0725
 51
321.6204
  0
ARC
  8
0_00
  6
DASHED
 62
6
 10
921.5746
 20
1120.4684
 40
3.2500
 50
241.3146
 51
298.1446
  0
ARC
  8
0_00
  6
DASHED
 62
6
 10
922.8246
 20
1118.1318
 40
0.6000
 50
298.1446
 51
360.0000
  0
ARC
  8
0_00
  6
DASHED
 62
6
 10
919.7745
 20
1117.1786
 40
0.5000
 50
61.3146
 51
180.0000
  0
ARC
  8
0_00
  6
DASHED
 62
6
 10
921.5746
 20
1120.4684
 40
1.7000
 50
210.0000
 51
241.9275
  0
ARC
  8
0_00
  6
DASHED
 62
6
 10
923.1345
 20
1119.2328
 40
0.2900
 50
0.0000
 51
141.6204
  0
ARC
  8
0_00
  6
DASHED
 62
6
 10
919.7245
 20
1119.7467
 40
0.3000
 50
180.0000
 51
300.0000
  0
ARC
  8
0_00
  6
DASHED
 62
6
 10
921.5746
 20
1120.4684
 40
2.1500
 50
248.1552
 51
291.8448
  0
ARC
  8
0_00
  6
DASHED
 62
6
 10
956.2745
 20
1124.9684
 40
0.5000
 50
0.0000
 51
90.0000
  0
ARC
  8
0_00
  6
DASHED
 62
6
 10
919.8746
 20
1123.8109
 40
0.5000
 50
180.0000
 51
296.9578
  0
ARC
  8
0_00
  6
DASHED
 62
6
 10
919.8746
 20
1124.9684
 40
0.5000
 50
90.0000
 51
180.0000
  0
ARC
  8
12_0C
  6
CONTINUOUS
 62
2
 10
665.5745
 20
764.9684
 40
7.0000
 50
290.9248
 51
429.0752
  0
ARC
  8
4_04
  6
CONTINUOUS
 62
4
 10
660.5746
 20
819.9684
 40
9.5000
 50
0.0000
 51
37.8636
  0
ARC
  8
4_04
  6
CONTINUOUS
 62
4
 10
665.5745
 20
764.9684
 40
11.0000
 50
283.1366
 51
360.0000
  0
ARC
  8
4_04
  6
CONTINUOUS
 62
4
 10
660.5746
 20
784.9684
 40
9.5000
 50
322.1364
 51
360.0000
  0
ARC
  8
4_04
  6
CONTINUOUS
 62
4
 10
665.5745
 20
839.9684
 40
11.0000
 50
0.0000
 51
76.8634
  0
ARC
  8
4_04
  6
CONTINUOUS
 62
4
 10
665.5745
 20
839.9684
 40
12.5000
 50
0.0000
 51
78.4630
  0
ARC
  8
4_04
  6
CONTINUOUS
 62
4
 10
665.5745
 20
764.9684
 40
12.5000
 50
281.5370
 51
360.0000
  0
ARC
  8
12_0C
  6
CONTINUOUS
 62
2
 10
665.5745
 20
839.9684
 40
7.0000
 50
290.9248
 51
429.0752
  0
ARC
  8
12_0C
  6
CONTINUOUS
 62
2
 10
610.5745
 20
764.9684
 40
7.0000
 50
110.9248
 51
249.0752
  0
ARC
  8
4_04
  6
CONTINUOUS
 62
4
 10
615.5745
 20
819.9684
 40
9.5000
 50
142.1364
 51
180.0000
  0
ARC
  8
4_04
  6
CONTINUOUS
 62
4
 10
610.5745
 20
764.9684
 40
11.0000
 50
180.0000
 51
256.8635
  0
ARC
  8
4_04
  6
CONTINUOUS
 62
4
 10
615.5745
 20
784.9684
 40
9.5000
 50
180.0000
 51
217.8636
  0
ARC
  8
4_04
  6
CONTINUOUS
 62
4
 10
610.5745
 20
839.9684
 40
11.0000
 50
103.1366
 51
180.0000
  0
ARC
  8
4_04
  6
CONTINUOUS
 62
4
 10
610.5745
 20
839.9684
 40
12.5000
 50
101.5370
 51
180.0000
  0
ARC
  8
4_04
  6
CONTINUOUS
 62
4
 10
610.5745
 20
764.9684
 40
12.5000
 50
180.0000
 51
258.4630
  0
ARC
  8
12_0C
  6
CONTINUOUS
 62
2
 10
610.5745
 20
839.9684
 40
7.0000
 50
110.9248
 51
249.0752
  0
ARC
  8
0_00
  6
DASHED
 62
6
 10
660.5746
 20
784.9684
 40
2.5000
 50
270.0000
 51
360.0000
  0
ARC
  8
0_00
  6
DASHED
 62
6
 10
656.0745
 20
785.9685
 40
1.7000
 50
28.0725
 51
51.6204
  0
ARC
  8
0_00
  6
DASHED
 62
6
 10
656.0745
 20
785.9685
 40
3.2500
 50
333.0422
 51
388.1446
  0
ARC
  8
0_00
  6
DASHED
 62
6
 10
659.4171
 20
784.2684
 40
0.5000
 50
153.0423
 51
270.0000
  0
ARC
  8
0_00
  6
DASHED
 62
6
 10
658.4112
 20
787.2185
 40
0.6000
 50
28.1446
 51
90.0000
  0
ARC
  8
0_00
  6
DASHED
 62
6
 10
656.0745
 20
785.9685
 40
1.7000
 50
300.0000
 51
331.9275
  0
ARC
  8
0_00
  6
DASHED
 62
6
 10
660.5746
 20
819.9684
 40
2.5000
 50
0.0000
 51
90.0000
  0
ARC
  8
0_00
  6
DASHED
 62
6
 10
657.3100
 20
787.5284
 40
0.2900
 50
90.0000
 51
231.6204
  0
ARC
  8
0_00
  6
DASHED
 62
6
 10
656.7962
 20
784.1184
 40
0.3000
 50
270.0000
 51
390.0000
  0
ARC
  8
0_00
  6
DASHED
 62
6
 10
656.0745
 20
785.9685
 40
2.1500
 50
338.1552
 51
381.8448
  0
ARC
  8
0_00
  6
DASHED
 62
6
 10
656.0745
 20
785.9685
 40
1.7000
 50
128.3796
 51
151.9275
  0
ARC
  8
0_00
  6
DASHED
 62
6
 10
656.0745
 20
785.9685
 40
3.2500
 50
151.8554
 51
208.6854
  0
ARC
  8
0_00
  6
DASHED
 62
6
 10
653.7379
 20
787.2185
 40
0.6000
 50
90.0000
 51
151.8554
  0
ARC
  8
0_00
  6
DASHED
 62
6
 10
652.7847
 20
784.1684
 40
0.5000
 50
270.0000
 51
388.6854
  0
ARC
  8
0_00
  6
DASHED
 62
6
 10
656.0745
 20
785.9685
 40
1.7000
 50
208.0725
 51
240.0000
  0
ARC
  8
0_00
  6
DASHED
 62
6
 10
654.8389
 20
787.5284
 40
0.2900
 50
308.3796
 51
450.0000
  0
ARC
  8
0_00
  6
DASHED
 62
6
 10
655.3529
 20
784.1184
 40
0.3000
 50
150.0000
 51
270.0000
  0
ARC
  8
0_00
  6
DASHED
 62
6
 10
656.0745
 20
785.9685
 40
2.1500
 50
158.1552
 51
201.8448
  0
ARC
  8
0_00
  6
DASHED
 62
6
 10
656.0745
 20
818.9684
 40
1.7000
 50
308.3796
 51
331.9275
  0
ARC
  8
0_00
  6
DASHED
 62
6
 10
656.0745
 20
818.9684
 40
3.2500
 50
331.8554
 51
386.9578
  0
ARC
  8
0_00
  6
DASHED
 62
6
 10
658.4112
 20
817.7184
 40
0.6000
 50
270.0000
 51
331.8554
  0
ARC
  8
0_00
  6
DASHED
 62
6
 10
656.0745
 20
818.9684
 40
1.7000
 50
28.0725
 51
60.0000
  0
ARC
  8
0_00
  6
DASHED
 62
6
 10
657.3100
 20
817.4084
 40
0.2900
 50
128.3796
 51
270.0000
  0
ARC
  8
0_00
  6
DASHED
 62
6
 10
656.7962
 20
820.8185
 40
0.3000
 50
330.0000
 51
450.0000
  0
ARC
  8
0_00
  6
DASHED
 62
6
 10
656.0745
 20
818.9684
 40
2.1500
 50
338.1552
 51
381.8448
  0
ARC
  8
0_00
  6
DASHED
 62
6
 10
656.0745
 20
818.9684
 40
1.7000
 50
208.0725
 51
231.6204
  0
ARC
  8
0_00
  6
DASHED
 62
6
 10
656.0745
 20
818.9684
 40
3.2500
 50
151.3146
 51
208.1446
  0
ARC
  8
0_00
  6
DASHED
 62
6
 10
653.7379
 20
817.7184
 40
0.6000
 50
208.1446
 51
270.0000
  0
ARC
  8
0_00
  6
DASHED
 62
6
 10
652.7847
 20
820.7684
 40
0.5000
 50
331.3146
 51
450.0000
  0
ARC
  8
0_00
  6
DASHED
 62
6
 10
656.0745
 20
818.9684
 40
1.7000
 50
120.0000
 51
151.9275
  0
ARC
  8
0_00
  6
DASHED
 62
6
 10
654.8389
 20
817.4084
 40
0.2900
 50
270.0000
 51
411.6204
  0
ARC
  8
0_00
  6
DASHED
 62
6
 10
655.3529
 20
820.8185
 40
0.3000
 50
90.0000
 51
210.0000
  0
ARC
  8
0_00
  6
DASHED
 62
6
 10
656.0745
 20
818.9684
 40
2.1500
 50
158.1552
 51
201.8448
  0
ARC
  8
0_00
  6
DASHED
 62
6
 10
660.5746
 20
784.2684
 40
0.5000
 50
270.0000
 51
360.0000
  0
ARC
  8
0_00
  6
DASHED
 62
6
 10
659.4171
 20
820.6684
 40
0.5000
 50
90.0000
 51
206.9577
  0
ARC
  8
0_00
  6
DASHED
 62
6
 10
660.5746
 20
820.6684
 40
0.5000
 50
0.0000
 51
90.0000
  0
ARC
  8
0_00
  6
DASHED
 62
6
 10
615.5745
 20
784.9684
 40
2.5000
 50
180.0000
 51
270.0000
  0
ARC
  8
0_00
  6
DASHED
 62
6
 10
620.0745
 20
785.9685
 40
1.7000
 50
128.3796
 51
151.9275
  0
ARC
  8
0_00
  6
DASHED
 62
6
 10
620.0745
 20
785.9685
 40
3.2500
 50
151.8554
 51
206.9577
  0
ARC
  8
0_00
  6
DASHED
 62
6
 10
616.7320
 20
784.2684
 40
0.5000
 50
270.0000
 51
386.9578
  0
ARC
  8
0_00
  6
DASHED
 62
6
 10
617.7379
 20
787.2185
 40
0.6000
 50
90.0000
 51
151.8554
  0
ARC
  8
0_00
  6
DASHED
 62
6
 10
620.0745
 20
785.9685
 40
1.7000
 50
208.0725
 51
240.0000
  0
ARC
  8
0_00
  6
DASHED
 62
6
 10
615.5745
 20
819.9684
 40
2.5000
 50
90.0000
 51
180.0000
  0
ARC
  8
0_00
  6
DASHED
 62
6
 10
618.8390
 20
787.5284
 40
0.2900
 50
308.3796
 51
450.0000
  0
ARC
  8
0_00
  6
DASHED
 62
6
 10
619.3529
 20
784.1184
 40
0.3000
 50
150.0000
 51
270.0000
  0
ARC
  8
0_00
  6
DASHED
 62
6
 10
620.0745
 20
785.9685
 40
2.1500
 50
158.1552
 51
201.8448
  0
ARC
  8
0_00
  6
DASHED
 62
6
 10
620.0745
 20
785.9685
 40
1.7000
 50
28.0725
 51
51.6204
  0
ARC
  8
0_00
  6
DASHED
 62
6
 10
620.0745
 20
785.9685
 40
3.2500
 50
331.3146
 51
388.1446
  0
ARC
  8
0_00
  6
DASHED
 62
6
 10
622.4112
 20
787.2185
 40
0.6000
 50
28.1446
 51
90.0000
  0
ARC
  8
0_00
  6
DASHED
 62
6
 10
623.3643
 20
784.1684
 40
0.5000
 50
151.3146
 51
270.0000
  0
ARC
  8
0_00
  6
DASHED
 62
6
 10
620.0745
 20
785.9685
 40
1.7000
 50
300.0000
 51
331.9275
  0
ARC
  8
0_00
  6
DASHED
 62
6
 10
621.3100
 20
787.5284
 40
0.2900
 50
90.0000
 51
231.6204
  0
ARC
  8
0_00
  6
DASHED
 62
6
 10
620.7962
 20
784.1184
 40
0.3000
 50
270.0000
 51
390.0000
  0
ARC
  8
0_00
  6
DASHED
 62
6
 10
620.0745
 20
785.9685
 40
2.1500
 50
338.1552
 51
381.8448
  0
ARC
  8
0_00
  6
DASHED
 62
6
 10
620.0745
 20
818.9684
 40
1.7000
 50
208.0725
 51
231.6204
  0
ARC
  8
0_00
  6
DASHED
 62
6
 10
620.0745
 20
818.9684
 40
3.2500
 50
153.0423
 51
208.1446
  0
ARC
  8
0_00
  6
DASHED
 62
6
 10
617.7379
 20
817.7184
 40
0.6000
 50
208.1446
 51
270.0000
  0
ARC
  8
0_00
  6
DASHED
 62
6
 10
620.0745
 20
818.9684
 40
1.7000
 50
120.0000
 51
151.9275
  0
ARC
  8
0_00
  6
DASHED
 62
6
 10
618.8390
 20
817.4084
 40
0.2900
 50
270.0000
 51
411.6204
  0
ARC
  8
0_00
  6
DASHED
 62
6
 10
619.3529
 20
820.8185
 40
0.3000
 50
90.0000
 51
210.0000
  0
ARC
  8
0_00
  6
DASHED
 62
6
 10
620.0745
 20
818.9684
 40
2.1500
 50
158.1552
 51
201.8448
  0
ARC
  8
0_00
  6
DASHED
 62
6
 10
620.0745
 20
818.9684
 40
1.7000
 50
308.3796
 51
331.9275
  0
ARC
  8
0_00
  6
DASHED
 62
6
 10
620.0745
 20
818.9684
 40
3.2500
 50
331.8554
 51
388.6854
  0
ARC
  8
0_00
  6
DASHED
 62
6
 10
622.4112
 20
817.7184
 40
0.6000
 50
270.0000
 51
331.8554
  0
ARC
  8
0_00
  6
DASHED
 62
6
 10
623.3643
 20
820.7684
 40
0.5000
 50
90.0000
 51
208.6854
  0
ARC
  8
0_00
  6
DASHED
 62
6
 10
620.0745
 20
818.9684
 40
1.7000
 50
28.0725
 51
60.0000
  0
ARC
  8
0_00
  6
DASHED
 62
6
 10
621.3100
 20
817.4084
 40
0.2900
 50
128.3796
 51
270.0000
  0
ARC
  8
0_00
  6
DASHED
 62
6
 10
620.7962
 20
820.8185
 40
0.3000
 50
330.0000
 51
450.0000
  0
ARC
  8
0_00
  6
DASHED
 62
6
 10
620.0745
 20
818.9684
 40
2.1500
 50
338.1552
 51
381.8448
  0
ARC
  8
0_00
  6
DASHED
 62
6
 10
615.5745
 20
784.2684
 40
0.5000
 50
180.0000
 51
270.0000
  0
ARC
  8
0_00
  6
DASHED
 62
6
 10
616.7320
 20
820.6684
 40
0.5000
 50
333.0422
 51
450.0000
  0
ARC
  8
0_00
  6
DASHED
 62
6
 10
615.5745
 20
820.6684
 40
0.5000
 50
90.0000
 51
180.0000
  0
ARC
  8
0_00
  6
CONTINUOUS
 62
3
 10
3632.2531
 20
240.7876
 40
1.7875
 50
270.0000
 51
450.0000
  0
ARC
  8
0_00
  6
CONTINUOUS
 62
3
 10
3627.2806
 20
256.8752
 40
2.1775
 50
0.0000
 51
180.0000
  0
ARC
  8
0_00
  6
CONTINUOUS
 62
3
 10
3630.6284
 20
278.0002
 40
6.5001
 50
333.9999
 51
450.0000
  0
CIRCLE
  8
0_00
  6
CONTINUOUS
 62
3
 10
3633.5532
 20
291.0001
 40
5.2000
  0
ARC
  8
0_00
  6
CONTINUOUS
 62
3
 10
3627.6035
 20
256.8752
 40
1.5000
 50
0.0000
 51
180.0000
  0
ARC
  8
0_00
  6
CONTINUOUS
 62
3
 10
3627.6035
 20
256.8752
 40
0.5000
 50
0.0000
 51
180.0000
  0
ARC
  8
0_00
  6
CONTINUOUS
 62
3
 10
3632.2531
 20
240.5752
 40
1.0000
 50
270.0000
 51
450.0000
  0
CIRCLE
  8
0_00
  6
CONTINUOUS
 62
3
 10
3633.5532
 20
291.0001
 40
4.4148
  0
CIRCLE
  8
0_00
  6
CONTINUOUS
 62
3
 10
3633.5532
 20
291.0001
 40
3.4185
  0
CIRCLE
  8
0_00
  6
CONTINUOUS
 62
3
 10
3633.5532
 20
291.0001
 40
2.3422
  0
CIRCLE
  8
0_00
  6
CONTINUOUS
 62
3
 10
3633.5532
 20
291.0001
 40
1.1467
  0
CIRCLE
  8
0_00
  6
CONTINUOUS
 62
3
 10
3633.5532
 20
291.0001
 40
0.5665
  0
CIRCLE
  8
0_00
  6
CONTINUOUS
 62
4
 10
2936.8030
 20
274.0002
 40
12.5000
  0
CIRCLE
  8
0_00
  6
CONTINUOUS
 62
4
 10
2936.8030
 20
274.0002
 40
20.0000
  0
TEXT
  8
15_0F
 62
7
 10
2747.2034
 20
234.0001
 40
25.00
 41
1.00
 50
0.0000
  1
１
  0
TEXT
  8
15_0F
 62
7
 10
2830.2036
 20
234.0001
 40
25.00
 41
1.00
 50
0.0000
  1
１０
  0
TEXT
  8
15_0F
 62
7
 10
2347.7034
 20
249.0001
 40
25.00
 41
1.00
 50
0.0000
  1
納まり図
  0
TEXT
  8
15_0F
 62
7
 10
1693.7033
 20
139.0001
 40
25.00
 41
1.00
 50
0.0000
  1
ＲＣ造
  0
TEXT
  8
15_0F
 62
7
 10
1657.7032
 20
239.0001
 40
25.00
 41
1.00
 50
0.0000
  1
低・中・高層
  0
TEXT
  8
15_0F
 62
7
 10
1920.2032
 20
239.0001
 40
25.00
 41
1.00
 50
0.0000
  1
アルミ手すり
  0
TEXT
  8
15_0F
 62
7
 10
1920.5367
 20
141.5001
 40
20.00
 41
1.00
 50
0.0000
  1
Ｋ、Ｄ型
  0
TEXT
  8
15_0F
 62
7
 10
2105.7033
 20
151.5001
 40
20.00
 41
1.00
 50
0.0000
  1
床支持標準手すり［コーナー部］（直線格子）後付工法納まり図
  0
TEXT
  8
15_0F
 62
7
 10
670.3016
 20
334.0002
 40
25.00
 41
1.00
 50
0.0000
  1
1）Ｈ、Ｈ１、Ｌ、ＬＣは発注寸法とする。
  0
TEXT
  8
0_00
 62
7
 10
290.7263
 20
1236.1974
 40
25.00
 41
1.00
 50
0.0000
  1
胴縁９０度コーナー金具
  0
TEXT
  8
0_00
 62
7
 10
252.3244
 20
2516.7390
 40
25.00
 41
1.00
 50
0.0000
  1
Ｄ型笠木９０度コーナー金具
  0
TEXT
  8
15_0F
 62
7
 10
319.3697
 20
2382.2377
 40
25.00
 41
1.00
 50
0.0000
  1
［Ｄ型］
  0
TEXT
  8
15_0F
 62
7
 10
319.3697
 20
1892.0354
 40
25.00
 41
1.00
 50
0.0000
  1
［Ｋ型］
  0
TEXT
  8
0_00
 62
7
 10
1225.8698
 20
658.0246
 40
20.00
 41
1.00
 50
0.0000
  1
1１0～１２１　
  0
TEXT
  8
0_00
 62
7
 10
1418.3699
 20
658.0246
 40
20.00
 41
1.00
 50
0.0000
  1
１５８．５～２２２
  0
TEXT
  8
0_00
 62
7
 10
1620.8698
 20
658.0246
 40
20.00
 41
1.00
 50
0.0000
  1
２８５．５～３４９
  0
TEXT
  8
0_00
 62
7
 10
1823.3698
 20
658.0246
 40
20.00
 41
1.00
 50
0.0000
  1
４１２．５～４７６
  0
TEXT
  8
0_00
 62
7
 10
1700.8698
 20
586.6912
 40
20.00
 41
1.00
 50
0.0000
  1
２
  0
TEXT
  8
0_00
 62
7
 10
1903.3698
 20
586.6912
 40
20.00
 41
1.00
 50
0.0000
  1
３
  0
TEXT
  8
0_00
 62
7
 10
1295.8698
 20
586.6912
 40
20.00
 41
1.00
 50
0.0000
  1
０
  0
TEXT
  8
0_00
 62
7
 10
1498.3698
 20
586.6912
 40
20.00
 41
1.00
 50
0.0000
  1
１
  0
TEXT
  8
0_00
 62
7
 10
904.4532
 20
658.0246
 40
20.00
 41
1.00
 50
0.0000
  1
ＬＣ（コーナースパン）寸法
  0
TEXT
  8
0_00
 62
7
 10
974.4532
 20
586.6912
 40
20.00
 41
1.00
 50
0.0000
  1
直線格子本数
  0
TEXT
  8
0_00
 62
7
 10
252.3244
 20
2026.5367
 40
25.00
 41
1.00
 50
0.0000
  1
Ｋ型笠木９０度コーナー金具
  0
TEXT
  8
0_00
 62
7
 10
727.0301
 20
870.2811
 40
25.00
 41
1.00
 50
0.0000
  1
間柱基礎金具
  0
TEXT
  8
0_00
 62
7
 10
959.7453
 20
2597.7271
 40
25.00
 41
1.00
 50
0.0000
  1
Ｄ型笠木９０度コーナー金具
  0
TEXT
  8
0_00
 62
7
 10
980.1709
 20
2201.0065
 40
25.00
 41
1.00
 50
0.0000
  1
胴縁９０度コーナー金具
  0
TEXT
  8
0_00
 62
7
 10
980.1709
 20
1710.7822
 40
25.00
 41
1.00
 50
0.0000
  1
胴縁９０度コーナー金具
  0
TEXT
  8
0_00
 62
7
 10
962.1356
 20
2109.9310
 40
25.00
 41
1.00
 50
0.0000
  1
Ｋ型笠木９０度コーナー金具
  0
TEXT
  8
0_00
 62
7
 10
234.3016
 20
134.0002
 40
25.00
 41
1.00
 50
0.0000
  1
適用製品
  0
TEXT
  8
0_00
 62
7
 10
434.3016
 20
134.0002
 40
25.00
 41
1.00
 50
0.0000
  1
適用日付
  0
TEXT
  8
0_00
 62
7
 10
595.3016
 20
334.0002
 40
25.00
 41
1.00
 50
0.0000
  1
記事
  0
TEXT
  8
0_00
 62
7
 10
1575.2032
 20
284.0002
 40
25.00
 41
1.00
 50
0.0000
  1
階層仕様
  0
TEXT
  8
0_00
 62
7
 10
1575.2032
 20
184.0001
 40
25.00
 41
1.00
 50
0.0000
  1
適用躯体
  0
TEXT
  8
0_00
 62
7
 10
2100.2031
 20
284.0002
 40
25.00
 41
1.00
 50
0.0000
  1
名　称
  0
TEXT
  8
0_00
 62
7
 10
2100.2031
 20
184.0001
 40
25.00
 41
1.00
 50
0.0000
  1
図　名
  0
TEXT
  8
0_00
 62
7
 10
2716.4557
 20
334.1526
 40
25.00
 41
1.00
 50
0.0000
  1
Ｎｏ．
  0
TEXT
  8
0_00
 62
7
 10
3745.2032
 20
334.0002
 40
25.00
 41
1.00
 50
0.0000
  1
適　　　　　　　　用
  0
TEXT
  8
0_00
 62
7
 10
3594.7037
 20
334.0002
 40
25.00
 41
1.00
 50
0.0000
  1
個数
  0
TEXT
  8
0_00
 62
7
 10
3410.7034
 20
334.0002
 40
25.00
 41
1.00
 50
0.0000
  1
材　　質
  0
TEXT
  8
0_00
 62
7
 10
3087.2034
 20
334.0002
 40
25.00
 41
1.00
 50
0.0000
  1
部　　　品　　　名
  0
TEXT
  8
0_00
 62
7
 10
2986.4532
 20
334.0002
 40
25.00
 41
1.00
 50
0.0000
  1
品番
  0
TEXT
  8
0_00
 62
7
 10
2836.2036
 20
334.0002
 40
25.00
 41
1.00
 50
0.0000
  1
図　　番
  0
TEXT
  8
0_00
 62
7
 10
2722.2034
 20
284.0002
 40
25.00
 41
1.00
 50
0.0000
  1
尺度
  0
TEXT
  8
0_00
 62
7
 10
2722.2034
 20
184.0001
 40
25.00
 41
1.00
 50
0.0000
  1
日付
  0
TEXT
  8
0_00
 62
7
 10
3094.6469
 20
284.0002
 40
25.00
 41
1.00
 50
0.0000
  1
承認
  0
TEXT
  8
0_00
 62
7
 10
3235.2032
 20
284.0002
 40
25.00
 41
1.00
 50
0.0000
  1
検図
  0
TEXT
  8
0_00
 62
7
 10
3356.2033
 20
284.0002
 40
25.00
 41
1.00
 50
0.0000
  1
設計
  0
TEXT
  8
0_00
 62
7
 10
3480.7034
 20
284.0002
 40
25.00
 41
1.00
 50
0.0000
  1
製図
  0
TEXT
  8
0_00
 62
7
 10
3581.7032
 20
184.0001
 40
25.00
 41
1.00
 50
0.0000
  1
図番
  0
TEXT
  8
0_00
 62
2
 10
3679.7394
 20
247.4502
 40
40.00
 41
1.00
 50
0.0000
  1
文化シヤッター株式会社
  0
TEXT
  8
0_00
 62
7
 10
669.3016
 20
2876.4999
 40
25.00
 41
1.00
 50
180.0000
  1
図番
  0
TEXT
  8
0_00
 62
7
 10
2663.5034
 20
2846.7230
 40
20.00
 41
1.00
 50
0.0000
  1
ＮＯ
  0
TEXT
  8
0_00
 62
7
 10
2750.7034
 20
2846.5002
 40
25.00
 41
1.00
 50
0.0000
  1
個　数
  0
TEXT
  8
0_00
 62
7
 10
2901.2033
 20
2846.5002
 40
25.00
 41
1.00
 50
0.0000
  1
日　　付
  0
TEXT
  8
0_00
 62
7
 10
3280.7034
 20
2846.5002
 40
25.00
 41
1.00
 50
0.0000
  1
訂　　　正　　　記　　　事
  0
TEXT
  8
0_00
 62
7
 10
2794.7034
 20
234.0001
 40
22.50
 41
0.75
 50
0.0000
  1
:
  0
TEXT
  8
0_00
 62
7
 10
3792.9041
 20
89.0001
 40
20.00
 41
1.00
 50
0.0000
  1
ＪＩＳ　Ａ－３
  0
TEXT
  8
0_00
 62
7
 10
3931.6614
 20
88.9943
 40
20.00
 41
1.00
 50
0.0000
  1
（２９７×４２０）
  0
TEXT
  8
0_00
 62
7
 10
3843.7033
 20
2846.5002
 40
25.00
 41
1.00
 50
0.0000
  1
担　当
  0
TEXT
  8
0_00
 62
7
 10
3963.7033
 20
2846.5002
 40
25.00
 41
1.00
 50
0.0000
  1
承　認
  0
TEXT
  8
0_00
 62
7
 10
1837.7032
 20
284.0002
 40
25.00
 41
1.00
 50
0.0000
  1
機種名
  0
TEXT
  8
0_00
 62
7
 10
1837.7032
 20
184.0001
 40
25.00
 41
1.00
 50
0.0000
  1
型　式
  0
TEXT
  8
0_00
 62
7
 10
1673.6502
 20
453.8420
 40
25.00
 41
1.00
 50
0.0000
  1
平面図（１：１０）
  0
TEXT
  8
0_00
 62
7
 10
410.0000
 20
928.4685
 40
25.00
 41
1.00
 50
90.0000
  1
ＬＣ
  0
TEXT
  8
0_00
 62
7
 10
1820.4825
 20
1605.1204
 40
25.00
 41
1.00
 50
0.0000
  1
外観姿図（１：２０）
  0
TEXT
  8
0_00
 62
7
 10
560.0745
 20
1340.0000
 40
22.50
 41
0.75
 50
0.0000
  1
31
  0
TEXT
  8
0_00
 62
7
 10
1039.9999
 20
932.0000
 40
22.50
 41
0.75
 50
90.0000
  1
60
  0
TEXT
  8
0_00
 62
7
 10
899.9999
 20
2465.6210
 40
22.50
 41
0.75
 50
90.0000
  1
80
  0
TEXT
  8
0_00
 62
7
 10
560.0745
 20
2585.0000
 40
22.50
 41
0.75
 50
0.0000
  1
41
  0
TEXT
  8
0_00
 62
7
 10
1375.0691
 20
2740.0000
 40
22.50
 41
0.75
 50
0.0000
  1
LC
  0
TEXT
  8
0_00
 62
7
 10
1579.0691
 20
2740.0000
 40
25.00
 41
1.00
 50
0.0000
  1
２５０≦Ｌ≦１８２０
  0
TEXT
  8
0_00
 62
7
 10
1365.8191
 20
2670.0000
 40
22.50
 41
0.75
 50
0.0000
  1
127
  0
TEXT
  8
0_00
 62
7
 10
1179.9999
 20
1911.3573
 40
25.00
 41
1.00
 50
90.0000
  1
Ｈ１
  0
TEXT
  8
0_00
 62
7
 10
899.9999
 20
1975.4185
 40
22.50
 41
0.75
 50
90.0000
  1
60
  0
TEXT
  8
0_00
 62
7
 10
560.0745
 20
2109.9997
 40
22.50
 41
0.75
 50
0.0000
  1
31
  0
TEXT
  8
0_00
 62
7
 10
1375.8681
 20
1607.1251
 40
25.00
 41
1.00
 50
0.0000
  1
二段手すりは製作できません。
  0
TEXT
  8
0_00
 62
7
 10
764.0746
 20
1410.0000
 40
25.00
 41
1.00
 50
0.0000
  1
ＬＣ
  0
TEXT
  8
0_00
 62
7
 10
1147.0744
 20
1410.0000
 40
25.00
 41
1.00
 50
0.0000
  1
２５０≦Ｌ（柱スパン寸法）≦１８２０
  0
TEXT
  8
0_00
 62
7
 10
1109.9999
 20
2388.5596
 40
25.00
 41
1.00
 50
90.0000
  1
Ｈ
  0
TEXT
  8
0_00
 62
7
 10
1179.9999
 20
2401.5596
 40
25.00
 41
1.00
 50
90.0000
  1
Ｈ１
  0
TEXT
  8
0_00
 62
7
 10
1109.9999
 20
1898.3572
 40
25.00
 41
1.00
 50
90.0000
  1
Ｈ
  0
TEXT
  8
0_00
 62
7
 10
874.2437
 20
725.0789
 40
25.00
 41
1.00
 50
0.0000
  1
寸法表（笠木全幅対応）
  0
POINT
  8
0_00
 62
2
 10
1470.5690
 20
2304.0594
  0
POINT
  8
0_00
 62
2
 10
1927.5691
 20
2304.0594
  0
POINT
  8
0_00
 62
2
 10
1470.5690
 20
1813.8571
  0
POINT
  8
0_00
 62
2
 10
1927.5691
 20
1813.8571
  0
POINT
  8
0_00
 62
5
 10
0.0000
 20
0.0000
  0
POINT
  8
0_00
 62
2
 10
1470.5690
 20
2264.3094
  0
POINT
  8
0_00
 62
2
 10
1470.5690
 20
2264.3094
  0
POINT
  8
0_00
 62
2
 10
1927.5691
 20
2264.3094
  0
POINT
  8
0_00
 62
2
 10
1927.5691
 20
2264.3094
  0
POINT
  8
0_00
 62
2
 10
1470.5690
 20
1774.1071
  0
POINT
  8
0_00
 62
2
 10
1470.5690
 20
1774.1071
  0
POINT
  8
0_00
 62
2
 10
1927.5691
 20
1774.1071
  0
POINT
  8
0_00
 62
2
 10
1927.5691
 20
1774.1071
  0
POINT
  8
0_00
 62
2
 10
80.3016
 20
49.9968
  0
POINT
  8
0_00
 62
2
 10
80.3016
 20
49.9968
  0
POINT
  8
0_00
 62
2
 10
282.3016
 20
199.0002
  0
POINT
  8
0_00
 62
2
 10
282.3016
 20
249.0002
  0
POINT
  8
0_00
 62
2
 10
282.3016
 20
299.0002
  0
POINT
  8
0_00
 62
2
 10
282.3016
 20
349.0002
  0
POINT
  8
0_00
 62
2
 10
1729.7034
 20
254.0001
  0
POINT
  8
0_00
 62
2
 10
1729.7034
 20
154.0001
  0
POINT
  8
0_00
 62
2
 10
2395.7031
 20
264.0001
  0
POINT
  8
0_00
 62
2
 10
2395.7031
 20
164.0001
  0
POINT
  8
0_00
 62
2
 10
3659.2035
 20
174.0001
  0
POINT
  8
0_00
 62
2
 10
3380.2032
 20
199.0002
  0
POINT
  8
0_00
 62
2
 10
482.3016
 20
199.0002
  0
POINT
  8
0_00
 62
2
 10
482.3016
 20
249.0002
  0
POINT
  8
0_00
 62
2
 10
482.3016
 20
299.0002
  0
POINT
  8
0_00
 62
2
 10
482.3016
 20
349.0002
  0
POINT
  8
0_00
 62
2
 10
2854.2035
 20
249.0001
  0
POINT
  8
0_00
 62
2
 10
2759.2035
 20
249.0001
  0
POINT
  8
0_00
 62
2
 10
682.3016
 20
349.0002
  0
POINT
  8
0_00
 62
2
 10
682.3016
 20
299.0002
  0
POINT
  8
0_00
 62
2
 10
682.3016
 20
249.0002
  0
POINT
  8
0_00
 62
2
 10
682.3016
 20
199.0002
  0
POINT
  8
0_00
 62
2
 10
682.3016
 20
149.0002
  0
POINT
  8
0_00
 62
2
 10
3504.7034
 20
199.0002
  0
POINT
  8
0_00
 62
2
 10
282.3016
 20
149.0002
  0
POINT
  8
0_00
 62
2
 10
482.3016
 20
149.0002
  0
POINT
  8
0_00
 62
2
 10
582.3016
 20
2861.4996
  0
POINT
  8
0_00
 62
2
 10
2875.4535
 20
164.0001
  0
POINT
  8
0_00
 62
2
 10
1992.2032
 20
254.0001
  0
POINT
  8
0_00
 62
2
 10
1992.2032
 20
154.0001
  0
ENDSEC
  0
EOF
